  0
SECTION
  2
HEADER
  9
$ACADVER
  1
AC1015
  9
$ACADMAINTVER
 70
    20
  9
$DWGCODEPAGE
  3
ANSI_950
  9
$INSBASE
 10
0.0
 20
0.0
 30
0.0
  9
$EXTMIN
 10
-33.3303828569583
 20
-59.87332087095007
 30
-0.0000000000000206
  9
$EXTMAX
 10
314.3779164227205
 20
161.8366408236878
 30
0.0000000000000099
  9
$LIMMIN
 10
-10.0
 20
-15.0
  9
$LIMMAX
 10
120.0
 20
90.0
  9
$ORTHOMODE
 70
     1
  9
$REGENMODE
 70
     0
  9
$FILLMODE
 70
     1
  9
$QTEXTMODE
 70
     0
  9
$MIRRTEXT
 70
     0
  9
$LTSCALE
 40
2.0
  9
$ATTMODE
 70
     1
  9
$TEXTSIZE
 40
3.0
  9
$TRACEWID
 40
1.0
  9
$TEXTSTYLE
  7
STANDARD
  9
$CLAYER
  8
0
  9
$CELTYPE
  6
ByLayer
  9
$CECOLOR
 62
   256
  9
$CELTSCALE
 40
1.0
  9
$DISPSILH
 70
     0
  9
$DIMSCALE
 40
1.0
  9
$DIMASZ
 40
3.0
  9
$DIMEXO
 40
1.0
  9
$DIMDLI
 40
6.0
  9
$DIMRND
 40
0.0
  9
$DIMDLE
 40
0.0
  9
$DIMEXE
 40
1.0
  9
$DIMTP
 40
0.0
  9
$DIMTM
 40
0.0
  9
$DIMTXT
 40
3.0
  9
$DIMCEN
 40
1.5
  9
$DIMTSZ
 40
0.0
  9
$DIMTOL
 70
     0
  9
$DIMLIM
 70
     0
  9
$DIMTIH
 70
     1
  9
$DIMTOH
 70
     1
  9
$DIMSE1
 70
     0
  9
$DIMSE2
 70
     0
  9
$DIMTAD
 70
     0
  9
$DIMZIN
 70
     0
  9
$DIMBLK
  1

  9
$DIMASO
 70
     1
  9
$DIMSHO
 70
     0
  9
$DIMPOST
  1

  9
$DIMAPOST
  1

  9
$DIMALT
 70
     0
  9
$DIMALTD
 70
     2
  9
$DIMALTF
 40
25.4
  9
$DIMLFAC
 40
1.0
  9
$DIMTOFL
 70
     1
  9
$DIMTVP
 40
0.0
  9
$DIMTIX
 70
     0
  9
$DIMSOXD
 70
     0
  9
$DIMSAH
 70
     0
  9
$DIMBLK1
  1

  9
$DIMBLK2
  1

  9
$DIMSTYLE
  2
Standard
  9
$DIMCLRD
 70
     0
  9
$DIMCLRE
 70
     0
  9
$DIMCLRT
 70
     0
  9
$DIMTFAC
 40
1.0
  9
$DIMGAP
 40
0.09
  9
$DIMJUST
 70
     0
  9
$DIMSD1
 70
     0
  9
$DIMSD2
 70
     0
  9
$DIMTOLJ
 70
     1
  9
$DIMTZIN
 70
     0
  9
$DIMALTZ
 70
     0
  9
$DIMALTTZ
 70
     0
  9
$DIMUPT
 70
     0
  9
$DIMDEC
 70
     8
  9
$DIMTDEC
 70
     8
  9
$DIMALTU
 70
     2
  9
$DIMALTTD
 70
     2
  9
$DIMTXSTY
  7
STANDARD
  9
$DIMAUNIT
 70
     0
  9
$DIMADEC
 70
     0
  9
$DIMALTRND
 40
0.0
  9
$DIMAZIN
 70
     0
  9
$DIMDSEP
 70
    46
  9
$DIMATFIT
 70
     3
  9
$DIMFRAC
 70
     0
  9
$DIMLDRBLK
  1

  9
$DIMLUNIT
 70
     2
  9
$DIMLWD
 70
    -2
  9
$DIMLWE
 70
    -2
  9
$DIMTMOVE
 70
     2
  9
$LUNITS
 70
     2
  9
$LUPREC
 70
     4
  9
$SKETCHINC
 40
0.5
  9
$FILLETRAD
 40
0.0
  9
$AUNITS
 70
     0
  9
$AUPREC
 70
     0
  9
$MENU
  1
ACAD
  9
$ELEVATION
 40
0.0
  9
$PELEVATION
 40
0.0
  9
$THICKNESS
 40
0.0
  9
$LIMCHECK
 70
     0
  9
$CHAMFERA
 40
0.0
  9
$CHAMFERB
 40
0.0
  9
$CHAMFERC
 40
0.0
  9
$CHAMFERD
 40
0.0
  9
$SKPOLY
 70
     0
  9
$TDCREATE
 40
2444975.333333334
  9
$TDUCREATE
 40
2444975.000000000
  9
$TDUPDATE
 40
2454358.627278704
  9
$TDUUPDATE
 40
2454358.293945370
  9
$TDINDWG
 40
0.1300506366
  9
$TDUSRTIMER
 40
0.0000000000
  9
$USRTIMER
 70
     0
  9
$ANGBASE
 50
0.0
  9
$ANGDIR
 70
     0
  9
$PDMODE
 70
     0
  9
$PDSIZE
 40
0.001
  9
$PLINEWID
 40
0.0
  9
$SPLFRAME
 70
     0
  9
$SPLINETYPE
 70
     6
  9
$SPLINESEGS
 70
     8
  9
$HANDSEED
  5
59FC
  9
$SURFTAB1
 70
     6
  9
$SURFTAB2
 70
     6
  9
$SURFTYPE
 70
     6
  9
$SURFU
 70
     6
  9
$SURFV
 70
     6
  9
$UCSBASE
  2

  9
$UCSNAME
  2

  9
$UCSORG
 10
0.0
 20
0.0
 30
0.0
  9
$UCSXDIR
 10
1.0
 20
0.0
 30
0.0
  9
$UCSYDIR
 10
0.0
 20
1.0
 30
0.0
  9
$UCSORTHOREF
  2

  9
$UCSORTHOVIEW
 70
     1
  9
$UCSORGTOP
 10
0.0
 20
0.0
 30
0.0
  9
$UCSORGBOTTOM
 10
0.0
 20
0.0
 30
0.0
  9
$UCSORGLEFT
 10
0.0
 20
0.0
 30
0.0
  9
$UCSORGRIGHT
 10
0.0
 20
0.0
 30
0.0
  9
$UCSORGFRONT
 10
0.0
 20
0.0
 30
0.0
  9
$UCSORGBACK
 10
0.0
 20
0.0
 30
0.0
  9
$PUCSBASE
  2

  9
$PUCSNAME
  2

  9
$PUCSORG
 10
0.0
 20
0.0
 30
0.0
  9
$PUCSXDIR
 10
1.0
 20
0.0
 30
0.0
  9
$PUCSYDIR
 10
0.0
 20
1.0
 30
0.0
  9
$PUCSORTHOREF
  2

  9
$PUCSORTHOVIEW
 70
     0
  9
$PUCSORGTOP
 10
0.0
 20
0.0
 30
0.0
  9
$PUCSORGBOTTOM
 10
0.0
 20
0.0
 30
0.0
  9
$PUCSORGLEFT
 10
0.0
 20
0.0
 30
0.0
  9
$PUCSORGRIGHT
 10
0.0
 20
0.0
 30
0.0
  9
$PUCSORGFRONT
 10
0.0
 20
0.0
 30
0.0
  9
$PUCSORGBACK
 10
0.0
 20
0.0
 30
0.0
  9
$USERI1
 70
     0
  9
$USERI2
 70
     0
  9
$USERI3
 70
     0
  9
$USERI4
 70
     0
  9
$USERI5
 70
     0
  9
$USERR1
 40
0.0
  9
$USERR2
 40
0.0
  9
$USERR3
 40
0.0
  9
$USERR4
 40
0.0
  9
$USERR5
 40
0.0
  9
$WORLDVIEW
 70
     1
  9
$SHADEDGE
 70
     3
  9
$SHADEDIF
 70
    70
  9
$TILEMODE
 70
     1
  9
$MAXACTVP
 70
    48
  9
$PINSBASE
 10
0.0
 20
0.0
 30
0.0
  9
$PLIMCHECK
 70
     0
  9
$PEXTMIN
 10
1.000000000000000E+20
 20
1.000000000000000E+20
 30
1.000000000000000E+20
  9
$PEXTMAX
 10
-1.000000000000000E+20
 20
-1.000000000000000E+20
 30
-1.000000000000000E+20
  9
$PLIMMIN
 10
0.0
 20
0.0
  9
$PLIMMAX
 10
12.0
 20
9.0
  9
$UNITMODE
 70
     0
  9
$VISRETAIN
 70
     1
  9
$PLINEGEN
 70
     0
  9
$PSLTSCALE
 70
     0
  9
$TREEDEPTH
 70
  3020
  9
$CMLSTYLE
  2
Standard
  9
$CMLJUST
 70
     0
  9
$CMLSCALE
 40
1.0
  9
$PROXYGRAPHICS
 70
     1
  9
$MEASUREMENT
 70
     0
  9
$CELWEIGHT
370
    -1
  9
$ENDCAPS
280
     0
  9
$JOINSTYLE
280
     0
  9
$LWDISPLAY
290
     0
  9
$INSUNITS
 70
     0
  9
$HYPERLINKBASE
  1

  9
$STYLESHEET
  1

  9
$XEDIT
290
     1
  9
$CEPSNTYPE
380
     0
  9
$PSTYLEMODE
290
     1
  9
$FINGERPRINTGUID
  2
{77095E5F-9CE7-11D7-970D-0040F4541FA8}
  9
$VERSIONGUID
  2
{3F7F0D95-9DD8-4831-AFDB-1D93AADCCD90}
  9
$EXTNAMES
290
     1
  9
$PSVPSCALE
 40
0.0
  9
$OLESTARTUP
290
     0
  0
ENDSEC
  0
SECTION
  2
CLASSES
  0
CLASS
  1
ACDBDICTIONARYWDFLT
  2
AcDbDictionaryWithDefault
  3
ObjectDBX Classes
 90
        0
280
     0
281
     0
  0
CLASS
  1
ACDBPLACEHOLDER
  2
AcDbPlaceHolder
  3
ObjectDBX Classes
 90
        0
280
     0
281
     0
  0
CLASS
  1
LAYOUT
  2
AcDbLayout
  3
ObjectDBX Classes
 90
        0
280
     0
281
     0
  0
CLASS
  1
DICTIONARYVAR
  2
AcDbDictionaryVar
  3
ObjectDBX Classes
 90
        0
280
     0
281
     0
  0
CLASS
  1
PLOTSETTINGS
  2
AcDbPlotSettings
  3
ObjectDBX Classes
 90
        0
280
     0
281
     0
  0
CLASS
  1
TABLESTYLE
  2
AcDbTableStyle
  3
ObjectDBX Classes
 90
     4095
280
     0
281
     0
  0
CLASS
  1
MATERIAL
  2
AcDbMaterial
  3
ObjectDBX Classes
 90
        0
280
     0
281
     0
  0
CLASS
  1
VISUALSTYLE
  2
AcDbVisualStyle
  3
ObjectDBX Classes
 90
     4095
280
     0
281
     0
  0
ENDSEC
  0
SECTION
  2
TABLES
  0
TABLE
  2
VPORT
  5
8
330
0
100
AcDbSymbolTable
 70
     2
  0
VPORT
  5
59F1
330
8
100
AcDbSymbolTableRecord
100
AcDbViewportTableRecord
  2
*Active
 70
     0
 10
0.0
 20
0.0
 11
1.0
 21
1.0
 12
140.5237667828811
 22
50.98165997636887
 13
457.9999999999997
 23
1082.0
 14
10.0
 24
10.0
 15
10.0
 25
10.0
 16
0.0
 26
0.0
 36
1.0
 17
0.0
 27
0.0
 37
0.0
 40
230.4159335249001
 41
1.516709511568123
 42
1.0
 43
0.0
 44
0.0
 50
0.0
 51
0.0
 71
     0
 72
 20000
 73
     1
 74
     1
 75
     0
 76
     0
 77
     0
 78
     0
281
     0
 65
     1
110
0.0
120
0.0
130
0.0
111
1.0
121
0.0
131
0.0
112
0.0
122
1.0
132
0.0
 79
     0
146
0.0
  0
ENDTAB
  0
TABLE
  2
LTYPE
  5
5
330
0
100
AcDbSymbolTable
 70
     3
  0
LTYPE
  5
13
330
5
100
AcDbSymbolTableRecord
100
AcDbLinetypeTableRecord
  2
ByBlock
 70
     0
  3

 72
    65
 73
     0
 40
0.0
  0
LTYPE
  5
14
330
5
100
AcDbSymbolTableRecord
100
AcDbLinetypeTableRecord
  2
ByLayer
 70
     0
  3

 72
    65
 73
     0
 40
0.0
  0
LTYPE
  5
59EC
330
5
100
AcDbSymbolTableRecord
100
AcDbLinetypeTableRecord
  2
Continuous
 70
     0
  3
Solid line
 72
    65
 73
     0
 40
0.0
  0
LTYPE
  5
413C
330
5
100
AcDbSymbolTableRecord
100
AcDbLinetypeTableRecord
  2
CENTER2
 70
     0
  3
Center (.5x) ___ _ ___ _ ___ _ ___ _ ___ _ ___
 72
    65
 73
     4
 40
28.575
 49
19.05
 74
     0
 49
-3.174999999999998
 74
     0
 49
3.174999999999998
 74
     0
 49
-3.174999999999998
 74
     0
  0
LTYPE
  5
413D
330
5
100
AcDbSymbolTableRecord
100
AcDbLinetypeTableRecord
  2
DASHED2
 70
     0
  3
Dashed (.5x) _ _ _ _ _ _ _ _ _ _ _ _ _ _ _ _ _
 72
    65
 73
     2
 40
9.524999999999996
 49
6.349999999999998
 74
     0
 49
-3.174999999999998
 74
     0
  0
ENDTAB
  0
TABLE
  2
LAYER
  5
2
102
{ACAD_XDICTIONARY
360
43C2
102
}
330
0
100
AcDbSymbolTable
 70
     6
  0
LAYER
  5
10
330
2
100
AcDbSymbolTableRecord
100
AcDbLayerTableRecord
  2
0
 70
     0
 62
     7
  6
Continuous
370
    -3
390
F
  0
LAYER
  5
413E
330
2
100
AcDbSymbolTableRecord
100
AcDbLayerTableRecord
  2
指線
 70
     0
 62
     3
  6
Continuous
370
    15
390
F
  0
LAYER
  5
413F
330
2
100
AcDbSymbolTableRecord
100
AcDbLayerTableRecord
  2
中心線
 70
     0
 62
     4
  6
CENTER2
370
    20
390
F
  0
LAYER
  5
4140
330
2
100
AcDbSymbolTableRecord
100
AcDbLayerTableRecord
  2
虛線
 70
     0
 62
     6
  6
DASHED2
290
     0
370
    -3
390
F
  0
LAYER
  5
43B4
330
2
100
AcDbSymbolTableRecord
100
AcDbLayerTableRecord
  2
建構線
 70
     0
 62
     1
  6
Continuous
370
    -3
390
F
  0
LAYER
  5
5527
330
2
100
AcDbSymbolTableRecord
100
AcDbLayerTableRecord
  2
Defpoints
 70
     0
 62
     7
  6
Continuous
290
     0
370
    -3
390
F
  0
ENDTAB
  0
TABLE
  2
STYLE
  5
3
330
0
100
AcDbSymbolTable
 70
     1
  0
STYLE
  5
11
330
3
100
AcDbSymbolTableRecord
100
AcDbTextStyleTableRecord
  2
STANDARD
 70
     0
 40
0.0
 41
1.0
 50
0.0
 71
     0
 42
3.0
  3

  4

  0
ENDTAB
  0
TABLE
  2
VIEW
  5
6
330
0
100
AcDbSymbolTable
 70
     0
  0
ENDTAB
  0
TABLE
  2
UCS
  5
7
330
0
100
AcDbSymbolTable
 70
     0
  0
ENDTAB
  0
TABLE
  2
APPID
  5
9
330
0
100
AcDbSymbolTable
 70
     5
  0
APPID
  5
12
330
9
100
AcDbSymbolTableRecord
100
AcDbRegAppTableRecord
  2
ACAD
 70
     0
  0
APPID
  5
230
330
9
100
AcDbSymbolTableRecord
100
AcDbRegAppTableRecord
  2
TCAD
 70
     0
  0
APPID
  5
4142
330
9
100
AcDbSymbolTableRecord
100
AcDbRegAppTableRecord
  2
CONTENTBLOCKICON
 70
     0
  0
APPID
  5
530C
330
9
100
AcDbSymbolTableRecord
100
AcDbRegAppTableRecord
  2
pntflag
 70
     0
  0
APPID
  5
59B4
330
9
100
AcDbSymbolTableRecord
100
AcDbRegAppTableRecord
  2
ACAD_EXEMPT_FROM_CAD_STANDARDS
 70
     0
  0
ENDTAB
  0
TABLE
  2
DIMSTYLE
  5
A
330
0
100
AcDbSymbolTable
 70
     1
100
AcDbDimStyleTable
 71
     1
340
3C9D
  0
DIMSTYLE
105
3C9D
330
A
100
AcDbSymbolTableRecord
100
AcDbDimStyleTableRecord
  2
Standard
 70
     0
271
     8
272
     8
340
11
  0
ENDTAB
  0
TABLE
  2
BLOCK_RECORD
  5
1
330
0
100
AcDbSymbolTable
 70
     0
  0
BLOCK_RECORD
  5
1E
102
{ACAD_XDICTIONARY
360
3D1E
102
}
330
1
100
AcDbSymbolTableRecord
100
AcDbBlockTableRecord
  2
*Model_Space
340
21
  0
BLOCK_RECORD
  5
1A
102
{ACAD_XDICTIONARY
360
3D20
102
}
330
1
100
AcDbSymbolTableRecord
100
AcDbBlockTableRecord
  2
*Paper_Space
340
1D
  0
ENDTAB
  0
ENDSEC
  0
SECTION
  2
BLOCKS
  0
BLOCK
  5
254
330
1E
100
AcDbEntity
  8
0
100
AcDbBlockBegin
  2
*Model_Space
 70
     0
 10
0.0
 20
0.0
 30
0.0
  3
*Model_Space
  1

  0
ENDBLK
  5
255
330
1E
100
AcDbEntity
  8
0
100
AcDbBlockEnd
  0
BLOCK
  5
252
330
1A
100
AcDbEntity
 67
     1
  8
0
100
AcDbBlockBegin
  2
*Paper_Space
 70
     0
 10
0.0
 20
0.0
 30
0.0
  3
*Paper_Space
  1

  0
ENDBLK
  5
253
330
1A
100
AcDbEntity
 67
     1
  8
0
100
AcDbBlockEnd
  0
ENDSEC
  0
SECTION
  2
ENTITIES
  0
MTEXT
  5
413A
330
1E
100
AcDbEntity
  8
0
100
AcDbMText
 10
-32.90233812526027
 20
-21.46595082896141
 30
0.0
 40
7.800000159341862
 41
100.6095
 71
     1
 72
     5
  1
\A1;{\fTimes New Roman|b0|i0|c0|p18;HG\fTimes New Roman|b0|i0|c238|p18;L\fTimes New Roman|b0|i0|c0|p18;35HA\PC : 6140 kgf\PC\fProxy 1|b0|i0|c0|p2;\H0.7x;\S^ 0;\fTimes New Roman|b0|i0|c0|p18;\H1.429x;: 13900 kgf}
 73
     1
 44
1.0
1001
ACAD
1000
MTEXTBEGIN
1070
    73
1070
     1
1070
    44
1040
1.0
1070
    74
1070
     0
1000
MTEXTEND
  0
LINE
  5
4F08
330
1E
100
AcDbEntity
  8
0
 48
0.27
100
AcDbLine
 10
122.2818773852916
 20
19.07854762208753
 30
-0.0000000000000018
 11
125.7228020872883
 21
19.07854762208753
 31
-0.0000000000000018
  0
LINE
  5
4F09
330
1E
100
AcDbEntity
  8
0
 48
0.27
100
AcDbLine
 10
123.4699250144395
 20
17.61000000000316
 30
-0.0000000000000018
 11
125.7228020872883
 21
17.61000000000316
 31
-0.0000000000000018
  0
LINE
  5
4F0A
330
1E
100
AcDbEntity
  8
0
 48
0.27
100
AcDbLine
 10
122.3667383720469
 20
15.38000000000305
 30
-0.0000000000000018
 11
125.7228020872883
 21
15.38000000000305
 31
-0.0000000000000018
  0
LINE
  5
4F0B
330
1E
100
AcDbEntity
  8
0
 48
0.27
100
AcDbLine
 10
123.7245069438012
 20
13.92245237791851
 30
-0.0000000000000018
 11
125.7228020872883
 21
13.92245237791851
 31
-0.0000000000000018
  0
LINE
  5
4F0C
330
1E
100
AcDbEntity
  8
0
 48
0.27
100
AcDbLine
 10
121.2635506987496
 20
10.18000000000309
 30
-0.0000000000000018
 11
125.7228020872883
 21
10.18000000000309
 31
-0.0000000000000018
  0
LINE
  5
4F0D
330
1E
100
AcDbEntity
  8
0
 48
0.27
100
AcDbLine
 10
124.3185307583753
 20
4.700000000003137
 30
-0.0000000000000018
 11
125.7228020872883
 21
4.700000000003137
 31
-0.0000000000000018
  0
LINE
  5
4F0E
330
1E
100
AcDbEntity
  8
0
 48
0.27
100
AcDbLine
 10
122.4515983278975
 20
-0.5000199999969725
 30
-0.0000000000000018
 11
314.3657830659227
 21
-0.5000199999969725
 31
-0.0000000000000018
  0
LINE
  5
4F0F
330
1E
100
AcDbEntity
  8
0
 48
0.27
100
AcDbLine
 10
123.8942278864074
 20
-5.999999999996909
 30
-0.0000000000000018
 11
314.3657830659227
 21
-5.999999999996909
 31
-0.0000000000000018
  0
LINE
  5
4F10
330
1E
100
AcDbEntity
  8
0
 48
0.27
100
AcDbLine
 10
88.56578306592261
 20
-7.499999999996853
 30
-0.0000000000000018
 11
314.3657830659227
 21
-7.499999999997276
 31
-0.0000000000000018
  0
LINE
  5
4F11
330
1E
100
AcDbEntity
  8
0
 48
0.27
100
AcDbLine
 10
88.56578306592261
 20
21.50000000000304
 30
-0.0000000000000018
 11
125.7228020872883
 21
21.50000000000304
 31
-0.0000000000000018
  0
LINE
  5
4F12
330
1E
100
AcDbEntity
  8
建構線
 48
0.27
100
AcDbLine
 10
122.4515983278976
 20
-0.5000199999970008
 30
-0.0000000000000018
 11
123.8942278864075
 21
-5.999999999996937
 31
-0.0000000000000018
  0
LINE
  5
4F13
330
1E
100
AcDbEntity
  8
中心線
 48
0.27
100
AcDbLine
 10
108.5657830659227
 20
-9.79999999999692
 30
-0.0000000000000018
 11
108.5657830659227
 21
23.80000000000313
 31
-0.0000000000000018
  0
LINE
  5
4F14
330
1E
100
AcDbEntity
  8
0
 48
0.27
100
AcDbLine
 10
88.56578306592266
 20
-7.49999999999688
 30
-0.0000000000000018
 11
88.56578306592266
 21
21.50000000000305
 31
-0.0000000000000018
  0
LINE
  5
4F15
330
1E
100
AcDbEntity
  8
中心線
 48
0.27
100
AcDbLine
 10
108.5657830659227
 20
-9.79999999999692
 30
-0.0000000000000018
 11
108.5657830659227
 21
23.80000000000313
 31
-0.0000000000000018
  0
LINE
  5
4F16
330
1E
100
AcDbEntity
  8
建構線
 48
0.27
100
AcDbLine
 10
123.8942278864075
 20
-5.999999999996937
 30
-0.0000000000000018
 11
123.3850650585887
 21
-7.499999999996923
 31
-0.0000000000000018
  0
LINE
  5
4F17
330
1E
100
AcDbEntity
  8
建構線
 48
0.27
100
AcDbLine
 10
124.9125556038542
 20
21.50000000000304
 30
-0.0000000000000018
 11
122.2818773852915
 21
19.07854762208748
 31
-0.0000000000000018
  0
LINE
  5
4F18
330
1E
100
AcDbEntity
  8
建構線
 48
0.27
100
AcDbLine
 10
121.2635506987495
 20
10.18000000000312
 30
-0.0000000000000018
 11
124.3185307583752
 21
4.700000000003107
 31
-0.0000000000000018
  0
LINE
  5
4F19
330
1E
100
AcDbEntity
  8
建構線
 48
0.27
100
AcDbLine
 10
124.3185307583752
 20
4.700000000003107
 30
-0.0000000000000018
 11
122.4515983278976
 21
-0.5000199999970008
 31
-0.0000000000000018
  0
LINE
  5
4F1A
330
1E
100
AcDbEntity
  8
建構線
 48
0.27
100
AcDbLine
 10
123.7245069438012
 20
13.92245237791854
 30
-0.0000000000000018
 11
121.2635506987495
 21
10.18000000000312
 31
-0.0000000000000018
  0
LINE
  5
4F1B
330
1E
100
AcDbEntity
  8
建構線
 48
0.27
100
AcDbLine
 10
122.2818773852915
 20
19.07854762208748
 30
-0.0000000000000018
 11
123.4699250144396
 21
17.61000000000313
 31
-0.0000000000000018
  0
LINE
  5
4F1C
330
1E
100
AcDbEntity
  8
建構線
 48
0.27
100
AcDbLine
 10
122.3667383720468
 20
15.38000000000308
 30
-0.0000000000000018
 11
123.7245069438012
 21
13.92245237791854
 31
-0.0000000000000018
  0
LINE
  5
4F1D
330
1E
100
AcDbEntity
  8
建構線
 48
0.27
100
AcDbLine
 10
123.4699250144396
 20
17.61000000000313
 30
-0.0000000000000018
 11
122.3667383720468
 21
15.38000000000308
 31
-0.0000000000000018
  0
LINE
  5
4F1E
330
1E
100
AcDbEntity
  8
中心線
 48
0.27
100
AcDbLine
 10
188.5657830659227
 20
-9.79999999999692
 30
-0.0000000000000018
 11
188.5657830659227
 21
1.304732295789725
 31
-0.0000000000000018
  0
LINE
  5
4F20
330
1E
100
AcDbEntity
  8
0
 48
0.27
100
AcDbLine
 10
314.3657830659227
 20
-7.499999999997021
 30
-0.0000000000000018
 11
314.3657830659227
 21
21.50000000000305
 31
-0.0000000000000018
  0
LINE
  5
4F26
330
1E
100
AcDbEntity
  8
虛線
 48
0.27
100
AcDbLine
 10
298.8657830658737
 20
9.200000000003136
 30
-0.0000000000000018
 11
298.8657830658737
 21
-6.299999999996862
 31
-0.0000000000000018
  0
LINE
  5
4F27
330
1E
100
AcDbEntity
  8
虛線
 48
0.27
100
AcDbLine
 10
298.8657830659717
 20
9.200000000003136
 30
-0.0000000000000018
 11
298.8657830659717
 21
-6.299999999996862
 31
-0.0000000000000018
  0
LINE
  5
4F28
330
1E
100
AcDbEntity
  8
虛線
 48
0.27
100
AcDbLine
 10
301.3657830659717
 20
21.10000000000308
 30
-0.0000000000000018
 11
301.3657830659717
 21
9.500000000003089
 31
-0.0000000000000018
  0
LINE
  5
4F29
330
1E
100
AcDbEntity
  8
虛線
 48
0.27
100
AcDbLine
 10
301.3657830658737
 20
21.10000000000308
 30
-0.0000000000000018
 11
301.3657830658737
 21
9.500000000003089
 31
-0.0000000000000018
  0
LINE
  5
4F2A
330
1E
100
AcDbEntity
  8
虛線
 48
0.27
100
AcDbLine
 10
287.3657830659717
 20
9.500000000003089
 30
-0.0000000000000018
 11
301.3657830659717
 21
9.500000000003089
 31
-0.0000000000000018
  0
LINE
  5
4F2B
330
1E
100
AcDbEntity
  8
虛線
 48
0.27
100
AcDbLine
 10
301.3657830658737
 20
9.500000000003089
 30
-0.0000000000000018
 11
287.3657830658737
 21
9.500000000003089
 31
-0.0000000000000018
  0
LINE
  5
4F2C
330
1E
100
AcDbEntity
  8
虛線
 48
0.27
100
AcDbLine
 10
289.8657830659717
 20
9.200000000003136
 30
-0.0000000000000018
 11
298.8657830659717
 21
9.200000000003136
 31
-0.0000000000000018
  0
LINE
  5
4F2D
330
1E
100
AcDbEntity
  8
虛線
 48
0.27
100
AcDbLine
 10
298.8657830658737
 20
9.200000000003136
 30
-0.0000000000000018
 11
289.8657830658737
 21
9.200000000003136
 31
-0.0000000000000018
  0
LINE
  5
4F2E
330
1E
100
AcDbEntity
  8
虛線
 48
0.27
100
AcDbLine
 10
299.1657830659718
 20
9.500000000003089
 30
-0.0000000000000018
 11
298.8657830659717
 21
9.200000000003136
 31
-0.0000000000000018
  0
LINE
  5
4F2F
330
1E
100
AcDbEntity
  8
虛線
 48
0.27
100
AcDbLine
 10
299.1657830658738
 20
9.500000000003089
 30
-0.0000000000000018
 11
298.8657830658737
 21
9.200000000003136
 31
-0.0000000000000018
  0
LINE
  5
4F30
330
1E
100
AcDbEntity
  8
虛線
 48
0.27
100
AcDbLine
 10
287.3657830659717
 20
21.10000000000308
 30
-0.0000000000000018
 11
287.3657830659717
 21
9.500000000003089
 31
-0.0000000000000018
  0
LINE
  5
4F31
330
1E
100
AcDbEntity
  8
虛線
 48
0.27
100
AcDbLine
 10
287.3657830658737
 20
21.10000000000308
 30
-0.0000000000000018
 11
287.3657830658737
 21
9.500000000003089
 31
-0.0000000000000018
  0
LINE
  5
4F32
330
1E
100
AcDbEntity
  8
虛線
 48
0.27
100
AcDbLine
 10
289.5657830659716
 20
9.500000000003089
 30
-0.0000000000000018
 11
289.8657830659717
 21
9.200000000003136
 31
-0.0000000000000018
  0
LINE
  5
4F33
330
1E
100
AcDbEntity
  8
虛線
 48
0.27
100
AcDbLine
 10
289.5657830658736
 20
9.500000000003089
 30
-0.0000000000000018
 11
289.8657830658737
 21
9.200000000003136
 31
-0.0000000000000018
  0
LINE
  5
4F34
330
1E
100
AcDbEntity
  8
虛線
 48
0.27
100
AcDbLine
 10
289.8657830658737
 20
9.200000000003136
 30
-0.0000000000000018
 11
289.8657830658737
 21
-6.299999999996862
 31
-0.0000000000000018
  0
LINE
  5
4F35
330
1E
100
AcDbEntity
  8
虛線
 48
0.27
100
AcDbLine
 10
289.8657830659717
 20
9.200000000003136
 30
-0.0000000000000018
 11
289.8657830659717
 21
-6.299999999996862
 31
-0.0000000000000018
  0
LINE
  5
4F36
330
1E
100
AcDbEntity
  8
虛線
 48
0.27
100
AcDbLine
 10
301.3657830659717
 20
21.10000000000308
 30
-0.0000000000000018
 11
287.3657830659717
 21
21.10000000000308
 31
-0.0000000000000018
  0
LINE
  5
4F37
330
1E
100
AcDbEntity
  8
虛線
 48
0.27
100
AcDbLine
 10
287.3657830658737
 20
21.10000000000308
 30
-0.0000000000000018
 11
301.3657830658737
 21
21.10000000000308
 31
-0.0000000000000018
  0
LINE
  5
4F38
330
1E
100
AcDbEntity
  8
虛線
 48
0.27
100
AcDbLine
 10
301.3657830659717
 20
21.10000000000308
 30
-0.0000000000000018
 11
301.5967231736476
 21
21.50000000000305
 31
-0.0000000000000018
  0
LINE
  5
4F39
330
1E
100
AcDbEntity
  8
虛線
 48
0.27
100
AcDbLine
 10
301.3657830658737
 20
21.10000000000308
 30
-0.0000000000000018
 11
301.5967231735496
 21
21.50000000000305
 31
-0.0000000000000018
  0
LINE
  5
4F3A
330
1E
100
AcDbEntity
  8
虛線
 48
0.27
100
AcDbLine
 10
287.3657830659717
 20
21.10000000000308
 30
-0.0000000000000018
 11
287.1348429582958
 21
21.50000000000305
 31
-0.0000000000000018
  0
LINE
  5
4F3B
330
1E
100
AcDbEntity
  8
虛線
 48
0.27
100
AcDbLine
 10
287.3657830658737
 20
21.10000000000308
 30
-0.0000000000000018
 11
287.1348429581979
 21
21.50000000000305
 31
-0.0000000000000018
  0
LINE
  5
4F3C
330
1E
100
AcDbEntity
  8
虛線
 48
0.27
100
AcDbLine
 10
289.8657830659717
 20
-6.299999999996862
 30
-0.0000000000000018
 11
298.8657830659717
 21
-6.299999999996862
 31
-0.0000000000000018
  0
LINE
  5
4F3D
330
1E
100
AcDbEntity
  8
虛線
 48
0.27
100
AcDbLine
 10
298.8657830658737
 20
-6.299999999996862
 30
-0.0000000000000018
 11
289.8657830658737
 21
-6.299999999996862
 31
-0.0000000000000018
  0
LINE
  5
4F3E
330
1E
100
AcDbEntity
  8
虛線
 48
0.27
100
AcDbLine
 10
298.8657830659717
 20
-6.299999999996862
 30
-0.0000000000000018
 11
300.06578478026
 21
-7.499999999996994
 31
-0.0000000000000018
  0
LINE
  5
4F3F
330
1E
100
AcDbEntity
  8
虛線
 48
0.27
100
AcDbLine
 10
288.6657813516834
 20
-7.499999999996994
 30
-0.0000000000000018
 11
289.8657830659717
 21
-6.299999999996862
 31
-0.0000000000000018
  0
LINE
  5
4F40
330
1E
100
AcDbEntity
  8
虛線
 48
0.27
100
AcDbLine
 10
193.0657830658737
 20
-0.0000000157296753
 30
-0.0000000000000018
 11
193.0657830658737
 21
-6.299999999996892
 31
-0.0000000000000018
  0
LINE
  5
4F4A
330
1E
100
AcDbEntity
  8
虛線
 48
0.27
100
AcDbLine
 10
184.0657830658737
 20
-0.0000000157296753
 30
-0.0000000000000018
 11
184.0657830658737
 21
-6.299999999996892
 31
-0.0000000000000018
  0
LINE
  5
4F50
330
1E
100
AcDbEntity
  8
虛線
 48
0.27
100
AcDbLine
 10
184.0657830659717
 20
-6.299999999996892
 30
-0.0000000000000018
 11
193.0657830659717
 21
-6.299999999996892
 31
-0.0000000000000018
  0
LINE
  5
4F52
330
1E
100
AcDbEntity
  8
虛線
 48
0.27
100
AcDbLine
 10
193.0657830659717
 20
-6.299999999996892
 30
-0.0000000000000018
 11
194.26578478026
 21
-7.499999999997079
 31
-0.0000000000000018
  0
LINE
  5
4F53
330
1E
100
AcDbEntity
  8
虛線
 48
0.27
100
AcDbLine
 10
182.8657813516834
 20
-7.49999999999705
 30
-0.0000000000000018
 11
184.0657830659717
 21
-6.299999999996892
 31
-0.0000000000000018
  0
LINE
  5
4F5A
330
1E
100
AcDbEntity
  8
0
 48
0.27
100
AcDbLine
 10
113.0657830658737
 20
9.200000000003107
 30
-0.0000000000000018
 11
113.0657830658737
 21
-6.299999999996892
 31
-0.0000000000000018
  0
LINE
  5
4F5B
330
1E
100
AcDbEntity
  8
0
 48
0.27
100
AcDbLine
 10
113.0657830659717
 20
9.200000000003107
 30
-0.0000000000000018
 11
113.0657830659717
 21
-6.299999999996892
 31
-0.0000000000000018
  0
LINE
  5
4F5C
330
1E
100
AcDbEntity
  8
0
 48
0.27
100
AcDbLine
 10
115.5657830659717
 20
21.10000000000306
 30
-0.0000000000000018
 11
115.5657830659717
 21
9.500000000003062
 31
-0.0000000000000018
  0
LINE
  5
4F5D
330
1E
100
AcDbEntity
  8
0
 48
0.27
100
AcDbLine
 10
115.5657830658737
 20
21.10000000000306
 30
-0.0000000000000018
 11
115.5657830658737
 21
9.500000000003062
 31
-0.0000000000000018
  0
LINE
  5
4F5E
330
1E
100
AcDbEntity
  8
0
 48
0.27
100
AcDbLine
 10
101.5657830659717
 20
9.500000000003062
 30
-0.0000000000000018
 11
115.5657830659717
 21
9.500000000003062
 31
-0.0000000000000018
  0
LINE
  5
4F5F
330
1E
100
AcDbEntity
  8
0
 48
0.27
100
AcDbLine
 10
115.5657830658737
 20
9.500000000003062
 30
-0.0000000000000018
 11
101.5657830658737
 21
9.500000000003062
 31
-0.0000000000000018
  0
LINE
  5
4F60
330
1E
100
AcDbEntity
  8
0
 48
0.27
100
AcDbLine
 10
104.0657830659717
 20
9.200000000003107
 30
-0.0000000000000018
 11
113.0657830659717
 21
9.200000000003107
 31
-0.0000000000000018
  0
LINE
  5
4F61
330
1E
100
AcDbEntity
  8
0
 48
0.27
100
AcDbLine
 10
113.0657830658737
 20
9.200000000003107
 30
-0.0000000000000018
 11
104.0657830658737
 21
9.200000000003107
 31
-0.0000000000000018
  0
LINE
  5
4F62
330
1E
100
AcDbEntity
  8
0
 48
0.27
100
AcDbLine
 10
113.3657830659717
 20
9.500000000003062
 30
-0.0000000000000018
 11
113.0657830659717
 21
9.200000000003107
 31
-0.0000000000000018
  0
LINE
  5
4F63
330
1E
100
AcDbEntity
  8
0
 48
0.27
100
AcDbLine
 10
113.3657830658737
 20
9.500000000003062
 30
-0.0000000000000018
 11
113.0657830658737
 21
9.200000000003107
 31
-0.0000000000000018
  0
LINE
  5
4F64
330
1E
100
AcDbEntity
  8
0
 48
0.27
100
AcDbLine
 10
104.0657830658737
 20
9.200000000003107
 30
-0.0000000000000018
 11
104.0657830658737
 21
-6.299999999996892
 31
-0.0000000000000018
  0
LINE
  5
4F65
330
1E
100
AcDbEntity
  8
0
 48
0.27
100
AcDbLine
 10
104.0657830659717
 20
9.200000000003107
 30
-0.0000000000000018
 11
104.0657830659717
 21
-6.299999999996892
 31
-0.0000000000000018
  0
LINE
  5
4F66
330
1E
100
AcDbEntity
  8
0
 48
0.27
100
AcDbLine
 10
101.5657830659717
 20
21.10000000000306
 30
-0.0000000000000018
 11
101.5657830659717
 21
9.500000000003062
 31
-0.0000000000000018
  0
LINE
  5
4F67
330
1E
100
AcDbEntity
  8
0
 48
0.27
100
AcDbLine
 10
101.5657830658737
 20
21.10000000000306
 30
-0.0000000000000018
 11
101.5657830658737
 21
9.500000000003062
 31
-0.0000000000000018
  0
LINE
  5
4F68
330
1E
100
AcDbEntity
  8
0
 48
0.27
100
AcDbLine
 10
103.7657830659716
 20
9.500000000003062
 30
-0.0000000000000018
 11
104.0657830659717
 21
9.200000000003107
 31
-0.0000000000000018
  0
LINE
  5
4F69
330
1E
100
AcDbEntity
  8
0
 48
0.27
100
AcDbLine
 10
103.7657830658736
 20
9.500000000003062
 30
-0.0000000000000018
 11
104.0657830658737
 21
9.200000000003107
 31
-0.0000000000000018
  0
LINE
  5
4F6A
330
1E
100
AcDbEntity
  8
0
 48
0.27
100
AcDbLine
 10
104.0657830659717
 20
-6.299999999996892
 30
-0.0000000000000018
 11
113.0657830659717
 21
-6.299999999996892
 31
-0.0000000000000018
  0
LINE
  5
4F6B
330
1E
100
AcDbEntity
  8
0
 48
0.27
100
AcDbLine
 10
113.0657830658737
 20
-6.299999999996892
 30
-0.0000000000000018
 11
104.0657830658737
 21
-6.299999999996892
 31
-0.0000000000000018
  0
LINE
  5
4F6C
330
1E
100
AcDbEntity
  8
0
 48
0.27
100
AcDbLine
 10
113.0657830659717
 20
-6.299999999996892
 30
-0.0000000000000018
 11
114.2657847802598
 21
-7.499999999996909
 31
-0.0000000000000018
  0
LINE
  5
4F6D
330
1E
100
AcDbEntity
  8
0
 48
0.27
100
AcDbLine
 10
102.8657813516835
 20
-7.49999999999688
 30
-0.0000000000000018
 11
104.0657830659717
 21
-6.299999999996892
 31
-0.0000000000000018
  0
LINE
  5
4F6E
330
1E
100
AcDbEntity
  8
0
 48
0.27
100
AcDbLine
 10
115.5657830659717
 20
21.10000000000306
 30
-0.0000000000000018
 11
101.5657830659717
 21
21.10000000000306
 31
-0.0000000000000018
  0
LINE
  5
4F6F
330
1E
100
AcDbEntity
  8
0
 48
0.27
100
AcDbLine
 10
101.5657830658737
 20
21.10000000000306
 30
-0.0000000000000018
 11
115.5657830658737
 21
21.10000000000306
 31
-0.0000000000000018
  0
LINE
  5
4F70
330
1E
100
AcDbEntity
  8
0
 48
0.27
100
AcDbLine
 10
115.5657830659717
 20
21.10000000000306
 30
-0.0000000000000018
 11
115.7967231736476
 21
21.50000000000304
 31
-0.0000000000000018
  0
LINE
  5
4F71
330
1E
100
AcDbEntity
  8
0
 48
0.27
100
AcDbLine
 10
115.5657830658737
 20
21.10000000000306
 30
-0.0000000000000018
 11
115.7967231735496
 21
21.50000000000304
 31
-0.0000000000000018
  0
LINE
  5
4F72
330
1E
100
AcDbEntity
  8
0
 48
0.27
100
AcDbLine
 10
101.5657830659717
 20
21.10000000000306
 30
-0.0000000000000018
 11
101.3348429582958
 21
21.50000000000304
 31
-0.0000000000000018
  0
LINE
  5
4F73
330
1E
100
AcDbEntity
  8
0
 48
0.27
100
AcDbLine
 10
101.5657830658737
 20
21.10000000000306
 30
-0.0000000000000018
 11
101.3348429581978
 21
21.50000000000304
 31
-0.0000000000000018
  0
LINE
  5
4F75
330
1E
100
AcDbEntity
  8
中心線
 48
0.27
100
AcDbLine
 10
294.3657830659227
 20
-9.79999999999692
 30
-0.0000000000000018
 11
294.3657830659227
 21
23.80000000000313
 31
-0.0000000000000018
  0
LINE
  5
4F76
330
1E
100
AcDbEntity
  8
0
 48
0.27
100
AcDbLine
 10
263.9228020872884
 20
21.50000000000304
 30
-0.0000000000000018
 11
314.3657830659227
 21
21.50000000000304
 31
-0.0000000000000018
  0
LINE
  5
4F77
330
1E
100
AcDbEntity
  8
0
 48
0.27
100
AcDbLine
 10
263.9228020872884
 20
19.07854762208738
 30
-0.0000000000000018
 11
314.3657830659227
 21
19.07854762208732
 31
-0.0000000000000018
  0
LINE
  5
4F78
330
1E
100
AcDbEntity
  8
0
 48
0.27
100
AcDbLine
 10
263.9228020872884
 20
15.38000000000305
 30
-0.0000000000000018
 11
314.3657830659227
 21
15.38000000000305
 31
-0.0000000000000018
  0
LINE
  5
4F79
330
1E
100
AcDbEntity
  8
0
 48
0.27
100
AcDbLine
 10
263.9228020872884
 20
13.92245237791851
 30
-0.0000000000000018
 11
314.3657830659227
 21
13.92245237791851
 31
-0.0000000000000018
  0
LINE
  5
4F7A
330
1E
100
AcDbEntity
  8
0
 48
0.27
100
AcDbLine
 10
263.9228020872884
 20
17.61000000000304
 30
-0.0000000000000018
 11
314.3657830659227
 21
17.610000000003
 31
-0.0000000000000018
  0
LINE
  5
4F7B
330
1E
100
AcDbEntity
  8
0
 48
0.27
100
AcDbLine
 10
263.9228020872884
 20
10.18000000000309
 30
-0.0000000000000018
 11
314.3657830659227
 21
10.18000000000309
 31
-0.0000000000000018
  0
LINE
  5
4F7C
330
1E
100
AcDbEntity
  8
0
 48
0.27
100
AcDbLine
 10
263.9228020872884
 20
4.700000000003058
 30
-0.0000000000000018
 11
314.3657830659227
 21
4.700000000003021
 31
-0.0000000000000018
  0
LINE
  5
5148
330
1E
100
AcDbEntity
  8
中心線
100
AcDbLine
 10
264.2537186619271
 20
3.749999999932796
 30
0.0
 11
258.5020816875462
 21
3.749999999932796
 31
0.0
  0
LINE
  5
5149
330
1E
100
AcDbEntity
  8
0
100
AcDbLine
 10
263.3541967249144
 20
4.749999999932795
 30
0.0
 11
263.3541967249144
 21
2.749999999932795
 31
0.0
  0
ARC
  5
514A
330
1E
100
AcDbEntity
  8
0
100
AcDbCircle
 10
262.1343450460619
 20
2.769751637949908
 30
0.0
 40
1.220011576012179
100
AcDbArc
 50
285.9630221688287
 51
359.0723572120024
  0
ARC
  5
514B
330
1E
100
AcDbEntity
  8
0
100
AcDbCircle
 10
262.1343450460619
 20
4.730248361915683
 30
0.0
 40
1.220011576012179
100
AcDbArc
 50
0.9276427879976095
 51
74.03697783117127
  0
LINE
  5
514C
330
1E
100
AcDbEntity
  8
0
100
AcDbLine
 10
262.4228020872888
 20
38.99999999999998
 30
0.0
 11
262.4228020872888
 21
-0.0000000000000142
 31
0.0
  0
LINE
  5
514D
330
1E
100
AcDbEntity
  8
0
100
AcDbLine
 10
263.9228020872888
 20
22.8737000158
 30
0.0
 11
263.9228020872888
 21
-0.0000000000000142
 31
0.0
  0
LINE
  5
514E
330
1E
100
AcDbEntity
  8
0
100
AcDbLine
 10
260.7228020872888
 20
-0.0000000000000142
 30
0.0
 11
263.9228020872888
 21
-0.0000000000000142
 31
0.0
  0
ARC
  5
514F
330
1E
100
AcDbEntity
  8
0
100
AcDbCircle
 10
262.0872782677946
 20
33.26532826805264
 30
0.0
 40
1.220011576012179
100
AcDbArc
 50
285.9630221688287
 51
359.0723572120024
  0
LINE
  5
5150
330
1E
100
AcDbEntity
  8
0
100
AcDbLine
 10
263.9228020872888
 20
22.8737000158
 30
0.0
 11
262.4228020872888
 21
23.73970001579998
 31
0.0
  0
LINE
  5
5151
330
1E
100
AcDbEntity
  8
中心線
100
AcDbLine
 10
264.20665188366
 20
34.24557663003553
 30
0.0
 11
258.455014909279
 21
34.24557663003553
 31
0.0
  0
ARC
  5
5152
330
1E
100
AcDbEntity
  8
0
100
AcDbCircle
 10
262.0872782677946
 20
35.22582499201842
 30
0.0
 40
1.220011576012179
100
AcDbArc
 50
0.9276427879976095
 51
74.03697783117127
  0
LINE
  5
5153
330
1E
100
AcDbEntity
  8
0
100
AcDbLine
 10
263.3071299466471
 20
35.24557663003553
 30
0.0
 11
263.3071299466471
 21
33.24557663003553
 31
0.0
  0
LINE
  5
5154
330
1E
100
AcDbEntity
  8
0
100
AcDbLine
 10
260.7228020872888
 20
38.99999999999998
 30
0.0
 11
262.4228020872888
 21
38.99999999999998
 31
0.0
  0
LINE
  5
5155
330
1E
100
AcDbEntity
  8
中心線
100
AcDbLine
 10
125.3918855126503
 20
3.749999999932811
 30
0.0
 11
131.1435224870312
 21
3.749999999932811
 31
0.0
  0
LINE
  5
5156
330
1E
100
AcDbEntity
  8
0
100
AcDbLine
 10
126.2914074496631
 20
4.749999999932811
 30
0.0
 11
126.2914074496631
 21
2.749999999932811
 31
0.0
  0
ARC
  5
5157
330
1E
100
AcDbEntity
  8
0
100
AcDbCircle
 10
127.5112591285156
 20
2.769751637949923
 30
0.0
 40
1.220011576012179
100
AcDbArc
 50
180.9276427879976
 51
254.0369778311712
  0
ARC
  5
5158
330
1E
100
AcDbEntity
  8
0
100
AcDbCircle
 10
127.5112591285156
 20
4.730248361915697
 30
0.0
 40
1.220011576012179
100
AcDbArc
 50
105.9630221688287
 51
179.0723572120024
  0
LINE
  5
5159
330
1E
100
AcDbEntity
  8
0
100
AcDbLine
 10
127.2228020872887
 20
39.0
 30
0.0
 11
127.2228020872887
 21
0.0
 31
0.0
  0
LINE
  5
515A
330
1E
100
AcDbEntity
  8
0
100
AcDbLine
 10
125.7228020872887
 20
22.87370001580002
 30
0.0
 11
125.7228020872887
 21
0.0
 31
0.0
  0
LINE
  5
515B
330
1E
100
AcDbEntity
  8
0
100
AcDbLine
 10
128.9228020872887
 20
0.0
 30
0.0
 11
125.7228020872887
 21
0.0
 31
0.0
  0
ARC
  5
515C
330
1E
100
AcDbEntity
  8
0
100
AcDbCircle
 10
127.5583259067829
 20
33.26532826805266
 30
0.0
 40
1.220011576012179
100
AcDbArc
 50
180.9276427879976
 51
254.0369778311712
  0
LINE
  5
515D
330
1E
100
AcDbEntity
  8
0
100
AcDbLine
 10
125.7228020872887
 20
22.87370001580002
 30
0.0
 11
127.2228020872887
 21
23.7397000158
 31
0.0
  0
LINE
  5
515E
330
1E
100
AcDbEntity
  8
中心線
100
AcDbLine
 10
125.4389522909175
 20
34.24557663003554
 30
0.0
 11
131.1905892652985
 21
34.24557663003554
 31
0.0
  0
ARC
  5
515F
330
1E
100
AcDbEntity
  8
0
100
AcDbCircle
 10
127.5583259067829
 20
35.22582499201843
 30
0.0
 40
1.220011576012179
100
AcDbArc
 50
105.9630221688287
 51
179.0723572120024
  0
LINE
  5
5160
330
1E
100
AcDbEntity
  8
0
100
AcDbLine
 10
126.3384742279304
 20
35.24557663003554
 30
0.0
 11
126.3384742279304
 21
33.24557663003555
 31
0.0
  0
LINE
  5
5161
330
1E
100
AcDbEntity
  8
0
100
AcDbLine
 10
128.9228020872887
 20
39.0
 30
0.0
 11
127.2228020872887
 21
39.0
 31
0.0
  0
LINE
  5
5162
330
1E
100
AcDbEntity
  8
0
 48
0.27
100
AcDbLine
 10
141.9228020872887
 20
2.0
 30
0.0
 11
141.9228020872887
 21
37.0
 31
0.0
  0
LINE
  5
5163
330
1E
100
AcDbEntity
  8
0
 48
0.27
100
AcDbLine
 10
141.9228020872887
 20
40.49999999999999
 30
0.0
 11
141.9228020872887
 21
0.0
 31
0.0
  0
LINE
  5
5164
330
1E
100
AcDbEntity
  8
0
 48
0.27
100
AcDbLine
 10
128.9228020872887
 20
2.0
 30
0.0
 11
128.9228020872887
 21
37.0
 31
0.0
  0
LINE
  5
5165
330
1E
100
AcDbEntity
  8
0
 48
0.27
100
AcDbLine
 10
128.9228020872887
 20
2.0
 30
0.0
 11
141.9228020872887
 21
2.0
 31
0.0
  0
LINE
  5
5166
330
1E
100
AcDbEntity
  8
0
 48
0.27
100
AcDbLine
 10
128.9228020872887
 20
0.0
 30
0.0
 11
141.9228020872887
 21
0.0
 31
0.0
  0
LINE
  5
5167
330
1E
100
AcDbEntity
  8
0
 48
0.27
100
AcDbLine
 10
128.9228020872887
 20
2.0
 30
0.0
 11
128.9228020872887
 21
0.0
 31
0.0
  0
LINE
  5
5168
330
1E
100
AcDbEntity
  8
0
 48
0.27
100
AcDbLine
 10
141.9228020872887
 20
2.0
 30
0.0
 11
141.9228020872887
 21
0.0
 31
0.0
  0
LINE
  5
5169
330
1E
100
AcDbEntity
  8
中心線
 48
0.27
100
AcDbLine
 10
134.9228020872887
 20
24.92641166440002
 30
0.0
 11
134.9228020872887
 21
30.92641166440002
 31
0.0
  0
CIRCLE
  5
516A
330
1E
100
AcDbEntity
  8
0
 48
0.27
100
AcDbCircle
 10
-134.9228020872887
 20
27.92641166440001
 30
0.0
 40
2.5
210
0.0
220
0.0
230
-1.0
  0
CIRCLE
  5
516B
330
1E
100
AcDbEntity
  8
0
 48
0.27
100
AcDbCircle
 10
-134.9228020872887
 20
27.92641166440001
 30
0.0
 40
2.75
210
0.0
220
0.0
230
-1.0
  0
CIRCLE
  5
516C
330
1E
100
AcDbEntity
  8
0
 48
0.27
100
AcDbCircle
 10
134.9228020872887
 20
27.92641166440001
 30
0.0
 40
2.2
  0
LINE
  5
516D
330
1E
100
AcDbEntity
  8
中心線
 48
0.27
100
AcDbLine
 10
131.9228020872887
 20
27.90001166440001
 30
0.0
 11
137.9228020872887
 21
27.90001166440001
 31
0.0
  0
CIRCLE
  5
516E
330
1E
100
AcDbEntity
  8
0
 48
0.27
100
AcDbCircle
 10
-134.9228020872887
 20
27.92641166440001
 30
0.0
 40
0.75
210
0.0
220
0.0
230
-1.0
  0
LINE
  5
516F
330
1E
100
AcDbEntity
  8
0
 48
0.27
100
AcDbLine
 10
128.9228020872887
 20
39.0
 30
0.0
 11
141.9228020872887
 21
39.0
 31
0.0
  0
LINE
  5
5170
330
1E
100
AcDbEntity
  8
0
 48
0.27
100
AcDbLine
 10
128.9228020872887
 20
37.0
 30
0.0
 11
141.9228020872887
 21
37.0
 31
0.0
  0
LINE
  5
5171
330
1E
100
AcDbEntity
  8
0
 48
0.27
100
AcDbLine
 10
128.9228020872887
 20
39.0
 30
0.0
 11
128.9228020872887
 21
37.0
 31
0.0
  0
LINE
  5
5172
330
1E
100
AcDbEntity
  8
0
 48
0.27
100
AcDbLine
 10
141.9228020872887
 20
39.0
 30
0.0
 11
141.9228020872887
 21
37.0
 31
0.0
  0
LINE
  5
5173
330
1E
100
AcDbEntity
  8
中心線
 48
0.27
100
AcDbLine
 10
158.8228020872888
 20
41.99999999999993
 30
0.0
 11
158.8228020872888
 21
20.73493649053893
 31
0.0
  0
LINE
  5
5174
330
1E
100
AcDbEntity
  8
虛線
 48
0.27
100
AcDbLine
 10
162.8228020872888
 20
39.69999999999999
 30
0.0
 11
162.8228020872888
 21
28.49999999999994
 31
0.0
  0
LINE
  5
5175
330
1E
100
AcDbEntity
  8
虛線
 48
0.27
100
AcDbLine
 10
154.8228020872888
 20
39.69999999999999
 30
0.0
 11
154.8228020872888
 21
28.49999999999994
 31
0.0
  0
LINE
  5
5176
330
1E
100
AcDbEntity
  8
虛線
 48
0.27
100
AcDbLine
 10
162.2228020872886
 20
39.69999999999999
 30
0.0
 11
162.2228020872886
 21
24.69999999999999
 31
0.0
  0
LINE
  5
5177
330
1E
100
AcDbEntity
  8
虛線
 48
0.27
100
AcDbLine
 10
155.4228020872887
 20
39.69999999999999
 30
0.0
 11
155.4228020872887
 21
24.69999999999999
 31
0.0
  0
LINE
  5
5178
330
1E
100
AcDbEntity
  8
虛線
 48
0.27
100
AcDbLine
 10
154.8228020872888
 20
28.49999999999994
 30
0.0
 11
162.8228020872888
 21
28.49999999999994
 31
0.0
  0
LINE
  5
5179
330
1E
100
AcDbEntity
  8
虛線
 48
0.27
100
AcDbLine
 10
162.2228020872886
 20
24.69999999999999
 30
0.0
 11
158.8228020872888
 21
22.73700908475524
 31
0.0
  0
LINE
  5
517A
330
1E
100
AcDbEntity
  8
虛線
 48
0.27
100
AcDbLine
 10
162.2228020872886
 20
24.69999999999999
 30
0.0
 11
155.4228020872887
 21
24.69999999999999
 31
0.0
  0
LINE
  5
517B
330
1E
100
AcDbEntity
  8
虛線
 48
0.27
100
AcDbLine
 10
158.8228020872888
 20
22.73700908475524
 30
0.0
 11
155.4228020872887
 21
24.69999999999999
 31
0.0
  0
LINE
  5
517C
330
1E
100
AcDbEntity
  8
虛線
 48
0.27
100
AcDbLine
 10
163.6228020872886
 20
40.49999999999993
 30
0.0
 11
162.8228020872888
 21
39.69999999999999
 31
0.0
  0
LINE
  5
517D
330
1E
100
AcDbEntity
  8
虛線
 48
0.27
100
AcDbLine
 10
162.8228020872888
 20
39.69999999999999
 30
0.0
 11
154.8228020872888
 21
39.69999999999999
 31
0.0
  0
LINE
  5
517E
330
1E
100
AcDbEntity
  8
虛線
 48
0.27
100
AcDbLine
 10
154.0228020872886
 20
40.49999999999993
 30
0.0
 11
154.8228020872888
 21
39.69999999999999
 31
0.0
  0
LINE
  5
517F
330
1E
100
AcDbEntity
  8
中心線
 48
0.27
100
AcDbLine
 10
230.8228020872888
 20
41.99999999999993
 30
0.0
 11
230.8228020872888
 21
20.73493649053893
 31
0.0
  0
LINE
  5
5180
330
1E
100
AcDbEntity
  8
虛線
 48
0.27
100
AcDbLine
 10
226.8228020872888
 20
39.69999999999999
 30
0.0
 11
226.8228020872888
 21
28.49999999999994
 31
0.0
  0
LINE
  5
5181
330
1E
100
AcDbEntity
  8
虛線
 48
0.27
100
AcDbLine
 10
234.8228020872888
 20
39.69999999999999
 30
0.0
 11
234.8228020872888
 21
28.49999999999994
 31
0.0
  0
LINE
  5
5182
330
1E
100
AcDbEntity
  8
虛線
 48
0.27
100
AcDbLine
 10
227.4228020872887
 20
39.69999999999999
 30
0.0
 11
227.4228020872887
 21
24.69999999999999
 31
0.0
  0
LINE
  5
5183
330
1E
100
AcDbEntity
  8
虛線
 48
0.27
100
AcDbLine
 10
234.2228020872886
 20
39.69999999999999
 30
0.0
 11
234.2228020872886
 21
24.69999999999999
 31
0.0
  0
LINE
  5
5184
330
1E
100
AcDbEntity
  8
虛線
 48
0.27
100
AcDbLine
 10
226.8228020872888
 20
28.49999999999994
 30
0.0
 11
234.8228020872888
 21
28.49999999999994
 31
0.0
  0
LINE
  5
5185
330
1E
100
AcDbEntity
  8
虛線
 48
0.27
100
AcDbLine
 10
234.2228020872886
 20
24.69999999999999
 30
0.0
 11
227.4228020872887
 21
24.69999999999999
 31
0.0
  0
LINE
  5
5186
330
1E
100
AcDbEntity
  8
虛線
 48
0.27
100
AcDbLine
 10
230.8228020872888
 20
22.73700908475524
 30
0.0
 11
227.4228020872887
 21
24.69999999999999
 31
0.0
  0
LINE
  5
5187
330
1E
100
AcDbEntity
  8
虛線
 48
0.27
100
AcDbLine
 10
234.2228020872886
 20
24.69999999999999
 30
0.0
 11
230.8228020872888
 21
22.73700908475524
 31
0.0
  0
LINE
  5
5188
330
1E
100
AcDbEntity
  8
虛線
 48
0.27
100
AcDbLine
 10
234.8228020872888
 20
39.69999999999999
 30
0.0
 11
226.8228020872888
 21
39.69999999999999
 31
0.0
  0
LINE
  5
5189
330
1E
100
AcDbEntity
  8
虛線
 48
0.27
100
AcDbLine
 10
226.0228020872886
 20
40.49999999999993
 30
0.0
 11
226.8228020872888
 21
39.69999999999999
 31
0.0
  0
LINE
  5
518A
330
1E
100
AcDbEntity
  8
虛線
 48
0.27
100
AcDbLine
 10
235.6228020872887
 20
40.49999999999993
 30
0.0
 11
234.8228020872888
 21
39.69999999999999
 31
0.0
  0
LINE
  5
518B
330
1E
100
AcDbEntity
  8
0
 48
0.27
100
AcDbLine
 10
260.7228020872887
 20
2.0
 30
0.0
 11
260.7228020872887
 21
37.0
 31
0.0
  0
LINE
  5
518C
330
1E
100
AcDbEntity
  8
0
 48
0.27
100
AcDbLine
 10
260.7228020872887
 20
0.0
 30
0.0
 11
247.7228020872887
 21
0.0
 31
0.0
  0
LINE
  5
518D
330
1E
100
AcDbEntity
  8
0
 48
0.27
100
AcDbLine
 10
260.7228020872887
 20
2.0
 30
0.0
 11
247.7228020872887
 21
2.0
 31
0.0
  0
LINE
  5
518E
330
1E
100
AcDbEntity
  8
0
 48
0.27
100
AcDbLine
 10
260.7228020872887
 20
2.0
 30
0.0
 11
260.7228020872887
 21
0.0
 31
0.0
  0
LINE
  5
518F
330
1E
100
AcDbEntity
  8
中心線
 48
0.27
100
AcDbLine
 10
251.7228020872887
 20
27.92641166440001
 30
0.0
 11
257.7228020872887
 21
27.92641166440001
 31
0.0
  0
LINE
  5
5190
330
1E
100
AcDbEntity
  8
0
 48
0.27
100
AcDbLine
 10
260.7228020872887
 20
39.0
 30
0.0
 11
247.7228020872887
 21
39.0
 31
0.0
  0
LINE
  5
5191
330
1E
100
AcDbEntity
  8
0
 48
0.27
100
AcDbLine
 10
260.7228020872887
 20
37.0
 30
0.0
 11
247.7228020872887
 21
37.0
 31
0.0
  0
CIRCLE
  5
5192
330
1E
100
AcDbEntity
  8
0
 48
0.27
100
AcDbCircle
 10
-254.7228020872887
 20
27.92641166440001
 30
0.0
 40
2.5
210
0.0
220
0.0
230
-1.0
  0
CIRCLE
  5
5193
330
1E
100
AcDbEntity
  8
0
 48
0.27
100
AcDbCircle
 10
-254.7228020872887
 20
27.92641166440001
 30
0.0
 40
2.75
210
0.0
220
0.0
230
-1.0
  0
CIRCLE
  5
5194
330
1E
100
AcDbEntity
  8
0
 48
0.27
100
AcDbCircle
 10
254.7228020872887
 20
27.92641166440001
 30
0.0
 40
2.2
  0
LINE
  5
5195
330
1E
100
AcDbEntity
  8
中心線
 48
0.27
100
AcDbLine
 10
254.7228020872887
 20
24.92641166440002
 30
0.0
 11
254.7228020872887
 21
30.92641166440002
 31
0.0
  0
CIRCLE
  5
5196
330
1E
100
AcDbEntity
  8
0
 48
0.27
100
AcDbCircle
 10
-254.7228020872887
 20
27.92641166440001
 30
0.0
 40
0.75
210
0.0
220
0.0
230
-1.0
  0
LINE
  5
5197
330
1E
100
AcDbEntity
  8
0
 48
0.27
100
AcDbLine
 10
260.7228020872887
 20
39.0
 30
0.0
 11
260.7228020872887
 21
37.0
 31
0.0
  0
LINE
  5
5198
330
1E
100
AcDbEntity
  8
0
 48
0.27
100
AcDbLine
 10
141.9228020850347
 20
40.49999999999999
 30
0.0
 11
247.7228020850348
 21
40.49999999999999
 31
0.0
  0
LINE
  5
5199
330
1E
100
AcDbEntity
  8
0
 48
0.27
100
AcDbLine
 10
141.9228020850347
 20
0.0
 30
0.0
 11
247.7228020850347
 21
-0.0000000000000284
 31
0.0
  0
LINE
  5
519A
330
1E
100
AcDbEntity
  8
0
 48
0.27
100
AcDbLine
 10
141.9228020850348
 20
39.0
 30
0.0
 11
247.7228020850348
 21
38.9999999999999
 31
0.0
  0
LINE
  5
519B
330
1E
100
AcDbEntity
  8
0
 48
0.27
100
AcDbLine
 10
141.9228020850347
 20
2.5
 30
0.0
 11
247.7228020850347
 21
2.5
 31
0.0
  0
LINE
  5
519C
330
1E
100
AcDbEntity
  8
0
 48
0.27
100
AcDbLine
 10
247.7228020850348
 20
40.49999999999999
 30
0.0
 11
247.7228020850347
 21
0.0
 31
0.0
  0
LINE
  5
519E
330
1E
100
AcDbEntity
  8
虛線
 48
0.27
100
AcDbLine
 10
9.338364939254988
 20
21.10000001573411
 30
-0.0000000000000018
 11
9.338364939254988
 21
9.500000015734102
 31
-0.0000000000000018
  0
LINE
  5
519F
330
1E
100
AcDbEntity
  8
虛線
 48
0.27
100
AcDbLine
 10
9.338364939156988
 20
21.10000001573411
 30
-0.0000000000000018
 11
9.338364939156988
 21
9.500000015734102
 31
-0.0000000000000018
  0
LINE
  5
51A0
330
1E
100
AcDbEntity
  8
虛線
 48
0.27
100
AcDbLine
 10
-4.661635060745011
 20
21.10000001573411
 30
-0.0000000000000018
 11
-4.661635060745011
 21
9.500000015734102
 31
-0.0000000000000018
  0
LINE
  5
51A1
330
1E
100
AcDbEntity
  8
虛線
 48
0.27
100
AcDbLine
 10
-4.661635060843011
 20
21.10000001573411
 30
-0.0000000000000018
 11
-4.661635060843011
 21
9.500000015734102
 31
-0.0000000000000018
  0
LINE
  5
51A2
330
1E
100
AcDbEntity
  8
0
 48
0.27
100
AcDbLine
 10
-11.31412764007159
 20
12.03249259506067
 30
-0.0000000000000018
 11
-9.461635060745079
 21
10.18000001573416
 31
-0.0000000000000018
  0
LINE
  5
51A3
330
1E
100
AcDbEntity
  8
0
 48
0.27
100
AcDbLine
 10
-11.31412765584501
 20
12.03249259513408
 30
-0.0000000000000018
 11
-9.46163507654505
 21
10.18000001573411
 31
-0.0000000000000018
  0
LINE
  5
51A4
330
1E
100
AcDbEntity
  8
0
 48
0.27
100
AcDbLine
 10
-11.31412765594301
 20
12.03249259513408
 30
-0.0000000000000018
 11
-9.461635076643046
 21
10.18000001573411
 31
-0.0000000000000018
  0
LINE
  5
51A5
330
1E
100
AcDbEntity
  8
0
 48
0.27
100
AcDbLine
 10
-11.31412764016959
 20
12.03249259506061
 30
-0.0000000000000018
 11
-9.461635060843081
 21
10.18000001573416
 31
-0.0000000000000018
  0
LINE
  5
51A6
330
1E
100
AcDbEntity
  8
0
 48
0.27
100
AcDbLine
 10
15.99085751858156
 20
12.03249259506061
 30
-0.0000000000000018
 11
14.13836493925505
 21
10.18000001573416
 31
-0.0000000000000018
  0
LINE
  5
51A7
330
1E
100
AcDbEntity
  8
0
 48
0.27
100
AcDbLine
 10
15.99085753435498
 20
12.03249259513408
 30
-0.0000000000000018
 11
14.13836495505502
 21
10.18000001573411
 31
-0.0000000000000018
  0
LINE
  5
51A8
330
1E
100
AcDbEntity
  8
0
 48
0.27
100
AcDbLine
 10
15.99085753425699
 20
12.03249259513408
 30
-0.0000000000000018
 11
14.13836495495703
 21
10.18000001573411
 31
-0.0000000000000018
  0
LINE
  5
51A9
330
1E
100
AcDbEntity
  8
0
 48
0.27
100
AcDbLine
 10
15.99085751848356
 20
12.03249259506067
 30
-0.0000000000000018
 11
14.13836493915705
 21
10.18000001573416
 31
-0.0000000000000018
  0
LINE
  5
51AC
330
1E
100
AcDbEntity
  8
0
 48
0.27
100
AcDbLine
 10
-14.66163506084301
 20
-0.5000199842659026
 30
-0.0000000000000018
 11
-9.461635060843081
 21
4.700000015734148
 31
-0.0000000000000018
  0
LINE
  5
51AD
330
1E
100
AcDbEntity
  8
0
 48
0.27
100
AcDbLine
 10
-14.66163506074501
 20
-5.999999984265896
 30
-0.0000000000000018
 11
-13.16163506074501
 21
-7.499999984265896
 31
-0.0000000000000018
  0
LINE
  5
51AE
330
1E
100
AcDbEntity
  8
0
 48
0.27
100
AcDbLine
 10
-14.66163506084301
 20
-5.999999984265838
 30
-0.0000000000000018
 11
-13.16163506084301
 21
-7.499999984265896
 31
-0.0000000000000018
  0
LINE
  5
51AF
330
1E
100
AcDbEntity
  8
0
 48
0.27
100
AcDbLine
 10
-14.66163506074501
 20
-0.5000199842658457
 30
-0.0000000000000018
 11
-14.66163506074501
 21
-5.999999984265896
 31
-0.0000000000000018
  0
LINE
  5
51B0
330
1E
100
AcDbEntity
  8
0
 48
0.27
100
AcDbLine
 10
-14.66163506084301
 20
-0.5000199842659026
 30
-0.0000000000000018
 11
-14.66163506084301
 21
-5.999999984265838
 31
-0.0000000000000018
  0
LINE
  5
51B1
330
1E
100
AcDbEntity
  8
0
 48
0.27
100
AcDbLine
 10
-9.46163507654505
 20
10.18000001573411
 30
-0.0000000000000018
 11
-9.46163507654505
 21
4.700000015734119
 31
-0.0000000000000018
  0
LINE
  5
51B2
330
1E
100
AcDbEntity
  8
0
 48
0.27
100
AcDbLine
 10
-9.461635076643046
 20
10.18000001573411
 30
-0.0000000000000018
 11
-9.461635076643046
 21
4.700000015734119
 31
-0.0000000000000018
  0
LINE
  5
51B3
330
1E
100
AcDbEntity
  8
0
 48
0.27
100
AcDbLine
 10
-9.461635060843081
 20
10.18000001573416
 30
-0.0000000000000018
 11
-9.461635060843081
 21
4.700000015734148
 31
-0.0000000000000018
  0
LINE
  5
51B4
330
1E
100
AcDbEntity
  8
0
 48
0.27
100
AcDbLine
 10
-9.461635060745079
 20
10.18000001573416
 30
-0.0000000000000018
 11
-9.461635060745079
 21
4.700000015734148
 31
-0.0000000000000018
  0
LINE
  5
51B5
330
1E
100
AcDbEntity
  8
虛線
 48
0.27
100
AcDbLine
 10
-4.661635060745011
 20
9.500000015734102
 30
-0.0000000000000018
 11
9.338364939254988
 21
9.500000015734102
 31
-0.0000000000000018
  0
LINE
  5
51B6
330
1E
100
AcDbEntity
  8
虛線
 48
0.27
100
AcDbLine
 10
9.338364939156988
 20
9.500000015734102
 30
-0.0000000000000018
 11
-4.661635060843011
 21
9.500000015734102
 31
-0.0000000000000018
  0
LINE
  5
51B7
330
1E
100
AcDbEntity
  8
0
 48
0.27
100
AcDbLine
 10
10.58836493925499
 20
-6.999999984265896
 30
-0.0000000000000018
 11
6.088364939254987
 21
-6.999999984265896
 31
-0.0000000000000018
  0
LINE
  5
51B8
330
1E
100
AcDbEntity
  8
0
 48
0.27
100
AcDbLine
 10
10.58836493915699
 20
-6.999999984265896
 30
-0.0000000000000018
 11
6.088364939156988
 21
-6.999999984265896
 31
-0.0000000000000018
  0
LINE
  5
51B9
330
1E
100
AcDbEntity
  8
虛線
 48
0.27
100
AcDbLine
 10
-2.161635060843011
 20
9.200000015734147
 30
-0.0000000000000018
 11
-2.161635060843011
 21
-6.299999984265849
 31
-0.0000000000000018
  0
LINE
  5
51BA
330
1E
100
AcDbEntity
  8
虛線
 48
0.27
100
AcDbLine
 10
6.838364939156988
 20
9.200000015734147
 30
-0.0000000000000018
 11
6.838364939156988
 21
-6.299999984265849
 31
-0.0000000000000018
  0
LINE
  5
51BB
330
1E
100
AcDbEntity
  8
虛線
 48
0.27
100
AcDbLine
 10
-2.161635060745011
 20
9.200000015734147
 30
-0.0000000000000018
 11
-2.161635060745011
 21
-6.299999984265849
 31
-0.0000000000000018
  0
LINE
  5
51BC
330
1E
100
AcDbEntity
  8
虛線
 48
0.27
100
AcDbLine
 10
6.838364939254987
 20
9.200000015734147
 30
-0.0000000000000018
 11
6.838364939254987
 21
-6.299999984265849
 31
-0.0000000000000018
  0
LINE
  5
51BD
330
1E
100
AcDbEntity
  8
虛線
 48
0.27
100
AcDbLine
 10
-2.161635060745011
 20
-6.299999984265849
 30
-0.0000000000000018
 11
6.838364939254987
 21
-6.299999984265849
 31
-0.0000000000000018
  0
LINE
  5
51BE
330
1E
100
AcDbEntity
  8
虛線
 48
0.27
100
AcDbLine
 10
6.838364939156988
 20
-6.299999984265849
 30
-0.0000000000000018
 11
-2.161635060843011
 21
-6.299999984265849
 31
-0.0000000000000018
  0
LINE
  5
51C1
330
1E
100
AcDbEntity
  8
0
 48
0.27
100
AcDbLine
 10
-5.911635060745012
 20
-6.999999984265896
 30
-0.0000000000000018
 11
-1.411635060745011
 21
-6.999999984265896
 31
-0.0000000000000018
  0
LINE
  5
51C2
330
1E
100
AcDbEntity
  8
0
 48
0.27
100
AcDbLine
 10
-5.911635060843011
 20
-6.999999984265896
 30
-0.0000000000000018
 11
-1.41163506084301
 21
-6.999999984265896
 31
-0.0000000000000018
  0
LINE
  5
51C3
330
1E
100
AcDbEntity
  8
0
 48
0.27
100
AcDbLine
 10
-6.411635060745012
 20
-7.499999984265896
 30
-0.0000000000000018
 11
-5.911635060745012
 21
-6.999999984265896
 31
-0.0000000000000018
  0
LINE
  5
51C4
330
1E
100
AcDbEntity
  8
0
 48
0.27
100
AcDbLine
 10
-6.411635076571066
 20
-7.499999999993952
 30
-0.0000000000000018
 11
-5.911635060843011
 21
-6.999999984265896
 31
-0.0000000000000018
  0
LINE
  5
51C5
330
1E
100
AcDbEntity
  8
虛線
 48
0.27
100
AcDbLine
 10
-2.861635060745058
 20
-6.999998984265896
 30
-0.0000000000000018
 11
-2.161635060745011
 21
-6.299999984265849
 31
-0.0000000000000018
  0
LINE
  5
51C6
330
1E
100
AcDbEntity
  8
虛線
 48
0.27
100
AcDbLine
 10
-2.161635060843011
 20
-6.299999984265849
 30
-0.0000000000000018
 11
-2.861635060843056
 21
-6.999998984265896
 31
-0.0000000000000018
  0
LINE
  5
51C7
330
1E
100
AcDbEntity
  8
0
 48
0.27
100
AcDbLine
 10
-1.411635060745011
 20
-6.999999984265896
 30
-0.0000000000000018
 11
-0.9116350607450128
 21
-7.499999984265896
 31
-0.0000000000000018
  0
LINE
  5
51C8
330
1E
100
AcDbEntity
  8
0
 48
0.27
100
AcDbLine
 10
-1.41163506084301
 20
-6.999999984265896
 30
-0.0000000000000018
 11
-0.9116350451143055
 21
-7.4999999999946
 31
-0.0000000000000018
  0
LINE
  5
51C9
330
1E
100
AcDbEntity
  8
虛線
 48
0.27
100
AcDbLine
 10
6.838364939254987
 20
-6.299999984265849
 30
-0.0000000000000018
 11
7.538364939255032
 21
-6.999998984265896
 31
-0.0000000000000018
  0
LINE
  5
51CA
330
1E
100
AcDbEntity
  8
虛線
 48
0.27
100
AcDbLine
 10
7.538364939157034
 20
-6.999998984265896
 30
-0.0000000000000018
 11
6.838364939156988
 21
-6.299999984265849
 31
-0.0000000000000018
  0
LINE
  5
51CB
330
1E
100
AcDbEntity
  8
0
 48
0.27
100
AcDbLine
 10
6.088364939254987
 20
-6.999999984265896
 30
-0.0000000000000018
 11
5.588364939254987
 21
-7.499999984265896
 31
-0.0000000000000018
  0
LINE
  5
51CC
330
1E
100
AcDbEntity
  8
0
 48
0.27
100
AcDbLine
 10
6.088364939156988
 20
-6.999999984265896
 30
-0.0000000000000018
 11
5.588364923427513
 21
-7.499999999995369
 31
-0.0000000000000018
  0
LINE
  5
51CD
330
1E
100
AcDbEntity
  8
虛線
 48
0.27
100
AcDbLine
 10
-2.161635060745011
 20
9.200000015734147
 30
-0.0000000000000018
 11
6.838364939254987
 21
9.200000015734147
 31
-0.0000000000000018
  0
LINE
  5
51CE
330
1E
100
AcDbEntity
  8
虛線
 48
0.27
100
AcDbLine
 10
6.838364939156988
 20
9.200000015734147
 30
-0.0000000000000018
 11
-2.161635060843011
 21
9.200000015734147
 31
-0.0000000000000018
  0
LINE
  5
51CF
330
1E
100
AcDbEntity
  8
虛線
 48
0.27
100
AcDbLine
 10
-2.461635060745081
 20
9.500000015734102
 30
-0.0000000000000018
 11
-2.161635060745011
 21
9.200000015734147
 31
-0.0000000000000018
  0
LINE
  5
51D0
330
1E
100
AcDbEntity
  8
虛線
 48
0.27
100
AcDbLine
 10
-2.461635060843079
 20
9.500000015734102
 30
-0.0000000000000018
 11
-2.161635060843011
 21
9.200000015734147
 31
-0.0000000000000018
  0
LINE
  5
51D1
330
1E
100
AcDbEntity
  8
虛線
 48
0.27
100
AcDbLine
 10
7.138364939255055
 20
9.500000015734102
 30
-0.0000000000000018
 11
6.838364939254987
 21
9.200000015734147
 31
-0.0000000000000018
  0
LINE
  5
51D2
330
1E
100
AcDbEntity
  8
虛線
 48
0.27
100
AcDbLine
 10
7.138364939157058
 20
9.500000015734102
 30
-0.0000000000000018
 11
6.838364939156988
 21
9.200000015734147
 31
-0.0000000000000018
  0
LINE
  5
51D3
330
1E
100
AcDbEntity
  8
0
 48
0.27
100
AcDbLine
 10
19.33836493915698
 20
-0.5000199842658457
 30
-0.0000000000000018
 11
14.13836493915705
 21
4.700000015734148
 31
-0.0000000000000018
  0
LINE
  5
51D6
330
1E
100
AcDbEntity
  8
0
 48
0.27
100
AcDbLine
 10
11.08836493925498
 20
-7.499999984265896
 30
-0.0000000000000018
 11
10.58836493925499
 21
-6.999999984265896
 31
-0.0000000000000018
  0
LINE
  5
51D7
330
1E
100
AcDbEntity
  8
0
 48
0.27
100
AcDbLine
 10
11.08836495488711
 20
-7.499999999996019
 30
-0.0000000000000018
 11
10.58836493915699
 21
-6.999999984265896
 31
-0.0000000000000018
  0
LINE
  5
51D8
330
1E
100
AcDbEntity
  8
0
 48
0.27
100
AcDbLine
 10
19.33836493925498
 20
-5.999999984265838
 30
-0.0000000000000018
 11
17.83836493925498
 21
-7.499999984265896
 31
-0.0000000000000018
  0
LINE
  5
51D9
330
1E
100
AcDbEntity
  8
0
 48
0.27
100
AcDbLine
 10
19.33836493915698
 20
-5.999999984265896
 30
-0.0000000000000018
 11
17.83836493915699
 21
-7.499999984265896
 31
-0.0000000000000018
  0
LINE
  5
51DA
330
1E
100
AcDbEntity
  8
0
 48
0.27
100
AcDbLine
 10
19.33836493925498
 20
-0.5000199842659026
 30
-0.0000000000000018
 11
19.33836493925498
 21
-5.999999984265838
 31
-0.0000000000000018
  0
LINE
  5
51DB
330
1E
100
AcDbEntity
  8
0
 48
0.27
100
AcDbLine
 10
19.33836493915698
 20
-0.5000199842658457
 30
-0.0000000000000018
 11
19.33836493915698
 21
-5.999999984265896
 31
-0.0000000000000018
  0
LINE
  5
51DC
330
1E
100
AcDbEntity
  8
0
 48
0.27
100
AcDbLine
 10
14.13836495505502
 20
10.18000001573411
 30
-0.0000000000000018
 11
14.13836495505502
 21
4.700000015734119
 31
-0.0000000000000018
  0
LINE
  5
51DD
330
1E
100
AcDbEntity
  8
0
 48
0.27
100
AcDbLine
 10
14.13836495495703
 20
10.18000001573411
 30
-0.0000000000000018
 11
14.13836495495703
 21
4.700000015734119
 31
-0.0000000000000018
  0
LINE
  5
51DE
330
1E
100
AcDbEntity
  8
0
 48
0.27
100
AcDbLine
 10
14.13836493915705
 20
10.18000001573416
 30
-0.0000000000000018
 11
14.13836493915705
 21
4.700000015734148
 31
-0.0000000000000018
  0
LINE
  5
51DF
330
1E
100
AcDbEntity
  8
0
 48
0.27
100
AcDbLine
 10
14.13836493925505
 20
10.18000001573416
 30
-0.0000000000000018
 11
14.13836493925505
 21
4.700000015734148
 31
-0.0000000000000018
  0
LINE
  5
51E0
330
1E
100
AcDbEntity
  8
0
 48
0.27
100
AcDbLine
 10
-10.77163506074502
 20
21.50000001573407
 30
-0.0000000000000018
 11
15.448364939255
 21
21.50000001573407
 31
-0.0000000000000018
  0
LINE
  5
51E1
330
1E
100
AcDbEntity
  8
0
 48
0.27
100
AcDbLine
 10
15.44836495505497
 20
21.50000001573407
 30
-0.0000000000000018
 11
-10.77163507654505
 21
21.50000001573407
 31
-0.0000000000000018
  0
LINE
  5
51E2
330
1E
100
AcDbEntity
  8
0
 48
0.27
100
AcDbLine
 10
-10.77163507664302
 20
21.50000001573407
 30
-0.0000000000000018
 11
15.44836495495703
 21
21.50000001573407
 31
-0.0000000000000018
  0
LINE
  5
51E3
330
1E
100
AcDbEntity
  8
0
 48
0.27
100
AcDbLine
 10
15.448364939157
 20
21.50000001573407
 30
-0.0000000000000018
 11
-10.77163506084302
 21
21.50000001573407
 31
-0.0000000000000018
  0
LINE
  5
51E4
330
1E
100
AcDbEntity
  8
0
 48
0.27
100
AcDbLine
 10
-14.66163506074501
 20
17.61000001573411
 30
-0.0000000000000018
 11
-14.11554606588281
 21
18.15608901059632
 31
-0.0000000000000018
  0
LINE
  5
51E5
330
1E
100
AcDbEntity
  8
0
 48
0.27
100
AcDbLine
 10
-14.66163507654504
 20
17.61000001573409
 30
-0.0000000000000018
 11
-14.11554608164504
 21
18.15608901063409
 31
-0.0000000000000018
  0
LINE
  5
51E6
330
1E
100
AcDbEntity
  8
0
 48
0.27
100
AcDbLine
 10
-14.66163507664304
 20
17.61000001573409
 30
-0.0000000000000018
 11
-14.11554608174304
 21
18.15608901063409
 31
-0.0000000000000018
  0
LINE
  5
51E7
330
1E
100
AcDbEntity
  8
0
 48
0.27
100
AcDbLine
 10
-14.66163506084301
 20
17.61000001573411
 30
-0.0000000000000018
 11
-14.11554606598081
 21
18.15608901059632
 31
-0.0000000000000018
  0
ARC
  5
51E8
330
1E
100
AcDbEntity
  8
0
 48
0.27
100
AcDbCircle
 10
-14.52920865387379
 20
21.36957360886292
 30
-0.0000000000000018
 40
3.24
100
AcDbArc
 50
277.3351813687926
 51
352.6648186312073
  0
ARC
  5
51E9
330
1E
100
AcDbEntity
  8
0
 48
0.27
100
AcDbCircle
 10
-14.52920866964506
 20
21.36957360893409
 30
-0.0000000000000018
 40
3.24
100
AcDbArc
 50
277.3351813687991
 51
352.664818631201
  0
ARC
  5
51EA
330
1E
100
AcDbEntity
  8
0
 48
0.27
100
AcDbCircle
 10
-14.52920866974305
 20
21.36957360893409
 30
-0.0000000000000018
 40
3.24
100
AcDbArc
 50
277.3351813687991
 51
352.664818631201
  0
ARC
  5
51EB
330
1E
100
AcDbEntity
  8
0
 48
0.27
100
AcDbCircle
 10
-14.52920865397179
 20
21.36957360886292
 30
-0.0000000000000018
 40
3.24
100
AcDbArc
 50
277.3351813687926
 51
352.6648186312073
  0
ARC
  5
51EC
330
1E
100
AcDbEntity
  8
0
 48
0.27
100
AcDbCircle
 10
-14.52920865387379
 20
11.63142642260527
 30
-0.0000000000000018
 40
3.24
100
AcDbArc
 50
7.110645891652418
 51
82.88935410834389
  0
ARC
  5
51ED
330
1E
100
AcDbEntity
  8
0
 48
0.27
100
AcDbCircle
 10
-14.52920866964506
 20
11.63142642263408
 30
-0.0000000000000018
 40
3.24
100
AcDbArc
 50
7.110645891698572
 51
82.88935410830147
  0
ARC
  5
51EE
330
1E
100
AcDbEntity
  8
0
 48
0.27
100
AcDbCircle
 10
-14.52920866974305
 20
11.63142642263408
 30
-0.0000000000000018
 40
3.24
100
AcDbArc
 50
7.110645891698572
 51
82.88935410830147
  0
ARC
  5
51EF
330
1E
100
AcDbEntity
  8
0
 48
0.27
100
AcDbCircle
 10
-14.52920865397191
 20
11.63142642260527
 30
-0.0000000000000018
 40
3.24
100
AcDbArc
 50
7.110645891652418
 51
82.88935410834389
  0
LINE
  5
51F0
330
1E
100
AcDbEntity
  8
0
 48
0.27
100
AcDbLine
 10
-14.66163506074501
 20
17.61000001573411
 30
-0.0000000000000018
 11
-14.66163506074501
 21
15.3800000157341
 31
-0.0000000000000018
  0
LINE
  5
51F1
330
1E
100
AcDbEntity
  8
0
 48
0.27
100
AcDbLine
 10
-14.66163507654504
 20
17.61000001573409
 30
-0.0000000000000018
 11
-14.66163507654504
 21
15.3800000157341
 31
-0.0000000000000018
  0
LINE
  5
51F2
330
1E
100
AcDbEntity
  8
0
 48
0.27
100
AcDbLine
 10
-14.66163507664304
 20
17.61000001573409
 30
-0.0000000000000018
 11
-14.66163507664304
 21
15.3800000157341
 31
-0.0000000000000018
  0
LINE
  5
51F3
330
1E
100
AcDbEntity
  8
0
 48
0.27
100
AcDbLine
 10
-14.66163506084301
 20
17.61000001573411
 30
-0.0000000000000018
 11
-14.66163506084301
 21
15.3800000157341
 31
-0.0000000000000018
  0
LINE
  5
51F4
330
1E
100
AcDbEntity
  8
0
 48
0.27
100
AcDbLine
 10
-14.66163506074501
 20
15.3800000157341
 30
-0.0000000000000018
 11
-14.12814248141847
 21
14.84650743640755
 31
-0.0000000000000018
  0
LINE
  5
51F5
330
1E
100
AcDbEntity
  8
0
 48
0.27
100
AcDbLine
 10
-14.66163507654504
 20
15.3800000157341
 30
-0.0000000000000018
 11
-14.12814249724504
 21
14.84650743643409
 31
-0.0000000000000018
  0
LINE
  5
51F6
330
1E
100
AcDbEntity
  8
0
 48
0.27
100
AcDbLine
 10
-14.66163507664304
 20
15.3800000157341
 30
-0.0000000000000018
 11
-14.12814249734304
 21
14.84650743643409
 31
-0.0000000000000018
  0
LINE
  5
51F7
330
1E
100
AcDbEntity
  8
0
 48
0.27
100
AcDbLine
 10
-14.66163506084301
 20
15.3800000157341
 30
-0.0000000000000018
 11
-14.12814248151646
 21
14.84650743640755
 31
-0.0000000000000018
  0
LINE
  5
51F8
330
1E
100
AcDbEntity
  8
0
 48
0.27
100
AcDbLine
 10
-11.31572405560727
 20
20.95591102087194
 30
-0.0000000000000018
 11
-10.77163506074502
 21
21.50000001573407
 31
-0.0000000000000018
  0
LINE
  5
51F9
330
1E
100
AcDbEntity
  8
0
 48
0.27
100
AcDbLine
 10
-11.31572407144505
 20
20.95591102093407
 30
-0.0000000000000018
 11
-10.77163507654505
 21
21.50000001573407
 31
-0.0000000000000018
  0
LINE
  5
51FA
330
1E
100
AcDbEntity
  8
0
 48
0.27
100
AcDbLine
 10
-11.31572407154304
 20
20.95591102093407
 30
-0.0000000000000018
 11
-10.77163507664305
 21
21.50000001573407
 31
-0.0000000000000018
  0
LINE
  5
51FB
330
1E
100
AcDbEntity
  8
0
 48
0.27
100
AcDbLine
 10
-11.31572405570516
 20
20.95591102087194
 30
-0.0000000000000018
 11
-10.77163506084302
 21
21.50000001573407
 31
-0.0000000000000018
  0
LINE
  5
51FC
330
1E
100
AcDbEntity
  8
虛線
 48
0.27
100
AcDbLine
 10
9.338364939254988
 20
21.10000001573411
 30
-0.0000000000000018
 11
-4.661635060745011
 21
21.10000001573411
 31
-0.0000000000000018
  0
LINE
  5
51FD
330
1E
100
AcDbEntity
  8
虛線
 48
0.27
100
AcDbLine
 10
-4.661635060843011
 20
21.10000001573411
 30
-0.0000000000000018
 11
9.338364939156988
 21
21.10000001573411
 31
-0.0000000000000018
  0
LINE
  5
51FE
330
1E
100
AcDbEntity
  8
虛線
 48
0.27
100
AcDbLine
 10
-4.661635060745011
 20
21.10000001573411
 30
-0.0000000000000018
 11
-4.892575168420917
 21
21.50000001573407
 31
-0.0000000000000018
  0
LINE
  5
51FF
330
1E
100
AcDbEntity
  8
虛線
 48
0.27
100
AcDbLine
 10
-4.661635060843011
 20
21.10000001573411
 30
-0.0000000000000018
 11
-4.892575168518916
 21
21.50000001573407
 31
-0.0000000000000018
  0
ARC
  5
5200
330
1E
100
AcDbEntity
  8
0
 48
0.27
100
AcDbCircle
 10
19.20593853238388
 20
11.63142642260527
 30
-0.0000000000000018
 40
3.24
100
AcDbArc
 50
97.11064589165609
 51
172.8893541083476
  0
ARC
  5
5201
330
1E
100
AcDbEntity
  8
0
 48
0.27
100
AcDbCircle
 10
19.20593854815503
 20
11.63142642263408
 30
-0.0000000000000018
 40
3.24
100
AcDbArc
 50
97.11064589169851
 51
172.8893541083014
  0
ARC
  5
5202
330
1E
100
AcDbEntity
  8
0
 48
0.27
100
AcDbCircle
 10
19.20593854805703
 20
11.63142642263408
 30
-0.0000000000000018
 40
3.24
100
AcDbArc
 50
97.11064589169851
 51
172.8893541083014
  0
ARC
  5
5203
330
1E
100
AcDbEntity
  8
0
 48
0.27
100
AcDbCircle
 10
19.20593853228577
 20
11.63142642260527
 30
-0.0000000000000018
 40
3.24
100
AcDbArc
 50
97.11064589165609
 51
172.8893541083476
  0
ARC
  5
5204
330
1E
100
AcDbEntity
  8
0
 48
0.27
100
AcDbCircle
 10
19.20593853238376
 20
21.36957360886292
 30
-0.0000000000000018
 40
3.24
100
AcDbArc
 50
187.3351813687926
 51
262.6648186312074
  0
ARC
  5
5205
330
1E
100
AcDbEntity
  8
0
 48
0.27
100
AcDbCircle
 10
19.20593854815503
 20
21.36957360893409
 30
-0.0000000000000018
 40
3.24
100
AcDbArc
 50
187.3351813687989
 51
262.664818631201
  0
ARC
  5
5206
330
1E
100
AcDbEntity
  8
0
 48
0.27
100
AcDbCircle
 10
19.20593854805703
 20
21.36957360893409
 30
-0.0000000000000018
 40
3.24
100
AcDbArc
 50
187.3351813687989
 51
262.664818631201
  0
ARC
  5
5207
330
1E
100
AcDbEntity
  8
0
 48
0.27
100
AcDbCircle
 10
19.20593853228577
 20
21.36957360886292
 30
-0.0000000000000018
 40
3.24
100
AcDbArc
 50
187.3351813687926
 51
262.6648186312074
  0
LINE
  5
5208
330
1E
100
AcDbEntity
  8
虛線
 48
0.27
100
AcDbLine
 10
9.338364939254988
 20
21.10000001573411
 30
-0.0000000000000018
 11
9.569305046930892
 21
21.50000001573407
 31
-0.0000000000000018
  0
LINE
  5
5209
330
1E
100
AcDbEntity
  8
虛線
 48
0.27
100
AcDbLine
 10
9.338364939156988
 20
21.10000001573411
 30
-0.0000000000000018
 11
9.569305046832894
 21
21.50000001573407
 31
-0.0000000000000018
  0
LINE
  5
520A
330
1E
100
AcDbEntity
  8
0
 48
0.27
100
AcDbLine
 10
15.99245393411713
 20
20.95591102087194
 30
-0.0000000000000018
 11
15.448364939255
 21
21.50000001573407
 31
-0.0000000000000018
  0
LINE
  5
520B
330
1E
100
AcDbEntity
  8
0
 48
0.27
100
AcDbLine
 10
15.99245394995502
 20
20.95591102093407
 30
-0.0000000000000018
 11
15.44836495505502
 21
21.50000001573407
 31
-0.0000000000000018
  0
LINE
  5
520C
330
1E
100
AcDbEntity
  8
0
 48
0.27
100
AcDbLine
 10
15.99245394985702
 20
20.95591102093407
 30
-0.0000000000000018
 11
15.44836495495703
 21
21.50000001573407
 31
-0.0000000000000018
  0
LINE
  5
520D
330
1E
100
AcDbEntity
  8
0
 48
0.27
100
AcDbLine
 10
15.99245393401925
 20
20.95591102087194
 30
-0.0000000000000018
 11
15.448364939157
 21
21.50000001573407
 31
-0.0000000000000018
  0
LINE
  5
520E
330
1E
100
AcDbEntity
  8
0
 48
0.27
100
AcDbLine
 10
19.33836493925498
 20
17.61000001573411
 30
-0.0000000000000018
 11
18.79227594439278
 21
18.15608901059632
 31
-0.0000000000000018
  0
LINE
  5
520F
330
1E
100
AcDbEntity
  8
0
 48
0.27
100
AcDbLine
 10
19.33836495505501
 20
17.61000001573409
 30
-0.0000000000000018
 11
18.792275960155
 21
18.15608901063409
 31
-0.0000000000000018
  0
LINE
  5
5210
330
1E
100
AcDbEntity
  8
0
 48
0.27
100
AcDbLine
 10
19.33836495495701
 20
17.61000001573409
 30
-0.0000000000000018
 11
18.79227596005701
 21
18.15608901063409
 31
-0.0000000000000018
  0
LINE
  5
5211
330
1E
100
AcDbEntity
  8
0
 48
0.27
100
AcDbLine
 10
19.33836493915698
 20
17.61000001573411
 30
-0.0000000000000018
 11
18.79227594429478
 21
18.15608901059632
 31
-0.0000000000000018
  0
LINE
  5
5212
330
1E
100
AcDbEntity
  8
0
 48
0.27
100
AcDbLine
 10
19.33836493925498
 20
17.61000001573411
 30
-0.0000000000000018
 11
19.33836493925498
 21
15.3800000157341
 31
-0.0000000000000018
  0
LINE
  5
5213
330
1E
100
AcDbEntity
  8
0
 48
0.27
100
AcDbLine
 10
19.33836495505501
 20
17.61000001573409
 30
-0.0000000000000018
 11
19.33836495505501
 21
15.3800000157341
 31
-0.0000000000000018
  0
LINE
  5
5214
330
1E
100
AcDbEntity
  8
0
 48
0.27
100
AcDbLine
 10
19.33836495495701
 20
17.61000001573409
 30
-0.0000000000000018
 11
19.33836495495701
 21
15.3800000157341
 31
-0.0000000000000018
  0
LINE
  5
5215
330
1E
100
AcDbEntity
  8
0
 48
0.27
100
AcDbLine
 10
19.33836493915698
 20
17.61000001573411
 30
-0.0000000000000018
 11
19.33836493915698
 21
15.3800000157341
 31
-0.0000000000000018
  0
LINE
  5
5216
330
1E
100
AcDbEntity
  8
0
 48
0.27
100
AcDbLine
 10
19.33836493925498
 20
15.3800000157341
 30
-0.0000000000000018
 11
18.80487235992843
 21
14.84650743640755
 31
-0.0000000000000018
  0
LINE
  5
5217
330
1E
100
AcDbEntity
  8
0
 48
0.27
100
AcDbLine
 10
19.33836495505501
 20
15.3800000157341
 30
-0.0000000000000018
 11
18.80487237575501
 21
14.84650743643409
 31
-0.0000000000000018
  0
LINE
  5
5218
330
1E
100
AcDbEntity
  8
0
 48
0.27
100
AcDbLine
 10
19.33836495495701
 20
15.3800000157341
 30
-0.0000000000000018
 11
18.80487237565701
 21
14.84650743643409
 31
-0.0000000000000018
  0
LINE
  5
5219
330
1E
100
AcDbEntity
  8
0
 48
0.27
100
AcDbLine
 10
19.33836493915698
 20
15.3800000157341
 30
-0.0000000000000018
 11
18.80487235983044
 21
14.84650743640755
 31
-0.0000000000000018
  0
LINE
  5
521B
330
1E
100
AcDbEntity
  8
0
 48
0.27
100
AcDbLine
 10
36.83836493923087
 20
17.0000000000013
 30
-0.0000000000000018
 11
36.83836493923087
 21
2.500000000001294
 31
-0.0000000000000018
  0
LINE
  5
521C
330
1E
100
AcDbEntity
  8
0
 48
0.27
100
AcDbLine
 10
36.33836493920633
 20
1.999999999934105
 30
-0.0000000000000018
 11
36.33836493920633
 21
36.99999999993411
 31
-0.0000000000000018
  0
LINE
  5
521D
330
1E
100
AcDbEntity
  8
0
 48
0.27
100
AcDbLine
 10
-32.16163506076913
 20
29.79999999824123
 30
-0.0000000000000018
 11
-32.16163506076913
 21
2.500000000001294
 31
-0.0000000000000018
  0
LINE
  5
521E
330
1E
100
AcDbEntity
  8
0
 48
0.27
100
AcDbLine
 10
14.1383649392064
 20
10.18000001573416
 30
-0.0000000000000018
 11
14.1383649392064
 21
4.700000015734148
 31
-0.0000000000000018
  0
LINE
  5
521F
330
1E
100
AcDbEntity
  8
0
 48
0.27
100
AcDbLine
 10
15.51206495500638
 20
9.610994845123952
 30
-0.0000000000000018
 11
15.51206495500638
 21
5.26900363887954
 31
-0.0000000000000018
  0
LINE
  5
5220
330
1E
100
AcDbEntity
  8
0
 48
0.27
100
AcDbLine
 10
14.13836495500637
 20
10.18000001573411
 30
-0.0000000000000018
 11
14.13836495500637
 21
4.700000015734119
 31
-0.0000000000000018
  0
LINE
  5
5221
330
1E
100
AcDbEntity
  8
0
 48
0.27
100
AcDbLine
 10
16.37806495500642
 20
9.252285900122599
 30
-0.0000000000000018
 11
15.51206495500638
 21
9.610994845123952
 31
-0.0000000000000018
  0
LINE
  5
5222
330
1E
100
AcDbEntity
  8
0
 48
0.27
100
AcDbLine
 10
18.09193242046287
 20
10.96615336567158
 30
-0.0000000000000018
 11
16.37806495500642
 21
9.252285900122599
 31
-0.0000000000000018
  0
LINE
  5
5223
330
1E
100
AcDbEntity
  8
0
 48
0.27
100
AcDbLine
 10
-9.46163506079374
 20
10.18000001573416
 30
-0.0000000000000018
 11
-9.46163506079374
 21
4.700000015734148
 31
-0.0000000000000018
  0
LINE
  5
5224
330
1E
100
AcDbEntity
  8
0
 48
0.27
100
AcDbLine
 10
-9.461635076593706
 20
10.18000001573411
 30
-0.0000000000000018
 11
-9.461635076593706
 21
4.700000015734119
 31
-0.0000000000000018
  0
LINE
  5
5225
330
1E
100
AcDbEntity
  8
0
 48
0.27
100
AcDbLine
 10
-10.83533507659372
 20
9.610994845123952
 30
-0.0000000000000018
 11
-10.83533507659372
 21
5.26900363887954
 31
-0.0000000000000018
  0
LINE
  5
5226
330
1E
100
AcDbEntity
  8
0
 48
0.27
100
AcDbLine
 10
-11.70133507659376
 20
9.252285900122599
 30
-0.0000000000000018
 11
-10.83533507659372
 21
9.610994845123952
 31
-0.0000000000000018
  0
LINE
  5
5227
330
1E
100
AcDbEntity
  8
0
 48
0.27
100
AcDbLine
 10
-13.41520254205021
 20
10.96615336567158
 30
-0.0000000000000018
 11
-11.70133507659376
 21
9.252285900122599
 31
-0.0000000000000018
  0
LINE
  5
5228
330
1E
100
AcDbEntity
  8
0
 48
0.27
100
AcDbLine
 10
-31.66163506079367
 20
1.999999999934105
 30
-0.0000000000000018
 11
-31.66163506079367
 21
36.99999999993411
 31
-0.0000000000000018
  0
LINE
  5
5229
330
1E
100
AcDbEntity
  8
0
 48
0.27
100
AcDbLine
 10
18.83834662471498
 20
0.0000002691729026
 30
-0.0000000000000018
 11
34.33836532000153
 21
0.0000005220948527
 31
-0.0000000000000018
  0
LINE
  5
522A
330
1E
100
AcDbEntity
  8
0
 48
0.27
100
AcDbLine
 10
-14.16161674630233
 20
0.0000002691729026
 30
-0.0000000000000018
 11
-29.66163544158887
 21
0.0000005220948527
 31
-0.0000000000000018
  0
LINE
  5
522B
330
1E
100
AcDbEntity
  8
0
 48
0.27
100
AcDbLine
 10
-31.66163506079367
 20
1.999999999934105
 30
-0.0000000000000018
 11
-29.66163506079367
 21
-0.000000000065894
 31
-0.0000000000000018
  0
LINE
  5
522C
330
1E
100
AcDbEntity
  8
0
 48
0.27
100
AcDbLine
 10
-10.83533507659372
 20
5.26900363887954
 30
-0.0000000000000018
 11
-9.461635076593706
 21
4.700000015734119
 31
-0.0000000000000018
  0
LINE
  5
522D
330
1E
100
AcDbEntity
  8
0
 48
0.27
100
AcDbLine
 10
-14.16161674630233
 20
0.0000002691729026
 30
-0.0000000000000018
 11
-9.461635076593706
 21
4.700000015734119
 31
-0.0000000000000018
  0
LINE
  5
522E
330
1E
100
AcDbEntity
  8
0
 48
0.27
100
AcDbLine
 10
-15.04319338806066
 20
2.285840443569059
 30
-0.0000000000000018
 11
-11.70133507659373
 21
5.627711608337151
 31
-0.0000000000000018
  0
LINE
  5
522F
330
1E
100
AcDbEntity
  8
0
 48
0.27
100
AcDbLine
 10
-16.10431814928078
 20
0.000000300872971
 30
-0.0000000000000018
 11
-10.83533507659372
 21
5.26900363887954
 31
-0.0000000000000018
  0
ARC
  5
5230
330
1E
100
AcDbEntity
  8
0
 48
0.27
100
AcDbCircle
 10
-17.66163506079367
 20
3.749999999934106
 30
-0.0000000000000018
 40
3.0
100
AcDbArc
 50
299.2129235960597
 51
330.7872967719009
  0
LINE
  5
5231
330
1E
100
AcDbEntity
  8
0
 48
0.27
100
AcDbLine
 10
-17.3290247191136
 20
0.0000003208571275
 30
-0.0000000000000018
 11
-16.1974654335293
 21
1.131563958592538
 31
-0.0000000000000018
  0
LINE
  5
5232
330
1E
100
AcDbEntity
  8
0
 48
0.27
100
AcDbLine
 10
-11.70133507659376
 20
9.252285900122599
 30
-0.0000000000000018
 11
-11.70133507659373
 21
5.627711608337151
 31
-0.0000000000000018
  0
LINE
  5
5233
330
1E
100
AcDbEntity
  8
0
 48
0.27
100
AcDbLine
 10
-11.70133507659373
 20
5.627711608337151
 30
-0.0000000000000018
 11
-10.83533507659372
 21
5.26900363887954
 31
-0.0000000000000018
  0
LINE
  5
5234
330
1E
100
AcDbEntity
  8
0
 48
0.27
100
AcDbLine
 10
15.51206495500638
 20
5.26900363887954
 30
-0.0000000000000018
 11
14.13836495500637
 21
4.700000015734119
 31
-0.0000000000000018
  0
LINE
  5
5235
330
1E
100
AcDbEntity
  8
0
 48
0.27
100
AcDbLine
 10
18.83834662471498
 20
0.0000002691729026
 30
-0.0000000000000018
 11
14.13836495500637
 21
4.700000015734119
 31
-0.0000000000000018
  0
LINE
  5
5236
330
1E
100
AcDbEntity
  8
0
 48
0.27
100
AcDbLine
 10
19.71992326647331
 20
2.285840443569059
 30
-0.0000000000000018
 11
16.37806495500639
 21
5.627711608337151
 31
-0.0000000000000018
  0
LINE
  5
5237
330
1E
100
AcDbEntity
  8
0
 48
0.27
100
AcDbLine
 10
20.78104802769344
 20
0.000000300872971
 30
-0.0000000000000018
 11
15.51206495500638
 21
5.26900363887954
 31
-0.0000000000000018
  0
ARC
  5
5238
330
1E
100
AcDbEntity
  8
0
 48
0.27
100
AcDbCircle
 10
22.33836494376329
 20
3.749999999934106
 30
-0.0000000000000018
 40
3.0
100
AcDbArc
 50
209.2127032280991
 51
240.7870764039404
  0
LINE
  5
5239
330
1E
100
AcDbEntity
  8
0
 48
0.27
100
AcDbLine
 10
22.00575459752626
 20
0.0000003208571275
 30
-0.0000000000000018
 11
20.87419531194196
 21
1.131563958592538
 31
-0.0000000000000018
  0
LINE
  5
523A
330
1E
100
AcDbEntity
  8
0
 48
0.27
100
AcDbLine
 10
16.37806495500642
 20
9.252285900122599
 30
-0.0000000000000018
 11
16.37806495500639
 21
5.627711608337151
 31
-0.0000000000000018
  0
LINE
  5
523B
330
1E
100
AcDbEntity
  8
0
 48
0.27
100
AcDbLine
 10
16.37806495500639
 20
5.627711608337151
 30
-0.0000000000000018
 11
15.51206495500638
 21
5.26900363887954
 31
-0.0000000000000018
  0
LINE
  5
523C
330
1E
100
AcDbEntity
  8
0
 48
0.27
100
AcDbLine
 10
36.33836493920633
 20
1.999999999934105
 30
-0.0000000000000018
 11
34.33836493920633
 21
-0.000000000065894
 31
-0.0000000000000018
  0
LINE
  5
523D
330
1E
100
AcDbEntity
  8
0
 48
0.27
100
AcDbLine
 10
26.33836493700147
 20
0.000000000001295
 30
-0.0000000000000018
 11
34.33836493923087
 21
0.000000000001295
 31
-0.0000000000000018
  0
LINE
  5
523E
330
1E
100
AcDbEntity
  8
0
 48
0.27
100
AcDbLine
 10
-21.6616350585395
 20
0.000000000001295
 30
-0.0000000000000018
 11
-29.66163506076913
 21
0.000000000001295
 31
-0.0000000000000018
  0
LINE
  5
523F
330
1E
100
AcDbEntity
  8
0
 48
0.27
100
AcDbLine
 10
-29.66163506076913
 20
0.000000000001295
 30
-0.0000000000000018
 11
-32.16163506076913
 21
2.500000000001294
 31
-0.0000000000000018
  0
LINE
  5
5240
330
1E
100
AcDbEntity
  8
0
 48
0.27
100
AcDbLine
 10
36.83836493923087
 20
2.500000000001294
 30
-0.0000000000000018
 11
34.33836493923087
 21
0.000000000001295
 31
-0.0000000000000018
  0
LINE
  5
5241
330
1E
100
AcDbEntity
  8
0
 48
0.27
100
AcDbLine
 10
34.33836493920633
 20
38.9999999999341
 30
-0.0000000000000018
 11
-29.66163506079367
 21
38.9999999999341
 31
-0.0000000000000018
  0
LINE
  5
5243
330
1E
100
AcDbEntity
  8
0
 48
0.27
100
AcDbLine
 10
15.44836493920634
 20
21.5000000157341
 30
-0.0000000000000018
 11
-10.77163506079368
 21
21.5000000157341
 31
-0.0000000000000018
  0
LINE
  5
5244
330
1E
100
AcDbEntity
  8
0
 48
0.27
100
AcDbLine
 10
-11.69934919212018
 20
23.7397000157341
 30
-0.0000000000000018
 11
16.37607907053281
 21
23.73970001573416
 31
-0.0000000000000018
  0
LINE
  5
5245
330
1E
100
AcDbEntity
  8
0
 48
0.27
100
AcDbLine
 10
-11.34064024715165
 20
22.87370001573412
 30
-0.0000000000000018
 11
16.01737012556431
 21
22.87370001573412
 31
-0.0000000000000018
  0
LINE
  5
5246
330
1E
100
AcDbEntity
  8
0
 48
0.27
100
AcDbLine
 10
-10.77163507659368
 20
21.5000000157341
 30
-0.0000000000000018
 11
15.44836495500637
 21
21.5000000157341
 31
-0.0000000000000018
  0
ARC
  5
5248
330
1E
100
AcDbEntity
  8
0
 48
0.27
100
AcDbCircle
 10
-14.52920866969371
 20
21.36957360893409
 30
-0.0000000000000018
 40
1.000299999999999
100
AcDbArc
 50
258.3631432639153
 51
11.63685674236763
  0
LINE
  5
5249
330
1E
100
AcDbEntity
  8
0
 48
0.27
100
AcDbLine
 10
-12.67101442454695
 20
21.54332583858327
 30
-0.0000000000000018
 11
-11.3157240714937
 21
20.95591102093407
 31
-0.0000000000000018
  0
ARC
  5
524A
330
1E
100
AcDbEntity
  8
0
 48
0.27
100
AcDbCircle
 10
-14.52920866969371
 20
21.36957360893409
 30
-0.0000000000000018
 40
1.8663
100
AcDbArc
 50
264.6580361333635
 51
5.341963871443407
  0
LINE
  5
524B
330
1E
100
AcDbEntity
  8
0
 48
0.27
100
AcDbLine
 10
-11.31572405565582
 20
20.95591102087197
 30
-0.0000000000000018
 11
-10.77163506079368
 21
21.5000000157341
 31
-0.0000000000000018
  0
LINE
  5
524C
330
1E
100
AcDbEntity
  8
0
 48
0.27
100
AcDbLine
 10
-11.3157240714937
 20
20.95591102093407
 30
-0.0000000000000018
 11
-10.77163507659371
 21
21.5000000157341
 31
-0.0000000000000018
  0
LINE
  5
524D
330
1E
100
AcDbEntity
  8
0
 48
0.27
100
AcDbLine
 10
-10.83533507659372
 20
9.610994845123952
 30
-0.0000000000000018
 11
-9.461635076593706
 21
10.18000001573411
 31
-0.0000000000000018
  0
LINE
  5
524E
330
1E
100
AcDbEntity
  8
0
 48
0.27
100
AcDbLine
 10
-11.31412764012025
 20
12.03249259506056
 30
-0.0000000000000018
 11
-9.46163506079374
 21
10.18000001573416
 31
-0.0000000000000018
  0
LINE
  5
524F
330
1E
100
AcDbEntity
  8
0
 48
0.27
100
AcDbLine
 10
-11.31412765589367
 20
12.03249259513408
 30
-0.0000000000000018
 11
-9.461635076593706
 21
10.18000001573411
 31
-0.0000000000000018
  0
LINE
  5
5250
330
1E
100
AcDbEntity
  8
0
 48
0.27
100
AcDbLine
 10
-14.66163506079367
 20
15.3800000157341
 30
-0.0000000000000018
 11
-14.12814248146712
 21
14.84650743640755
 31
-0.0000000000000018
  0
LINE
  5
5251
330
1E
100
AcDbEntity
  8
0
 48
0.27
100
AcDbLine
 10
-14.66163507659369
 20
15.3800000157341
 30
-0.0000000000000018
 11
-14.1281424972937
 21
14.84650743643409
 31
-0.0000000000000018
  0
ARC
  5
5252
330
1E
100
AcDbEntity
  8
0
 48
0.27
100
AcDbCircle
 10
-14.52920865392256
 20
11.63142642260523
 30
-0.0000000000000018
 40
3.24
100
AcDbArc
 50
7.110645891652624
 51
82.8893541083441
  0
ARC
  5
5253
330
1E
100
AcDbEntity
  8
0
 48
0.27
100
AcDbCircle
 10
-14.52920866969371
 20
11.63142642263408
 30
-0.0000000000000018
 40
3.24
100
AcDbArc
 50
7.110645891700214
 51
82.88935410830147
  0
LINE
  5
5254
330
1E
100
AcDbEntity
  8
0
 48
0.27
100
AcDbLine
 10
-16.03533507659371
 20
18.17900518636598
 30
-0.0000000000000018
 11
-16.03533507659371
 21
14.81099484510217
 31
-0.0000000000000018
  0
LINE
  5
5255
330
1E
100
AcDbEntity
  8
0
 48
0.27
100
AcDbLine
 10
-16.90133507659375
 20
18.53771413138106
 30
-0.0000000000000018
 11
-16.90133507659372
 21
14.45228590008712
 31
-0.0000000000000018
  0
LINE
  5
5256
330
1E
100
AcDbEntity
  8
0
 48
0.27
100
AcDbLine
 10
-16.03533507659371
 20
14.81099484510217
 30
-0.0000000000000018
 11
-14.66163507659369
 21
15.3800000157341
 31
-0.0000000000000018
  0
ARC
  5
5257
330
1E
100
AcDbEntity
  8
0
 48
0.27
100
AcDbCircle
 10
-14.52920866969371
 20
11.63142642263408
 30
-0.0000000000000018
 40
1.000299999999999
100
AcDbArc
 50
348.0082083486939
 51
101.9917916554315
  0
ARC
  5
5258
330
1E
100
AcDbEntity
  8
0
 48
0.27
100
AcDbCircle
 10
-14.52920866969371
 20
11.63142642263408
 30
-0.0000000000000018
 40
1.8663
100
AcDbArc
 50
354.3485551779203
 51
95.65144482547513
  0
LINE
  5
5259
330
1E
100
AcDbEntity
  8
0
 48
0.27
100
AcDbLine
 10
-14.1281424972937
 20
14.84650743643409
 30
-0.0000000000000018
 11
-14.71299528076174
 21
13.48865504927023
 31
-0.0000000000000018
  0
LINE
  5
525A
330
1E
100
AcDbEntity
  8
0
 48
0.27
100
AcDbLine
 10
-14.71299528076061
 20
13.4886550492691
 30
-0.0000000000000018
 11
-14.73704255783907
 21
12.60989725252129
 31
-0.0000000000000018
  0
LINE
  5
525B
330
1E
100
AcDbEntity
  8
0
 48
0.27
100
AcDbLine
 10
-16.90133507659372
 20
14.45228590008712
 30
-0.0000000000000018
 11
-16.03533507659371
 21
14.81099484510217
 31
-0.0000000000000018
  0
LINE
  5
525C
330
1E
100
AcDbEntity
  8
0
 48
0.27
100
AcDbLine
 10
-16.90133507659372
 20
14.45228590008712
 30
-0.0000000000000018
 11
-15.19448172677137
 21
12.74543255026471
 31
-0.0000000000000018
  0
ARC
  5
525D
330
1E
100
AcDbEntity
  8
0
 48
0.27
100
AcDbCircle
 10
-14.84092833617812
 20
13.09898594085796
 30
-0.0000000000000018
 40
0.5
100
AcDbArc
 50
225.0
 51
281.9917916554295
  0
LINE
  5
525E
330
1E
100
AcDbEntity
  8
0
 48
0.27
100
AcDbLine
 10
-15.1944817267714
 20
12.74543255026468
 30
-0.0000000000000018
 11
-14.71299528076061
 21
13.4886550492691
 31
-0.0000000000000018
  0
LINE
  5
525F
330
1E
100
AcDbEntity
  8
0
 48
0.27
100
AcDbLine
 10
-16.03533507659371
 20
14.81099484510217
 30
-0.0000000000000018
 11
-14.71299528076174
 21
13.48865504927023
 31
-0.0000000000000018
  0
ARC
  5
5260
330
1E
100
AcDbEntity
  8
0
 48
0.27
100
AcDbCircle
 10
-13.06164915144738
 20
11.31970675625531
 30
-0.0000000000000018
 40
0.5
100
AcDbArc
 50
168.0082083486922
 51
224.9999999984523
  0
LINE
  5
5261
330
1E
100
AcDbEntity
  8
0
 48
0.27
100
AcDbLine
 10
-12.67198004304667
 20
11.44763981167607
 30
-0.0000000000000018
 11
-11.31412765589745
 21
12.03249259513787
 31
-0.0000000000000018
  0
LINE
  5
5262
330
1E
100
AcDbEntity
  8
0
 48
0.27
100
AcDbLine
 10
-13.41520254205021
 20
10.96615336567158
 30
-0.0000000000000018
 11
-12.67198004304798
 21
11.4476398116755
 31
-0.0000000000000018
  0
LINE
  5
5263
330
1E
100
AcDbEntity
  8
0
 48
0.27
100
AcDbLine
 10
-12.67198004304798
 20
11.4476398116755
 30
-0.0000000000000018
 11
-13.5507378397924
 21
11.42359253455937
 31
-0.0000000000000018
  0
LINE
  5
5264
330
1E
100
AcDbEntity
  8
0
 48
0.27
100
AcDbLine
 10
-12.67198004304667
 20
11.44763981167607
 30
-0.0000000000000018
 11
-10.83533507659372
 21
9.610994845123952
 31
-0.0000000000000018
  0
ARC
  5
5265
330
1E
100
AcDbEntity
  8
0
 48
0.27
100
AcDbCircle
 10
-14.52920865392244
 20
21.36957360886295
 30
-0.0000000000000018
 40
3.24
100
AcDbArc
 50
277.3351813687926
 51
352.6648186312057
  0
ARC
  5
5266
330
1E
100
AcDbEntity
  8
0
 48
0.27
100
AcDbCircle
 10
-14.52920866969371
 20
21.36957360893409
 30
-0.0000000000000018
 40
3.24
100
AcDbArc
 50
277.3351813687991
 51
352.6648186312008
  0
LINE
  5
5267
330
1E
100
AcDbEntity
  8
0
 48
0.27
100
AcDbLine
 10
-14.66163506079367
 20
17.61000001573411
 30
-0.0000000000000018
 11
-14.11554606593147
 21
18.15608901059632
 31
-0.0000000000000018
  0
LINE
  5
5268
330
1E
100
AcDbEntity
  8
0
 48
0.27
100
AcDbLine
 10
-14.11554608170248
 20
18.15608901066754
 30
-0.0000000000000018
 11
-14.702960899187
 21
19.51137936377272
 31
-0.0000000000000018
  0
LINE
  5
5269
330
1E
100
AcDbEntity
  8
0
 48
0.27
100
AcDbLine
 10
-14.73097719433558
 20
20.38983407596432
 30
-0.0000000000000018
 11
-14.70296089918584
 21
19.51137936377388
 31
-0.0000000000000018
  0
LINE
  5
526A
330
1E
100
AcDbEntity
  8
0
 48
0.27
100
AcDbLine
 10
-14.66163507659369
 20
17.61000001573409
 30
-0.0000000000000018
 11
-14.11554608169369
 21
18.15608901063409
 31
-0.0000000000000018
  0
LINE
  5
526B
330
1E
100
AcDbEntity
  8
0
 48
0.27
100
AcDbLine
 10
-14.66163506079367
 20
17.61000001573411
 30
-0.0000000000000018
 11
-14.66163506079367
 21
15.3800000157341
 31
-0.0000000000000018
  0
LINE
  5
526C
330
1E
100
AcDbEntity
  8
0
 48
0.27
100
AcDbLine
 10
-14.66163507659369
 20
17.61000001573409
 30
-0.0000000000000018
 11
-14.66163507659369
 21
15.3800000157341
 31
-0.0000000000000018
  0
LINE
  5
526D
330
1E
100
AcDbEntity
  8
0
 48
0.27
100
AcDbLine
 10
-16.03533507659371
 20
18.17900518636598
 30
-0.0000000000000018
 11
-16.90133507659375
 21
18.53771413138106
 31
-0.0000000000000018
  0
LINE
  5
526E
330
1E
100
AcDbEntity
  8
0
 48
0.27
100
AcDbLine
 10
-16.90133507659375
 20
18.53771413138106
 30
-0.0000000000000018
 11
-15.1853845910481
 21
20.25366461692668
 31
-0.0000000000000018
  0
ARC
  5
526F
330
1E
100
AcDbEntity
  8
0
 48
0.27
100
AcDbCircle
 10
-14.83183120045486
 20
19.90011122633343
 30
-0.0000000000000018
 40
0.5
100
AcDbArc
 50
78.36314326391532
 51
135.0
  0
LINE
  5
5270
330
1E
100
AcDbEntity
  8
0
 48
0.27
100
AcDbLine
 10
-14.702960899187
 20
19.51137936377272
 30
-0.0000000000000018
 11
-15.1853845910481
 21
20.25366461692668
 31
-0.0000000000000018
  0
LINE
  5
5271
330
1E
100
AcDbEntity
  8
0
 48
0.27
100
AcDbLine
 10
-16.03533507659371
 20
18.17900518636598
 30
-0.0000000000000018
 11
-14.702960899187
 21
19.51137936377272
 31
-0.0000000000000018
  0
LINE
  5
5272
330
1E
100
AcDbEntity
  8
0
 48
0.27
100
AcDbLine
 10
-14.66163507659369
 20
17.61000001573409
 30
-0.0000000000000018
 11
-16.03533507659371
 21
18.17900518636598
 31
-0.0000000000000018
  0
LINE
  5
5273
330
1E
100
AcDbEntity
  8
0
 48
0.27
100
AcDbLine
 10
-11.34064024715165
 20
22.87370001573412
 30
-0.0000000000000018
 11
-11.69934919212015
 21
23.73970001573416
 31
-0.0000000000000018
  0
ARC
  5
5274
330
1E
100
AcDbEntity
  8
0
 48
0.27
100
AcDbCircle
 10
-13.05974628712623
 20
21.67219613985638
 30
-0.0000000000000018
 40
0.5
100
AcDbArc
 50
134.9999999947377
 51
191.6368567423693
  0
LINE
  5
5275
330
1E
100
AcDbEntity
  8
0
 48
0.27
100
AcDbLine
 10
-13.41329967768702
 20
22.02574953048212
 30
-0.0000000000000018
 11
-12.67101442454817
 21
21.54332583858316
 31
-0.0000000000000018
  0
LINE
  5
5276
330
1E
100
AcDbEntity
  8
0
 48
0.27
100
AcDbLine
 10
-12.67101442454817
 20
21.54332583858316
 30
-0.0000000000000018
 11
-13.54946913674517
 21
21.57134213368356
 31
-0.0000000000000018
  0
LINE
  5
5277
330
1E
100
AcDbEntity
  8
0
 48
0.27
100
AcDbLine
 10
-12.67101442454695
 20
21.54332583858327
 30
-0.0000000000000018
 11
-11.34064024715165
 21
22.87370001573412
 31
-0.0000000000000018
  0
LINE
  5
5278
330
1E
100
AcDbEntity
  8
0
 48
0.27
100
AcDbLine
 10
-10.77163507659371
 20
21.5000000157341
 30
-0.0000000000000018
 11
-11.34064024715165
 21
22.87370001573412
 31
-0.0000000000000018
  0
LINE
  5
5279
330
1E
100
AcDbEntity
  8
0
 48
0.27
100
AcDbLine
 10
-13.41329967768705
 20
22.02574953048214
 30
-0.0000000000000018
 11
-11.69934919212015
 21
23.73970001573416
 31
-0.0000000000000018
  0
LINE
  5
527A
330
1E
100
AcDbEntity
  8
0
 48
0.27
100
AcDbLine
 10
-29.66163506079367
 20
38.9999999999341
 30
-0.0000000000000018
 11
-31.66163506079367
 21
36.99999999993411
 31
-0.0000000000000018
  0
LINE
  5
527B
330
1E
100
AcDbEntity
  8
0
 48
0.27
100
AcDbLine
 10
15.51206495500638
 20
9.610994845123952
 30
-0.0000000000000018
 11
14.13836495500637
 21
10.18000001573411
 31
-0.0000000000000018
  0
LINE
  5
527C
330
1E
100
AcDbEntity
  8
0
 48
0.27
100
AcDbLine
 10
15.9908575185329
 20
12.03249259506067
 30
-0.0000000000000018
 11
14.1383649392064
 21
10.18000001573416
 31
-0.0000000000000018
  0
LINE
  5
527D
330
1E
100
AcDbEntity
  8
0
 48
0.27
100
AcDbLine
 10
15.99085753430633
 20
12.03249259513408
 30
-0.0000000000000018
 11
14.13836495500637
 21
10.18000001573411
 31
-0.0000000000000018
  0
ARC
  5
527E
330
1E
100
AcDbEntity
  8
0
 48
0.27
100
AcDbCircle
 10
19.20593854810637
 20
21.36957360893409
 30
-0.0000000000000018
 40
1.000299999999999
100
AcDbArc
 50
168.3631432576324
 51
281.6368567360846
  0
LINE
  5
527F
330
1E
100
AcDbEntity
  8
0
 48
0.27
100
AcDbLine
 10
17.34774430295961
 20
21.54332583858327
 30
-0.0000000000000018
 11
15.99245394990636
 21
20.95591102093407
 31
-0.0000000000000018
  0
LINE
  5
5280
330
1E
100
AcDbEntity
  8
0
 48
0.27
100
AcDbLine
 10
15.99245393406859
 20
20.95591102087197
 30
-0.0000000000000018
 11
15.44836493920634
 21
21.5000000157341
 31
-0.0000000000000018
  0
LINE
  5
5281
330
1E
100
AcDbEntity
  8
0
 48
0.27
100
AcDbLine
 10
15.99245394990636
 20
20.95591102093407
 30
-0.0000000000000018
 11
15.44836495500637
 21
21.5000000157341
 31
-0.0000000000000018
  0
ARC
  5
5282
330
1E
100
AcDbEntity
  8
0
 48
0.27
100
AcDbCircle
 10
19.20593854810637
 20
21.36957360893409
 30
-0.0000000000000018
 40
1.8663
100
AcDbArc
 50
174.6580361285566
 51
275.3419638666366
  0
LINE
  5
5283
330
1E
100
AcDbEntity
  8
0
 48
0.27
100
AcDbLine
 10
19.33836493920632
 20
15.3800000157341
 30
-0.0000000000000018
 11
18.80487235987978
 21
14.84650743640755
 31
-0.0000000000000018
  0
LINE
  5
5284
330
1E
100
AcDbEntity
  8
0
 48
0.27
100
AcDbLine
 10
19.33836495500635
 20
15.3800000157341
 30
-0.0000000000000018
 11
18.80487237570635
 21
14.84650743643409
 31
-0.0000000000000018
  0
LINE
  5
5285
330
1E
100
AcDbEntity
  8
0
 48
0.27
100
AcDbLine
 10
20.71206495500637
 20
14.81099484510217
 30
-0.0000000000000018
 11
19.33836495500635
 21
15.3800000157341
 31
-0.0000000000000018
  0
LINE
  5
5286
330
1E
100
AcDbEntity
  8
0
 48
0.27
100
AcDbLine
 10
21.57806495500641
 20
18.53771413138106
 30
-0.0000000000000018
 11
21.57806495500638
 21
14.45228590008712
 31
-0.0000000000000018
  0
LINE
  5
5287
330
1E
100
AcDbEntity
  8
0
 48
0.27
100
AcDbLine
 10
20.71206495500637
 20
18.17900518636598
 30
-0.0000000000000018
 11
20.71206495500637
 21
14.81099484510217
 31
-0.0000000000000018
  0
ARC
  5
5288
330
1E
100
AcDbEntity
  8
0
 48
0.27
100
AcDbCircle
 10
19.2059385323351
 20
11.63142642260523
 30
-0.0000000000000018
 40
3.24
100
AcDbArc
 50
97.11064589165593
 51
172.8893541083473
  0
ARC
  5
5289
330
1E
100
AcDbEntity
  8
0
 48
0.27
100
AcDbCircle
 10
19.20593854810637
 20
11.63142642263408
 30
-0.0000000000000018
 40
3.24
100
AcDbArc
 50
97.11064589169851
 51
172.8893541082998
  0
LINE
  5
528A
330
1E
100
AcDbEntity
  8
0
 48
0.27
100
AcDbLine
 10
18.80487237570635
 20
14.84650743643409
 30
-0.0000000000000018
 11
19.3897251591744
 21
13.48865504927023
 31
-0.0000000000000018
  0
ARC
  5
528B
330
1E
100
AcDbEntity
  8
0
 48
0.27
100
AcDbCircle
 10
19.20593854810637
 20
11.63142642263408
 30
-0.0000000000000018
 40
1.000299999999999
100
AcDbArc
 50
78.00820834456846
 51
191.9917916513061
  0
ARC
  5
528C
330
1E
100
AcDbEntity
  8
0
 48
0.27
100
AcDbCircle
 10
19.20593854810637
 20
11.63142642263408
 30
-0.0000000000000018
 40
1.8663
100
AcDbArc
 50
84.34855517452485
 51
185.6514448220797
  0
ARC
  5
528D
330
1E
100
AcDbEntity
  8
0
 48
0.27
100
AcDbCircle
 10
17.73837902986004
 20
11.31970675625531
 30
-0.0000000000000018
 40
0.5
100
AcDbArc
 50
315.0000000015476
 51
11.99179165130773
  0
LINE
  5
528E
330
1E
100
AcDbEntity
  8
0
 48
0.27
100
AcDbLine
 10
17.34870992145933
 20
11.44763981167607
 30
-0.0000000000000018
 11
15.99085753431011
 21
12.03249259513787
 31
-0.0000000000000018
  0
LINE
  5
528F
330
1E
100
AcDbEntity
  8
0
 48
0.27
100
AcDbLine
 10
17.34870992146064
 20
11.4476398116755
 30
-0.0000000000000018
 11
18.22746771820506
 21
11.42359253455937
 31
-0.0000000000000018
  0
LINE
  5
5290
330
1E
100
AcDbEntity
  8
0
 48
0.27
100
AcDbLine
 10
18.09193242046287
 20
10.96615336567158
 30
-0.0000000000000018
 11
17.34870992146064
 21
11.4476398116755
 31
-0.0000000000000018
  0
LINE
  5
5291
330
1E
100
AcDbEntity
  8
0
 48
0.27
100
AcDbLine
 10
17.34870992145933
 20
11.44763981167607
 30
-0.0000000000000018
 11
15.51206495500638
 21
9.610994845123952
 31
-0.0000000000000018
  0
LINE
  5
5292
330
1E
100
AcDbEntity
  8
0
 48
0.27
100
AcDbLine
 10
19.38972515917326
 20
13.4886550492691
 30
-0.0000000000000018
 11
19.41377243625173
 21
12.60989725252129
 31
-0.0000000000000018
  0
LINE
  5
5293
330
1E
100
AcDbEntity
  8
0
 48
0.27
100
AcDbLine
 10
21.57806495500638
 20
14.45228590008712
 30
-0.0000000000000018
 11
20.71206495500637
 21
14.81099484510217
 31
-0.0000000000000018
  0
LINE
  5
5294
330
1E
100
AcDbEntity
  8
0
 48
0.27
100
AcDbLine
 10
21.57806495500638
 20
14.45228590008712
 30
-0.0000000000000018
 11
19.87121160518402
 21
12.74543255026471
 31
-0.0000000000000018
  0
LINE
  5
5295
330
1E
100
AcDbEntity
  8
0
 48
0.27
100
AcDbLine
 10
19.87121160518405
 20
12.74543255026468
 30
-0.0000000000000018
 11
19.38972515917326
 21
13.4886550492691
 31
-0.0000000000000018
  0
ARC
  5
5296
330
1E
100
AcDbEntity
  8
0
 48
0.27
100
AcDbCircle
 10
19.51765821459078
 20
13.09898594085796
 30
-0.0000000000000018
 40
0.5
100
AcDbArc
 50
258.0082083445704
 51
315.0000000000001
  0
LINE
  5
5297
330
1E
100
AcDbEntity
  8
0
 48
0.27
100
AcDbLine
 10
20.71206495500637
 20
14.81099484510217
 30
-0.0000000000000018
 11
19.3897251591744
 21
13.48865504927023
 31
-0.0000000000000018
  0
LINE
  5
5298
330
1E
100
AcDbEntity
  8
0
 48
0.27
100
AcDbLine
 10
19.33836493920632
 20
17.61000001573411
 30
-0.0000000000000018
 11
18.79227594434412
 21
18.15608901059632
 31
-0.0000000000000018
  0
LINE
  5
5299
330
1E
100
AcDbEntity
  8
0
 48
0.27
100
AcDbLine
 10
18.79227596011513
 20
18.15608901066754
 30
-0.0000000000000018
 11
19.37969077759966
 21
19.51137936377272
 31
-0.0000000000000018
  0
LINE
  5
529A
330
1E
100
AcDbEntity
  8
0
 48
0.27
100
AcDbLine
 10
19.33836495500635
 20
17.61000001573409
 30
-0.0000000000000018
 11
18.79227596010635
 21
18.15608901063409
 31
-0.0000000000000018
  0
ARC
  5
529B
330
1E
100
AcDbEntity
  8
0
 48
0.27
100
AcDbCircle
 10
19.2059385323351
 20
21.36957360886295
 30
-0.0000000000000018
 40
3.24
100
AcDbArc
 50
187.3351813687943
 51
262.6648186312074
  0
ARC
  5
529C
330
1E
100
AcDbEntity
  8
0
 48
0.27
100
AcDbCircle
 10
19.20593854810637
 20
21.36957360893409
 30
-0.0000000000000018
 40
3.24
100
AcDbArc
 50
187.3351813687991
 51
262.6648186312007
  0
LINE
  5
529D
330
1E
100
AcDbEntity
  8
0
 48
0.27
100
AcDbLine
 10
19.40770707274823
 20
20.38983407596432
 30
-0.0000000000000018
 11
19.37969077759849
 21
19.51137936377388
 31
-0.0000000000000018
  0
LINE
  5
529E
330
1E
100
AcDbEntity
  8
0
 48
0.27
100
AcDbLine
 10
20.71206495500637
 20
18.17900518636598
 30
-0.0000000000000018
 11
21.57806495500641
 21
18.53771413138106
 31
-0.0000000000000018
  0
LINE
  5
529F
330
1E
100
AcDbEntity
  8
0
 48
0.27
100
AcDbLine
 10
21.57806495500641
 20
18.53771413138106
 30
-0.0000000000000018
 11
19.86211446946076
 21
20.25366461692668
 31
-0.0000000000000018
  0
LINE
  5
52A0
330
1E
100
AcDbEntity
  8
0
 48
0.27
100
AcDbLine
 10
19.37969077759966
 20
19.51137936377272
 30
-0.0000000000000018
 11
19.86211446946076
 21
20.25366461692668
 31
-0.0000000000000018
  0
LINE
  5
52A1
330
1E
100
AcDbEntity
  8
0
 48
0.27
100
AcDbLine
 10
19.33836495500635
 20
17.61000001573409
 30
-0.0000000000000018
 11
20.71206495500637
 21
18.17900518636598
 31
-0.0000000000000018
  0
ARC
  5
52A2
330
1E
100
AcDbEntity
  8
0
 48
0.27
100
AcDbCircle
 10
19.50856107886751
 20
19.90011122633343
 30
-0.0000000000000018
 40
0.5
100
AcDbArc
 50
44.99999999999993
 51
101.6368567360846
  0
LINE
  5
52A3
330
1E
100
AcDbEntity
  8
0
 48
0.27
100
AcDbLine
 10
20.71206495500637
 20
18.17900518636598
 30
-0.0000000000000018
 11
19.37969077759966
 21
19.51137936377272
 31
-0.0000000000000018
  0
LINE
  5
52A4
330
1E
100
AcDbEntity
  8
0
 48
0.27
100
AcDbLine
 10
19.33836493920632
 20
17.61000001573411
 30
-0.0000000000000018
 11
19.33836493920632
 21
15.3800000157341
 31
-0.0000000000000018
  0
LINE
  5
52A5
330
1E
100
AcDbEntity
  8
0
 48
0.27
100
AcDbLine
 10
19.33836495500635
 20
17.61000001573409
 30
-0.0000000000000018
 11
19.33836495500635
 21
15.3800000157341
 31
-0.0000000000000018
  0
LINE
  5
52A6
330
1E
100
AcDbEntity
  8
0
 48
0.27
100
AcDbLine
 10
16.01737012556431
 20
22.87370001573412
 30
-0.0000000000000018
 11
16.37607907053281
 21
23.73970001573416
 31
-0.0000000000000018
  0
ARC
  5
52A7
330
1E
100
AcDbEntity
  8
0
 48
0.27
100
AcDbCircle
 10
17.73647616553889
 20
21.67219613985638
 30
-0.0000000000000018
 40
0.5
100
AcDbArc
 50
348.3631432576307
 51
45.00000000526222
  0
LINE
  5
52A8
330
1E
100
AcDbEntity
  8
0
 48
0.27
100
AcDbLine
 10
17.34774430296083
 20
21.54332583858316
 30
-0.0000000000000018
 11
18.22619901515783
 21
21.57134213368356
 31
-0.0000000000000018
  0
LINE
  5
52A9
330
1E
100
AcDbEntity
  8
0
 48
0.27
100
AcDbLine
 10
18.09002955609968
 20
22.02574953048212
 30
-0.0000000000000018
 11
17.34774430296083
 21
21.54332583858316
 31
-0.0000000000000018
  0
LINE
  5
52AA
330
1E
100
AcDbEntity
  8
0
 48
0.27
100
AcDbLine
 10
15.44836495500637
 20
21.5000000157341
 30
-0.0000000000000018
 11
16.01737012556431
 21
22.87370001573412
 31
-0.0000000000000018
  0
LINE
  5
52AB
330
1E
100
AcDbEntity
  8
0
 48
0.27
100
AcDbLine
 10
17.34774430295961
 20
21.54332583858327
 30
-0.0000000000000018
 11
16.01737012556431
 21
22.87370001573412
 31
-0.0000000000000018
  0
LINE
  5
52AC
330
1E
100
AcDbEntity
  8
0
 48
0.27
100
AcDbLine
 10
18.09002955609971
 20
22.02574953048214
 30
-0.0000000000000018
 11
16.37607907053281
 21
23.73970001573416
 31
-0.0000000000000018
  0
LINE
  5
52AD
330
1E
100
AcDbEntity
  8
0
 48
0.27
100
AcDbLine
 10
34.33836493920633
 20
38.9999999999341
 30
-0.0000000000000018
 11
36.33836493920633
 21
36.99999999993411
 31
-0.0000000000000018
  0
LINE
  5
52AE
330
1E
100
AcDbEntity
  8
虛線
 48
0.27
100
AcDbLine
 10
23.33836493923087
 20
28.50000000000127
 30
-0.0000000000000018
 11
31.33836493923087
 21
28.50000000000127
 31
-0.0000000000000018
  0
LINE
  5
52AF
330
1E
100
AcDbEntity
  8
虛線
 48
0.27
100
AcDbLine
 10
31.33836493923087
 20
39.70000000000128
 30
-0.0000000000000018
 11
23.33836493923087
 21
39.70000000000128
 31
-0.0000000000000018
  0
LINE
  5
52B0
330
1E
100
AcDbEntity
  8
0
 48
0.27
100
AcDbLine
 10
19.83836493923087
 20
40.50000000000124
 30
-0.0000000000000018
 11
35.83836493923087
 21
40.50000000000124
 31
-0.0000000000000018
  0
LINE
  5
52B1
330
1E
100
AcDbEntity
  8
0
 48
0.27
100
AcDbLine
 10
9.238364942131113
 20
40.50000000000124
 30
-0.0000000000000018
 11
-4.561635063669143
 21
40.50000000000124
 31
-0.0000000000000018
  0
LINE
  5
52B2
330
1E
100
AcDbEntity
  8
虛線
 48
0.27
100
AcDbLine
 10
-26.06163506076899
 20
39.70000000000128
 30
-0.0000000000000018
 11
-26.06163506076899
 21
24.70000000000128
 31
-0.0000000000000018
  0
LINE
  5
52B3
330
1E
100
AcDbEntity
  8
虛線
 48
0.27
100
AcDbLine
 10
-19.26163506076903
 20
39.70000000000128
 30
-0.0000000000000018
 11
-19.26163506076903
 21
24.70000000000128
 31
-0.0000000000000018
  0
LINE
  5
52B4
330
1E
100
AcDbEntity
  8
中心線
 48
0.27
100
AcDbLine
 10
-22.66163506076913
 20
42.00000000000122
 30
-0.0000000000000018
 11
-22.66163506076913
 21
20.73493649054022
 31
-0.0000000000000018
  0
LINE
  5
52B5
330
1E
100
AcDbEntity
  8
虛線
 48
0.27
100
AcDbLine
 10
-22.66163506076913
 20
22.73700908475659
 30
-0.0000000000000018
 11
-19.26163506076903
 21
24.70000000000128
 31
-0.0000000000000018
  0
LINE
  5
52B6
330
1E
100
AcDbEntity
  8
虛線
 48
0.27
100
AcDbLine
 10
-26.06163506076899
 20
24.70000000000128
 30
-0.0000000000000018
 11
-19.26163506076903
 21
24.70000000000128
 31
-0.0000000000000018
  0
LINE
  5
52B7
330
1E
100
AcDbEntity
  8
虛線
 48
0.27
100
AcDbLine
 10
-26.06163506076899
 20
24.70000000000128
 30
-0.0000000000000018
 11
-22.66163506076913
 21
22.73700908475659
 31
-0.0000000000000018
  0
LINE
  5
52B8
330
1E
100
AcDbEntity
  8
虛線
 48
0.27
100
AcDbLine
 10
-17.86163506076895
 20
40.50000000000124
 30
-0.0000000000000018
 11
-18.66163506076913
 21
39.70000000000128
 31
-0.0000000000000018
  0
LINE
  5
52B9
330
1E
100
AcDbEntity
  8
0
 48
0.27
100
AcDbLine
 10
-15.16163506076913
 20
40.50000000000124
 30
-0.0000000000000018
 11
-31.16163506076913
 21
40.50000000000124
 31
-0.0000000000000018
  0
LINE
  5
52BA
330
1E
100
AcDbEntity
  8
虛線
 48
0.27
100
AcDbLine
 10
-18.66163506076913
 20
39.70000000000128
 30
-0.0000000000000018
 11
-18.66163506076913
 21
28.50000000000127
 31
-0.0000000000000018
  0
LINE
  5
52BB
330
1E
100
AcDbEntity
  8
虛線
 48
0.27
100
AcDbLine
 10
-26.66163506076913
 20
39.70000000000128
 30
-0.0000000000000018
 11
-26.66163506076913
 21
28.50000000000127
 31
-0.0000000000000018
  0
LINE
  5
52BC
330
1E
100
AcDbEntity
  8
0
 48
0.27
100
AcDbLine
 10
-32.66163506076913
 20
39.00000000000125
 30
-0.0000000000000018
 11
-32.66163506076913
 21
30.2999999982412
 31
-0.0000000000000018
  0
LINE
  5
52BD
330
1E
100
AcDbEntity
  8
虛線
 48
0.27
100
AcDbLine
 10
-18.66163506076913
 20
28.50000000000127
 30
-0.0000000000000018
 11
-26.66163506076913
 21
28.50000000000127
 31
-0.0000000000000018
  0
LINE
  5
52BE
330
1E
100
AcDbEntity
  8
0
 48
0.27
100
AcDbLine
 10
-32.66163506076913
 20
30.2999999982412
 30
-0.0000000000000018
 11
-32.16163506076913
 21
29.79999999824123
 31
-0.0000000000000018
  0
LINE
  5
52BF
330
1E
100
AcDbEntity
  8
虛線
 48
0.27
100
AcDbLine
 10
-26.66163506076913
 20
39.70000000000128
 30
-0.0000000000000018
 11
-18.66163506076913
 21
39.70000000000128
 31
-0.0000000000000018
  0
LINE
  5
52C0
330
1E
100
AcDbEntity
  8
0
 48
0.27
100
AcDbLine
 10
-31.16163506076913
 20
40.50000000000124
 30
-0.0000000000000018
 11
-32.66163506076913
 21
39.00000000000125
 31
-0.0000000000000018
  0
LINE
  5
52C1
330
1E
100
AcDbEntity
  8
虛線
 48
0.27
100
AcDbLine
 10
-27.46163506076908
 20
40.50000000000124
 30
-0.0000000000000018
 11
-26.66163506076913
 21
39.70000000000128
 31
-0.0000000000000018
  0
LINE
  5
52C2
330
1E
100
AcDbEntity
  8
0
 48
0.27
100
AcDbLine
 10
-14.66163506221909
 20
40.00000000145131
 30
-0.0000000000000018
 11
-5.061635062219181
 21
40.00000000145131
 31
-0.0000000000000018
  0
LINE
  5
52C3
330
1E
100
AcDbEntity
  8
0
 48
0.27
100
AcDbLine
 10
-14.66163506221909
 20
40.00000000145131
 30
-0.0000000000000018
 11
-15.16163506076913
 21
40.50000000000124
 31
-0.0000000000000018
  0
LINE
  5
52C4
330
1E
100
AcDbEntity
  8
0
 48
0.27
100
AcDbLine
 10
-5.061635062219181
 20
40.00000000145131
 30
-0.0000000000000018
 11
-4.561635063669143
 21
40.50000000000124
 31
-0.0000000000000018
  0
LINE
  5
52C5
330
1E
100
AcDbEntity
  8
虛線
 48
0.27
100
AcDbLine
 10
30.73836493923096
 20
39.70000000000128
 30
-0.0000000000000018
 11
30.73836493923096
 21
24.70000000000128
 31
-0.0000000000000018
  0
LINE
  5
52C6
330
1E
100
AcDbEntity
  8
虛線
 48
0.27
100
AcDbLine
 10
23.938364939231
 20
39.70000000000128
 30
-0.0000000000000018
 11
23.938364939231
 21
24.70000000000128
 31
-0.0000000000000018
  0
LINE
  5
52C7
330
1E
100
AcDbEntity
  8
中心線
 48
0.27
100
AcDbLine
 10
27.33836493923087
 20
42.00000000000122
 30
-0.0000000000000018
 11
27.33836493923087
 21
20.73493649054022
 31
-0.0000000000000018
  0
LINE
  5
52C8
330
1E
100
AcDbEntity
  8
虛線
 48
0.27
100
AcDbLine
 10
27.33836493923087
 20
22.73700908475659
 30
-0.0000000000000018
 11
23.938364939231
 21
24.70000000000128
 31
-0.0000000000000018
  0
LINE
  5
52C9
330
1E
100
AcDbEntity
  8
虛線
 48
0.27
100
AcDbLine
 10
30.73836493923096
 20
24.70000000000128
 30
-0.0000000000000018
 11
23.938364939231
 21
24.70000000000128
 31
-0.0000000000000018
  0
LINE
  5
52CA
330
1E
100
AcDbEntity
  8
虛線
 48
0.27
100
AcDbLine
 10
30.73836493923096
 20
24.70000000000128
 30
-0.0000000000000018
 11
27.33836493923087
 21
22.73700908475659
 31
-0.0000000000000018
  0
LINE
  5
52CB
330
1E
100
AcDbEntity
  8
0
 48
0.27
100
AcDbLine
 10
19.33836494068106
 20
40.00000000145131
 30
-0.0000000000000018
 11
9.738364940680922
 21
40.00000000145131
 31
-0.0000000000000018
  0
LINE
  5
52CC
330
1E
100
AcDbEntity
  8
0
 48
0.27
100
AcDbLine
 10
9.738364940680922
 20
40.00000000145131
 30
-0.0000000000000018
 11
9.238364942131113
 21
40.50000000000124
 31
-0.0000000000000018
  0
LINE
  5
52CD
330
1E
100
AcDbEntity
  8
虛線
 48
0.27
100
AcDbLine
 10
23.33836493923087
 20
39.70000000000128
 30
-0.0000000000000018
 11
23.33836493923087
 21
28.50000000000127
 31
-0.0000000000000018
  0
LINE
  5
52CE
330
1E
100
AcDbEntity
  8
虛線
 48
0.27
100
AcDbLine
 10
22.53836493923091
 20
40.50000000000124
 30
-0.0000000000000018
 11
23.33836493923087
 21
39.70000000000128
 31
-0.0000000000000018
  0
LINE
  5
52CF
330
1E
100
AcDbEntity
  8
0
 48
0.27
100
AcDbLine
 10
19.33836494068106
 20
40.00000000145131
 30
-0.0000000000000018
 11
19.83836493923087
 21
40.50000000000124
 31
-0.0000000000000018
  0
LINE
  5
52D0
330
1E
100
AcDbEntity
  8
0
 48
0.27
100
AcDbLine
 10
37.33836493923087
 20
39.00000000000125
 30
-0.0000000000000018
 11
37.33836493923087
 21
17.50000000000129
 31
-0.0000000000000018
  0
LINE
  5
52D1
330
1E
100
AcDbEntity
  8
0
 48
0.27
100
AcDbLine
 10
37.33836493923087
 20
17.50000000000129
 30
-0.0000000000000018
 11
36.83836493923087
 21
17.00000000000129
 31
-0.0000000000000018
  0
LINE
  5
52D2
330
1E
100
AcDbEntity
  8
虛線
 48
0.27
100
AcDbLine
 10
31.33836493923087
 20
39.70000000000128
 30
-0.0000000000000018
 11
31.33836493923087
 21
28.50000000000127
 31
-0.0000000000000018
  0
LINE
  5
52D3
330
1E
100
AcDbEntity
  8
虛線
 48
0.27
100
AcDbLine
 10
32.13836493923083
 20
40.50000000000124
 30
-0.0000000000000018
 11
31.33836493923087
 21
39.70000000000128
 31
-0.0000000000000018
  0
LINE
  5
52D4
330
1E
100
AcDbEntity
  8
0
 48
0.27
100
AcDbLine
 10
37.33836493923087
 20
39.00000000000125
 30
-0.0000000000000018
 11
35.83836493923087
 21
40.50000000000124
 31
-0.0000000000000018
  0
CIRCLE
  5
52E2
330
1E
100
AcDbEntity
  8
指線
 48
0.27
100
AcDbCircle
 10
22.33248687841713
 20
3.750113926744786
 30
-0.0000000000000018
 40
2.73978974911705
  0
ARC
  5
52E3
330
1E
100
AcDbEntity
  8
指線
 48
0.27
100
AcDbCircle
 10
22.33248687841713
 20
3.750113926744786
 30
-0.0000000000000018
 40
1.643195272868438
100
AcDbArc
 50
199.4717855360968
 51
250.430310000205
  0
ARC
  5
52E4
330
1E
100
AcDbEntity
  8
指線
 48
0.27
100
AcDbCircle
 10
22.33248687841713
 20
3.750113926744786
 30
-0.0000000000000018
 40
1.643195272868438
100
AcDbArc
 50
109.5519646902243
 51
160.5125356647092
  0
LINE
  5
52E5
330
1E
100
AcDbEntity
  8
指線
 48
0.27
100
AcDbLine
 10
21.78257265274369
 20
5.300008855609978
 30
-0.0000000000000018
 11
21.78241767594376
 21
4.298105777778912
 31
-0.0000000000000018
  0
LINE
  5
52E6
330
1E
100
AcDbEntity
  8
指線
 48
0.27
100
AcDbLine
 10
21.78224815666074
 20
3.202187800644801
 30
-0.0000000000000018
 11
21.78209317964153
 21
2.20028472280875
 31
-0.0000000000000018
  0
LINE
  5
52E7
330
1E
100
AcDbEntity
  8
指線
 48
0.27
100
AcDbLine
 10
21.78224815666074
 20
3.202187800644801
 30
-0.0000000000000018
 11
19.64796766158086
 21
3.202570429881203
 31
-0.0000000000000018
  0
LINE
  5
52E8
330
1E
100
AcDbEntity
  8
指線
 48
0.27
100
AcDbLine
 10
21.78241767594376
 20
4.298105777778912
 30
-0.0000000000000018
 11
19.64813718086387
 21
4.298488407015311
 31
-0.0000000000000018
  0
ARC
  5
52E9
330
1E
100
AcDbEntity
  8
指線
 48
0.27
100
AcDbCircle
 10
22.33248687841713
 20
3.750113926744786
 30
-0.0000000000000018
 40
1.643195272868438
100
AcDbArc
 50
289.3895192455083
 51
340.5104803126675
  0
ARC
  5
52EA
330
1E
100
AcDbEntity
  8
指線
 48
0.27
100
AcDbCircle
 10
22.33248687841713
 20
3.750113926744786
 30
-0.0000000000000018
 40
1.643195272868438
100
AcDbArc
 50
19.46973018413992
 51
70.59275544491747
  0
LINE
  5
52EB
330
1E
100
AcDbEntity
  8
指線
 48
0.27
100
AcDbLine
 10
22.87848844710207
 20
5.299943914766296
 30
-0.0000000000000018
 11
22.87833345389024
 21
4.297936154073309
 31
-0.0000000000000018
  0
LINE
  5
52EC
330
1E
100
AcDbEntity
  8
指線
 48
0.27
100
AcDbLine
 10
22.87816393460748
 20
3.202018176939448
 30
-0.0000000000000018
 11
22.87800895780731
 21
2.200115099108133
 31
-0.0000000000000018
  0
LINE
  5
52ED
330
1E
100
AcDbEntity
  8
指線
 48
0.27
100
AcDbLine
 10
22.87816393460748
 20
3.202018176939448
 30
-0.0000000000000018
 11
25.0168365759705
 21
3.201739446474237
 31
-0.0000000000000018
  0
LINE
  5
52EE
330
1E
100
AcDbEntity
  8
指線
 48
0.27
100
AcDbLine
 10
22.87833345389024
 20
4.297936154073309
 30
-0.0000000000000018
 11
25.01700609525326
 21
4.297657423608344
 31
-0.0000000000000018
  0
CIRCLE
  5
52EF
330
1E
100
AcDbEntity
  8
指線
 48
0.27
100
AcDbCircle
 10
-17.66751312158287
 20
3.750113926744786
 30
-0.0000000000000018
 40
2.73978974911705
  0
ARC
  5
52F0
330
1E
100
AcDbEntity
  8
指線
 48
0.27
100
AcDbCircle
 10
-17.66751312158287
 20
3.750113926744786
 30
-0.0000000000000018
 40
1.643195272868438
100
AcDbArc
 50
199.4717855360968
 51
250.430310000205
  0
ARC
  5
52F1
330
1E
100
AcDbEntity
  8
指線
 48
0.27
100
AcDbCircle
 10
-17.66751312158287
 20
3.750113926744786
 30
-0.0000000000000018
 40
1.643195272868438
100
AcDbArc
 50
109.5519646902243
 51
160.5125356647092
  0
LINE
  5
52F2
330
1E
100
AcDbEntity
  8
指線
 48
0.27
100
AcDbLine
 10
-18.21742734725632
 20
5.300008855609978
 30
-0.0000000000000018
 11
-18.21758232405624
 21
4.298105777778912
 31
-0.0000000000000018
  0
LINE
  5
52F3
330
1E
100
AcDbEntity
  8
指線
 48
0.27
100
AcDbLine
 10
-18.21775184333926
 20
3.202187800644801
 30
-0.0000000000000018
 11
-18.21790682035846
 21
2.20028472280875
 31
-0.0000000000000018
  0
LINE
  5
52F4
330
1E
100
AcDbEntity
  8
指線
 48
0.27
100
AcDbLine
 10
-18.21775184333926
 20
3.202187800644801
 30
-0.0000000000000018
 11
-20.35203233841913
 21
3.202570429881203
 31
-0.0000000000000018
  0
LINE
  5
52F5
330
1E
100
AcDbEntity
  8
指線
 48
0.27
100
AcDbLine
 10
-18.21758232405624
 20
4.298105777778912
 30
-0.0000000000000018
 11
-20.35186281913613
 21
4.298488407015311
 31
-0.0000000000000018
  0
ARC
  5
52F6
330
1E
100
AcDbEntity
  8
指線
 48
0.27
100
AcDbCircle
 10
-17.66751312158287
 20
3.750113926744786
 30
-0.0000000000000018
 40
1.643195272868438
100
AcDbArc
 50
289.3895192455083
 51
340.5104803126675
  0
ARC
  5
52F7
330
1E
100
AcDbEntity
  8
指線
 48
0.27
100
AcDbCircle
 10
-17.66751312158287
 20
3.750113926744786
 30
-0.0000000000000018
 40
1.643195272868438
100
AcDbArc
 50
19.46973018413992
 51
70.59275544491747
  0
LINE
  5
52F8
330
1E
100
AcDbEntity
  8
指線
 48
0.27
100
AcDbLine
 10
-17.12151155289793
 20
5.299943914766296
 30
-0.0000000000000018
 11
-17.12166654610975
 21
4.297936154073309
 31
-0.0000000000000018
  0
LINE
  5
52F9
330
1E
100
AcDbEntity
  8
指線
 48
0.27
100
AcDbLine
 10
-17.12183606539251
 20
3.202018176939448
 30
-0.0000000000000018
 11
-17.12199104219269
 21
2.200115099108133
 31
-0.0000000000000018
  0
LINE
  5
52FA
330
1E
100
AcDbEntity
  8
指線
 48
0.27
100
AcDbLine
 10
-17.12183606539251
 20
3.202018176939448
 30
-0.0000000000000018
 11
-14.9831634240295
 21
3.201739446474237
 31
-0.0000000000000018
  0
LINE
  5
52FB
330
1E
100
AcDbEntity
  8
指線
 48
0.27
100
AcDbLine
 10
-17.12166654610975
 20
4.297936154073309
 30
-0.0000000000000018
 11
-14.98299390474673
 21
4.297657423608344
 31
-0.0000000000000018
  0
LINE
  5
540D
330
1E
100
AcDbEntity
  8
中心線
 48
0.27
100
AcDbLine
 10
112.2228038463054
 20
31.49999999993297
 30
-0.0000000000000009
 11
127.5272719608423
 21
31.49999999993297
 31
-0.0000000000000009
  0
ARC
  5
540E
330
1E
100
AcDbEntity
  8
0
 48
0.27
100
AcDbCircle
 10
126.4144190872886
 20
29.50001933103301
 30
-0.0000000000000009
 40
2.954110999999976
100
AcDbArc
 50
137.3885930045003
 51
222.6114069976006
  0
ARC
  5
540F
330
1E
100
AcDbEntity
  8
0
 48
0.27
100
AcDbCircle
 10
126.4144200872886
 20
33.5000193310329
 30
-0.0000000000000009
 40
2.954111999999976
100
AcDbArc
 50
137.3885980021988
 51
222.6114019998988
  0
LWPOLYLINE
  5
5410
330
1E
100
AcDbEntity
  8
0
 48
0.27
100
AcDbPolyline
 90
       31
 70
     0
 43
0.0
 10
116.1315910872887
 20
31.50001933103293
 10
116.0987730872887
 20
31.71027433103295
 10
116.0546260872887
 20
31.81576133103293
 10
115.9915930872887
 20
31.91354033103293
 10
115.9121170872887
 20
31.99765333103294
 10
115.8206260872887
 20
32.06352633103295
 10
115.7227060872887
 20
32.10880733103288
 10
115.5900700872887
 20
32.13774833103291
 10
115.4670610872887
 20
32.13508933103291
 10
115.3601370872887
 20
32.10958333103291
 10
115.2439320872887
 20
32.05381533103291
 10
115.1333620872887
 20
31.96432633103295
 10
115.0451320872887
 20
31.84977633103295
 10
114.9884980872887
 20
31.72993733103299
 10
114.9606470872887
 20
31.62628133103293
 10
114.9490260872887
 20
31.50001933103293
 10
114.9818440872887
 20
31.28976433103297
 10
115.0259920872887
 20
31.18427633103293
 10
115.0890240872887
 20
31.08649833103293
 10
115.1685000872887
 20
31.00238533103293
 10
115.2599910872887
 20
30.93651233103292
 10
115.3579110872887
 20
30.89123133103293
 10
115.4905470872887
 20
30.8622893310329
 10
115.6135560872887
 20
30.86494933103295
 10
115.7204800872887
 20
30.89045433103296
 10
115.8366850872887
 20
30.94622233103296
 10
115.9472550872887
 20
31.03571233103291
 10
116.0354850872887
 20
31.15026133103292
 10
116.0921190872887
 20
31.27010033103295
 10
116.1199710872887
 20
31.37375733103299
 10
116.1315910872887
 20
31.50001933103293
  0
ARC
  5
5411
330
1E
100
AcDbEntity
  8
0
 48
0.27
100
AcDbCircle
 10
119.7119680872886
 20
31.50001933103296
 30
-0.0000000000000009
 40
3.999999999999968
100
AcDbArc
 50
90.0
 51
131.4096219995999
  0
ARC
  5
5412
330
1E
100
AcDbEntity
  8
0
 48
0.27
100
AcDbCircle
 10
119.7119680872886
 20
31.50001933103296
 30
-0.0000000000000009
 40
3.999999999999968
100
AcDbArc
 50
228.5903779973006
 51
270.0
  0
LINE
  5
5413
330
1E
100
AcDbEntity
  8
0
 48
0.27
100
AcDbLine
 10
126.3695257931994
 20
35.50001933103296
 30
-0.0000000000000009
 11
119.7119680872886
 21
35.50001933103296
 31
-0.0000000000000009
  0
LINE
  5
5414
330
1E
100
AcDbEntity
  8
0
 48
0.27
100
AcDbLine
 10
124.2403040872886
 20
31.50001933103296
 30
-0.0000000000000009
 11
127.2228020872887
 21
31.50001933103296
 31
-0.0000000000000009
  0
LINE
  5
5415
330
1E
100
AcDbEntity
  8
0
 48
0.27
100
AcDbLine
 10
119.7119680872886
 20
27.50001933103296
 30
-0.0000000000000009
 11
127.2228020872887
 21
27.50001933103296
 31
-0.0000000000000009
  0
LINE
  5
5416
330
1E
100
AcDbEntity
  8
0
 48
0.27
100
AcDbLine
 10
123.4603080872886
 20
35.50001933103296
 30
-0.0000000000000009
 11
123.4603080872886
 21
27.50001933103296
 31
-0.0000000000000009
  0
LINE
  5
5417
330
1E
100
AcDbEntity
  8
0
 48
0.27
100
AcDbLine
 10
116.1845310872887
 20
34.50001933103293
 30
-0.0000000000000009
 11
120.0843070872886
 21
34.50001933103293
 31
-0.0000000000000009
  0
LINE
  5
5418
330
1E
100
AcDbEntity
  8
0
 48
0.27
100
AcDbLine
 10
115.9381380872887
 20
28.96194633103296
 30
-0.0000000000000009
 11
116.1845310872887
 21
28.50001933103299
 31
-0.0000000000000009
  0
LINE
  5
5419
330
1E
100
AcDbEntity
  8
0
 48
0.27
100
AcDbLine
 10
116.1845310872887
 20
34.50001933103293
 30
-0.0000000000000009
 11
115.9381380872887
 21
34.03809233103296
 31
-0.0000000000000009
  0
LINE
  5
541A
330
1E
100
AcDbEntity
  8
0
 48
0.27
100
AcDbLine
 10
120.9851490872886
 20
31.50001933103296
 30
-0.0000000000000009
 11
121.6845130872886
 21
31.50001933103296
 31
-0.0000000000000009
  0
LINE
  5
541B
330
1E
100
AcDbEntity
  8
0
 48
0.27
100
AcDbLine
 10
120.0843070872886
 20
34.50001933103293
 30
-0.0000000000000009
 11
121.6845130872886
 21
31.50001933103296
 31
-0.0000000000000009
  0
LINE
  5
541C
330
1E
100
AcDbEntity
  8
0
 48
0.27
100
AcDbLine
 10
120.0843070872886
 20
28.50001933103299
 30
-0.0000000000000009
 11
116.1845310872887
 21
28.50001933103299
 31
-0.0000000000000009
  0
LINE
  5
541D
330
1E
100
AcDbEntity
  8
0
 48
0.27
100
AcDbLine
 10
121.6845130872886
 20
31.50001933103296
 30
-0.0000000000000009
 11
120.0843070872886
 21
28.50001933103299
 31
-0.0000000000000009
  0
LINE
  5
541E
330
1E
100
AcDbEntity
  8
0
 48
0.27
100
AcDbLine
 10
116.3056100872887
 20
34.02955333103295
 30
-0.0000000000000009
 11
116.7240770872886
 21
34.27165733103293
 31
-0.0000000000000009
  0
LINE
  5
541F
330
1E
100
AcDbEntity
  8
0
 48
0.27
100
AcDbLine
 10
116.3056100872887
 20
28.970484331033
 30
-0.0000000000000009
 11
116.7240770872886
 21
28.72838033103297
 31
-0.0000000000000009
  0
LINE
  5
5420
330
1E
100
AcDbEntity
  8
0
 48
0.27
100
AcDbLine
 10
116.7240770872886
 20
34.27165733103293
 30
-0.0000000000000009
 11
117.2440170872887
 21
34.44237533103289
 31
-0.0000000000000009
  0
LINE
  5
5421
330
1E
100
AcDbEntity
  8
0
 48
0.27
100
AcDbLine
 10
116.7240770872886
 20
28.72838033103297
 30
-0.0000000000000009
 11
117.2440170872887
 21
28.55766333103303
 31
-0.0000000000000009
  0
LINE
  5
5422
330
1E
100
AcDbEntity
  8
0
 48
0.27
100
AcDbLine
 10
117.2440170872887
 20
34.44237533103289
 30
-0.0000000000000009
 11
117.7847370872887
 21
34.50001933103293
 31
-0.0000000000000009
  0
LINE
  5
5423
330
1E
100
AcDbEntity
  8
0
 48
0.27
100
AcDbLine
 10
117.2440170872887
 20
28.55766333103303
 30
-0.0000000000000009
 11
117.7847370872887
 21
28.50001933103299
 31
-0.0000000000000009
  0
LINE
  5
5424
330
1E
100
AcDbEntity
  8
0
 48
0.27
100
AcDbLine
 10
117.7847370872887
 20
34.50001933103293
 30
-0.0000000000000009
 11
118.3254570872886
 21
34.44237533103289
 31
-0.0000000000000009
  0
LINE
  5
5425
330
1E
100
AcDbEntity
  8
0
 48
0.27
100
AcDbLine
 10
117.7847370872887
 20
28.50001933103299
 30
-0.0000000000000009
 11
118.3254570872886
 21
28.55766333103303
 31
-0.0000000000000009
  0
LINE
  5
5426
330
1E
100
AcDbEntity
  8
0
 48
0.27
100
AcDbLine
 10
118.3254570872886
 20
34.44237533103289
 30
-0.0000000000000009
 11
118.8453970872886
 21
34.27165733103293
 31
-0.0000000000000009
  0
LINE
  5
5427
330
1E
100
AcDbEntity
  8
0
 48
0.27
100
AcDbLine
 10
118.3254570872886
 20
28.55766333103303
 30
-0.0000000000000009
 11
118.8453970872886
 21
28.72838033103297
 31
-0.0000000000000009
  0
LINE
  5
5428
330
1E
100
AcDbEntity
  8
0
 48
0.27
100
AcDbLine
 10
118.8453970872886
 20
34.27165733103293
 30
-0.0000000000000009
 11
119.3245770872886
 21
33.99442833103295
 31
-0.0000000000000009
  0
LINE
  5
5429
330
1E
100
AcDbEntity
  8
0
 48
0.27
100
AcDbLine
 10
118.8453970872886
 20
28.72838033103297
 30
-0.0000000000000009
 11
119.3245770872886
 21
29.00561033103297
 31
-0.0000000000000009
  0
LINE
  5
542A
330
1E
100
AcDbEntity
  8
0
 48
0.27
100
AcDbLine
 10
119.3245770872886
 20
33.99442833103295
 30
-0.0000000000000009
 11
119.7445810872886
 21
33.62133933103296
 31
-0.0000000000000009
  0
LINE
  5
542B
330
1E
100
AcDbEntity
  8
0
 48
0.27
100
AcDbLine
 10
119.3245770872886
 20
29.00561033103297
 30
-0.0000000000000009
 11
119.7445810872886
 21
29.37869833103294
 31
-0.0000000000000009
  0
LINE
  5
542C
330
1E
100
AcDbEntity
  8
0
 48
0.27
100
AcDbLine
 10
119.3849430872887
 20
34.50001933103293
 30
-0.0000000000000009
 11
120.9851490872886
 21
31.50001933103296
 31
-0.0000000000000009
  0
LINE
  5
542D
330
1E
100
AcDbEntity
  8
0
 48
0.27
100
AcDbLine
 10
120.9851490872886
 20
31.50001933103296
 30
-0.0000000000000009
 11
119.3849430872887
 21
28.50001933103299
 31
-0.0000000000000009
  0
LINE
  5
542E
330
1E
100
AcDbEntity
  8
0
 48
0.27
100
AcDbLine
 10
119.7445810872886
 20
33.62133933103296
 30
-0.0000000000000009
 11
120.0892700872886
 21
33.16672933103296
 31
-0.0000000000000009
  0
LINE
  5
542F
330
1E
100
AcDbEntity
  8
0
 48
0.27
100
AcDbLine
 10
120.0892700872886
 20
29.83330833103294
 30
-0.0000000000000009
 11
119.7445810872886
 21
29.37869833103294
 31
-0.0000000000000009
  0
LINE
  5
5430
330
1E
100
AcDbEntity
  8
0
 48
0.27
100
AcDbLine
 10
120.0892700872886
 20
33.16672933103296
 30
-0.0000000000000009
 11
120.3453970872887
 21
32.64806933103294
 31
-0.0000000000000009
  0
LINE
  5
5431
330
1E
100
AcDbEntity
  8
0
 48
0.27
100
AcDbLine
 10
120.3453970872887
 20
30.35196833103301
 30
-0.0000000000000009
 11
120.0892700872886
 21
29.83330833103294
 31
-0.0000000000000009
  0
LINE
  5
5432
330
1E
100
AcDbEntity
  8
0
 48
0.27
100
AcDbLine
 10
120.3453970872887
 20
32.64806933103294
 30
-0.0000000000000009
 11
120.5031190872886
 21
32.085290331033
 31
-0.0000000000000009
  0
LINE
  5
5433
330
1E
100
AcDbEntity
  8
0
 48
0.27
100
AcDbLine
 10
120.5031190872886
 20
30.91474833103293
 30
-0.0000000000000009
 11
120.3453970872887
 21
30.35196833103301
 31
-0.0000000000000009
  0
LINE
  5
5434
330
1E
100
AcDbEntity
  8
0
 48
0.27
100
AcDbLine
 10
120.5031190872886
 20
32.085290331033
 30
-0.0000000000000009
 11
120.5563750872886
 21
31.50001933103296
 31
-0.0000000000000009
  0
LINE
  5
5435
330
1E
100
AcDbEntity
  8
0
 48
0.27
100
AcDbLine
 10
120.5563750872886
 20
31.50001933103296
 30
-0.0000000000000009
 11
120.5031190872886
 21
30.91474833103293
 31
-0.0000000000000009
  0
LINE
  5
5436
330
1E
100
AcDbEntity
  8
0
 48
0.27
100
AcDbLine
 10
114.8808400872887
 20
33.14024633103291
 30
-0.0000000000000009
 11
114.8838110872887
 21
33.13863133103295
 31
-0.0000000000000009
  0
LINE
  5
5437
330
1E
100
AcDbEntity
  8
0
 48
0.27
100
AcDbLine
 10
114.8808400872887
 20
29.85979133103298
 30
-0.0000000000000009
 11
114.8838110872887
 21
29.86140733103296
 31
-0.0000000000000009
  0
LINE
  5
5438
330
1E
100
AcDbEntity
  8
0
 48
0.27
100
AcDbLine
 10
113.7681300872887
 20
31.99816133103297
 30
-0.0000000000000009
 11
113.7228020872887
 21
31.50001933103296
 31
-0.0000000000000009
  0
LINE
  5
5439
330
1E
100
AcDbEntity
  8
0
 48
0.27
100
AcDbLine
 10
113.9023720872887
 20
32.47715933103295
 30
-0.0000000000000009
 11
113.7681300872887
 21
31.99816133103297
 31
-0.0000000000000009
  0
LINE
  5
543A
330
1E
100
AcDbEntity
  8
0
 48
0.27
100
AcDbLine
 10
113.7228020872887
 20
31.50001933103296
 30
-0.0000000000000009
 11
113.7681300872887
 21
31.00187733103296
 31
-0.0000000000000009
  0
LINE
  5
543B
330
1E
100
AcDbEntity
  8
0
 48
0.27
100
AcDbLine
 10
114.1203690872887
 20
32.91860733103297
 30
-0.0000000000000009
 11
113.9023720872887
 21
32.47715933103295
 31
-0.0000000000000009
  0
LINE
  5
543C
330
1E
100
AcDbEntity
  8
0
 48
0.27
100
AcDbLine
 10
113.7681300872887
 20
31.00187733103296
 30
-0.0000000000000009
 11
113.9023720872887
 21
30.52287833103294
 31
-0.0000000000000009
  0
LINE
  5
543D
330
1E
100
AcDbEntity
  8
0
 48
0.27
100
AcDbLine
 10
114.4137450872887
 20
33.30553933103299
 30
-0.0000000000000009
 11
114.1203690872887
 21
32.91860733103297
 31
-0.0000000000000009
  0
LINE
  5
543E
330
1E
100
AcDbEntity
  8
0
 48
0.27
100
AcDbLine
 10
113.9023720872887
 20
30.52287833103294
 30
-0.0000000000000009
 11
114.1203690872887
 21
30.08143133103296
 31
-0.0000000000000009
  0
LINE
  5
543F
330
1E
100
AcDbEntity
  8
0
 48
0.27
100
AcDbLine
 10
114.4137450872887
 20
33.30553933103299
 30
-0.0000000000000009
 11
114.7712230872887
 21
33.62308633103295
 31
-0.0000000000000009
  0
LINE
  5
5440
330
1E
100
AcDbEntity
  8
0
 48
0.27
100
AcDbLine
 10
114.1203690872887
 20
30.08143133103296
 30
-0.0000000000000009
 11
114.4137450872887
 21
29.69449933103293
 31
-0.0000000000000009
  0
LINE
  5
5441
330
1E
100
AcDbEntity
  8
0
 48
0.27
100
AcDbLine
 10
113.9168330872887
 20
31.84955533103297
 30
-0.0000000000000009
 11
113.8850270872887
 21
31.50001933103296
 31
-0.0000000000000009
  0
LINE
  5
5442
330
1E
100
AcDbEntity
  8
0
 48
0.27
100
AcDbLine
 10
114.0110280872887
 20
32.18565933103297
 30
-0.0000000000000009
 11
113.9168330872887
 21
31.84955533103297
 31
-0.0000000000000009
  0
LINE
  5
5443
330
1E
100
AcDbEntity
  8
0
 48
0.27
100
AcDbLine
 10
113.8850270872887
 20
31.50001933103296
 30
-0.0000000000000009
 11
113.9168330872887
 21
31.15048333103296
 31
-0.0000000000000009
  0
LINE
  5
5444
330
1E
100
AcDbEntity
  8
0
 48
0.27
100
AcDbLine
 10
114.1639920872887
 20
32.49541433103293
 30
-0.0000000000000009
 11
114.0110280872887
 21
32.18565933103297
 31
-0.0000000000000009
  0
LINE
  5
5445
330
1E
100
AcDbEntity
  8
0
 48
0.27
100
AcDbLine
 10
113.9168330872887
 20
31.15048333103296
 30
-0.0000000000000009
 11
114.0110280872887
 21
30.81437933103295
 31
-0.0000000000000009
  0
LINE
  5
5446
330
1E
100
AcDbEntity
  8
0
 48
0.27
100
AcDbLine
 10
114.7712230872887
 20
33.62308633103295
 30
-0.0000000000000009
 11
115.1790680872887
 21
33.85904533103293
 31
-0.0000000000000009
  0
LINE
  5
5447
330
1E
100
AcDbEntity
  8
0
 48
0.27
100
AcDbLine
 10
114.4137450872887
 20
29.69449933103293
 30
-0.0000000000000009
 11
114.7712230872887
 21
29.37695233103297
 31
-0.0000000000000009
  0
LINE
  5
5448
330
1E
100
AcDbEntity
  8
0
 48
0.27
100
AcDbLine
 10
114.3698480872887
 20
32.76691633103296
 30
-0.0000000000000009
 11
114.1639920872887
 21
32.49541433103293
 31
-0.0000000000000009
  0
LINE
  5
5449
330
1E
100
AcDbEntity
  8
0
 48
0.27
100
AcDbLine
 10
114.0110280872887
 20
30.81437933103295
 30
-0.0000000000000009
 11
114.1639920872887
 21
30.50462433103299
 31
-0.0000000000000009
  0
LINE
  5
544A
330
1E
100
AcDbEntity
  8
0
 48
0.27
100
AcDbLine
 10
115.1790680872887
 20
33.85904533103293
 30
-0.0000000000000009
 11
115.6216050872887
 21
34.00434733103289
 31
-0.0000000000000009
  0
LINE
  5
544B
330
1E
100
AcDbEntity
  8
0
 48
0.27
100
AcDbLine
 10
114.7712230872887
 20
29.37695233103297
 30
-0.0000000000000009
 11
115.1790680872887
 21
29.14099333103296
 31
-0.0000000000000009
  0
LINE
  5
544C
330
1E
100
AcDbEntity
  8
0
 48
0.27
100
AcDbLine
 10
114.3698480872887
 20
32.76691633103296
 30
-0.0000000000000009
 11
114.6206830872887
 21
32.98973333103293
 31
-0.0000000000000009
  0
LINE
  5
544D
330
1E
100
AcDbEntity
  8
0
 48
0.27
100
AcDbLine
 10
114.1639920872887
 20
30.50462433103299
 30
-0.0000000000000009
 11
114.3698480872887
 21
30.23312133103302
 31
-0.0000000000000009
  0
LINE
  5
544E
330
1E
100
AcDbEntity
  8
0
 48
0.27
100
AcDbLine
 10
115.6216050872887
 20
34.00434733103289
 30
-0.0000000000000009
 11
116.0818280872887
 21
34.05341033103294
 31
-0.0000000000000009
  0
LINE
  5
544F
330
1E
100
AcDbEntity
  8
0
 48
0.27
100
AcDbLine
 10
115.1790680872887
 20
29.14099333103296
 30
-0.0000000000000009
 11
115.6216050872887
 21
28.99569033103295
 31
-0.0000000000000009
  0
LINE
  5
5450
330
1E
100
AcDbEntity
  8
0
 48
0.27
100
AcDbLine
 10
114.6206830872887
 20
32.98973333103293
 30
-0.0000000000000009
 11
114.9068600872887
 21
33.15530033103291
 31
-0.0000000000000009
  0
LINE
  5
5451
330
1E
100
AcDbEntity
  8
0
 48
0.27
100
AcDbLine
 10
114.3698480872887
 20
30.23312133103302
 30
-0.0000000000000009
 11
114.6206830872887
 21
30.010305331033
 31
-0.0000000000000009
  0
LINE
  5
5452
330
1E
100
AcDbEntity
  8
0
 48
0.27
100
AcDbLine
 10
116.6864870872887
 20
33.97700033103293
 30
-0.0000000000000009
 11
117.1241910872887
 21
33.83328433103292
 31
-0.0000000000000009
  0
LINE
  5
5453
330
1E
100
AcDbEntity
  8
0
 48
0.27
100
AcDbLine
 10
114.9068600872887
 20
33.15530033103291
 30
-0.0000000000000009
 11
115.2173790872887
 21
33.25725633103294
 31
-0.0000000000000009
  0
LINE
  5
5454
330
1E
100
AcDbEntity
  8
0
 48
0.27
100
AcDbLine
 10
114.6206830872887
 20
30.010305331033
 30
-0.0000000000000009
 11
114.9068600872887
 21
29.84473733103299
 31
-0.0000000000000009
  0
LINE
  5
5455
330
1E
100
AcDbEntity
  8
0
 48
0.27
100
AcDbLine
 10
116.5420510872887
 20
34.00434733103289
 30
-0.0000000000000009
 11
116.6864870872887
 21
33.97700033103293
 31
-0.0000000000000009
  0
LINE
  5
5456
330
1E
100
AcDbEntity
  8
0
 48
0.27
100
AcDbLine
 10
116.0818280872887
 20
34.05341033103294
 30
-0.0000000000000009
 11
116.5420510872887
 21
34.00434733103289
 31
-0.0000000000000009
  0
LINE
  5
5457
330
1E
100
AcDbEntity
  8
0
 48
0.27
100
AcDbLine
 10
115.6216050872887
 20
28.99569033103295
 30
-0.0000000000000009
 11
116.0818280872887
 21
28.94662833103298
 31
-0.0000000000000009
  0
LINE
  5
5458
330
1E
100
AcDbEntity
  8
0
 48
0.27
100
AcDbLine
 10
117.1241910872887
 20
33.83328433103292
 30
-0.0000000000000009
 11
117.5275820872887
 21
33.59990233103295
 31
-0.0000000000000009
  0
LINE
  5
5459
330
1E
100
AcDbEntity
  8
0
 48
0.27
100
AcDbLine
 10
116.6864870872887
 20
29.02303833103299
 30
-0.0000000000000009
 11
117.1241910872887
 21
29.166754331033
 31
-0.0000000000000009
  0
LINE
  5
545A
330
1E
100
AcDbEntity
  8
0
 48
0.27
100
AcDbLine
 10
117.5275820872887
 20
33.59990233103295
 30
-0.0000000000000009
 11
117.8811570872887
 21
33.28582333103295
 31
-0.0000000000000009
  0
LINE
  5
545B
330
1E
100
AcDbEntity
  8
0
 48
0.27
100
AcDbLine
 10
117.1241910872887
 20
29.166754331033
 30
-0.0000000000000009
 11
117.5275820872887
 21
29.40013633103298
 31
-0.0000000000000009
  0
LINE
  5
545C
330
1E
100
AcDbEntity
  8
0
 48
0.27
100
AcDbLine
 10
115.2173790872887
 20
33.25725633103294
 30
-0.0000000000000009
 11
115.5403090872887
 21
33.29168233103297
 31
-0.0000000000000009
  0
LINE
  5
545D
330
1E
100
AcDbEntity
  8
0
 48
0.27
100
AcDbLine
 10
114.9068600872887
 20
29.84473733103299
 30
-0.0000000000000009
 11
115.2173790872887
 21
29.74278133103296
 31
-0.0000000000000009
  0
LINE
  5
545E
330
1E
100
AcDbEntity
  8
0
 48
0.27
100
AcDbLine
 10
116.5420510872887
 20
34.00434733103289
 30
-0.0000000000000009
 11
116.9845880872887
 21
33.85904533103293
 31
-0.0000000000000009
  0
LINE
  5
545F
330
1E
100
AcDbEntity
  8
0
 48
0.27
100
AcDbLine
 10
116.5420510872887
 20
28.99569033103295
 30
-0.0000000000000009
 11
116.6864870872887
 21
29.02303833103299
 31
-0.0000000000000009
  0
LINE
  5
5460
330
1E
100
AcDbEntity
  8
0
 48
0.27
100
AcDbLine
 10
116.0818280872887
 20
28.94662833103298
 30
-0.0000000000000009
 11
116.5420510872887
 21
28.99569033103295
 31
-0.0000000000000009
  0
LINE
  5
5461
330
1E
100
AcDbEntity
  8
0
 48
0.27
100
AcDbLine
 10
117.8811570872887
 20
33.28582333103295
 30
-0.0000000000000009
 11
118.1713280872887
 21
32.90311633103293
 31
-0.0000000000000009
  0
LINE
  5
5462
330
1E
100
AcDbEntity
  8
0
 48
0.27
100
AcDbLine
 10
117.5275820872887
 20
29.40013633103298
 30
-0.0000000000000009
 11
117.8811570872887
 21
29.71421533103295
 31
-0.0000000000000009
  0
LINE
  5
5463
330
1E
100
AcDbEntity
  8
0
 48
0.27
100
AcDbLine
 10
115.5403090872887
 20
33.29168233103297
 30
-0.0000000000000009
 11
115.8632380872887
 21
33.25725633103294
 31
-0.0000000000000009
  0
LINE
  5
5464
330
1E
100
AcDbEntity
  8
0
 48
0.27
100
AcDbLine
 10
115.2173790872887
 20
29.74278133103296
 30
-0.0000000000000009
 11
115.5403090872887
 21
29.70835533103299
 31
-0.0000000000000009
  0
LINE
  5
5465
330
1E
100
AcDbEntity
  8
0
 48
0.27
100
AcDbLine
 10
116.9845880872887
 20
33.85904533103293
 30
-0.0000000000000009
 11
117.3924320872887
 21
33.62308633103295
 31
-0.0000000000000009
  0
LINE
  5
5466
330
1E
100
AcDbEntity
  8
0
 48
0.27
100
AcDbLine
 10
116.5420510872887
 20
28.99569033103295
 30
-0.0000000000000009
 11
116.9845880872887
 21
29.14099333103296
 31
-0.0000000000000009
  0
LINE
  5
5467
330
1E
100
AcDbEntity
  8
0
 48
0.27
100
AcDbLine
 10
118.1713280872887
 20
32.90311633103293
 30
-0.0000000000000009
 11
118.3869450872887
 21
32.46648933103295
 31
-0.0000000000000009
  0
LINE
  5
5468
330
1E
100
AcDbEntity
  8
0
 48
0.27
100
AcDbLine
 10
118.1713280872887
 20
30.09692233103299
 30
-0.0000000000000009
 11
117.8811570872887
 21
29.71421533103295
 31
-0.0000000000000009
  0
LINE
  5
5469
330
1E
100
AcDbEntity
  8
0
 48
0.27
100
AcDbLine
 10
118.3869450872887
 20
32.46648933103295
 30
-0.0000000000000009
 11
118.5197210872886
 21
31.99272133103297
 31
-0.0000000000000009
  0
LINE
  5
546A
330
1E
100
AcDbEntity
  8
0
 48
0.27
100
AcDbLine
 10
118.3869450872887
 20
30.53354933103297
 30
-0.0000000000000009
 11
118.1713280872887
 21
30.09692233103299
 31
-0.0000000000000009
  0
LINE
  5
546B
330
1E
100
AcDbEntity
  8
0
 48
0.27
100
AcDbLine
 10
117.3924320872887
 20
33.62308633103295
 30
-0.0000000000000009
 11
117.7499110872886
 21
33.30553933103299
 31
-0.0000000000000009
  0
LINE
  5
546C
330
1E
100
AcDbEntity
  8
0
 48
0.27
100
AcDbLine
 10
116.9845880872887
 20
29.14099333103296
 30
-0.0000000000000009
 11
117.3924320872887
 21
29.37695233103297
 31
-0.0000000000000009
  0
LINE
  5
546D
330
1E
100
AcDbEntity
  8
0
 48
0.27
100
AcDbLine
 10
118.5197210872886
 20
31.99272133103297
 30
-0.0000000000000009
 11
118.5645540872887
 21
31.50001933103296
 31
-0.0000000000000009
  0
LINE
  5
546E
330
1E
100
AcDbEntity
  8
0
 48
0.27
100
AcDbLine
 10
118.5197210872886
 20
31.00731733103295
 30
-0.0000000000000009
 11
118.3869450872887
 21
30.53354933103297
 31
-0.0000000000000009
  0
LINE
  5
546F
330
1E
100
AcDbEntity
  8
0
 48
0.27
100
AcDbLine
 10
115.8632380872887
 20
33.25725633103294
 30
-0.0000000000000009
 11
116.1737570872887
 21
33.15530033103291
 31
-0.0000000000000009
  0
LINE
  5
5470
330
1E
100
AcDbEntity
  8
0
 48
0.27
100
AcDbLine
 10
115.5403090872887
 20
29.70835533103299
 30
-0.0000000000000009
 11
115.8632380872887
 21
29.74278133103296
 31
-0.0000000000000009
  0
LINE
  5
5471
330
1E
100
AcDbEntity
  8
0
 48
0.27
100
AcDbLine
 10
118.5645540872887
 20
31.50001933103296
 30
-0.0000000000000009
 11
118.5197210872886
 21
31.00731733103295
 31
-0.0000000000000009
  0
LINE
  5
5472
330
1E
100
AcDbEntity
  8
0
 48
0.27
100
AcDbLine
 10
117.7499110872886
 20
33.30553933103299
 30
-0.0000000000000009
 11
118.0432860872887
 21
32.91860733103297
 31
-0.0000000000000009
  0
LINE
  5
5473
330
1E
100
AcDbEntity
  8
0
 48
0.27
100
AcDbLine
 10
117.3924320872887
 20
29.37695233103297
 30
-0.0000000000000009
 11
117.7499110872886
 21
29.69449933103293
 31
-0.0000000000000009
  0
LINE
  5
5474
330
1E
100
AcDbEntity
  8
0
 48
0.27
100
AcDbLine
 10
116.1737570872887
 20
33.15530033103291
 30
-0.0000000000000009
 11
116.4599340872887
 21
32.98973333103293
 31
-0.0000000000000009
  0
LINE
  5
5475
330
1E
100
AcDbEntity
  8
0
 48
0.27
100
AcDbLine
 10
115.8632380872887
 20
29.74278133103296
 30
-0.0000000000000009
 11
116.1737570872887
 21
29.84473733103299
 31
-0.0000000000000009
  0
LINE
  5
5476
330
1E
100
AcDbEntity
  8
0
 48
0.27
100
AcDbLine
 10
118.0432860872887
 20
32.91860733103297
 30
-0.0000000000000009
 11
118.2612830872886
 21
32.47715933103295
 31
-0.0000000000000009
  0
LINE
  5
5477
330
1E
100
AcDbEntity
  8
0
 48
0.27
100
AcDbLine
 10
118.0432860872887
 20
30.08143133103296
 30
-0.0000000000000009
 11
117.7499110872886
 21
29.69449933103293
 31
-0.0000000000000009
  0
LINE
  5
5478
330
1E
100
AcDbEntity
  8
0
 48
0.27
100
AcDbLine
 10
118.2612830872886
 20
32.47715933103295
 30
-0.0000000000000009
 11
118.3955260872886
 21
31.99816133103297
 31
-0.0000000000000009
  0
LINE
  5
5479
330
1E
100
AcDbEntity
  8
0
 48
0.27
100
AcDbLine
 10
118.2612830872886
 20
30.52287833103294
 30
-0.0000000000000009
 11
118.0432860872887
 21
30.08143133103296
 31
-0.0000000000000009
  0
LINE
  5
547A
330
1E
100
AcDbEntity
  8
0
 48
0.27
100
AcDbLine
 10
116.4599340872887
 20
32.98973333103293
 30
-0.0000000000000009
 11
116.7107690872887
 21
32.76691633103296
 31
-0.0000000000000009
  0
LINE
  5
547B
330
1E
100
AcDbEntity
  8
0
 48
0.27
100
AcDbLine
 10
116.1737570872887
 20
29.84473733103299
 30
-0.0000000000000009
 11
116.4599340872887
 21
30.010305331033
 31
-0.0000000000000009
  0
LINE
  5
547C
330
1E
100
AcDbEntity
  8
0
 48
0.27
100
AcDbLine
 10
118.3955260872886
 20
31.99816133103297
 30
-0.0000000000000009
 11
118.4408540872887
 21
31.50001933103296
 31
-0.0000000000000009
  0
LINE
  5
547D
330
1E
100
AcDbEntity
  8
0
 48
0.27
100
AcDbLine
 10
118.3955260872886
 20
31.00187733103296
 30
-0.0000000000000009
 11
118.2612830872886
 21
30.52287833103294
 31
-0.0000000000000009
  0
LINE
  5
547E
330
1E
100
AcDbEntity
  8
0
 48
0.27
100
AcDbLine
 10
118.4408540872887
 20
31.50001933103296
 30
-0.0000000000000009
 11
118.3955260872886
 21
31.00187733103296
 31
-0.0000000000000009
  0
LINE
  5
547F
330
1E
100
AcDbEntity
  8
0
 48
0.27
100
AcDbLine
 10
116.7107690872887
 20
32.76691633103296
 30
-0.0000000000000009
 11
116.9166250872886
 21
32.49541433103293
 31
-0.0000000000000009
  0
LINE
  5
5480
330
1E
100
AcDbEntity
  8
0
 48
0.27
100
AcDbLine
 10
116.4599340872887
 20
30.010305331033
 30
-0.0000000000000009
 11
116.7107690872887
 21
30.23312133103302
 31
-0.0000000000000009
  0
LINE
  5
5481
330
1E
100
AcDbEntity
  8
0
 48
0.27
100
AcDbLine
 10
116.9166250872886
 20
32.49541433103293
 30
-0.0000000000000009
 11
117.0695890872887
 21
32.18565933103297
 31
-0.0000000000000009
  0
LINE
  5
5482
330
1E
100
AcDbEntity
  8
0
 48
0.27
100
AcDbLine
 10
116.9166250872886
 20
30.50462433103299
 30
-0.0000000000000009
 11
116.7107690872887
 21
30.23312133103302
 31
-0.0000000000000009
  0
LINE
  5
5483
330
1E
100
AcDbEntity
  8
0
 48
0.27
100
AcDbLine
 10
117.0695890872887
 20
32.18565933103297
 30
-0.0000000000000009
 11
117.1637840872887
 21
31.84955533103297
 31
-0.0000000000000009
  0
LINE
  5
5484
330
1E
100
AcDbEntity
  8
0
 48
0.27
100
AcDbLine
 10
117.0695890872887
 20
30.81437933103295
 30
-0.0000000000000009
 11
116.9166250872886
 21
30.50462433103299
 31
-0.0000000000000009
  0
LINE
  5
5485
330
1E
100
AcDbEntity
  8
0
 48
0.27
100
AcDbLine
 10
117.1637840872887
 20
31.84955533103297
 30
-0.0000000000000009
 11
117.1955900872887
 21
31.50001933103296
 31
-0.0000000000000009
  0
LINE
  5
5486
330
1E
100
AcDbEntity
  8
0
 48
0.27
100
AcDbLine
 10
117.1637840872887
 20
31.15048333103296
 30
-0.0000000000000009
 11
117.0695890872887
 21
30.81437933103295
 31
-0.0000000000000009
  0
LINE
  5
5487
330
1E
100
AcDbEntity
  8
0
 48
0.27
100
AcDbLine
 10
117.1955900872887
 20
31.50001933103296
 30
-0.0000000000000009
 11
117.1637840872887
 21
31.15048333103296
 31
-0.0000000000000009
  0
POINT
  5
5488
330
1E
100
AcDbEntity
  8
0
100
AcDbPoint
 10
113.7228020872887
 20
31.50001933103296
 30
-0.0000000000000009
1001
pntflag
1000
endpoint
  0
ARC
  5
5489
330
1E
100
AcDbEntity
  8
0
 48
0.27
100
AcDbCircle
 10
2.338364939230658
 20
31.4999999999341
 30
-0.0000000000000018
 40
5.249999999999995
100
AcDbArc
 50
30.24329777399995
 51
329.7566907592999
  0
LWPOLYLINE
  5
548A
330
1E
100
AcDbEntity
  8
0
 48
0.27
100
AcDbPolyline
 90
       17
 70
     0
 43
0.0
 10
11.29005266653065
 20
31.4999999999341
 10
11.32360096793068
 20
31.28296275743409
 10
11.35649195713066
 20
31.22005852343411
 10
11.39306229093064
 20
31.1905168867341
 10
11.42703944833065
 20
31.19082416673411
 10
11.46353229413066
 20
31.2210284595341
 10
11.49487619513068
 20
31.28079843703409
 10
11.52426285583068
 20
31.4108714177341
 10
11.52923010463068
 20
31.4999999999341
 10
11.49568313923067
 20
31.71703590643409
 10
11.46279081403063
 20
31.7799401404341
 10
11.42622048023066
 20
31.8094817771341
 10
11.39224465883067
 20
31.8091744970341
 10
11.35575047703066
 20
31.77897020423409
 10
11.32440791203064
 20
31.7192002267341
 10
11.29501991533065
 20
31.58912724613409
 10
11.29005266653065
 20
31.4999999999341
  0
ARC
  5
548B
330
1E
100
AcDbEntity
  8
0
 48
0.27
100
AcDbCircle
 10
2.338364939230658
 20
31.4999999999341
 30
-0.0000000000000018
 40
3.999999331999998
100
AcDbArc
 50
48.59037799889986
 51
311.4096220032
  0
LINE
  5
548C
330
1E
100
AcDbEntity
  8
0
 48
0.27
100
AcDbLine
 10
5.225116710230643
 20
34.49999916493409
 30
-0.0000000000000018
 11
4.647765554430654
 21
35.49999933193409
 31
-0.0000000000000018
  0
LINE
  5
548D
330
1E
100
AcDbEntity
  8
0
 48
0.27
100
AcDbLine
 10
0.0289643240306532
 20
35.49999933193409
 30
-0.0000000000000018
 11
4.647765554430654
 21
35.49999933193409
 31
-0.0000000000000018
  0
LINE
  5
548E
330
1E
100
AcDbEntity
  8
0
 48
0.27
100
AcDbLine
 10
0.0289643240306532
 20
35.49999933193409
 30
-0.0000000000000018
 11
-2.280436291169336
 21
31.4999999999341
 31
-0.0000000000000018
  0
LINE
  5
548F
330
1E
100
AcDbEntity
  8
0
 48
0.27
100
AcDbLine
 10
-2.280436291169336
 20
31.4999999999341
 30
-0.0000000000000018
 11
0.0289643240306532
 21
27.49999933193409
 31
-0.0000000000000018
  0
LINE
  5
5490
330
1E
100
AcDbEntity
  8
0
 48
0.27
100
AcDbLine
 10
4.647766890430652
 20
27.49999933193409
 30
-0.0000000000000018
 11
0.0289643240306532
 21
27.49999933193409
 31
-0.0000000000000018
  0
LINE
  5
5491
330
1E
100
AcDbEntity
  8
0
 48
0.27
100
AcDbLine
 10
5.225116710230643
 20
28.4999994989341
 30
-0.0000000000000018
 11
4.647766890430652
 21
27.49999933193409
 31
-0.0000000000000018
  0
LINE
  5
5492
330
1E
100
AcDbEntity
  8
0
 48
0.27
100
AcDbLine
 10
3.639870962230658
 20
28.4999994989341
 30
-0.0000000000000018
 11
6.653939545430637
 21
28.4999994989341
 31
-0.0000000000000018
  0
LINE
  5
5493
330
1E
100
AcDbEntity
  8
0
 48
0.27
100
AcDbLine
 10
6.716838435430651
 20
34.2153122156341
 30
-0.0000000000000018
 11
6.653939545430637
 21
34.49999916493409
 31
-0.0000000000000018
  0
LINE
  5
5494
330
1E
100
AcDbEntity
  8
0
 48
0.27
100
AcDbLine
 10
6.653939545430637
 20
28.4999994989341
 30
-0.0000000000000018
 11
6.716838435430651
 21
28.7846864482341
 31
-0.0000000000000018
  0
LINE
  5
5495
330
1E
100
AcDbEntity
  8
0
 48
0.27
100
AcDbLine
 10
3.639870962230658
 20
34.49999916493409
 30
-0.0000000000000018
 11
6.653939545430637
 21
34.49999916493409
 31
-0.0000000000000018
  0
LINE
  5
5496
330
1E
100
AcDbEntity
  8
0
 48
0.27
100
AcDbLine
 10
6.215086187630651
 20
28.55764390013411
 30
-0.0000000000000018
 11
8.216892793930647
 21
29.4634587241341
 31
-0.0000000000000018
  0
LINE
  5
5497
330
1E
100
AcDbEntity
  8
0
 48
0.27
100
AcDbLine
 10
12.08210707253062
 20
31.15046360033409
 30
-0.0000000000000018
 11
12.09528137063065
 21
31.4999999999341
 31
-0.0000000000000018
  0
LINE
  5
5498
330
1E
100
AcDbEntity
  8
0
 48
0.27
100
AcDbLine
 10
12.04309052233066
 20
30.81435934693409
 30
-0.0000000000000018
 11
12.08210707253062
 21
31.15046360033409
 31
-0.0000000000000018
  0
LINE
  5
5499
330
1E
100
AcDbEntity
  8
0
 48
0.27
100
AcDbLine
 10
12.09528137063065
 20
31.4999999999341
 30
-0.0000000000000018
 11
12.08210707253062
 21
31.8495363995341
 31
-0.0000000000000018
  0
LINE
  5
549A
330
1E
100
AcDbEntity
  8
0
 48
0.27
100
AcDbLine
 10
5.991112432030652
 20
28.4999994989341
 30
-0.0000000000000018
 11
6.215086187630651
 21
28.55764390013411
 31
-0.0000000000000018
  0
LINE
  5
549B
330
1E
100
AcDbEntity
  8
0
 48
0.27
100
AcDbLine
 10
5.991112432030652
 20
34.49999916493409
 30
-0.0000000000000018
 11
6.215086187630651
 21
34.44235476373409
 31
-0.0000000000000018
  0
LINE
  5
549C
330
1E
100
AcDbEntity
  8
0
 48
0.27
100
AcDbLine
 10
6.215086187630651
 20
34.44235476373409
 30
-0.0000000000000018
 11
8.216892793930647
 21
33.5365399397341
 31
-0.0000000000000018
  0
LINE
  5
549D
330
1E
100
AcDbEntity
  8
0
 48
0.27
100
AcDbLine
 10
11.97973071223065
 20
30.50460502563409
 30
-0.0000000000000018
 11
12.04309052233066
 21
30.81435934693409
 31
-0.0000000000000018
  0
LINE
  5
549E
330
1E
100
AcDbEntity
  8
0
 48
0.27
100
AcDbLine
 10
12.08210707253062
 20
31.8495363995341
 30
-0.0000000000000018
 11
12.04309052233066
 21
32.1856393169341
 31
-0.0000000000000018
  0
LINE
  5
549F
330
1E
100
AcDbEntity
  8
0
 48
0.27
100
AcDbLine
 10
11.89446183463064
 20
30.2331017265341
 30
-0.0000000000000018
 11
11.97973071223065
 21
30.50460502563409
 31
-0.0000000000000018
  0
LINE
  5
54A0
330
1E
100
AcDbEntity
  8
0
 48
0.27
100
AcDbLine
 10
11.13510736993063
 20
29.8616909954341
 30
-0.0000000000000018
 11
11.13700582623064
 21
29.86261951553409
 31
-0.0000000000000018
  0
LINE
  5
54A1
330
1E
100
AcDbEntity
  8
0
 48
0.27
100
AcDbLine
 10
12.04309052233066
 20
32.1856393169341
 30
-0.0000000000000018
 11
11.97973071223065
 21
32.4953949742341
 31
-0.0000000000000018
  0
LINE
  5
54A2
330
1E
100
AcDbEntity
  8
0
 48
0.27
100
AcDbLine
 10
5.767138676430652
 20
28.55764390013411
 30
-0.0000000000000018
 11
5.991112432030652
 21
28.4999994989341
 31
-0.0000000000000018
  0
LINE
  5
54A3
330
1E
100
AcDbEntity
  8
0
 48
0.27
100
AcDbLine
 10
5.767138676430652
 20
34.44235476373409
 30
-0.0000000000000018
 11
5.991112432030652
 21
34.49999916493409
 31
-0.0000000000000018
  0
LINE
  5
54A4
330
1E
100
AcDbEntity
  8
0
 48
0.27
100
AcDbLine
 10
11.79056243413065
 20
30.0102849470341
 30
-0.0000000000000018
 11
11.89446183463064
 21
30.2331017265341
 31
-0.0000000000000018
  0
LINE
  5
54A5
330
1E
100
AcDbEntity
  8
0
 48
0.27
100
AcDbLine
 10
11.97973071223065
 20
32.4953949742341
 30
-0.0000000000000018
 11
11.89446183463064
 21
32.76689693733409
 31
-0.0000000000000018
  0
LINE
  5
54A6
330
1E
100
AcDbEntity
  8
0
 48
0.27
100
AcDbLine
 10
8.216892793930647
 20
29.4634587241341
 30
-0.0000000000000018
 11
8.458015448230632
 21
29.56186181973412
 31
-0.0000000000000018
  0
LINE
  5
54A7
330
1E
100
AcDbEntity
  8
0
 48
0.27
100
AcDbLine
 10
8.216892793930647
 20
33.5365399397341
 30
-0.0000000000000018
 11
8.458015448230632
 21
33.43813818013409
 31
-0.0000000000000018
  0
LINE
  5
54A8
330
1E
100
AcDbEntity
  8
0
 48
0.27
100
AcDbLine
 10
11.67202447933065
 20
29.8447184487341
 30
-0.0000000000000018
 11
11.79056243413065
 21
30.0102849470341
 31
-0.0000000000000018
  0
LINE
  5
54A9
330
1E
100
AcDbEntity
  8
0
 48
0.27
100
AcDbLine
 10
11.89446183463064
 20
32.76689693733409
 30
-0.0000000000000018
 11
11.79056243413065
 21
32.98971371683411
 31
-0.0000000000000018
  0
LINE
  5
54AA
330
1E
100
AcDbEntity
  8
0
 48
0.27
100
AcDbLine
 10
5.551772770130646
 20
28.7283606792341
 30
-0.0000000000000018
 11
5.767138676430652
 21
28.55764390013411
 31
-0.0000000000000018
  0
LINE
  5
54AB
330
1E
100
AcDbEntity
  8
0
 48
0.27
100
AcDbLine
 10
5.551772770130646
 20
34.27163798463411
 30
-0.0000000000000018
 11
5.767138676430652
 21
34.44235476373409
 31
-0.0000000000000018
  0
LINE
  5
54AC
330
1E
100
AcDbEntity
  8
0
 48
0.27
100
AcDbLine
 10
8.458015448230632
 20
29.56186181973412
 30
-0.0000000000000018
 11
8.672939138430642
 21
29.5527342663341
 31
-0.0000000000000018
  0
LINE
  5
54AD
330
1E
100
AcDbEntity
  8
0
 48
0.27
100
AcDbLine
 10
8.458015448230632
 20
33.43813818013409
 30
-0.0000000000000018
 11
8.672939138430642
 21
33.44726439753408
 31
-0.0000000000000018
  0
LINE
  5
54AE
330
1E
100
AcDbEntity
  8
0
 48
0.27
100
AcDbLine
 10
10.29292890803066
 20
28.9956716097341
 30
-0.0000000000000018
 11
11.54340373083064
 21
29.74276159253411
 31
-0.0000000000000018
  0
LINE
  5
54AF
330
1E
100
AcDbEntity
  8
0
 48
0.27
100
AcDbLine
 10
11.54340373083064
 20
29.74276159253411
 30
-0.0000000000000018
 11
11.67202447933065
 21
29.8447184487341
 31
-0.0000000000000018
  0
LINE
  5
54B0
330
1E
100
AcDbEntity
  8
0
 48
0.27
100
AcDbLine
 10
11.79056243413065
 20
32.98971371683411
 30
-0.0000000000000018
 11
11.67202447933065
 21
33.15528021513408
 31
-0.0000000000000018
  0
LINE
  5
54B1
330
1E
100
AcDbEntity
  8
0
 48
0.27
100
AcDbLine
 10
2.977043848830653
 20
31.4999999999341
 30
-0.0000000000000018
 11
3.639870962230658
 21
34.49999916493409
 31
-0.0000000000000018
  0
LINE
  5
54B2
330
1E
100
AcDbEntity
  8
0
 48
0.27
100
AcDbLine
 10
2.977043848830653
 20
31.4999999999341
 30
-0.0000000000000018
 11
4.665458205230656
 21
31.4999999999341
 31
-0.0000000000000018
  0
LINE
  5
54B3
330
1E
100
AcDbEntity
  8
0
 48
0.27
100
AcDbLine
 10
3.639870962230658
 20
28.4999994989341
 30
-0.0000000000000018
 11
2.977043848830653
 21
31.4999999999341
 31
-0.0000000000000018
  0
LINE
  5
54B4
330
1E
100
AcDbEntity
  8
0
 48
0.27
100
AcDbLine
 10
5.551772770130646
 20
28.7283606792341
 30
-0.0000000000000018
 11
5.353289898630656
 21
29.0055900753341
 31
-0.0000000000000018
  0
LINE
  5
54B5
330
1E
100
AcDbEntity
  8
0
 48
0.27
100
AcDbLine
 10
5.353289898630656
 20
33.99440858853409
 30
-0.0000000000000018
 11
5.551772770130646
 21
34.27163798463411
 31
-0.0000000000000018
  0
LINE
  5
54B6
330
1E
100
AcDbEntity
  8
0
 48
0.27
100
AcDbLine
 10
10.10229904573064
 20
28.94660833793409
 30
-0.0000000000000018
 11
10.29292890803066
 21
28.9956716097341
 31
-0.0000000000000018
  0
LINE
  5
54B7
330
1E
100
AcDbEntity
  8
0
 48
0.27
100
AcDbLine
 10
9.741466764330633
 20
28.9744919983341
 30
-0.0000000000000018
 11
10.10229904573064
 21
28.94660833793409
 31
-0.0000000000000018
  0
LINE
  5
54B8
330
1E
100
AcDbEntity
  8
0
 48
0.27
100
AcDbLine
 10
8.672939138430642
 20
29.5527342663341
 30
-0.0000000000000018
 11
9.226886242530646
 21
29.1875172322341
 31
-0.0000000000000018
  0
LINE
  5
54B9
330
1E
100
AcDbEntity
  8
0
 48
0.27
100
AcDbLine
 10
11.40964205353065
 20
29.70833553903409
 30
-0.0000000000000018
 11
11.54340373083064
 21
29.74276159253411
 31
-0.0000000000000018
  0
LINE
  5
54BA
330
1E
100
AcDbEntity
  8
0
 48
0.27
100
AcDbLine
 10
10.29292890803066
 20
34.00432839013408
 30
-0.0000000000000018
 11
11.54340373083064
 21
33.2572370713341
 31
-0.0000000000000018
  0
LINE
  5
54BB
330
1E
100
AcDbEntity
  8
0
 48
0.27
100
AcDbLine
 10
11.54340373083064
 20
33.2572370713341
 30
-0.0000000000000018
 11
11.67202447933065
 21
33.15528021513408
 31
-0.0000000000000018
  0
LINE
  5
54BC
330
1E
100
AcDbEntity
  8
0
 48
0.27
100
AcDbLine
 10
10.10229904573064
 20
34.0533903259341
 30
-0.0000000000000018
 11
10.29292890803066
 21
34.00432839013408
 31
-0.0000000000000018
  0
LINE
  5
54BD
330
1E
100
AcDbEntity
  8
0
 48
0.27
100
AcDbLine
 10
9.741466764330633
 20
34.02550800143411
 30
-0.0000000000000018
 11
10.10229904573064
 21
34.0533903259341
 31
-0.0000000000000018
  0
LINE
  5
54BE
330
1E
100
AcDbEntity
  8
0
 48
0.27
100
AcDbLine
 10
8.482103532130643
 20
29.69723738533409
 30
-0.0000000000000018
 11
8.622184490330646
 21
29.58619706363412
 31
-0.0000000000000018
  0
LINE
  5
54BF
330
1E
100
AcDbEntity
  8
0
 48
0.27
100
AcDbLine
 10
9.226886242530646
 20
29.1875172322341
 30
-0.0000000000000018
 11
9.552918390330637
 21
29.02301819813411
 31
-0.0000000000000018
  0
LINE
  5
54C0
330
1E
100
AcDbEntity
  8
0
 48
0.27
100
AcDbLine
 10
9.552918390330637
 20
29.02301819813411
 30
-0.0000000000000018
 11
9.741466764330633
 21
28.9744919983341
 31
-0.0000000000000018
  0
LINE
  5
54C1
330
1E
100
AcDbEntity
  8
0
 48
0.27
100
AcDbLine
 10
8.672939138430642
 20
33.44726439753408
 30
-0.0000000000000018
 11
9.226886242530646
 21
33.81248143163409
 31
-0.0000000000000018
  0
LINE
  5
54C2
330
1E
100
AcDbEntity
  8
0
 48
0.27
100
AcDbLine
 10
8.482103532130643
 20
33.30276127853409
 30
-0.0000000000000018
 11
8.622184490330646
 21
33.4138016002341
 31
-0.0000000000000018
  0
LINE
  5
54C3
330
1E
100
AcDbEntity
  8
0
 48
0.27
100
AcDbLine
 10
5.353289898630656
 20
29.0055900753341
 30
-0.0000000000000018
 11
5.179318622930643
 21
29.3786788226341
 31
-0.0000000000000018
  0
LINE
  5
54C4
330
1E
100
AcDbEntity
  8
0
 48
0.27
100
AcDbLine
 10
5.179318622930643
 20
33.62131984123409
 30
-0.0000000000000018
 11
5.353289898630656
 21
33.99440858853409
 31
-0.0000000000000018
  0
LINE
  5
54C5
330
1E
100
AcDbEntity
  8
0
 48
0.27
100
AcDbLine
 10
9.911667847430626
 20
28.9956716097341
 30
-0.0000000000000018
 11
10.10229904573064
 21
28.94660833793409
 31
-0.0000000000000018
  0
LINE
  5
54C6
330
1E
100
AcDbEntity
  8
0
 48
0.27
100
AcDbLine
 10
9.552918390330637
 20
33.9769804657341
 30
-0.0000000000000018
 11
9.741466764330633
 21
34.02550800143411
 31
-0.0000000000000018
  0
LINE
  5
54C7
330
1E
100
AcDbEntity
  8
0
 48
0.27
100
AcDbLine
 10
9.226886242530646
 20
33.81248143163409
 30
-0.0000000000000018
 11
9.552918390330637
 21
33.9769804657341
 31
-0.0000000000000018
  0
LINE
  5
54C8
330
1E
100
AcDbEntity
  8
0
 48
0.27
100
AcDbLine
 10
5.328285318630668
 20
28.4999994989341
 30
-0.0000000000000018
 11
4.665458205230656
 21
31.4999999999341
 31
-0.0000000000000018
  0
LINE
  5
54C9
330
1E
100
AcDbEntity
  8
0
 48
0.27
100
AcDbLine
 10
4.665458205230656
 20
31.4999999999341
 30
-0.0000000000000018
 11
5.328285318630668
 21
34.49999916493409
 31
-0.0000000000000018
  0
LINE
  5
54CA
330
1E
100
AcDbEntity
  8
0
 48
0.27
100
AcDbLine
 10
8.482103532130643
 20
29.69723738533409
 30
-0.0000000000000018
 11
8.353003159530651
 21
29.87755599793409
 31
-0.0000000000000018
  0
LINE
  5
54CB
330
1E
100
AcDbEntity
  8
0
 48
0.27
100
AcDbLine
 10
11.27588037633064
 20
29.74276159253411
 30
-0.0000000000000018
 11
11.40964205353065
 21
29.70833553903409
 31
-0.0000000000000018
  0
LINE
  5
54CC
330
1E
100
AcDbEntity
  8
0
 48
0.27
100
AcDbLine
 10
11.40964205353065
 20
33.2916631248341
 30
-0.0000000000000018
 11
11.54340373083064
 21
33.2572370713341
 31
-0.0000000000000018
  0
LINE
  5
54CD
330
1E
100
AcDbEntity
  8
0
 48
0.27
100
AcDbLine
 10
9.911667847430626
 20
34.00432839013408
 30
-0.0000000000000018
 11
10.10229904573064
 21
34.0533903259341
 31
-0.0000000000000018
  0
LINE
  5
54CE
330
1E
100
AcDbEntity
  8
0
 48
0.27
100
AcDbLine
 10
9.057623031630647
 20
33.6783096022341
 30
-0.0000000000000018
 11
9.226886242530646
 21
33.81248143163409
 31
-0.0000000000000018
  0
LINE
  5
54CF
330
1E
100
AcDbEntity
  8
0
 48
0.27
100
AcDbLine
 10
8.353003159530651
 20
33.1224426659341
 30
-0.0000000000000018
 11
8.482103532130643
 21
33.30276127853409
 31
-0.0000000000000018
  0
LINE
  5
54D0
330
1E
100
AcDbEntity
  8
0
 48
0.27
100
AcDbLine
 10
5.179318622930643
 20
29.3786788226341
 30
-0.0000000000000018
 11
5.036542952230653
 21
29.83328896693408
 31
-0.0000000000000018
  0
LINE
  5
54D1
330
1E
100
AcDbEntity
  8
0
 48
0.27
100
AcDbLine
 10
5.036542952230653
 20
33.16670969693409
 30
-0.0000000000000018
 11
5.179318622930643
 21
33.62131984123409
 31
-0.0000000000000018
  0
LINE
  5
54D2
330
1E
100
AcDbEntity
  8
0
 48
0.27
100
AcDbLine
 10
8.353003159530651
 20
29.87755599793409
 30
-0.0000000000000018
 11
8.239846613630652
 21
30.12022440453411
 31
-0.0000000000000018
  0
LINE
  5
54D3
330
1E
100
AcDbEntity
  8
0
 48
0.27
100
AcDbLine
 10
9.728363274230652
 20
29.14097365683409
 30
-0.0000000000000018
 11
9.911667847430626
 21
28.9956716097341
 31
-0.0000000000000018
  0
LINE
  5
54D4
330
1E
100
AcDbEntity
  8
0
 48
0.27
100
AcDbLine
 10
8.239846613630652
 20
32.87977425933409
 30
-0.0000000000000018
 11
8.353003159530651
 21
33.1224426659341
 31
-0.0000000000000018
  0
LINE
  5
54D5
330
1E
100
AcDbEntity
  8
0
 48
0.27
100
AcDbLine
 10
11.14725829183063
 20
29.8447184487341
 30
-0.0000000000000018
 11
11.27588037633064
 21
29.74276159253411
 31
-0.0000000000000018
  0
LINE
  5
54D6
330
1E
100
AcDbEntity
  8
0
 48
0.27
100
AcDbLine
 10
9.728363274230652
 20
33.85902500703409
 30
-0.0000000000000018
 11
9.911667847430626
 21
34.00432839013408
 31
-0.0000000000000018
  0
LINE
  5
54D7
330
1E
100
AcDbEntity
  8
0
 48
0.27
100
AcDbLine
 10
11.27588037633064
 20
33.2572370713341
 30
-0.0000000000000018
 11
11.40964205353065
 21
33.2916631248341
 31
-0.0000000000000018
  0
LINE
  5
54D8
330
1E
100
AcDbEntity
  8
0
 48
0.27
100
AcDbLine
 10
8.239846613630652
 20
30.12022440453411
 30
-0.0000000000000018
 11
8.146981238830655
 21
30.4159173235341
 31
-0.0000000000000018
  0
LINE
  5
54D9
330
1E
100
AcDbEntity
  8
0
 48
0.27
100
AcDbLine
 10
5.036542952230653
 20
29.83328896693408
 30
-0.0000000000000018
 11
4.930452511430651
 21
30.35194963343411
 31
-0.0000000000000018
  0
LINE
  5
54DA
330
1E
100
AcDbEntity
  8
0
 48
0.27
100
AcDbLine
 10
4.930452511430651
 20
32.64805036643408
 30
-0.0000000000000018
 11
5.036542952230653
 21
33.16670969693409
 31
-0.0000000000000018
  0
LINE
  5
54DB
330
1E
100
AcDbEntity
  8
0
 48
0.27
100
AcDbLine
 10
8.146981238830655
 20
32.58408134033408
 30
-0.0000000000000018
 11
8.239846613630652
 21
32.87977425933409
 31
-0.0000000000000018
  0
LINE
  5
54DC
330
1E
100
AcDbEntity
  8
0
 48
0.27
100
AcDbLine
 10
9.728363274230652
 20
29.14097365683409
 30
-0.0000000000000018
 11
9.559428719430632
 21
29.3769326703341
 31
-0.0000000000000018
  0
LINE
  5
54DD
330
1E
100
AcDbEntity
  8
0
 48
0.27
100
AcDbLine
 10
8.146981238830655
 20
30.4159173235341
 30
-0.0000000000000018
 11
8.077976827830646
 21
30.75327073723411
 31
-0.0000000000000018
  0
LINE
  5
54DE
330
1E
100
AcDbEntity
  8
0
 48
0.27
100
AcDbLine
 10
4.930452511430651
 20
30.35194963343411
 30
-0.0000000000000018
 11
4.86512210103065
 21
30.9147290348341
 31
-0.0000000000000018
  0
LINE
  5
54DF
330
1E
100
AcDbEntity
  8
0
 48
0.27
100
AcDbLine
 10
4.86512210103065
 20
32.08527096493411
 30
-0.0000000000000018
 11
4.930452511430651
 21
32.64805036643408
 31
-0.0000000000000018
  0
LINE
  5
54E0
330
1E
100
AcDbEntity
  8
0
 48
0.27
100
AcDbLine
 10
11.14725829183063
 20
33.15528021513408
 30
-0.0000000000000018
 11
11.27588037633064
 21
33.2572370713341
 31
-0.0000000000000018
  0
LINE
  5
54E1
330
1E
100
AcDbEntity
  8
0
 48
0.27
100
AcDbLine
 10
11.14725829183063
 20
29.8447184487341
 30
-0.0000000000000018
 11
11.02872033703067
 21
30.0102849470341
 31
-0.0000000000000018
  0
LINE
  5
54E2
330
1E
100
AcDbEntity
  8
0
 48
0.27
100
AcDbLine
 10
9.559428719430632
 20
33.62306599353408
 30
-0.0000000000000018
 11
9.728363274230652
 21
33.85902500703409
 31
-0.0000000000000018
  0
LINE
  5
54E3
330
1E
100
AcDbEntity
  8
0
 48
0.27
100
AcDbLine
 10
8.077976827830646
 20
32.24672792663409
 30
-0.0000000000000018
 11
8.146981238830655
 21
32.58408134033408
 31
-0.0000000000000018
  0
LINE
  5
54E4
330
1E
100
AcDbEntity
  8
0
 48
0.27
100
AcDbLine
 10
8.077976827830646
 20
30.75327073723411
 30
-0.0000000000000018
 11
8.035482669130651
 21
31.11932009943409
 31
-0.0000000000000018
  0
LINE
  5
54E5
330
1E
100
AcDbEntity
  8
0
 48
0.27
100
AcDbLine
 10
4.86512210103065
 20
30.9147290348341
 30
-0.0000000000000018
 11
4.843062065530658
 21
31.4999999999341
 31
-0.0000000000000018
  0
LINE
  5
54E6
330
1E
100
AcDbEntity
  8
0
 48
0.27
100
AcDbLine
 10
4.843062065530658
 20
31.4999999999341
 30
-0.0000000000000018
 11
4.86512210103065
 21
32.08527096493411
 31
-0.0000000000000018
  0
LINE
  5
54E7
330
1E
100
AcDbEntity
  8
0
 48
0.27
100
AcDbLine
 10
8.035482669130651
 20
31.88067856443409
 30
-0.0000000000000018
 11
8.077976827830646
 21
32.24672792663409
 31
-0.0000000000000018
  0
LINE
  5
54E8
330
1E
100
AcDbEntity
  8
0
 48
0.27
100
AcDbLine
 10
8.035482669130651
 20
31.11932009943409
 30
-0.0000000000000018
 11
8.021135362830655
 21
31.4999999999341
 31
-0.0000000000000018
  0
LINE
  5
54E9
330
1E
100
AcDbEntity
  8
0
 48
0.27
100
AcDbLine
 10
8.021135362830655
 20
31.4999999999341
 30
-0.0000000000000018
 11
8.035482669130651
 21
31.88067856443409
 31
-0.0000000000000018
  0
LINE
  5
54EA
330
1E
100
AcDbEntity
  8
0
 48
0.27
100
AcDbLine
 10
9.559428719430632
 20
29.3769326703341
 30
-0.0000000000000018
 11
9.411355807830652
 21
29.69447988083409
 31
-0.0000000000000018
  0
LINE
  5
54EB
330
1E
100
AcDbEntity
  8
0
 48
0.27
100
AcDbLine
 10
11.02872033703067
 20
32.98971371683411
 30
-0.0000000000000018
 11
11.14725829183063
 21
33.15528021513408
 31
-0.0000000000000018
  0
LINE
  5
54EC
330
1E
100
AcDbEntity
  8
0
 48
0.27
100
AcDbLine
 10
11.02872033703067
 20
30.0102849470341
 30
-0.0000000000000018
 11
10.92482093653063
 21
30.2331017265341
 31
-0.0000000000000018
  0
LINE
  5
54ED
330
1E
100
AcDbEntity
  8
0
 48
0.27
100
AcDbLine
 10
9.411355807830652
 20
33.3055201190341
 30
-0.0000000000000018
 11
9.559428719430632
 21
33.62306599353408
 31
-0.0000000000000018
  0
LINE
  5
54EE
330
1E
100
AcDbEntity
  8
0
 48
0.27
100
AcDbLine
 10
10.92482093653063
 20
32.76689693733409
 30
-0.0000000000000018
 11
11.02872033703067
 21
32.98971371683411
 31
-0.0000000000000018
  0
LINE
  5
54EF
330
1E
100
AcDbEntity
  8
0
 48
0.27
100
AcDbLine
 10
9.411355807830652
 20
29.69447988083409
 30
-0.0000000000000018
 11
9.289835900530654
 21
30.0814109263341
 31
-0.0000000000000018
  0
LINE
  5
54F0
330
1E
100
AcDbEntity
  8
0
 48
0.27
100
AcDbLine
 10
10.92482093653063
 20
30.2331017265341
 30
-0.0000000000000018
 11
10.83955339493062
 21
30.50460502563409
 31
-0.0000000000000018
  0
LINE
  5
54F1
330
1E
100
AcDbEntity
  8
0
 48
0.27
100
AcDbLine
 10
9.289835900530654
 20
32.9185877374341
 30
-0.0000000000000018
 11
9.411355807830652
 21
33.3055201190341
 31
-0.0000000000000018
  0
LINE
  5
54F2
330
1E
100
AcDbEntity
  8
0
 48
0.27
100
AcDbLine
 10
10.83955339493062
 20
32.4953949742341
 30
-0.0000000000000018
 11
10.92482093653063
 21
32.76689693733409
 31
-0.0000000000000018
  0
LINE
  5
54F3
330
1E
100
AcDbEntity
  8
0
 48
0.27
100
AcDbLine
 10
9.289835900530654
 20
30.0814109263341
 30
-0.0000000000000018
 11
9.199538318130668
 21
30.52285879653409
 31
-0.0000000000000018
  0
LINE
  5
54F4
330
1E
100
AcDbEntity
  8
0
 48
0.27
100
AcDbLine
 10
10.83955339493062
 20
30.50460502563409
 30
-0.0000000000000018
 11
10.77619358483066
 21
30.81435934693409
 31
-0.0000000000000018
  0
LINE
  5
54F5
330
1E
100
AcDbEntity
  8
0
 48
0.27
100
AcDbLine
 10
9.199538318130668
 20
32.47713986733411
 30
-0.0000000000000018
 11
9.289835900530654
 21
32.9185877374341
 31
-0.0000000000000018
  0
LINE
  5
54F6
330
1E
100
AcDbEntity
  8
0
 48
0.27
100
AcDbLine
 10
10.77619358483066
 20
32.1856393169341
 30
-0.0000000000000018
 11
10.83955339493062
 21
32.4953949742341
 31
-0.0000000000000018
  0
LINE
  5
54F7
330
1E
100
AcDbEntity
  8
0
 48
0.27
100
AcDbLine
 10
9.199538318130668
 20
30.52285879653409
 30
-0.0000000000000018
 11
9.143933989330641
 21
31.0018576247341
 31
-0.0000000000000018
  0
LINE
  5
54F8
330
1E
100
AcDbEntity
  8
0
 48
0.27
100
AcDbLine
 10
10.77619358483066
 20
30.81435934693409
 30
-0.0000000000000018
 11
10.73717569863063
 21
31.15046360033409
 31
-0.0000000000000018
  0
LINE
  5
54F9
330
1E
100
AcDbEntity
  8
0
 48
0.27
100
AcDbLine
 10
9.143933989330641
 20
31.99814103913411
 30
-0.0000000000000018
 11
9.199538318130668
 21
32.47713986733411
 31
-0.0000000000000018
  0
LINE
  5
54FA
330
1E
100
AcDbEntity
  8
0
 48
0.27
100
AcDbLine
 10
10.73717569863063
 20
31.8495363995341
 30
-0.0000000000000018
 11
10.77619358483066
 21
32.1856393169341
 31
-0.0000000000000018
  0
LINE
  5
54FB
330
1E
100
AcDbEntity
  8
0
 48
0.27
100
AcDbLine
 10
9.143933989330641
 20
31.0018576247341
 30
-0.0000000000000018
 11
9.125157842330628
 21
31.4999999999341
 31
-0.0000000000000018
  0
LINE
  5
54FC
330
1E
100
AcDbEntity
  8
0
 48
0.27
100
AcDbLine
 10
10.73717569863063
 20
31.15046360033409
 30
-0.0000000000000018
 11
10.72400140053066
 21
31.4999999999341
 31
-0.0000000000000018
  0
LINE
  5
54FD
330
1E
100
AcDbEntity
  8
0
 48
0.27
100
AcDbLine
 10
10.72400140053066
 20
31.4999999999341
 30
-0.0000000000000018
 11
10.73717569863063
 21
31.8495363995341
 31
-0.0000000000000018
  0
LINE
  5
54FE
330
1E
100
AcDbEntity
  8
0
 48
0.27
100
AcDbLine
 10
9.125157842330628
 20
31.4999999999341
 30
-0.0000000000000018
 11
9.143933989330641
 21
31.99814103913411
 31
-0.0000000000000018
  0
LINE
  5
54FF
330
1E
100
AcDbEntity
  8
0
 48
0.27
100
AcDbLine
 10
8.622184490330646
 20
29.58619706363412
 30
-0.0000000000000018
 11
8.672939138430642
 21
29.5527342663341
 31
-0.0000000000000018
  0
LINE
  5
5500
330
1E
100
AcDbEntity
  8
0
 48
0.27
100
AcDbLine
 10
8.409661592630646
 20
29.5639152521341
 30
-0.0000000000000018
 11
8.458015448230632
 21
29.56186181973412
 31
-0.0000000000000018
  0
LINE
  5
5501
330
1E
100
AcDbEntity
  8
0
 48
0.27
100
AcDbLine
 10
8.622184490330646
 20
33.4138016002341
 30
-0.0000000000000018
 11
8.672939138430642
 21
33.44726439753408
 31
-0.0000000000000018
  0
LINE
  5
5502
330
1E
100
AcDbEntity
  8
中心線
 48
0.27
100
AcDbLine
 10
2.338364939230643
 20
-10.23378473662296
 30
-0.0000000000000018
 11
2.338364939230643
 21
52.34111727207665
 31
-0.0000000000000018
  0
LINE
  5
5503
330
1E
100
AcDbEntity
  8
中心線
 48
0.27
100
AcDbLine
 10
13.59528137063065
 20
31.4999999999341
 30
-0.0000000000000018
 11
-4.411635060769338
 21
31.4999999999341
 31
-0.0000000000000018
  0
POINT
  5
5504
330
1E
100
AcDbEntity
  8
0
100
AcDbPoint
 10
12.09528137063065
 20
31.4999999999341
 30
-0.0000000000000018
1001
pntflag
1000
endpoint
  0
LINE
  5
55DF
330
1E
100
AcDbEntity
  8
0
100
AcDbLine
 10
141.9228020872887
 20
86.82310892799518
 30
-0.0000000000000071
 11
141.9228020872887
 21
156.8231089279951
 31
-0.0000000000000071
  0
LINE
  5
55E0
330
1E
100
AcDbEntity
  8
0
100
AcDbLine
 10
247.7228020872887
 20
86.82310892799518
 30
-0.0000000000000071
 11
247.7228020872887
 21
156.8231089279951
 31
-0.0000000000000071
  0
LINE
  5
55E1
330
1E
100
AcDbEntity
  8
中心線
100
AcDbLine
 10
194.8228020872887
 20
81.62310892799519
 30
-0.0000000000000071
 11
194.8228020872887
 21
161.8231089279951
 31
-0.0000000000000071
  0
LINE
  5
55E4
330
1E
100
AcDbEntity
  8
0
100
AcDbLine
 10
141.9228020872887
 20
156.8231089279951
 30
-0.0000000000000071
 11
247.7228020872887
 21
156.8231089279951
 31
-0.0000000000000071
  0
LINE
  5
55E5
330
1E
100
AcDbEntity
  8
0
100
AcDbLine
 10
141.9228020872887
 20
139.523108927995
 30
-0.0000000000000071
 11
247.7228020872887
 21
139.523108927995
 31
-0.0000000000000071
  0
LINE
  5
55E6
330
1E
100
AcDbEntity
  8
0
100
AcDbLine
 10
141.9228020872887
 20
138.8231089294452
 30
-0.0000000000000071
 11
247.7228020872887
 21
138.8231089294452
 31
-0.0000000000000071
  0
LINE
  5
55E7
330
1E
100
AcDbEntity
  8
0
100
AcDbLine
 10
141.9228020872887
 20
129.2231089294451
 30
-0.0000000000000071
 11
247.7228020872887
 21
129.2231089294451
 31
-0.0000000000000071
  0
LINE
  5
55E8
330
1E
100
AcDbEntity
  8
0
100
AcDbLine
 10
141.9228020872887
 20
128.5231089308953
 30
-0.0000000000000071
 11
247.7228020872887
 21
128.5231089308953
 31
-0.0000000000000071
  0
LINE
  5
55E9
330
1E
100
AcDbEntity
  8
0
100
AcDbLine
 10
141.9228020872887
 20
155.1231089279951
 30
-0.0000000000000071
 11
247.7228020872887
 21
155.1231089279951
 31
-0.0000000000000071
  0
LINE
  5
55EA
330
1E
100
AcDbEntity
  8
中心線
100
AcDbLine
 10
226.6228020872888
 20
146.8231089279951
 30
-0.0000000000000071
 11
235.0228020872887
 21
146.8231089279951
 31
-0.0000000000000071
  0
CIRCLE
  5
55EB
330
1E
100
AcDbEntity
  8
0
100
AcDbCircle
 10
230.8228020872888
 20
146.8231089279951
 30
-0.0000000000000071
 40
3.399999999999999
  0
ARC
  5
55EC
330
1E
100
AcDbEntity
  8
指線
100
AcDbCircle
 10
230.8228020872888
 20
146.8231089279951
 30
-0.0000000000000071
 40
4.0
100
AcDbArc
 50
169.9999999988373
 51
100.0000000011642
  0
LINE
  5
560A
330
1E
100
AcDbEntity
  8
中心線
100
AcDbLine
 10
158.8228020872887
 20
151.0231089279951
 30
-0.0000000000000071
 11
158.8228020872887
 21
142.6231089279951
 31
-0.0000000000000071
  0
LINE
  5
560B
330
1E
100
AcDbEntity
  8
中心線
100
AcDbLine
 10
154.6228020872886
 20
146.8231089279951
 30
-0.0000000000000071
 11
163.0228020872887
 21
146.8231089279951
 31
-0.0000000000000071
  0
CIRCLE
  5
560C
330
1E
100
AcDbEntity
  8
0
100
AcDbCircle
 10
158.8228020872887
 20
146.8231089279951
 30
-0.0000000000000071
 40
3.399999999999999
  0
ARC
  5
560D
330
1E
100
AcDbEntity
  8
指線
100
AcDbCircle
 10
158.8228020872887
 20
146.8231089279951
 30
-0.0000000000000071
 40
4.0
100
AcDbArc
 50
169.9999999988373
 51
100.0000000011642
  0
LINE
  5
5615
330
1E
100
AcDbEntity
  8
中心線
100
AcDbLine
 10
230.8228020872888
 20
151.0231089279951
 30
-0.0000000000000071
 11
230.8228020872888
 21
142.6231089279951
 31
-0.0000000000000071
  0
LINE
  5
5634
330
1E
100
AcDbEntity
  8
0
100
AcDbLine
 10
141.9228020872887
 20
115.1231089250949
 30
-0.0000000000000071
 11
247.7228020872887
 21
115.1231089250949
 31
-0.0000000000000071
  0
LINE
  5
5635
330
1E
100
AcDbEntity
  8
0
100
AcDbLine
 10
141.9228020872887
 20
114.4231089265451
 30
-0.0000000000000071
 11
247.7228020872887
 21
114.4231089265451
 31
-0.0000000000000071
  0
LINE
  5
5636
330
1E
100
AcDbEntity
  8
0
100
AcDbLine
 10
141.9228020872887
 20
104.823108926545
 30
-0.0000000000000071
 11
247.7228020872887
 21
104.823108926545
 31
-0.0000000000000071
  0
LINE
  5
5637
330
1E
100
AcDbEntity
  8
0
100
AcDbLine
 10
141.9228020872887
 20
104.1231089279952
 30
-0.0000000000000071
 11
247.7228020872887
 21
104.1231089279952
 31
-0.0000000000000071
  0
LINE
  5
5638
330
1E
100
AcDbEntity
  8
0
100
AcDbLine
 10
141.9228020872887
 20
88.52310892799517
 30
-0.0000000000000071
 11
247.7228020872887
 21
88.52310892799517
 31
-0.0000000000000071
  0
LINE
  5
5639
330
1E
100
AcDbEntity
  8
0
100
AcDbLine
 10
141.9228020872887
 20
86.82310892799518
 30
-0.0000000000000071
 11
247.7228020872887
 21
86.82310892799518
 31
-0.0000000000000071
  0
LINE
  5
563A
330
1E
100
AcDbEntity
  8
中心線
100
AcDbLine
 10
125.4545479127141
 20
121.8231089279951
 30
-0.0000000000000071
 11
266.4445991658595
 21
121.8231089279951
 31
-0.0000000000000071
  0
LINE
  5
563B
330
1E
100
AcDbEntity
  8
中心線
100
AcDbLine
 10
226.6228020872888
 20
96.82310892799513
 30
-0.0000000000000071
 11
235.0228020872887
 21
96.82310892799513
 31
-0.0000000000000071
  0
CIRCLE
  5
563C
330
1E
100
AcDbEntity
  8
0
100
AcDbCircle
 10
230.8228020872888
 20
96.82310892799513
 30
-0.0000000000000071
 40
3.399999999999999
  0
ARC
  5
563D
330
1E
100
AcDbEntity
  8
指線
100
AcDbCircle
 10
230.8228020872888
 20
96.82310892799513
 30
-0.0000000000000071
 40
4.0
100
AcDbArc
 50
169.9999999988373
 51
100.0000000011642
  0
LINE
  5
565B
330
1E
100
AcDbEntity
  8
中心線
100
AcDbLine
 10
158.8228020872887
 20
101.0231089279951
 30
-0.0000000000000071
 11
158.8228020872887
 21
92.62310892799508
 31
-0.0000000000000071
  0
LINE
  5
565C
330
1E
100
AcDbEntity
  8
中心線
100
AcDbLine
 10
154.6228020872886
 20
96.82310892799513
 30
-0.0000000000000071
 11
163.0228020872887
 21
96.82310892799513
 31
-0.0000000000000071
  0
CIRCLE
  5
565D
330
1E
100
AcDbEntity
  8
0
100
AcDbCircle
 10
158.8228020872887
 20
96.82310892799513
 30
-0.0000000000000071
 40
3.399999999999999
  0
ARC
  5
565E
330
1E
100
AcDbEntity
  8
指線
100
AcDbCircle
 10
158.8228020872887
 20
96.82310892799513
 30
-0.0000000000000071
 40
4.0
100
AcDbArc
 50
169.9999999988373
 51
100.0000000011642
  0
LINE
  5
5667
330
1E
100
AcDbEntity
  8
中心線
100
AcDbLine
 10
230.8228020872888
 20
101.0231089279951
 30
-0.0000000000000071
 11
230.8228020872888
 21
92.62310892799508
 31
-0.0000000000000071
  0
LINE
  5
56E1
330
1E
100
AcDbEntity
  8
中心線
 48
0.27
100
AcDbLine
 10
280.8883745575865
 20
121.8231089279951
 30
-0.0000000000000107
 11
307.8431915742597
 21
121.8231089279951
 31
-0.0000000000000107
  0
CIRCLE
  5
56E2
330
1E
100
AcDbEntity
  8
0
100
AcDbCircle
 10
294.3657830659231
 20
121.8231089279951
 30
-0.0000000000000071
 40
4.500000000048657
  0
CIRCLE
  5
56E3
330
1E
100
AcDbEntity
  8
0
100
AcDbCircle
 10
294.3657830659231
 20
121.8231089279951
 30
-0.0000000000000071
 40
6.999999999950702
  0
LINE
  5
56E4
330
1E
100
AcDbEntity
  8
0
100
AcDbLine
 10
314.3657830636692
 20
104.8231089279951
 30
-0.0000000000000044
 11
263.9228020872886
 21
104.8231089279951
 31
-0.000000000000007
  0
LINE
  5
56E5
330
1E
100
AcDbEntity
  8
0
100
AcDbLine
 10
314.3657830636692
 20
138.8231089279951
 30
-0.0000000000000053
 11
263.9228020872885
 21
138.8231089279952
 31
-0.0000000000000053
  0
LINE
  5
56E6
330
1E
100
AcDbEntity
  8
0
100
AcDbLine
 10
314.3657830659231
 20
104.8231089279951
 30
-0.0000000000000071
 11
314.3657830659231
 21
138.8231089279951
 31
-0.0000000000000071
  0
LINE
  5
56E7
330
1E
100
AcDbEntity
  8
中心線
 48
0.27
100
AcDbLine
 10
294.3657830659231
 20
108.3457004196586
 30
-0.0000000000000071
 11
294.3657830659231
 21
135.3005174363317
 31
-0.0000000000000071
  0
LINE
  5
56E8
330
1E
100
AcDbEntity
  8
0
100
AcDbLine
 10
127.2228020872886
 20
155.8231089279951
 30
-0.0000000000000089
 11
127.2228020872886
 21
87.82310892799509
 31
-0.0000000000000089
  0
LINE
  5
56E9
330
1E
100
AcDbEntity
  8
0
 48
0.27
100
AcDbLine
 10
128.9228020872886
 20
87.82310892799509
 30
-0.0000000000000089
 11
128.9228020872886
 21
155.8231089279952
 31
-0.0000000000000089
  0
LINE
  5
56EA
330
1E
100
AcDbEntity
  8
0
 48
0.27
100
AcDbLine
 10
141.9228020872887
 20
87.82310892799513
 30
-0.0000000000000071
 11
127.2228020872886
 21
87.82310892799509
 31
-0.0000000000000071
  0
LINE
  5
56EB
330
1E
100
AcDbEntity
  8
中心線
100
AcDbLine
 10
125.4389522886635
 20
101.9231089279949
 30
-0.0000000000000071
 11
131.1905892630445
 21
101.9231089279949
 31
-0.0000000000000071
  0
LINE
  5
56EC
330
1E
100
AcDbEntity
  8
0
100
AcDbLine
 10
126.3384742256764
 20
102.9231089279949
 30
-0.0000000000000071
 11
126.3384742256764
 21
100.923108927995
 31
-0.0000000000000071
  0
ARC
  5
56ED
330
1E
100
AcDbEntity
  8
0
100
AcDbCircle
 10
127.5583259045289
 20
100.9428605660121
 30
-0.0000000000000071
 40
1.220011576012179
100
AcDbArc
 50
180.9276427879976
 51
254.0369778311711
  0
ARC
  5
56EE
330
1E
100
AcDbEntity
  8
0
100
AcDbCircle
 10
127.5583259045289
 20
102.9033572899778
 30
-0.0000000000000071
 40
1.220011576012179
100
AcDbArc
 50
145.8009970491296
 51
179.0723572120024
  0
LINE
  5
56EF
330
1E
100
AcDbEntity
  8
中心線
100
AcDbLine
 10
125.4389522886635
 20
141.923108927995
 30
-0.0000000000000071
 11
131.1905892630445
 21
141.923108927995
 31
-0.0000000000000071
  0
LINE
  5
56F0
330
1E
100
AcDbEntity
  8
0
100
AcDbLine
 10
126.3384742256764
 20
142.923108927995
 30
-0.0000000000000071
 11
126.3384742256764
 21
140.9231089279949
 31
-0.0000000000000071
  0
ARC
  5
56F1
330
1E
100
AcDbEntity
  8
0
100
AcDbCircle
 10
127.5583259045288
 20
140.9428605660121
 30
-0.0000000000000071
 40
1.220011576012179
100
AcDbArc
 50
180.9276427879976
 51
219.7363717855709
  0
ARC
  5
56F2
330
1E
100
AcDbEntity
  8
0
100
AcDbCircle
 10
127.5583259045288
 20
142.9033572899778
 30
-0.0000000000000071
 40
1.220011576012179
100
AcDbArc
 50
105.9630221688289
 51
179.0723572120024
  0
LINE
  5
56F3
330
1E
100
AcDbEntity
  8
0
 48
0.27
100
AcDbLine
 10
88.56578306592302
 20
104.823108927995
 30
-0.0000000000000071
 11
88.565783065923
 21
138.823108927995
 31
-0.0000000000000071
  0
LINE
  5
56F4
330
1E
100
AcDbEntity
  8
中心線
 48
0.27
100
AcDbLine
 10
95.08837455758644
 20
121.8231089279951
 30
-0.0000000000000071
 11
122.0431915742595
 21
121.823108927995
 31
-0.0000000000000071
  0
ARC
  5
56F5
330
1E
100
AcDbEntity
  8
0
  6
Continuous
100
AcDbCircle
 10
115.7551938797845
 20
119.797381351005
 30
-0.0000000000000089
 40
1.854133729915247
100
AcDbArc
 50
214.6327799989371
 51
280.3672200010621
  0
LINE
  5
56F6
330
1E
100
AcDbEntity
  8
0
  6
Continuous
100
AcDbLine
 10
114.2295919572239
 20
118.7437102378728
 30
-0.0000000000000089
 11
114.8016692257396
 21
120.1248269382486
 31
-0.0000000000000089
  0
ARC
  5
56F7
330
1E
100
AcDbEntity
  8
0
  6
Continuous
100
AcDbCircle
 10
112.9560819611449
 20
117.0641173010052
 30
-0.0000000000000089
 40
2.059673609817604
100
AcDbArc
 50
335.8479011650597
 51
45.84790116506002
  0
LINE
  5
56F8
330
1E
100
AcDbEntity
  8
0
100
AcDbLine
 10
88.56578306592302
 20
104.823108927995
 30
-0.0000000000000071
 11
125.7228020872888
 21
104.823108927995
 31
-0.0000000000000088
  0
LINE
  5
56F9
330
1E
100
AcDbEntity
  8
0
  6
Continuous
100
AcDbLine
 10
113.4603080872886
 20
114.5179622413326
 30
-0.0000000000000089
 11
119.2227329710895
 21
112.131087702306
 31
-0.0000000000000089
  0
LINE
  5
56FA
330
1E
100
AcDbEntity
  8
0
  6
Continuous
100
AcDbLine
 10
113.4603080872886
 20
111.4859662789466
 30
-0.0000000000000089
 11
117.0787880655562
 21
109.9871427967727
 31
-0.0000000000000089
  0
ARC
  5
56FB
330
1E
100
AcDbEntity
  8
0
100
AcDbCircle
 10
108.565783065923
 20
121.8231089279951
 30
-0.0000000000000036
 40
6.999999999950702
100
AcDbArc
 50
346.0989538403268
 51
329.1684515164122
  0
ARC
  5
56FC
330
1E
100
AcDbEntity
  8
0
  6
Continuous
100
AcDbCircle
 10
116.204090313529
 20
113.7097199421098
 30
-0.0000000000000089
 40
2.860349020536761
100
AcDbArc
 50
118.5864858262623
 51
163.5864858262621
  0
LINE
  5
56FD
330
1E
100
AcDbEntity
  8
0
  6
Continuous
100
AcDbLine
 10
113.4603080872886
 20
111.4859662789466
 30
-0.0000000000000089
 11
113.4603080872886
 21
114.5179622413326
 31
-0.0000000000000089
  0
LINE
  5
56FE
330
1E
100
AcDbEntity
  8
中心線
 48
0.27
100
AcDbLine
 10
108.565783065923
 20
108.3457004196585
 30
-0.0000000000000036
 11
108.565783065923
 21
135.3005174363316
 31
-0.0000000000000036
  0
CIRCLE
  5
56FF
330
1E
100
AcDbEntity
  8
0
100
AcDbCircle
 10
108.565783065923
 20
121.8231089279951
 30
-0.0000000000000036
 40
4.500000000048657
  0
ARC
  5
5700
330
1E
100
AcDbEntity
  8
0
  6
Continuous
100
AcDbCircle
 10
116.7110723421935
 20
113.4997211099575
 30
-0.0000000000000089
 40
2.860349020536761
100
AcDbArc
 50
331.4135141737373
 51
16.41351417373787
  0
LINE
  5
5705
330
1E
100
AcDbEntity
  8
0
  6
Continuous
100
AcDbLine
 10
117.0787880655562
 20
109.9871427967727
 30
-0.0000000000000089
 11
119.2227329710895
 21
112.131087702306
 31
-0.0000000000000089
  0
ARC
  5
5706
330
1E
100
AcDbEntity
  8
0
  6
Continuous
100
AcDbCircle
 10
125.5793180643346
 20
125.273109027588
 30
-0.0000000000000089
 40
2.119009977045995
100
AcDbArc
 50
147.1327799989379
 51
212.8672200010621
  0
LINE
  5
5707
330
1E
100
AcDbEntity
  8
0
  6
Continuous
100
AcDbLine
 10
123.4603080872886
 20
118.3731088284022
 30
-0.0000000000000089
 11
123.4603080872886
 21
125.273109027588
 31
-0.0000000000000089
  0
ARC
  5
5708
330
1E
100
AcDbEntity
  8
0
  6
Continuous
100
AcDbCircle
 10
119.8617492648035
 20
121.8231089279951
 30
-0.0000000000000089
 40
4.0
100
AcDbArc
 50
90.0
 51
210.8352048940846
  0
ARC
  5
5709
330
1E
100
AcDbEntity
  8
0
  6
Continuous
100
AcDbCircle
 10
120.7132975398949
 20
115.9905541945773
 30
-0.0000000000000089
 40
1.854133729915247
100
AcDbArc
 50
34.63277999893714
 51
100.367220001062
  0
LINE
  5
570A
330
1E
100
AcDbEntity
  8
0
  6
Continuous
100
AcDbLine
 10
120.9953525654442
 20
117.8231089279951
 30
-0.0000000000000089
 11
123.5329301753036
 21
117.8231089279951
 31
-0.0000000000000089
  0
LINE
  5
570B
330
1E
100
AcDbEntity
  8
0
  6
Continuous
100
AcDbLine
 10
116.0888996774237
 20
117.973559763541
 30
-0.0000000000000089
 11
116.6609769459393
 21
119.3546764639168
 31
-0.0000000000000089
  0
LINE
  5
570C
330
1E
100
AcDbEntity
  8
0
  6
Continuous
100
AcDbLine
 10
115.8449209611651
 20
120.0140016877861
 30
-0.0000000000000089
 11
121.4228437997227
 21
117.7035503981849
 31
-0.0000000000000089
  0
ARC
  5
570D
330
1E
100
AcDbEntity
  8
0
  6
Continuous
100
AcDbCircle
 10
115.966003020784
 20
112.4179455101193
 30
-0.0000000000000089
 40
6.971504732179472
100
AcDbArc
 50
50.7213499979131
 51
84.27865000208782
  0
LINE
  5
570E
330
1E
100
AcDbEntity
  8
0
  6
Continuous
100
AcDbLine
 10
115.0456476199567
 20
118.0843851473975
 30
-0.0000000000000089
 11
120.6235704585143
 21
115.7739338577963
 31
-0.0000000000000089
  0
ARC
  5
570F
330
1E
100
AcDbEntity
  8
0
  6
Continuous
100
AcDbCircle
 10
120.5024883988954
 20
123.3699900354631
 30
-0.0000000000000089
 40
6.971504732179472
100
AcDbArc
 50
230.7213499979131
 51
264.2786500020895
  0
LINE
  5
5710
330
1E
100
AcDbEntity
  8
0
  6
Continuous
100
AcDbLine
 10
115.0202328123798
 20
116.1448438845327
 30
-0.0000000000000089
 11
119.2700786619317
 21
114.3845000956533
 31
-0.0000000000000089
  0
ARC
  5
5711
330
1E
100
AcDbEntity
  8
0
  6
Continuous
100
AcDbCircle
 10
121.3331167183422
 20
117.4869300614038
 30
-0.0000000000000089
 40
1.854133729915247
100
AcDbArc
 50
214.6327799989371
 51
280.3672200010621
  0
LINE
  5
5712
330
1E
100
AcDbEntity
  8
0
  6
Continuous
100
AcDbLine
 10
119.8075144737401
 20
116.4332590816655
 30
-0.0000000000000089
 11
120.3795917422557
 21
117.8143757820413
 31
-0.0000000000000089
  0
LINE
  5
5713
330
1E
100
AcDbEntity
  8
0
  6
Continuous
100
AcDbLine
 10
121.6667799418933
 20
115.6630658280633
 30
-0.0000000000000089
 11
122.2388998352591
 21
117.0442854339305
 31
-0.0000000000000089
  0
ARC
  5
5714
330
1E
100
AcDbEntity
  8
0
  6
Continuous
100
AcDbCircle
 10
121.3796781927841
 20
113.5749494979054
 30
-0.0000000000000089
 40
2.059673609817604
100
AcDbArc
 50
89.15209883494085
 51
159.1520988349398
  0
ARC
  5
5715
330
1E
100
AcDbEntity
  8
0
  6
Continuous
100
AcDbCircle
 10
115.1353747013372
 20
118.3010054841786
 30
-0.0000000000000089
 40
1.854133729915247
100
AcDbArc
 50
34.63277999893714
 51
100.367220001062
  0
ARC
  5
5716
330
1E
100
AcDbEntity
  8
0
  6
Continuous
100
AcDbCircle
 10
125.5793180643346
 20
118.3731088284022
 30
-0.0000000000000089
 40
2.119009977045995
100
AcDbArc
 50
147.1327799989379
 51
212.8672200010621
  0
LINE
  5
5717
330
1E
100
AcDbEntity
  8
0
  6
Continuous
100
AcDbLine
 10
123.799560629398
 20
117.2231089279951
 30
-0.0000000000000089
 11
127.2228020872886
 21
117.2231089279951
 31
-0.0000000000000089
  0
LINE
  5
5718
330
1E
100
AcDbEntity
  8
0
  6
Continuous
100
AcDbLine
 10
123.799560629398
 20
124.1231087288093
 30
-0.0000000000000089
 11
127.2228020872886
 21
124.1231087288093
 31
-0.0000000000000089
  0
LINE
  5
5719
330
1E
100
AcDbEntity
  8
0
  6
Continuous
100
AcDbLine
 10
123.799560629398
 20
119.5231091271809
 30
-0.0000000000000089
 11
127.2228020872886
 21
119.523109127181
 31
-0.0000000000000089
  0
ARC
  5
571A
330
1E
100
AcDbEntity
  8
0
  6
Continuous
100
AcDbCircle
 10
131.4277420669222
 20
121.8231089279951
 30
-0.0000000000000089
 40
7.967433979633679
100
AcDbArc
 50
163.2213499979121
 51
196.7786500020878
  0
LINE
  5
571B
330
1E
100
AcDbEntity
  8
0
  6
Continuous
100
AcDbLine
 10
119.8617492648035
 20
125.8231089279951
 30
-0.0000000000000089
 11
123.5329301753036
 21
125.8231089279951
 31
-0.0000000000000089
  0
LINE
  5
571C
330
1E
100
AcDbEntity
  8
0
  6
Continuous
100
AcDbLine
 10
123.799560629398
 20
126.4231089279951
 30
-0.0000000000000089
 11
127.2228020872886
 21
126.4231089279951
 31
-0.0000000000000089
  0
LINE
  5
571D
330
1E
100
AcDbEntity
  8
0
100
AcDbLine
 10
88.565783065923
 20
138.823108927995
 30
-0.0000000000000071
 11
125.7228020872887
 21
138.823108927995
 31
-0.0000000000000071
  0
LINE
  5
571F
330
1E
100
AcDbEntity
  8
0
 48
0.27
100
AcDbLine
 10
141.9228020872887
 20
155.8231089279951
 30
-0.0000000000000071
 11
127.2228020872886
 21
155.8231089279951
 31
-0.0000000000000071
  0
LINE
  5
5726
330
1E
100
AcDbEntity
  8
0
 48
0.27
100
AcDbLine
 10
247.7228020872887
 20
155.8231089279951
 30
-0.0000000000000071
 11
262.4228020872887
 21
155.8231089279951
 31
-0.0000000000000071
  0
LINE
  5
5727
330
1E
100
AcDbEntity
  8
0
100
AcDbLine
 10
262.4228020872887
 20
155.8231089279951
 30
-0.0000000000000089
 11
262.4228020872887
 21
87.82310892799509
 31
-0.0000000000000089
  0
LINE
  5
5728
330
1E
100
AcDbEntity
  8
0
 48
0.27
100
AcDbLine
 10
260.7228020872887
 20
87.82310892799509
 30
-0.0000000000000089
 11
260.7228020872887
 21
155.8231089279952
 31
-0.0000000000000089
  0
ARC
  5
5729
330
1E
100
AcDbEntity
  8
0
100
AcDbCircle
 10
262.0872782655405
 20
142.9033572899778
 30
-0.0000000000000071
 40
1.220011576012179
100
AcDbArc
 50
0.9276427879975763
 51
74.03697783117111
  0
LINE
  5
572A
330
1E
100
AcDbEntity
  8
中心線
100
AcDbLine
 10
264.2066518814059
 20
141.923108927995
 30
-0.0000000000000071
 11
258.4550149070249
 21
141.923108927995
 31
-0.0000000000000071
  0
LINE
  5
572B
330
1E
100
AcDbEntity
  8
0
100
AcDbLine
 10
263.307129944393
 20
142.923108927995
 30
-0.0000000000000071
 11
263.307129944393
 21
140.9231089279949
 31
-0.0000000000000071
  0
ARC
  5
572C
330
1E
100
AcDbEntity
  8
0
100
AcDbCircle
 10
262.0872782655405
 20
140.9428605660121
 30
-0.0000000000000071
 40
1.220011576012179
100
AcDbArc
 50
320.2636283978375
 51
359.0723572120024
  0
LINE
  5
5731
330
1E
100
AcDbEntity
  8
0
 48
0.27
100
AcDbLine
 10
247.7228020872887
 20
87.82310892799513
 30
-0.0000000000000071
 11
262.4228020872887
 21
87.82310892799509
 31
-0.0000000000000071
  0
LINE
  5
5732
330
1E
100
AcDbEntity
  8
中心線
100
AcDbLine
 10
264.2066518814059
 20
101.9231089279949
 30
-0.0000000000000071
 11
258.4550149070249
 21
101.9231089279949
 31
-0.0000000000000071
  0
LINE
  5
5733
330
1E
100
AcDbEntity
  8
0
100
AcDbLine
 10
263.307129944393
 20
102.9231089279949
 30
-0.0000000000000071
 11
263.307129944393
 21
100.923108927995
 31
-0.0000000000000071
  0
ARC
  5
5734
330
1E
100
AcDbEntity
  8
0
100
AcDbCircle
 10
262.0872782655405
 20
100.9428605660121
 30
-0.0000000000000071
 40
1.220011576012179
100
AcDbArc
 50
285.9630221688289
 51
359.0723572120024
  0
ARC
  5
5735
330
1E
100
AcDbEntity
  8
0
100
AcDbCircle
 10
262.0872782655405
 20
102.9033572899778
 30
-0.0000000000000071
 40
1.220011576012179
100
AcDbArc
 50
0.9276427879975763
 51
34.1990027611691
  0
LINE
  5
5774
330
1E
100
AcDbEntity
  8
0
100
AcDbLine
 10
17.83836492342607
 20
-7.499999999996815
 30
-0.0000000000000018
 11
11.08836495488711
 21
-7.499999999996019
 31
-0.0000000000000018
  0
LINE
  5
5775
330
1E
100
AcDbEntity
  8
0
100
AcDbLine
 10
-6.411635076571066
 20
-7.499999999993952
 30
-0.0000000000000018
 11
-13.16163504511575
 21
-7.499999999993153
 31
-0.0000000000000018
  0
LINE
  5
5776
330
1E
100
AcDbEntity
  8
0
100
AcDbLine
 10
5.588364923427513
 20
-7.499999999995369
 30
-0.0000000000000018
 11
-0.9116350451143055
 21
-7.4999999999946
 31
-0.0000000000000018
  0
LINE
  5
5972
330
1E
100
AcDbEntity
  8
0
100
AcDbLine
 10
125.7228020872887
 20
138.823108927995
 30
0.0
 11
127.2228020872886
 21
141.0628089437953
 31
-0.0000000000000071
  0
LINE
  5
5973
330
1E
100
AcDbEntity
  8
0
100
AcDbLine
 10
125.7228020872887
 20
134.9331089279464
 30
-0.0000000000000071
 11
127.2228020872886
 21
135.8608230593216
 31
-0.0000000000000071
  0
LINE
  5
5974
330
1E
100
AcDbEntity
  8
0
100
AcDbLine
 10
125.7228020872887
 20
138.823108927995
 30
0.0
 11
125.7228020872887
 21
126.4231089279951
 31
-0.0000000000000089
  0
LINE
  5
5975
330
1E
100
AcDbEntity
  8
0
100
AcDbLine
 10
125.7228020872887
 20
104.8231089279952
 30
0.0
 11
127.2228020872886
 21
102.5834089121949
 31
-0.0000000000000071
  0
LINE
  5
5976
330
1E
100
AcDbEntity
  8
0
100
AcDbLine
 10
125.7228020872887
 20
104.8231089279952
 30
0.0
 11
125.7228020872887
 21
117.2231089279951
 31
-0.0000000000000089
  0
LINE
  5
5977
330
1E
100
AcDbEntity
  8
0
100
AcDbLine
 10
125.7228020872887
 20
108.7131089280438
 30
-0.0000000000000071
 11
127.2228020872886
 21
107.7853947966685
 31
-0.0000000000000071
  0
LINE
  5
5981
330
1E
100
AcDbEntity
  8
0
100
AcDbLine
 10
263.9228020872886
 20
138.823108927995
 30
-0.0000000000000018
 11
262.4228020872887
 21
141.0628089437951
 31
-0.0000000000000089
  0
LINE
  5
5982
330
1E
100
AcDbEntity
  8
0
100
AcDbLine
 10
263.9228020872886
 20
134.9331089279464
 30
-0.0000000000000089
 11
262.4228020872887
 21
135.8608230593216
 31
-0.0000000000000089
  0
LINE
  5
5983
330
1E
100
AcDbEntity
  8
0
100
AcDbLine
 10
263.9228020872886
 20
138.823108927995
 30
-0.0000000000000018
 11
263.9228020872886
 21
126.4231089279951
 31
-0.0000000000000107
  0
LINE
  5
5984
330
1E
100
AcDbEntity
  8
0
100
AcDbLine
 10
263.9228020872886
 20
104.8231089279952
 30
-0.0000000000000018
 11
262.4228020872887
 21
102.5834089121949
 31
-0.0000000000000089
  0
LINE
  5
5985
330
1E
100
AcDbEntity
  8
0
100
AcDbLine
 10
263.9228020872886
 20
104.8231089279952
 30
-0.0000000000000018
 11
263.9228020872886
 21
126.4231089279951
 31
-0.0000000000000107
  0
LINE
  5
5986
330
1E
100
AcDbEntity
  8
0
100
AcDbLine
 10
263.9228020872886
 20
108.7131089280437
 30
-0.0000000000000089
 11
262.4228020872887
 21
107.7853947966685
 31
-0.0000000000000089
  0
ENDSEC
  0
SECTION
  2
OBJECTS
  0
DICTIONARY
  5
C
330
0
100
AcDbDictionary
281
     1
  3
ACAD_COLOR
350
3D97
  3
ACAD_GROUP
350
D
  3
ACAD_LAYOUT
350
19
  3
ACAD_MATERIAL
350
3D96
  3
ACAD_MLINESTYLE
350
16
  3
ACAD_PLOTSETTINGS
350
18
  3
ACAD_PLOTSTYLENAME
350
E
  3
ACAD_TABLESTYLE
350
577A
  3
ACAD_VISUALSTYLE
350
599F
  3
ACDBHEADERROUNDTRIPXREC
350
59F3
  3
AcDbVariableDictionary
350
3E63
  3
DWGPROPS
350
59F2
  0
DICTIONARY
  5
43C2
330
2
100
AcDbDictionary
280
     1
281
     1
  3
ACAD_LAYERSTATES
360
43C3
  0
DICTIONARY
  5
3D1E
330
1E
100
AcDbDictionary
280
     1
281
     1
  3
ACAD_LAYOUTSELFREF
360
3D92
  0
DICTIONARY
  5
3D20
330
1A
100
AcDbDictionary
280
     1
281
     1
  3
ACAD_LAYOUTSELFREF
360
3D91
  0
DICTIONARY
  5
3D97
102
{ACAD_REACTORS
330
C
102
}
330
C
100
AcDbDictionary
281
     1
  0
DICTIONARY
  5
D
102
{ACAD_REACTORS
330
C
102
}
330
C
100
AcDbDictionary
281
     1
  3
*A1
350
4143
  3
*A10
350
4145
  3
*A11
350
4376
  3
*A12
350
4237
  3
*A13
350
437A
  3
*A14
350
437D
  3
*A15
350
437F
  3
*A16
350
414B
  3
*A17
350
437B
  3
*A18
350
414D
  3
*A19
350
437C
  3
*A2
350
423E
  3
*A20
350
43B9
  3
*A21
350
43B7
  3
*A22
350
43BE
  3
*A23
350
4238
  3
*A24
350
4146
  3
*A25
350
43B5
  3
*A26
350
423A
  3
*A27
350
414E
  3
*A28
350
43BC
  3
*A29
350
43B6
  3
*A3
350
423F
  3
*A30
350
43BA
  3
*A31
350
4241
  3
*A32
350
4144
  3
*A33
350
43BB
  3
*A34
350
43C0
  3
*A35
350
4148
  3
*A36
350
4147
  3
*A37
350
4378
  3
*A38
350
43BF
  3
*A39
350
414C
  3
*A4
350
414A
  3
*A40
350
4235
  3
*A41
350
414F
  3
*A42
350
437E
  3
*A43
350
4149
  3
*A44
350
4239
  3
*A45
350
423C
  3
*A46
350
423B
  3
*A47
350
43B8
  3
*A48
350
4236
  3
*A49
350
4240
  3
*A5
350
4374
  3
*A50
350
4373
  3
*A51
350
43BD
  3
*A52
350
423D
  3
*A6
350
4377
  3
*A7
350
4379
  3
*A8
350
43C1
  3
*A9
350
4375
  0
DICTIONARY
  5
19
102
{ACAD_REACTORS
330
C
102
}
330
C
100
AcDbDictionary
281
     1
  3
Model
350
21
  3
配置1
350
1D
  0
DICTIONARY
  5
3D96
102
{ACAD_REACTORS
330
C
102
}
330
C
100
AcDbDictionary
281
     1
  3
ByBlock
350
599D
  3
ByLayer
350
599C
  3
Global
350
599E
  0
DICTIONARY
  5
16
102
{ACAD_REACTORS
330
C
102
}
330
C
100
AcDbDictionary
281
     1
  3
Standard
350
17
  0
DICTIONARY
  5
18
102
{ACAD_REACTORS
330
C
102
}
330
C
100
AcDbDictionary
281
     1
  3
LANSRO
350
4150
  0
ACDBDICTIONARYWDFLT
  5
E
102
{ACAD_REACTORS
330
C
102
}
330
C
100
AcDbDictionary
281
     1
  3
Normal
350
F
100
AcDbDictionaryWithDefault
340
F
  0
DICTIONARY
  5
577A
102
{ACAD_REACTORS
330
C
102
}
330
C
100
AcDbDictionary
281
     1
  3
Standard
350
577B
  0
DICTIONARY
  5
599F
102
{ACAD_REACTORS
330
C
102
}
330
C
100
AcDbDictionary
281
     1
  3
2dWireframe
350
59A5
  3
3D Hidden
350
59A7
  3
3dWireframe
350
59A6
  3
Basic
350
59A4
  3
Brighten
350
59AB
  3
ColorChange
350
59AF
  3
Conceptual
350
59A8
  3
Dim
350
59AA
  3
Facepattern
350
59AE
  3
Flat
350
59A0
  3
FlatWithEdges
350
59A1
  3
Gouraud
350
59A2
  3
GouraudWithEdges
350
59A3
  3
Linepattern
350
59AD
  3
Realistic
350
59A9
  3
Thicken
350
59AC
  0
DICTIONARY
  5
59F3
102
{ACAD_REACTORS
330
C
102
}
330
C
100
AcDbDictionary
281
     1
  3
COLORDICT
350
59F5
  3
MATERIALDICT
350
59F4
  0
DICTIONARY
  5
3E63
102
{ACAD_REACTORS
330
C
102
}
330
C
100
AcDbDictionary
281
     1
  3
CTABLESTYLE
350
58AC
  3
DIMASSOC
350
3E64
  3
INDEXCTL
350
59DA
  3
PROJECTNAME
350
3E65
  3
SORTENTS
350
59D9
  0
XRECORD
  5
59F2
102
{ACAD_REACTORS
330
C
102
}
330
C
100
AcDbXrecord
280
     1
  1
DWGPROPS COOKIE
  2

  3

  4

  6

  7

  8
tony4321
  9

300
=
301
=
302
=
303
=
304
=
305
=
306
=
307
=
308
=
309
=
 40
0.1300504513888889
 41
2444975.333333334
 42
2454358.627278704
  1

 90
        0
  0
DICTIONARY
  5
43C3
102
{ACAD_REACTORS
330
43C2
102
}
330
43C2
100
AcDbDictionary
281
     1
  0
XRECORD
  5
3D92
102
{ACAD_REACTORS
330
3D1E
102
}
330
3D1E
100
AcDbXrecord
280
     1
340
1E
  0
XRECORD
  5
3D91
102
{ACAD_REACTORS
330
3D20
102
}
330
3D20
100
AcDbXrecord
280
     1
340
1A
  0
GROUP
  5
4143
102
{ACAD_REACTORS
330
D
102
}
330
D
100
AcDbGroup
300

 70
     1
 71
     1
  0
GROUP
  5
4145
102
{ACAD_REACTORS
330
D
102
}
330
D
100
AcDbGroup
300

 70
     1
 71
     1
  0
GROUP
  5
4376
102
{ACAD_REACTORS
330
D
102
}
330
D
100
AcDbGroup
300

 70
     1
 71
     1
  0
GROUP
  5
4237
102
{ACAD_REACTORS
330
D
102
}
330
D
100
AcDbGroup
300

 70
     1
 71
     1
  0
GROUP
  5
437A
102
{ACAD_REACTORS
330
D
102
}
330
D
100
AcDbGroup
300

 70
     1
 71
     1
  0
GROUP
  5
437D
102
{ACAD_REACTORS
330
D
102
}
330
D
100
AcDbGroup
300

 70
     1
 71
     1
  0
GROUP
  5
437F
102
{ACAD_REACTORS
330
D
102
}
330
D
100
AcDbGroup
300

 70
     1
 71
     1
  0
GROUP
  5
414B
102
{ACAD_REACTORS
330
D
102
}
330
D
100
AcDbGroup
300

 70
     1
 71
     1
  0
GROUP
  5
437B
102
{ACAD_REACTORS
330
D
102
}
330
D
100
AcDbGroup
300

 70
     1
 71
     1
  0
GROUP
  5
414D
102
{ACAD_REACTORS
330
D
102
}
330
D
100
AcDbGroup
300

 70
     1
 71
     1
  0
GROUP
  5
437C
102
{ACAD_REACTORS
330
D
102
}
330
D
100
AcDbGroup
300

 70
     1
 71
     1
  0
GROUP
  5
423E
102
{ACAD_REACTORS
330
D
102
}
330
D
100
AcDbGroup
300

 70
     1
 71
     1
  0
GROUP
  5
43B9
102
{ACAD_REACTORS
330
D
102
}
330
D
100
AcDbGroup
300

 70
     1
 71
     1
  0
GROUP
  5
43B7
102
{ACAD_REACTORS
330
D
102
}
330
D
100
AcDbGroup
300

 70
     1
 71
     1
  0
GROUP
  5
43BE
102
{ACAD_REACTORS
330
D
102
}
330
D
100
AcDbGroup
300

 70
     1
 71
     1
  0
GROUP
  5
4238
102
{ACAD_REACTORS
330
D
102
}
330
D
100
AcDbGroup
300

 70
     1
 71
     1
  0
GROUP
  5
4146
102
{ACAD_REACTORS
330
D
102
}
330
D
100
AcDbGroup
300

 70
     1
 71
     1
  0
GROUP
  5
43B5
102
{ACAD_REACTORS
330
D
102
}
330
D
100
AcDbGroup
300

 70
     1
 71
     1
  0
GROUP
  5
423A
102
{ACAD_REACTORS
330
D
102
}
330
D
100
AcDbGroup
300

 70
     1
 71
     1
  0
GROUP
  5
414E
102
{ACAD_REACTORS
330
D
102
}
330
D
100
AcDbGroup
300

 70
     1
 71
     1
  0
GROUP
  5
43BC
102
{ACAD_REACTORS
330
D
102
}
330
D
100
AcDbGroup
300

 70
     1
 71
     1
  0
GROUP
  5
43B6
102
{ACAD_REACTORS
330
D
102
}
330
D
100
AcDbGroup
300

 70
     1
 71
     1
  0
GROUP
  5
423F
102
{ACAD_REACTORS
330
D
102
}
330
D
100
AcDbGroup
300

 70
     1
 71
     1
  0
GROUP
  5
43BA
102
{ACAD_REACTORS
330
D
102
}
330
D
100
AcDbGroup
300

 70
     1
 71
     1
  0
GROUP
  5
4241
102
{ACAD_REACTORS
330
D
102
}
330
D
100
AcDbGroup
300

 70
     1
 71
     1
  0
GROUP
  5
4144
102
{ACAD_REACTORS
330
D
102
}
330
D
100
AcDbGroup
300

 70
     1
 71
     1
  0
GROUP
  5
43BB
102
{ACAD_REACTORS
330
D
102
}
330
D
100
AcDbGroup
300

 70
     1
 71
     1
  0
GROUP
  5
43C0
102
{ACAD_REACTORS
330
D
102
}
330
D
100
AcDbGroup
300

 70
     1
 71
     1
  0
GROUP
  5
4148
102
{ACAD_REACTORS
330
D
102
}
330
D
100
AcDbGroup
300

 70
     1
 71
     1
  0
GROUP
  5
4147
102
{ACAD_REACTORS
330
D
102
}
330
D
100
AcDbGroup
300

 70
     1
 71
     1
  0
GROUP
  5
4378
102
{ACAD_REACTORS
330
D
102
}
330
D
100
AcDbGroup
300

 70
     1
 71
     1
  0
GROUP
  5
43BF
102
{ACAD_REACTORS
330
D
102
}
330
D
100
AcDbGroup
300

 70
     1
 71
     1
  0
GROUP
  5
414C
102
{ACAD_REACTORS
330
D
102
}
330
D
100
AcDbGroup
300

 70
     1
 71
     1
  0
GROUP
  5
414A
102
{ACAD_REACTORS
330
D
102
}
330
D
100
AcDbGroup
300

 70
     1
 71
     1
  0
GROUP
  5
4235
102
{ACAD_REACTORS
330
D
102
}
330
D
100
AcDbGroup
300

 70
     1
 71
     1
  0
GROUP
  5
414F
102
{ACAD_REACTORS
330
D
102
}
330
D
100
AcDbGroup
300

 70
     1
 71
     1
  0
GROUP
  5
437E
102
{ACAD_REACTORS
330
D
102
}
330
D
100
AcDbGroup
300

 70
     1
 71
     1
  0
GROUP
  5
4149
102
{ACAD_REACTORS
330
D
102
}
330
D
100
AcDbGroup
300

 70
     1
 71
     1
  0
GROUP
  5
4239
102
{ACAD_REACTORS
330
D
102
}
330
D
100
AcDbGroup
300

 70
     1
 71
     1
  0
GROUP
  5
423C
102
{ACAD_REACTORS
330
D
102
}
330
D
100
AcDbGroup
300

 70
     1
 71
     1
  0
GROUP
  5
423B
102
{ACAD_REACTORS
330
D
102
}
330
D
100
AcDbGroup
300

 70
     1
 71
     1
  0
GROUP
  5
43B8
102
{ACAD_REACTORS
330
D
102
}
330
D
100
AcDbGroup
300

 70
     1
 71
     1
  0
GROUP
  5
4236
102
{ACAD_REACTORS
330
D
102
}
330
D
100
AcDbGroup
300

 70
     1
 71
     1
  0
GROUP
  5
4240
102
{ACAD_REACTORS
330
D
102
}
330
D
100
AcDbGroup
300

 70
     1
 71
     1
  0
GROUP
  5
4374
102
{ACAD_REACTORS
330
D
102
}
330
D
100
AcDbGroup
300

 70
     1
 71
     1
  0
GROUP
  5
4373
102
{ACAD_REACTORS
330
D
102
}
330
D
100
AcDbGroup
300

 70
     1
 71
     1
  0
GROUP
  5
43BD
102
{ACAD_REACTORS
330
D
102
}
330
D
100
AcDbGroup
300

 70
     1
 71
     1
  0
GROUP
  5
423D
102
{ACAD_REACTORS
330
D
102
}
330
D
100
AcDbGroup
300

 70
     1
 71
     1
  0
GROUP
  5
4377
102
{ACAD_REACTORS
330
D
102
}
330
D
100
AcDbGroup
300

 70
     1
 71
     1
  0
GROUP
  5
4379
102
{ACAD_REACTORS
330
D
102
}
330
D
100
AcDbGroup
300

 70
     1
 71
     1
  0
GROUP
  5
43C1
102
{ACAD_REACTORS
330
D
102
}
330
D
100
AcDbGroup
300

 70
     1
 71
     1
  0
GROUP
  5
4375
102
{ACAD_REACTORS
330
D
102
}
330
D
100
AcDbGroup
300

 70
     1
 71
     1
  0
LAYOUT
  5
21
102
{ACAD_XDICTIONARY
360
59F8
102
}
102
{ACAD_REACTORS
330
19
102
}
330
19
100
AcDbPlotSettings
  1

  2
HP 2200
  4

  6

 40
0.0
 41
0.0
 42
0.0
 43
0.0
 44
0.0
 45
0.0
 46
0.0
 47
0.0
 48
0.0
 49
0.0
140
0.0
141
0.0
142
1.0
143
1.0
 70
  1712
 72
     0
 73
     0
 74
     0
  7
AAA.ctb
 75
     0
147
1.0
148
0.0
149
0.0
100
AcDbLayout
  1
Model
 70
     1
 71
     0
 10
0.0
 20
0.0
 11
12.0
 21
9.0
 12
0.0
 22
0.0
 32
0.0
 14
0.0
 24
0.0
 34
0.0
 15
0.0
 25
0.0
 35
0.0
146
0.0
 13
0.0
 23
0.0
 33
0.0
 16
1.0
 26
0.0
 36
0.0
 17
0.0
 27
1.0
 37
0.0
 76
     0
330
1E
331
5991
  0
LAYOUT
  5
1D
102
{ACAD_XDICTIONARY
360
59F6
102
}
102
{ACAD_REACTORS
330
19
102
}
330
19
100
AcDbPlotSettings
  1

  2
HP 2200
  4

  6

 40
0.0
 41
0.0
 42
0.0
 43
0.0
 44
0.0
 45
0.0
 46
0.0
 47
0.0
 48
0.0
 49
0.0
140
0.0
141
0.0
142
1.0
143
1.0
 70
   688
 72
     0
 73
     0
 74
     5
  7
AAA.ctb
 75
    16
147
1.0
148
0.0
149
0.0
100
AcDbLayout
  1
配置1
 70
     0
 71
     1
 10
0.0
 20
0.0
 11
12.0
 21
9.0
 12
0.0
 22
0.0
 32
0.0
 14
1.000000000000000E+20
 24
1.000000000000000E+20
 34
1.000000000000000E+20
 15
-1.000000000000000E+20
 25
-1.000000000000000E+20
 35
-1.000000000000000E+20
146
0.0
 13
0.0
 23
0.0
 33
0.0
 16
1.0
 26
0.0
 36
0.0
 17
0.0
 27
1.0
 37
0.0
 76
     0
330
1A
  0
MATERIAL
  5
599D
330
3D96
100
AcDbMaterial
  1
ByBlock
  0
MATERIAL
  5
599C
330
3D96
100
AcDbMaterial
  1
ByLayer
  0
MATERIAL
  5
599E
330
3D96
100
AcDbMaterial
  1
Global
  0
MLINESTYLE
  5
17
102
{ACAD_REACTORS
330
16
102
}
330
16
100
AcDbMlineStyle
  2
STANDARD
 70
     0
  3

 62
   256
 51
90.0
 52
90.0
 71
     2
 49
0.5
 62
   256
  6
BYLAYER
 49
-0.5
 62
   256
  6
BYLAYER
  0
PLOTSETTINGS
  5
4150
102
{ACAD_XDICTIONARY
360
59FA
102
}
102
{ACAD_REACTORS
330
18
102
}
330
18
100
AcDbPlotSettings
  1
LANSRO
  2
\\1260\HP2200
  4
A4
  6

 40
6.043083190917967
 41
6.762742042541503
 42
7.736419677734375
 43
5.027069091796875
 44
209.9733276367186
 45
296.9683227539062
 46
5.15
 47
0.0
 48
0.0
 49
0.0
140
0.0
141
0.0
142
1.0
143
0.8829829263240881
 70
  1716
 72
     1
 73
     1
 74
     0
  7
AAA.ctb
 75
     0
147
1.132524729739748
148
-132.297014905803
149
-71.78507365635891
  0
ACDBPLACEHOLDER
  5
F
102
{ACAD_REACTORS
330
E
102
}
330
E
  0
TABLESTYLE
  5
577B
102
{ACAD_XDICTIONARY
360
59E2
102
}
102
{ACAD_REACTORS
330
577A
102
}
330
577A
100
AcDbTableStyle
  3
Standard
 70
     0
 71
     0
 40
0.06
 41
0.06
280
     0
281
     0
  7
STANDARD
140
0.18
170
     2
 62
     0
 63
     7
283
     0
274
    -2
284
     1
 64
     0
275
    -2
285
     1
 65
     0
276
    -2
286
     1
 66
     0
277
    -2
287
     1
 67
     0
278
    -2
288
     1
 68
     0
279
    -2
289
     1
 69
     0
  7
STANDARD
140
0.25
170
     5
 62
     0
 63
     7
283
     0
274
    -2
284
     1
 64
     0
275
    -2
285
     1
 65
     0
276
    -2
286
     1
 66
     0
277
    -2
287
     1
 67
     0
278
    -2
288
     1
 68
     0
279
    -2
289
     1
 69
     0
  7
STANDARD
140
0.18
170
     5
 62
     0
 63
     7
283
     0
274
    -2
284
     1
 64
     0
275
    -2
285
     1
 65
     0
276
    -2
286
     1
 66
     0
277
    -2
287
     1
 67
     0
278
    -2
288
     1
 68
     0
279
    -2
289
     1
 69
     0
1001
ACAD
1001
ACAD
1000
AcRTDxfName
1000
TABLESTYLE
  0
VISUALSTYLE
  5
59A5
102
{ACAD_REACTORS
330
599F
102
}
330
599F
100
AcDbVisualStyle
  2
2dWireframe
 70
     4
 71
     0
 72
     2
 73
     0
 90
        0
 40
-0.6
 41
-30.0
 62
     5
 63
     7
 74
     1
 91
        4
 64
     7
 65
   257
 75
     1
175
     1
 42
1.0
 92
        0
 66
   257
 43
1.0
 76
     1
 77
     6
 78
     2
 67
     7
 79
     5
170
     0
171
     0
290
     0
174
     0
 93
        1
 44
0.0
173
     0
291
     0
 45
0.0
1001
ACAD
1000
AcDbSavedByObjectVersion
1070
     0
1001
ACAD
1000
AcRTDxfName
1000
VISUALSTYLE
  0
VISUALSTYLE
  5
59A7
102
{ACAD_REACTORS
330
599F
102
}
330
599F
100
AcDbVisualStyle
  2
3D Hidden
 70
     6
 71
     1
 72
     2
 73
     2
 90
        0
 40
-0.6
 41
-30.0
 62
     5
 63
     7
 74
     2
 91
        2
 64
     7
 65
   257
 75
     2
175
     1
 42
40.0
 92
        0
 66
   257
 43
1.0
 76
     1
 77
     6
 78
     2
 67
     7
 79
     3
170
     0
171
     0
290
     0
174
     0
 93
        1
 44
0.0
173
     0
291
     0
 45
0.0
1001
ACAD
1000
AcDbSavedByObjectVersion
1070
     0
1001
ACAD
1000
AcRTDxfName
1000
VISUALSTYLE
  0
VISUALSTYLE
  5
59A6
102
{ACAD_REACTORS
330
599F
102
}
330
599F
100
AcDbVisualStyle
  2
3dWireframe
 70
     5
 71
     0
 72
     2
 73
     0
 90
        0
 40
-0.6
 41
-30.0
 62
     5
 63
     7
 74
     1
 91
        4
 64
     7
 65
   257
 75
     1
175
     1
 42
1.0
 92
        0
 66
   257
 43
1.0
 76
     1
 77
     6
 78
     2
 67
     7
 79
     5
170
     0
171
     0
290
     0
174
     0
 93
        1
 44
0.0
173
     0
291
     0
 45
0.0
1001
ACAD
1000
AcDbSavedByObjectVersion
1070
     0
1001
ACAD
1000
AcRTDxfName
1000
VISUALSTYLE
  0
VISUALSTYLE
  5
59A4
102
{ACAD_REACTORS
330
599F
102
}
330
599F
100
AcDbVisualStyle
  2
Basic
 70
     7
 71
     1
 72
     0
 73
     1
 90
        0
 40
-0.6
 41
-30.0
 62
     5
 63
     7
 74
     0
 91
        4
 64
     7
 65
   257
 75
     1
175
     1
 42
1.0
 92
        8
 66
     7
 43
1.0
 76
     1
 77
     6
 78
     2
 67
     7
 79
     5
170
     0
171
     0
290
     0
174
     0
 93
        1
 44
0.0
173
     0
291
     1
 45
0.0
1001
ACAD
1000
AcDbSavedByObjectVersion
1070
     0
1001
ACAD
1000
AcRTDxfName
1000
VISUALSTYLE
  0
VISUALSTYLE
  5
59AB
102
{ACAD_REACTORS
330
599F
102
}
330
599F
100
AcDbVisualStyle
  2
Brighten
 70
    12
 71
     2
 72
     2
 73
     0
 90
        0
 40
-0.6
 41
-30.0
 62
     5
 63
     7
 74
     1
 91
        4
 64
     7
 65
   257
 75
     1
175
     1
 42
1.0
 92
        8
 66
     7
 43
1.0
 76
     1
 77
     6
 78
     2
 67
     7
 79
     5
170
     0
171
     0
290
     0
174
     0
 93
        1
 44
50.0
173
     0
291
     1
 45
0.0
1001
ACAD
1000
AcDbSavedByObjectVersion
1070
     0
1001
ACAD
1000
AcRTDxfName
1000
VISUALSTYLE
  0
VISUALSTYLE
  5
59AF
102
{ACAD_REACTORS
330
599F
102
}
330
599F
100
AcDbVisualStyle
  2
ColorChange
 70
    16
 71
     2
 72
     2
 73
     3
 90
        0
 40
-0.6
 41
-30.0
 62
     5
 63
     8
 74
     1
 91
        4
 64
     7
 65
   257
 75
     1
175
     1
 42
1.0
 92
        8
 66
     8
 43
1.0
 76
     1
 77
     6
 78
     2
 67
     7
 79
     5
170
     0
171
     0
290
     0
174
     0
 93
        1
 44
0.0
173
     0
291
     1
 45
0.0
1001
ACAD
1000
AcDbSavedByObjectVersion
1070
     0
1001
ACAD
1000
AcRTDxfName
1000
VISUALSTYLE
  0
VISUALSTYLE
  5
59A8
102
{ACAD_REACTORS
330
599F
102
}
330
599F
100
AcDbVisualStyle
  2
Conceptual
 70
     9
 71
     3
 72
     2
 73
     0
 90
        0
 40
-0.6
 41
-30.0
 62
     5
 63
     7
 74
     2
 91
        2
 64
     7
 65
   257
 75
     1
175
     1
 42
40.0
 92
        8
 66
     7
 43
1.0
 76
     1
 77
     6
 78
     2
 67
     7
 79
     3
170
     0
171
     0
290
     0
174
     0
 93
        1
 44
0.0
173
     0
291
     0
 45
0.0
1001
ACAD
1000
AcDbSavedByObjectVersion
1070
     0
1001
ACAD
1000
AcRTDxfName
1000
VISUALSTYLE
  0
VISUALSTYLE
  5
59AA
102
{ACAD_REACTORS
330
599F
102
}
330
599F
100
AcDbVisualStyle
  2
Dim
 70
    11
 71
     2
 72
     2
 73
     0
 90
        0
 40
-0.6
 41
-30.0
 62
     5
 63
     7
 74
     1
 91
        4
 64
     7
 65
   257
 75
     1
175
     1
 42
1.0
 92
        8
 66
     7
 43
1.0
 76
     1
 77
     6
 78
     2
 67
     7
 79
     5
170
     0
171
     0
290
     0
174
     0
 93
        1
 44
-50.0
173
     0
291
     1
 45
0.0
1001
ACAD
1000
AcDbSavedByObjectVersion
1070
     0
1001
ACAD
1000
AcRTDxfName
1000
VISUALSTYLE
  0
VISUALSTYLE
  5
59AE
102
{ACAD_REACTORS
330
599F
102
}
330
599F
100
AcDbVisualStyle
  2
Facepattern
 70
    15
 71
     2
 72
     2
 73
     0
 90
        0
 40
-0.6
 41
-30.0
 62
     5
 63
     7
 74
     1
 91
        4
 64
     7
 65
   257
 75
     1
175
     1
 42
1.0
 92
        8
 66
     7
 43
1.0
 76
     1
 77
     6
 78
     2
 67
     7
 79
     5
170
     0
171
     0
290
     0
174
     0
 93
        1
 44
0.0
173
     0
291
     1
 45
0.0
1001
ACAD
1000
AcDbSavedByObjectVersion
1070
     0
1001
ACAD
1000
AcRTDxfName
1000
VISUALSTYLE
  0
VISUALSTYLE
  5
59A0
102
{ACAD_REACTORS
330
599F
102
}
330
599F
100
AcDbVisualStyle
  2
Flat
 70
     0
 71
     2
 72
     1
 73
     1
 90
        2
 40
-0.6
 41
30.0
 62
     5
 63
     7
 74
     0
 91
        4
 64
     7
 65
   257
 75
     1
175
     1
 42
1.0
 92
        8
 66
     7
 43
1.0
 76
     1
 77
     6
 78
     2
 67
     7
 79
     5
170
     0
171
     0
290
     0
174
     0
 93
       13
 44
0.0
173
     0
291
     1
 45
0.0
1001
ACAD
1000
AcDbSavedByObjectVersion
1070
     0
1001
ACAD
1000
AcRTDxfName
1000
VISUALSTYLE
  0
VISUALSTYLE
  5
59A1
102
{ACAD_REACTORS
330
599F
102
}
330
599F
100
AcDbVisualStyle
  2
FlatWithEdges
 70
     1
 71
     2
 72
     1
 73
     1
 90
        2
 40
-0.6
 41
30.0
 62
     5
 63
     7
 74
     1
 91
        4
 64
     7
 65
   257
 75
     1
175
     1
 42
1.0
 92
        0
 66
   257
 43
1.0
 76
     1
 77
     6
 78
     2
 67
     7
 79
     5
170
     0
171
     0
290
     0
174
     0
 93
       13
 44
0.0
173
     0
291
     1
 45
0.0
1001
ACAD
1000
AcDbSavedByObjectVersion
1070
     0
1001
ACAD
1000
AcRTDxfName
1000
VISUALSTYLE
  0
VISUALSTYLE
  5
59A2
102
{ACAD_REACTORS
330
599F
102
}
330
599F
100
AcDbVisualStyle
  2
Gouraud
 70
     2
 71
     2
 72
     2
 73
     1
 90
        2
 40
-0.6
 41
30.0
 62
     5
 63
     7
 74
     0
 91
        4
 64
     7
 65
   257
 75
     1
175
     1
 42
1.0
 92
        0
 66
     7
 43
1.0
 76
     1
 77
     6
 78
     2
 67
     7
 79
     5
170
     0
171
     0
290
     0
174
     0
 93
       13
 44
0.0
173
     0
291
     1
 45
0.0
1001
ACAD
1000
AcDbSavedByObjectVersion
1070
     0
1001
ACAD
1000
AcRTDxfName
1000
VISUALSTYLE
  0
VISUALSTYLE
  5
59A3
102
{ACAD_REACTORS
330
599F
102
}
330
599F
100
AcDbVisualStyle
  2
GouraudWithEdges
 70
     3
 71
     2
 72
     2
 73
     1
 90
        2
 40
-0.6
 41
30.0
 62
     5
 63
     7
 74
     1
 91
        4
 64
     7
 65
   257
 75
     1
175
     1
 42
1.0
 92
        0
 66
   257
 43
1.0
 76
     1
 77
     6
 78
     2
 67
     7
 79
     5
170
     0
171
     0
290
     0
174
     0
 93
       13
 44
0.0
173
     0
291
     1
 45
0.0
1001
ACAD
1000
AcDbSavedByObjectVersion
1070
     0
1001
ACAD
1000
AcRTDxfName
1000
VISUALSTYLE
  0
VISUALSTYLE
  5
59AD
102
{ACAD_REACTORS
330
599F
102
}
330
599F
100
AcDbVisualStyle
  2
Linepattern
 70
    14
 71
     2
 72
     2
 73
     0
 90
        0
 40
-0.6
 41
-30.0
 62
     5
 63
     7
 74
     1
 91
        4
 64
     7
 65
   257
 75
     7
175
     7
 42
1.0
 92
        8
 66
     7
 43
1.0
 76
     1
 77
     6
 78
     2
 67
     7
 79
     5
170
     0
171
     0
290
     0
174
     0
 93
        1
 44
0.0
173
     0
291
     1
 45
0.0
1001
ACAD
1000
AcDbSavedByObjectVersion
1070
     0
1001
ACAD
1000
AcRTDxfName
1000
VISUALSTYLE
  0
VISUALSTYLE
  5
59A9
102
{ACAD_REACTORS
330
599F
102
}
330
599F
100
AcDbVisualStyle
  2
Realistic
 70
     8
 71
     2
 72
     2
 73
     0
 90
        0
 40
-0.6
 41
-30.0
 62
     5
 63
     7
 74
     1
 91
        0
 64
     7
 65
   257
 75
     1
175
     1
 42
1.0
 92
        8
 66
     8
 43
1.0
 76
     1
 77
     6
 78
     2
 67
     7
 79
     5
170
     0
171
     0
290
     0
174
     0
 93
       13
 44
0.0
173
     0
291
     0
 45
0.0
1001
ACAD
1000
AcDbSavedByObjectVersion
1070
     0
1001
ACAD
1000
AcRTDxfName
1000
VISUALSTYLE
  0
VISUALSTYLE
  5
59AC
102
{ACAD_REACTORS
330
599F
102
}
330
599F
100
AcDbVisualStyle
  2
Thicken
 70
    13
 71
     2
 72
     2
 73
     0
 90
        0
 40
-0.6
 41
-30.0
 62
     5
 63
     7
 74
     1
 91
        4
 64
     7
 65
   257
 75
     1
175
     1
 42
1.0
 92
       12
 66
     7
 43
1.0
 76
     1
 77
     6
 78
     2
 67
     7
 79
     5
170
     0
171
     0
290
     0
174
     0
 93
        1
 44
0.0
173
     0
291
     1
 45
0.0
1001
ACAD
1000
AcDbSavedByObjectVersion
1070
     0
1001
ACAD
1000
AcRTDxfName
1000
VISUALSTYLE
  0
XRECORD
  5
59F5
102
{ACAD_REACTORS
330
59F3
102
}
330
59F3
100
AcDbXrecord
280
     1
340
3D97
  0
XRECORD
  5
59F4
102
{ACAD_REACTORS
330
59F3
102
}
330
59F3
100
AcDbXrecord
280
     1
340
3D96
  0
DICTIONARYVAR
  5
58AC
102
{ACAD_REACTORS
330
3E63
102
}
330
3E63
100
DictionaryVariables
280
     0
  1
STANDARD
  0
DICTIONARYVAR
  5
3E64
102
{ACAD_REACTORS
330
3E63
102
}
330
3E63
100
DictionaryVariables
280
     0
  1
1
  0
DICTIONARYVAR
  5
59DA
102
{ACAD_REACTORS
330
3E63
102
}
330
3E63
100
DictionaryVariables
280
     0
  1
0
  0
DICTIONARYVAR
  5
3E65
102
{ACAD_REACTORS
330
3E63
102
}
330
3E63
100
DictionaryVariables
280
     0
  1

  0
DICTIONARYVAR
  5
59D9
102
{ACAD_REACTORS
330
3E63
102
}
330
3E63
100
DictionaryVariables
280
     0
  1
127
  0
DICTIONARY
  5
59F8
330
21
100
AcDbDictionary
280
     1
281
     1
  3
ACAD_XREC_ROUNDTRIP
360
59F9
  0
DICTIONARY
  5
59F6
330
1D
100
AcDbDictionary
280
     1
281
     1
  3
ACAD_XREC_ROUNDTRIP
360
59F7
  0
DICTIONARY
  5
59FA
330
4150
100
AcDbDictionary
280
     1
281
     1
  3
ACAD_XREC_ROUNDTRIP
360
59FB
  0
DICTIONARY
  5
59E2
330
577B
100
AcDbDictionary
280
     1
281
     1
  3
ACAD_XREC_ROUNDTRIP
360
59E3
  0
XRECORD
  5
59F9
102
{ACAD_REACTORS
330
59F8
102
}
330
59F8
100
AcDbXrecord
280
     1
102
SHADEPLOT
 70
     0
102
SHADEPLOTRESLEVEL
 70
     2
102
SHADEPLOTCUSTOMDPI
 70
   300
  0
XRECORD
  5
59F7
102
{ACAD_REACTORS
330
59F6
102
}
330
59F6
100
AcDbXrecord
280
     1
102
SHADEPLOT
 70
     0
102
SHADEPLOTRESLEVEL
 70
     2
102
SHADEPLOTCUSTOMDPI
 70
   300
  0
XRECORD
  5
59FB
102
{ACAD_REACTORS
330
59FA
102
}
330
59FA
100
AcDbXrecord
280
     1
102
SHADEPLOT
 70
     0
102
SHADEPLOTRESLEVEL
 70
     2
102
SHADEPLOTCUSTOMDPI
 70
   300
  0
XRECORD
  5
59E3
102
{ACAD_REACTORS
330
59E2
102
}
330
59E2
100
AcDbXrecord
280
     1
102
ACAD_ROUNDTRIP_PRE2007_TABLESTYLE
 90
        4
 91
        0
  1

 92
        4
 93
        0
  2

 94
        4
 95
        0
  3

  0
ENDSEC
  0
EOF
