  0
SECTION
  2
HEADER
  9
$ACADVER
  1
AC1014
  9
$ACADMAINTVER
 70
     9
  9
$DWGCODEPAGE
  3
ANSI_1252
  9
$INSBASE
 10
0.0
 20
0.0
 30
0.0
  9
$EXTMIN
 10
11.16600887282095
 20
6.605247008012115
 30
0.0
  9
$EXTMAX
 10
284.5105849795471
 20
27.02929496228921
 30
0.0
  9
$LIMMIN
 10
0.0
 20
0.0
  9
$LIMMAX
 10
420.0
 20
297.0
  9
$ORTHOMODE
 70
     0
  9
$REGENMODE
 70
     1
  9
$FILLMODE
 70
     1
  9
$QTEXTMODE
 70
     0
  9
$MIRRTEXT
 70
     0
  9
$DRAGMODE
 70
     2
  9
$LTSCALE
 40
0.2
  9
$OSMODE
 70
    37
  9
$ATTMODE
 70
     1
  9
$TEXTSIZE
 40
2.5
  9
$TRACEWID
 40
1.0
  9
$TEXTSTYLE
  7
\M+2ABAC\M+2A6A12
  9
$CLAYER
  8
AM3
  9
$CELTYPE
  6
BYLAYER
  9
$CECOLOR
 62
   256
  9
$CELTSCALE
 40
1.0
  9
$DELOBJ
 70
     1
  9
$DISPSILH
 70
     0
  9
$DIMSCALE
 40
1.0
  9
$DIMASZ
 40
1.0
  9
$DIMEXO
 40
0.7
  9
$DIMDLI
 40
3.75
  9
$DIMRND
 40
0.0
  9
$DIMDLE
 40
0.0
  9
$DIMEXE
 40
0.3
  9
$DIMTP
 40
0.0
  9
$DIMTM
 40
0.0
  9
$DIMTXT
 40
1.199999999999999
  9
$DIMCEN
 40
2.5
  9
$DIMTSZ
 40
0.0
  9
$DIMTOL
 70
     0
  9
$DIMLIM
 70
     0
  9
$DIMTIH
 70
     0
  9
$DIMTOH
 70
     0
  9
$DIMSE1
 70
     0
  9
$DIMSE2
 70
     0
  9
$DIMTAD
 70
     1
  9
$DIMZIN
 70
     8
  9
$DIMBLK
  1

  9
$DIMASO
 70
     1
  9
$DIMSHO
 70
     1
  9
$DIMPOST
  1

  9
$DIMAPOST
  1

  9
$DIMALT
 70
     0
  9
$DIMALTD
 70
     3
  9
$DIMALTF
 40
0.03937007874016
  9
$DIMLFAC
 40
1.0
  9
$DIMTOFL
 70
     1
  9
$DIMTVP
 40
0.0
  9
$DIMTIX
 70
     0
  9
$DIMSOXD
 70
     0
  9
$DIMSAH
 70
     0
  9
$DIMBLK1
  1

  9
$DIMBLK2
  1

  9
$DIMSTYLE
  2
ISO-25
  9
$DIMCLRD
 70
     3
  9
$DIMCLRE
 70
     3
  9
$DIMCLRT
 70
     2
  9
$DIMTFAC
 40
1.0
  9
$DIMGAP
 40
0.5
  9
$DIMJUST
 70
     0
  9
$DIMSD1
 70
     0
  9
$DIMSD2
 70
     0
  9
$DIMTOLJ
 70
     0
  9
$DIMTZIN
 70
     8
  9
$DIMALTZ
 70
     0
  9
$DIMALTTZ
 70
     0
  9
$DIMFIT
 70
     3
  9
$DIMUPT
 70
     0
  9
$DIMUNIT
 70
     2
  9
$DIMDEC
 70
     2
  9
$DIMTDEC
 70
     2
  9
$DIMALTU
 70
     2
  9
$DIMALTTD
 70
     3
  9
$DIMTXSTY
  7
STANDARD
  9
$DIMAUNIT
 70
     0
  9
$LUNITS
 70
     2
  9
$LUPREC
 70
     4
  9
$SKETCHINC
 40
1.0
  9
$FILLETRAD
 40
0.0
  9
$AUNITS
 70
     0
  9
$AUPREC
 70
     0
  9
$MENU
  1
.
  9
$ELEVATION
 40
0.0
  9
$PELEVATION
 40
0.0
  9
$THICKNESS
 40
0.0
  9
$LIMCHECK
 70
     0
  9
$BLIPMODE
 70
     0
  9
$CHAMFERA
 40
0.0
  9
$CHAMFERB
 40
0.0
  9
$CHAMFERC
 40
20.0
  9
$CHAMFERD
 40
0.0
  9
$SKPOLY
 70
     0
  9
$TDCREATE
 40
2452648.158040394
  9
$TDUPDATE
 40
2453060.475952627
  9
$TDINDWG
 40
0.9412218171
  9
$TDUSRTIMER
 40
0.9412217014
  9
$USRTIMER
 70
     1
  9
$ANGBASE
 50
0.0
  9
$ANGDIR
 70
     0
  9
$PDMODE
 70
     0
  9
$PDSIZE
 40
0.0
  9
$PLINEWID
 40
0.0
  9
$COORDS
 70
     0
  9
$SPLFRAME
 70
     0
  9
$SPLINETYPE
 70
     6
  9
$SPLINESEGS
 70
    30
  9
$ATTDIA
 70
     0
  9
$ATTREQ
 70
     1
  9
$HANDLING
 70
-16383
  9
$HANDSEED
  5
20C17
  9
$SURFTAB1
 70
     6
  9
$SURFTAB2
 70
     6
  9
$SURFTYPE
 70
     6
  9
$SURFU
 70
     6
  9
$SURFV
 70
     6
  9
$UCSNAME
  2

  9
$UCSORG
 10
0.0
 20
0.0
 30
0.0
  9
$UCSXDIR
 10
1.0
 20
0.0
 30
0.0
  9
$UCSYDIR
 10
0.0
 20
1.0
 30
0.0
  9
$PUCSNAME
  2

  9
$PUCSORG
 10
0.0
 20
0.0
 30
0.0
  9
$PUCSXDIR
 10
1.0
 20
0.0
 30
0.0
  9
$PUCSYDIR
 10
0.0
 20
1.0
 30
0.0
  9
$USERI1
 70
     0
  9
$USERI2
 70
     0
  9
$USERI3
 70
     0
  9
$USERI4
 70
     0
  9
$USERI5
 70
     0
  9
$USERR1
 40
0.0
  9
$USERR2
 40
0.0
  9
$USERR3
 40
0.0
  9
$USERR4
 40
0.0
  9
$USERR5
 40
0.0
  9
$WORLDVIEW
 70
     1
  9
$SHADEDGE
 70
     3
  9
$SHADEDIF
 70
    70
  9
$TILEMODE
 70
     1
  9
$MAXACTVP
 70
    48
  9
$PINSBASE
 10
0.0
 20
0.0
 30
0.0
  9
$PLIMCHECK
 70
     0
  9
$PEXTMIN
 10
1.000000000000000E+20
 20
1.000000000000000E+20
 30
1.000000000000000E+20
  9
$PEXTMAX
 10
-1.000000000000000E+20
 20
-1.000000000000000E+20
 30
-1.000000000000000E+20
  9
$PLIMMIN
 10
0.0
 20
0.0
  9
$PLIMMAX
 10
420.0
 20
297.0
  9
$UNITMODE
 70
     0
  9
$VISRETAIN
 70
     1
  9
$PLINEGEN
 70
     0
  9
$PSLTSCALE
 70
     1
  9
$TREEDEPTH
 70
  3020
  9
$PICKSTYLE
 70
     1
  9
$CMLSTYLE
  2
STANDARD
  9
$CMLJUST
 70
     0
  9
$CMLSCALE
 40
20.0
  9
$PROXYGRAPHICS
 70
     1
  9
$MEASUREMENT
 70
     0
  0
ENDSEC
  0
SECTION
  2
CLASSES
  0
CLASS
  1
ACDBDICTIONARYWDFLT
  2
AcDbDictionaryWithDefault
  3
AutoCAD 2000
 90
        0
280
     0
281
     0
  0
CLASS
  1
ACDBPLACEHOLDER
  2
AcDbPlaceHolder
  3
AutoCAD 2000
 90
        0
280
     0
281
     0
  0
CLASS
  1
LAYOUT
  2
AcDbLayout
  3
AutoCAD 2000
 90
        0
280
     0
281
     0
  0
CLASS
  1
DICTIONARYVAR
  2
AcDbDictionaryVar
  3
AutoCAD 2000
 90
        0
280
     0
281
     0
  0
CLASS
  1
PLOTSETTINGS
  2
AcDbPlotSettings
  3
AutoCAD 2000
 90
        0
280
     0
281
     0
  0
CLASS
  1
LONG_TRANSACTION
  2
AcDbLongTransaction
  3
AutoCAD 2000
 90
        0
280
     0
281
     0
  0
CLASS
  1
LWPOLYLINE
  2
AcDbPolyline
  3
AutoCAD 2000
 90
        0
280
     0
281
     1
  0
CLASS
  1
HATCH
  2
AcDbHatch
  3
AutoCAD 2000
 90
        0
280
     0
281
     1
  0
CLASS
  1
XRECORD
  2
AcDbXrecord
  3
AutoCAD 2000
 90
        0
280
     0
281
     0
  0
CLASS
  1
LONG_TRANSACTION
  2
AcDbLongTransaction
  3
AutoCAD 2000
 90
        0
280
     0
281
     0
  0
CLASS
  1
LWPOLYLINE
  2
AcDbPolyline
  3
AutoCAD 2000
 90
        0
280
     0
281
     1
  0
CLASS
  1
HATCH
  2
AcDbHatch
  3
AutoCAD 2000
 90
        0
280
     0
281
     1
  0
CLASS
  1
XRECORD
  2
AcDbXrecord
  3
AutoCAD 2000
 90
        0
280
     0
281
     0
  0
CLASS
  1
LONG_TRANSACTION
  2
AcDbLongTransaction
  3
AutoCAD 2000
 90
        0
280
     0
281
     0
  0
CLASS
  1
LWPOLYLINE
  2
AcDbPolyline
  3
AutoCAD 2000
 90
        0
280
     0
281
     1
  0
CLASS
  1
HATCH
  2
AcDbHatch
  3
AutoCAD 2000
 90
        0
280
     0
281
     1
  0
CLASS
  1
XRECORD
  2
AcDbXrecord
  3
AutoCAD 2000
 90
        0
280
     0
281
     0
  0
CLASS
  1
LONG_TRANSACTION
  2
AcDbLongTransaction
  3
AutoCAD 2000
 90
        0
280
     0
281
     0
  0
CLASS
  1
LWPOLYLINE
  2
AcDbPolyline
  3
AutoCAD 2000
 90
        0
280
     0
281
     1
  0
CLASS
  1
HATCH
  2
AcDbHatch
  3
AutoCAD 2000
 90
        0
280
     0
281
     1
  0
CLASS
  1
XRECORD
  2
AcDbXrecord
  3
AutoCAD 2000
 90
        0
280
     0
281
     0
  0
CLASS
  1
LONG_TRANSACTION
  2
AcDbLongTransaction
  3
AutoCAD 2000
 90
        0
280
     0
281
     0
  0
CLASS
  1
LWPOLYLINE
  2
AcDbPolyline
  3
AutoCAD 2000
 90
        0
280
     0
281
     1
  0
CLASS
  1
HATCH
  2
AcDbHatch
  3
AutoCAD 2000
 90
        0
280
     0
281
     1
  0
CLASS
  1
XRECORD
  2
AcDbXrecord
  3
AutoCAD 2000
 90
        0
280
     0
281
     0
  0
ENDSEC
  0
SECTION
  2
TABLES
  0
TABLE
  2
VPORT
  5
8
330
0
100
AcDbSymbolTable
 70
     2
  0
VPORT
  5
20BF4
330
8
100
AcDbSymbolTableRecord
100
AcDbViewportTableRecord
  2
*ACTIVE
 70
     0
 10
0.0
 20
0.0
 11
1.0
 21
1.0
 12
147.835694264895
 22
16.81546837267871
 13
0.0
 23
0.0
 14
10.0
 24
10.0
 15
10.0
 25
10.0
 16
0.0
 26
0.0
 36
1.0
 17
0.0
 27
0.0
 37
0.0
 40
160.3795015558561
 41
1.714285714285714
 42
50.0
 43
0.0
 44
0.0
 50
0.0
 51
0.0
 71
     0
 72
 20000
 73
     1
 74
     0
 75
     0
 76
     0
 77
     0
 78
     1
  0
ENDTAB
  0
TABLE
  2
LTYPE
  5
5
330
0
100
AcDbSymbolTable
 70
     3
  0
LTYPE
  5
14
330
5
100
AcDbSymbolTableRecord
100
AcDbLinetypeTableRecord
  2
BYBLOCK
 70
     0
  3

 72
    65
 73
     0
 40
0.0
  0
LTYPE
  5
15
330
5
100
AcDbSymbolTableRecord
100
AcDbLinetypeTableRecord
  2
BYLAYER
 70
     0
  3

 72
    65
 73
     0
 40
0.0
  0
LTYPE
  5
16
330
5
100
AcDbSymbolTableRecord
100
AcDbLinetypeTableRecord
  2
CONTINUOUS
 70
     0
  3
Solid line
 72
    65
 73
     0
 40
0.0
  0
LTYPE
  5
2D
330
5
100
AcDbSymbolTableRecord
100
AcDbLinetypeTableRecord
  2
CENTER2
 70
     0
  3
Center (.5x) ___ _ ___ _ ___ _ ___ _ ___ _ ___
 72
    65
 73
     4
 40
28.57499999999999
 49
19.05
 74
     0
 49
-3.174999999999998
 74
     0
 49
3.174999999999998
 74
     0
 49
-3.174999999999998
 74
     0
  0
LTYPE
  5
2E
330
5
100
AcDbSymbolTableRecord
100
AcDbLinetypeTableRecord
  2
DASHED2
 70
     0
  3
Dashed (.5x) _ _ _ _ _ _ _ _ _ _ _ _ _ _ _ _ _
 72
    65
 73
     2
 40
9.524999999999996
 49
6.349999999999998
 74
     0
 49
-3.174999999999998
 74
     0
  0
ENDTAB
  0
TABLE
  2
LAYER
  5
2
102
{ACAD_XDICTIONARY
360
DDEF
102
}
330
0
100
AcDbSymbolTable
 70
     4
  0
LAYER
  5
10
330
2
100
AcDbSymbolTableRecord
100
AcDbLayerTableRecord
  2
0
 70
     0
 62
     7
  6
CONTINUOUS
  0
LAYER
  5
30
330
2
100
AcDbSymbolTableRecord
100
AcDbLayerTableRecord
  2
AM3
 70
     0
 62
     6
  6
DASHED2
  0
LAYER
  5
34
330
2
100
AcDbSymbolTableRecord
100
AcDbLayerTableRecord
  2
AM7
 70
     0
 62
     4
  6
CENTER2
  0
LAYER
  5
8B8
330
2
100
AcDbSymbolTableRecord
100
AcDbLayerTableRecord
  2
DEFPOINTS
 70
     0
 62
     7
  6
CONTINUOUS
  0
ENDTAB
  0
TABLE
  2
STYLE
  5
3
330
0
100
AcDbSymbolTable
 70
     2
  0
STYLE
  5
11
330
3
100
AcDbSymbolTableRecord
100
AcDbTextStyleTableRecord
  2
STANDARD
 70
     0
 40
0.0
 41
1.0
 50
0.0
 71
     0
 42
2.5
  3
isocp.shx
  4
chineset.shx
  0
STYLE
  5
58
330
3
100
AcDbSymbolTableRecord
100
AcDbTextStyleTableRecord
  2
\M+2ABAC\M+2A6A12
 70
     0
 40
0.0
 41
1.0
 50
0.0
 71
     0
 42
2.5
  3

  4

1001
ACAD
1000
DFKai-SB
1071
    34881
  0
ENDTAB
  0
TABLE
  2
VIEW
  5
6
330
0
100
AcDbSymbolTable
 70
     0
  0
ENDTAB
  0
TABLE
  2
UCS
  5
7
330
0
100
AcDbSymbolTable
 70
     0
  0
ENDTAB
  0
TABLE
  2
APPID
  5
9
330
0
100
AcDbSymbolTable
 70
     3
  0
APPID
  5
12
330
9
100
AcDbSymbolTableRecord
100
AcDbRegAppTableRecord
  2
ACAD
 70
     0
  0
APPID
  5
131A7
330
9
100
AcDbSymbolTableRecord
100
AcDbRegAppTableRecord
  2
CONTENTBLOCKICON
 70
     0
  0
APPID
  5
1B726
330
9
100
AcDbSymbolTableRecord
100
AcDbRegAppTableRecord
  2
TCAD
 70
     0
  0
ENDTAB
  0
TABLE
  2
DIMSTYLE
  5
A
330
0
100
AcDbSymbolTable
 70
     2
  0
DIMSTYLE
105
27
330
A
100
AcDbSymbolTableRecord
100
AcDbDimStyleTableRecord
  2
ISO-25
 70
     0
  3

  4

  5

  6

  7

 40
1.0
 41
1.0
 42
0.7
 43
3.75
 44
0.3
 45
0.0
 46
0.0
 47
0.0
 48
0.0
140
1.199999999999999
141
2.5
142
0.0
143
0.03937007874016
144
1.0
145
0.0
146
1.0
147
0.5
 71
     0
 72
     0
 73
     0
 74
     0
 75
     0
 76
     0
 77
     1
 78
     8
170
     0
171
     3
172
     1
173
     0
174
     0
175
     0
176
     3
177
     3
178
     2
270
     2
271
     2
272
     2
273
     2
274
     3
340
11
275
     0
280
     0
281
     0
282
     0
283
     0
284
     8
285
     0
286
     0
287
     3
288
     0
  0
DIMSTYLE
105
13235
330
A
100
AcDbSymbolTableRecord
100
AcDbDimStyleTableRecord
  2
STANDARD
 70
     0
  3

  4

  5

  6

  7

 40
1.0
 41
0.18
 42
0.0625
 43
0.38
 44
0.18
 45
0.0
 46
0.0
 47
0.0
 48
0.0
140
0.18
141
0.09
142
0.0
143
25.4
144
1.0
145
0.0
146
1.0
147
0.09
 71
     0
 72
     0
 73
     1
 74
     1
 75
     0
 76
     0
 77
     0
 78
     0
170
     0
171
     2
172
     0
173
     0
174
     0
175
     0
176
     0
177
     0
178
     0
270
     2
271
     4
272
     4
273
     2
274
     2
340
11
275
     0
280
     0
281
     0
282
     0
283
     1
284
     0
285
     0
286
     0
287
     3
288
     0
  0
ENDTAB
  0
TABLE
  2
BLOCK_RECORD
  5
1
330
0
100
AcDbSymbolTable
 70
     0
  0
BLOCK_RECORD
  5
1F
102
{ACAD_XDICTIONARY
360
131A3
102
}
330
1
100
AcDbSymbolTableRecord
100
AcDbBlockTableRecord
  2
*MODEL_SPACE
  0
BLOCK_RECORD
  5
1B
102
{ACAD_XDICTIONARY
360
131A1
102
}
330
1
100
AcDbSymbolTableRecord
100
AcDbBlockTableRecord
  2
*PAPER_SPACE
  0
ENDTAB
  0
ENDSEC
  0
SECTION
  2
BLOCKS
  0
BLOCK
  5
20
330
1F
100
AcDbEntity
  8
0
100
AcDbBlockBegin
  2
*MODEL_SPACE
 70
     0
 10
0.0
 20
0.0
 30
0.0
  3
*MODEL_SPACE
  1

  0
ENDBLK
  5
21
330
1F
100
AcDbEntity
  8
0
100
AcDbBlockEnd
  0
BLOCK
  5
1C
330
1B
100
AcDbEntity
 67
     1
  8
0
100
AcDbBlockBegin
  2
*PAPER_SPACE
 70
     0
 10
0.0
 20
0.0
 30
0.0
  3
*PAPER_SPACE
  1

  0
ENDBLK
  5
1D
330
1B
100
AcDbEntity
 67
     1
  8
0
100
AcDbBlockEnd
  0
ENDSEC
  0
SECTION
  2
ENTITIES
  0
TEXT
  5
16C45
330
1F
100
AcDbEntity
  8
0
100
AcDbText
 10
239.9269544201347
 20
10.2249081029347
 30
0.0
 40
13.8518250193501
  1
HGR20T
  7
\M+2ABAC\M+2A6A12
100
AcDbText
  0
LINE
  5
17B0B
330
1F
100
AcDbEntity
  8
AM3
100
AcDbLine
 10
18.66640907812933
 20
21.62929496230822
 30
0.0
 11
21.16640907812933
 21
23.4456512823217
 31
0.0
  0
LINE
  5
17B0C
330
1F
100
AcDbEntity
  8
AM3
100
AcDbLine
 10
18.16640907812933
 20
9.129294962308222
 30
0.0
 11
18.16640907812933
 21
18.62929496230822
 31
0.0
  0
LINE
  5
17B0D
330
1F
100
AcDbEntity
  8
AM3
100
AcDbLine
 10
18.66640907812933
 20
9.129294962308222
 30
0.0
 11
18.66640907812933
 21
21.62929496230822
 31
0.0
  0
LINE
  5
17B0E
330
1F
100
AcDbEntity
  8
AM3
100
AcDbLine
 10
17.66628953238233
 20
8.629175416561338
 30
0.0
 11
18.16640907812933
 21
9.129294962308222
 31
0.0
  0
LINE
  5
17B0F
330
1F
100
AcDbEntity
  8
AM3
100
AcDbLine
 10
23.66640907812933
 20
21.62929496230822
 30
0.0
 11
18.66640907812933
 21
21.62929496230822
 31
0.0
  0
LINE
  5
17B10
330
1F
100
AcDbEntity
  8
AM3
100
AcDbLine
 10
24.16666599535727
 20
18.62929496230822
 30
0.0
 11
18.16640907812933
 21
18.62929496230822
 31
0.0
  0
LINE
  5
17B11
330
1F
100
AcDbEntity
  8
AM3
100
AcDbLine
 10
24.16640907812933
 20
9.129294962308222
 30
0.0
 11
18.16640907812933
 21
9.129294962308222
 31
0.0
  0
LINE
  5
17B12
330
1F
100
AcDbEntity
  8
AM3
100
AcDbLine
 10
24.16640907812933
 20
9.129294962308222
 30
0.0
 11
24.16640907812933
 21
18.62929496230822
 31
0.0
  0
LINE
  5
17B13
330
1F
100
AcDbEntity
  8
AM3
100
AcDbLine
 10
23.66640907812933
 20
9.129294962308222
 30
0.0
 11
23.66640907812933
 21
21.62929496230822
 31
0.0
  0
LINE
  5
17B14
330
1F
100
AcDbEntity
  8
AM3
100
AcDbLine
 10
24.16640907812933
 20
9.129294962308222
 30
0.0
 11
24.66668078245067
 21
8.629023257986773
 31
0.0
  0
LINE
  5
17B15
330
1F
100
AcDbEntity
  8
AM3
100
AcDbLine
 10
23.66640907812933
 20
21.62929496230822
 30
0.0
 11
21.16640907812933
 21
23.4456512823217
 31
0.0
  0
LINE
  5
17B2E
330
1F
100
AcDbEntity
  8
AM7
100
AcDbLine
 10
21.16622704478483
 20
27.02929496228921
 30
0.0
 11
21.16615307290306
 21
8.129294962279118
 31
0.0
  0
LINE
  5
17B32
330
1F
100
AcDbEntity
  8
0
100
AcDbLine
 10
31.16600887282095
 20
23.28906745800463
 30
0.0
 11
31.16600887282095
 21
21.95830925840459
 31
0.0
  0
LINE
  5
17B39
330
1F
100
AcDbEntity
  8
0
100
AcDbLine
 10
30.16661747290311
 20
8.628632008586919
 30
0.0
 11
12.16632477290306
 21
8.629023257986773
 31
0.0
  0
LINE
  5
17B3A
330
1F
100
AcDbEntity
  8
0
100
AcDbLine
 10
27.71656617290318
 20
16.07868735798683
 30
0.0
 11
31.16647307290304
 21
12.62878005798688
 31
0.0
  0
LINE
  5
17B3B
330
1F
100
AcDbEntity
  8
0
100
AcDbLine
 10
31.16661807290313
 20
9.628632607986901
 30
0.0
 11
30.16661747290311
 21
8.628632008586919
 31
0.0
  0
LINE
  5
17B3C
330
1F
100
AcDbEntity
  8
0
100
AcDbLine
 10
31.16615307290317
 20
12.62877915798685
 30
0.0
 11
31.16615307290317
 21
9.629023257986773
 31
0.0
  0
LINE
  5
17B3D
330
1F
100
AcDbEntity
  8
0
100
AcDbLine
 10
27.71601372961473
 20
18.50831097469836
 30
0.0
 11
28.64629648618819
 21
19.43859373127179
 31
0.0
  0
ARC
  5
17B40
330
1F
100
AcDbEntity
  8
0
100
AcDbCircle
 10
30.94620972302095
 20
19.41861616780465
 30
0.0
 40
2.299999999999999
100
AcDbArc
 50
90.49767150645429
 51
179.5023284935457
  0
LINE
  5
17B41
330
1F
100
AcDbEntity
  8
0
100
AcDbLine
 10
27.71601087262104
 20
18.50831215810467
 30
0.0
 11
27.71601087262104
 21
16.07917188460464
 31
0.0
  0
LINE
  5
17B44
330
1F
100
AcDbEntity
  8
0
100
AcDbLine
 10
30.9262321595537
 20
21.71852940463736
 30
0.0
 11
31.16600887282095
 21
21.95830611790461
 31
0.0
  0
LINE
  5
17B4D
330
1F
100
AcDbEntity
  8
0
100
AcDbLine
 10
13.90600887282096
 20
26.0290232580046
 30
0.0
 11
28.42605307282099
 21
26.0290232580046
 31
0.0
  0
ARC
  5
17B4F
330
1F
100
AcDbEntity
  8
0
100
AcDbCircle
 10
30.94620972302095
 20
25.82875740810459
 30
0.0
 40
2.299999999999999
100
AcDbArc
 50
180.4976715064542
 51
269.5023284935457
  0
LINE
  5
17B51
330
1F
100
AcDbEntity
  8
0
100
AcDbLine
 10
30.9262321595537
 20
23.52884417127188
 30
0.0
 11
31.16600887282095
 21
23.28906745800463
 31
0.0
  0
LINE
  5
17B53
330
1F
100
AcDbEntity
  8
0
100
AcDbLine
 10
28.42605307282099
 20
26.0290232580046
 30
0.0
 11
28.64629648618819
 21
25.80877984463745
 31
0.0
  0
LINE
  5
17B54
330
1F
100
AcDbEntity
  8
0
100
AcDbLine
 10
28.42605307282099
 20
26.0290232580046
 30
0.0
 11
28.64629648618819
 21
25.80877984463745
 31
0.0
  0
LINE
  5
17B58
330
1F
100
AcDbEntity
  8
0
100
AcDbLine
 10
11.16600887282095
 20
21.95896685810464
 30
0.0
 11
11.16600887282095
 21
23.28902325800459
 31
0.0
  0
LINE
  5
17B5A
330
1F
100
AcDbEntity
  8
0
100
AcDbLine
 10
11.16652787290308
 20
12.62872545798688
 30
0.0
 11
14.61652197290311
 21
16.07871935798686
 31
0.0
  0
LINE
  5
17B5B
330
1F
100
AcDbEntity
  8
0
100
AcDbLine
 10
11.16660897290319
 20
9.628738527986797
 30
0.0
 11
12.16667567290312
 21
8.628673144346748
 31
0.0
  0
LINE
  5
17B5C
330
1F
100
AcDbEntity
  8
0
100
AcDbLine
 10
11.16615307290305
 20
12.62877915798685
 30
0.0
 11
11.16615307290305
 21
9.629023257986773
 31
0.0
  0
ARC
  5
17B5D
330
1F
100
AcDbEntity
  8
0
100
AcDbCircle
 10
11.38634062278515
 20
19.41861616780465
 30
0.0
 40
2.299999999999999
100
AcDbArc
 50
0.4976715064543095
 51
89.5023284935457
  0
LINE
  5
17B63
330
1F
100
AcDbEntity
  8
0
100
AcDbLine
 10
11.4063181862524
 20
21.71852940463736
 30
0.0
 11
11.16654147298515
 21
21.95830611790461
 31
0.0
  0
LINE
  5
17B65
330
1F
100
AcDbEntity
  8
0
100
AcDbLine
 10
14.61601087262101
 20
16.07911883140468
 30
0.0
 11
14.61601087262101
 21
18.50896525830466
 31
0.0
  0
LINE
  5
17B6A
330
1F
100
AcDbEntity
  8
0
100
AcDbLine
 10
14.61653661619138
 20
18.50831097469836
 30
0.0
 11
13.68625385961792
 21
19.43859373127179
 31
0.0
  0
ARC
  5
17B6E
330
1F
100
AcDbEntity
  8
0
100
AcDbCircle
 10
11.38634062278515
 20
25.82875740810459
 30
0.0
 40
2.299999999999999
100
AcDbArc
 50
270.4976715064542
 51
359.5023284935456
  0
LINE
  5
17B73
330
1F
100
AcDbEntity
  8
0
100
AcDbLine
 10
11.4063181862524
 20
23.52884417127188
 30
0.0
 11
11.16654147298515
 21
23.28906745800463
 31
0.0
  0
LINE
  5
17B75
330
1F
100
AcDbEntity
  8
0
100
AcDbLine
 10
13.90649727298512
 20
26.0290232580046
 30
0.0
 11
13.68625385961792
 21
25.80877984463745
 31
0.0
  0
LINE
  5
17B76
330
1F
100
AcDbEntity
  8
0
100
AcDbLine
 10
13.90649727298512
 20
26.0290232580046
 30
0.0
 11
13.68625385961792
 21
25.80877984463745
 31
0.0
  0
LINE
  5
17B79
330
1F
100
AcDbEntity
  8
0
100
AcDbLine
 10
218.6106536181106
 20
9.62750017971939
 30
0.0
 11
58.61065361811063
 21
9.62750017971939
 31
0.0
  0
LINE
  5
17B7A
330
1F
100
AcDbEntity
  8
0
100
AcDbLine
 10
218.6106536181106
 20
12.62725607971924
 30
0.0
 11
58.61065361811063
 21
12.62725607971924
 31
0.0
  0
LINE
  5
17B7B
330
1F
100
AcDbEntity
  8
0
100
AcDbLine
 10
218.6106536181106
 20
8.627108930319081
 30
0.0
 11
58.61065361811063
 21
8.627108930319309
 31
0.0
  0
LINE
  5
17B7C
330
1F
100
AcDbEntity
  8
0
100
AcDbLine
 10
58.61065361811063
 20
8.627108930319309
 30
0.0
 11
58.61065361811063
 21
26.1271089303193
 31
0.0
  0
LINE
  5
17B7D
330
1F
100
AcDbEntity
  8
0
100
AcDbLine
 10
218.6106536181106
 20
16.07716427971922
 30
0.0
 11
58.61065361811063
 21
16.07716427971934
 31
0.0
  0
LINE
  5
17B7E
330
1F
100
AcDbEntity
  8
0
100
AcDbLine
 10
218.6106536181106
 20
18.50712217971954
 30
0.0
 11
58.61065361811063
 21
18.50712217971954
 31
0.0
  0
LINE
  5
17B7F
330
1F
100
AcDbEntity
  8
0
100
AcDbLine
 10
218.6106536181106
 20
19.43707065300429
 30
0.0
 11
58.61065361811069
 21
19.43707065300418
 31
0.0
  0
LINE
  5
17B80
330
1F
100
AcDbEntity
  8
0
100
AcDbLine
 10
218.6106536181106
 20
21.95708417971923
 30
0.0
 11
58.61065361811057
 21
21.95708417971923
 31
0.0
  0
LINE
  5
17B81
330
1F
100
AcDbEntity
  8
0
100
AcDbLine
 10
218.6106536181106
 20
21.71700632636975
 30
0.0
 11
58.61065361811063
 21
21.71700632636975
 31
0.0
  0
LINE
  5
17B82
330
1F
100
AcDbEntity
  8
0
100
AcDbLine
 10
218.6106536181106
 20
23.28711717971941
 30
0.0
 11
58.61065361811063
 21
23.28711717971941
 31
0.0
  0
LINE
  5
17B83
330
1F
100
AcDbEntity
  8
0
100
AcDbLine
 10
218.6106536181106
 20
23.52732109300427
 30
0.0
 11
58.61065361811063
 21
23.52732109300427
 31
0.0
  0
LINE
  5
17B84
330
1F
100
AcDbEntity
  8
0
100
AcDbLine
 10
218.6106536181106
 20
25.80725676636996
 30
0.0
 11
58.61065361811057
 21
25.80725676636996
 31
0.0
  0
LINE
  5
17B85
330
1F
100
AcDbEntity
  8
0
100
AcDbLine
 10
218.6106536181106
 20
26.1271089303193
 30
0.0
 11
58.61065361811063
 21
26.12710893031954
 31
0.0
  0
LINE
  5
17B86
330
1F
100
AcDbEntity
  8
0
100
AcDbLine
 10
218.6106536181106
 20
8.627108930319309
 30
0.0
 11
218.6106536181106
 21
26.1271089303193
 31
0.0
  0
LINE
  5
17B87
330
1F
100
AcDbEntity
  8
AM3
100
AcDbLine
 10
81.11167041269931
 20
9.129294962308222
 30
0.0
 11
81.11167041269931
 21
21.62929496230822
 31
0.0
  0
LINE
  5
17B88
330
1F
100
AcDbEntity
  8
AM7
100
AcDbLine
 10
78.6114883793548
 20
24.9820868786004
 30
0.0
 11
78.61141440747303
 21
8.129294962279118
 31
0.0
  0
LINE
  5
17B89
330
1F
100
AcDbEntity
  8
AM3
100
AcDbLine
 10
76.11167041269931
 20
9.129294962308222
 30
0.0
 11
76.11167041269931
 21
21.62929496230822
 31
0.0
  0
LINE
  5
17B8A
330
1F
100
AcDbEntity
  8
AM3
100
AcDbLine
 10
81.61167041269932
 20
9.129294962308222
 30
0.0
 11
82.11194211702064
 21
8.629023257986773
 31
0.0
  0
LINE
  5
17B8B
330
1F
100
AcDbEntity
  8
AM3
100
AcDbLine
 10
81.61167041269932
 20
9.129294962308222
 30
0.0
 11
81.61167041269932
 21
18.62929496230822
 31
0.0
  0
LINE
  5
17B8C
330
1F
100
AcDbEntity
  8
AM3
100
AcDbLine
 10
75.61167041269931
 20
9.129294962308222
 30
0.0
 11
75.61167041269931
 21
18.62929496230822
 31
0.0
  0
LINE
  5
17B8D
330
1F
100
AcDbEntity
  8
AM3
100
AcDbLine
 10
81.61167041269932
 20
9.129294962308222
 30
0.0
 11
75.61167041269931
 21
9.129294962308222
 31
0.0
  0
LINE
  5
17B8E
330
1F
100
AcDbEntity
  8
AM3
100
AcDbLine
 10
75.11155086695231
 20
8.629175416561338
 30
0.0
 11
75.61167041269931
 21
9.129294962308222
 31
0.0
  0
LINE
  5
17B8F
330
1F
100
AcDbEntity
  8
AM3
100
AcDbLine
 10
81.61192732992725
 20
18.62929496230822
 30
0.0
 11
75.61167041269931
 21
18.62929496230822
 31
0.0
  0
LINE
  5
17B90
330
1F
100
AcDbEntity
  8
AM3
100
AcDbLine
 10
81.11167041269931
 20
21.62929496230822
 30
0.0
 11
76.11167041269931
 21
21.62929496230822
 31
0.0
  0
LINE
  5
17B91
330
1F
100
AcDbEntity
  8
AM3
100
AcDbLine
 10
76.11167041269931
 20
21.62929496230822
 30
0.0
 11
78.61167041269931
 21
23.4456512823217
 31
0.0
  0
LINE
  5
17B92
330
1F
100
AcDbEntity
  8
AM3
100
AcDbLine
 10
81.11167041269931
 20
21.62929496230822
 30
0.0
 11
78.61167041269931
 21
23.4456512823217
 31
0.0
  0
LINE
  5
17B93
330
1F
100
AcDbEntity
  8
AM7
100
AcDbLine
 10
138.6114883793547
 20
24.9820868786004
 30
0.0
 11
138.611414407473
 21
8.129294962279118
 31
0.0
  0
LINE
  5
17B94
330
1F
100
AcDbEntity
  8
AM3
100
AcDbLine
 10
136.1116704126993
 20
9.129294962308222
 30
0.0
 11
136.1116704126993
 21
21.62929496230822
 31
0.0
  0
LINE
  5
17B95
330
1F
100
AcDbEntity
  8
AM3
100
AcDbLine
 10
141.1116704126993
 20
9.129294962308222
 30
0.0
 11
141.1116704126993
 21
21.62929496230822
 31
0.0
  0
LINE
  5
17B96
330
1F
100
AcDbEntity
  8
AM3
100
AcDbLine
 10
135.1115508669523
 20
8.629175416561338
 30
0.0
 11
135.6116704126993
 21
9.129294962308222
 31
0.0
  0
LINE
  5
17B97
330
1F
100
AcDbEntity
  8
AM3
100
AcDbLine
 10
135.6116704126993
 20
9.129294962308222
 30
0.0
 11
135.6116704126993
 21
18.62929496230822
 31
0.0
  0
LINE
  5
17B98
330
1F
100
AcDbEntity
  8
AM3
100
AcDbLine
 10
141.6116704126993
 20
9.129294962308222
 30
0.0
 11
141.6116704126993
 21
18.62929496230822
 31
0.0
  0
LINE
  5
17B99
330
1F
100
AcDbEntity
  8
AM3
100
AcDbLine
 10
141.6116704126993
 20
9.129294962308222
 30
0.0
 11
135.6116704126993
 21
9.129294962308222
 31
0.0
  0
LINE
  5
17B9A
330
1F
100
AcDbEntity
  8
AM3
100
AcDbLine
 10
141.6116704126993
 20
9.129294962308222
 30
0.0
 11
142.1119421170206
 21
8.629023257986773
 31
0.0
  0
LINE
  5
17B9B
330
1F
100
AcDbEntity
  8
AM3
100
AcDbLine
 10
141.6119273299272
 20
18.62929496230822
 30
0.0
 11
135.6116704126993
 21
18.62929496230822
 31
0.0
  0
LINE
  5
17B9C
330
1F
100
AcDbEntity
  8
AM3
100
AcDbLine
 10
141.1116704126993
 20
21.62929496230822
 30
0.0
 11
138.6116704126993
 21
23.4456512823217
 31
0.0
  0
LINE
  5
17B9D
330
1F
100
AcDbEntity
  8
AM3
100
AcDbLine
 10
141.1116704126993
 20
21.62929496230822
 30
0.0
 11
136.1116704126993
 21
21.62929496230822
 31
0.0
  0
LINE
  5
17B9E
330
1F
100
AcDbEntity
  8
AM3
100
AcDbLine
 10
136.1116704126993
 20
21.62929496230822
 30
0.0
 11
138.6116704126993
 21
23.4456512823217
 31
0.0
  0
LINE
  5
17B9F
330
1F
100
AcDbEntity
  8
AM7
100
AcDbLine
 10
198.6114883793548
 20
24.9820868786004
 30
0.0
 11
198.611414407473
 21
8.129294962279118
 31
0.0
  0
LINE
  5
17BA0
330
1F
100
AcDbEntity
  8
AM3
100
AcDbLine
 10
196.1116704126993
 20
9.129294962308222
 30
0.0
 11
196.1116704126993
 21
21.62929496230822
 31
0.0
  0
LINE
  5
17BA1
330
1F
100
AcDbEntity
  8
AM3
100
AcDbLine
 10
201.1116704126993
 20
9.129294962308222
 30
0.0
 11
201.1116704126993
 21
21.62929496230822
 31
0.0
  0
LINE
  5
17BA2
330
1F
100
AcDbEntity
  8
AM3
100
AcDbLine
 10
195.1115508669523
 20
8.629175416561338
 30
0.0
 11
195.6116704126993
 21
9.129294962308222
 31
0.0
  0
LINE
  5
17BA3
330
1F
100
AcDbEntity
  8
AM3
100
AcDbLine
 10
195.6116704126993
 20
9.129294962308222
 30
0.0
 11
195.6116704126993
 21
18.62929496230822
 31
0.0
  0
LINE
  5
17BA4
330
1F
100
AcDbEntity
  8
AM3
100
AcDbLine
 10
201.6116704126992
 20
9.129294962308222
 30
0.0
 11
201.6116704126992
 21
18.62929496230822
 31
0.0
  0
LINE
  5
17BA5
330
1F
100
AcDbEntity
  8
AM3
100
AcDbLine
 10
201.6116704126992
 20
9.129294962308222
 30
0.0
 11
195.6116704126993
 21
9.129294962308222
 31
0.0
  0
LINE
  5
17BA6
330
1F
100
AcDbEntity
  8
AM3
100
AcDbLine
 10
201.6116704126992
 20
9.129294962308222
 30
0.0
 11
202.1119421170206
 21
8.629023257986773
 31
0.0
  0
LINE
  5
17BA7
330
1F
100
AcDbEntity
  8
AM3
100
AcDbLine
 10
201.6119273299272
 20
18.62929496230822
 30
0.0
 11
195.6116704126993
 21
18.62929496230822
 31
0.0
  0
LINE
  5
17BA8
330
1F
100
AcDbEntity
  8
AM3
100
AcDbLine
 10
201.1116704126993
 20
21.62929496230822
 30
0.0
 11
198.6116704126993
 21
23.4456512823217
 31
0.0
  0
LINE
  5
17BA9
330
1F
100
AcDbEntity
  8
AM3
100
AcDbLine
 10
201.1116704126993
 20
21.62929496230822
 30
0.0
 11
196.1116704126993
 21
21.62929496230822
 31
0.0
  0
LINE
  5
17BAA
330
1F
100
AcDbEntity
  8
AM3
100
AcDbLine
 10
196.1116704126993
 20
21.62929496230822
 30
0.0
 11
198.6116704126993
 21
23.4456512823217
 31
0.0
  0
ENDSEC
  0
SECTION
  2
OBJECTS
  0
DICTIONARY
  5
C
330
0
100
AcDbDictionary
  3
ACAD_COLOR
350
13437
  3
ACAD_GROUP
350
D
  3
ACAD_LAYOUT
350
1A
  3
ACAD_MATERIAL
350
13436
  3
ACAD_MLINESTYLE
350
17
  3
ACAD_PLOTSETTINGS
350
19
  3
ACAD_PLOTSTYLENAME
350
E
  3
ACDBHEADERROUNDTRIPXREC
350
20BF5
  3
ACDBVARIABLEDICTIONARY
350
4E
  0
DICTIONARY
  5
DDEF
330
2
100
AcDbDictionary
280
     1
  3
ACAD_LAYERFILTERS
360
E68E
  3
ACAD_LAYERSTATES
360
DDF0
  0
DICTIONARY
  5
131A3
330
1F
100
AcDbDictionary
280
     1
  3
ACAD_LAYOUTSELFREF
360
20C16
  0
DICTIONARY
  5
131A1
330
1B
100
AcDbDictionary
280
     1
  3
ACAD_LAYOUTSELFREF
360
20C15
  0
DICTIONARY
  5
13437
102
{ACAD_REACTORS
330
C
102
}
330
C
100
AcDbDictionary
  0
DICTIONARY
  5
D
102
{ACAD_REACTORS
330
C
102
}
330
C
100
AcDbDictionary
  3
*A1
350
DDE2
  3
*A10
350
145EF
  3
*A11
350
145F0
  3
*A12
350
13CD2
  3
*A13
350
145F1
  3
*A14
350
DDE5
  3
*A15
350
14FD7
  3
*A16
350
13CCC
  3
*A17
350
14FD8
  3
*A18
350
14FD9
  3
*A19
350
14FDA
  3
*A2
350
145E9
  3
*A20
350
14FDB
  3
*A21
350
DDED
  3
*A22
350
14FDC
  3
*A23
350
13CD3
  3
*A24
350
14FDD
  3
*A25
350
14FDE
  3
*A26
350
14FDF
  3
*A27
350
14FE0
  3
*A28
350
DDE3
  3
*A29
350
DDE6
  3
*A3
350
145EA
  3
*A30
350
14FE1
  3
*A31
350
14FE2
  3
*A32
350
14FE3
  3
*A33
350
167FE
  3
*A34
350
DDEB
  3
*A35
350
DDEE
  3
*A36
350
167FF
  3
*A37
350
16800
  3
*A38
350
16801
  3
*A39
350
16802
  3
*A4
350
13CCB
  3
*A40
350
13CCD
  3
*A41
350
16803
  3
*A42
350
16804
  3
*A43
350
DDE7
  3
*A44
350
16805
  3
*A45
350
145E5
  3
*A46
350
16806
  3
*A47
350
16807
  3
*A48
350
13CC7
  3
*A49
350
16808
  3
*A5
350
145EB
  3
*A50
350
16809
  3
*A51
350
1680A
  3
*A52
350
13CCE
  3
*A53
350
DDE8
  3
*A54
350
DDE9
  3
*A55
350
DDEA
  3
*A56
350
145E6
  3
*A57
350
13CC8
  3
*A58
350
13CC9
  3
*A59
350
13CCA
  3
*A6
350
145EC
  3
*A60
350
13CCF
  3
*A61
350
13CD0
  3
*A62
350
13CD1
  3
*A63
350
145E7
  3
*A64
350
DDE4
  3
*A65
350
145E8
  3
*A7
350
145ED
  3
*A8
350
DDEC
  3
*A9
350
145EE
  0
DICTIONARY
  5
1A
102
{ACAD_REACTORS
330
C
102
}
330
C
100
AcDbDictionary
  0
DICTIONARY
  5
13436
102
{ACAD_REACTORS
330
C
102
}
330
C
100
AcDbDictionary
  0
DICTIONARY
  5
17
102
{ACAD_REACTORS
330
C
102
}
330
C
100
AcDbDictionary
  3
STANDARD
350
18
  0
DICTIONARY
  5
19
102
{ACAD_REACTORS
330
C
102
}
330
C
100
AcDbDictionary
  3
LANSRO
350
1AB
  0
ACDBDICTIONARYWDFLT
  5
E
102
{ACAD_REACTORS
330
C
102
}
330
C
100
AcDbDictionary
281
     1
  3
Normal
350
F
100
AcDbDictionaryWithDefault
340
F
  0
DICTIONARY
  5
20BF5
102
{ACAD_REACTORS
330
C
102
}
330
C
100
AcDbDictionary
  3
CEPSNTYPE
350
20BFF
  3
FINGERPRINTGUID
350
20C00
  3
HYPERLINKBASE
350
20BF8
  3
INSUNITS
350
20BFE
  3
LAYOUTDICT
350
20BFA
  3
LWETCUNION
350
20BFD
  3
PLOTSETDICT
350
20BFB
  3
PLOTSTYLNAMDICT
350
20BFC
  3
PSVPSCALE
350
20C02
  3
PUCSBASE
350
20C05
  3
PUCSORGBACK
350
20C0B
  3
PUCSORGBOTTOM
350
20C07
  3
PUCSORGFRONT
350
20C0A
  3
PUCSORGLEFT
350
20C08
  3
PUCSORGRIGHT
350
20C09
  3
PUCSORGTOP
350
20C06
  3
PUCSORTHOREF
350
20C03
  3
PUCSORTHOVIEW
350
20C04
  3
STYLESHEET
350
20BF9
  3
TSTACKALIGN
350
20BF6
  3
TSTACKSIZE
350
20BF7
  3
UCSBASE
350
20C0E
  3
UCSORGBACK
350
20C14
  3
UCSORGBOTTOM
350
20C10
  3
UCSORGFRONT
350
20C13
  3
UCSORGLEFT
350
20C11
  3
UCSORGRIGHT
350
20C12
  3
UCSORGTOP
350
20C0F
  3
UCSORTHOREF
350
20C0C
  3
UCSORTHOVIEW
350
20C0D
  3
VERSIONGUID
350
20C01
  0
DICTIONARY
  5
4E
102
{ACAD_REACTORS
330
C
102
}
330
C
100
AcDbDictionary
  3
DIMASSOC
350
1350B
  3
PROJECTNAME
350
1350C
  3
SORTENTS
350
4F
  0
DICTIONARY
  5
E68E
102
{ACAD_REACTORS
330
DDEF
102
}
330
DDEF
100
AcDbDictionary
280
     1
  0
DICTIONARY
  5
DDF0
102
{ACAD_REACTORS
330
DDEF
102
}
330
DDEF
100
AcDbDictionary
  0
XRECORD
  5
20C16
102
{ACAD_REACTORS
330
131A3
102
}
330
131A3
100
AcDbXrecord
340
1F
  0
XRECORD
  5
20C15
102
{ACAD_REACTORS
330
131A1
102
}
330
131A1
100
AcDbXrecord
340
1B
  0
GROUP
  5
DDE2
102
{ACAD_REACTORS
330
D
102
}
330
D
100
AcDbGroup
300

 70
     1
 71
     1
  0
GROUP
  5
145EF
102
{ACAD_REACTORS
330
D
102
}
330
D
100
AcDbGroup
300

 70
     1
 71
     1
  0
GROUP
  5
145F0
102
{ACAD_REACTORS
330
D
102
}
330
D
100
AcDbGroup
300

 70
     1
 71
     1
  0
GROUP
  5
13CD2
102
{ACAD_REACTORS
330
D
102
}
330
D
100
AcDbGroup
300

 70
     1
 71
     1
  0
GROUP
  5
145F1
102
{ACAD_REACTORS
330
D
102
}
330
D
100
AcDbGroup
300

 70
     1
 71
     1
  0
GROUP
  5
DDE5
102
{ACAD_REACTORS
330
D
102
}
330
D
100
AcDbGroup
300

 70
     1
 71
     1
  0
GROUP
  5
14FD7
102
{ACAD_REACTORS
330
D
102
}
330
D
100
AcDbGroup
300

 70
     1
 71
     1
  0
GROUP
  5
13CCC
102
{ACAD_REACTORS
330
D
102
}
330
D
100
AcDbGroup
300

 70
     1
 71
     1
  0
GROUP
  5
14FD8
102
{ACAD_REACTORS
330
D
102
}
330
D
100
AcDbGroup
300

 70
     1
 71
     1
  0
GROUP
  5
14FD9
102
{ACAD_REACTORS
330
D
102
}
330
D
100
AcDbGroup
300

 70
     1
 71
     1
  0
GROUP
  5
14FDA
102
{ACAD_REACTORS
330
D
102
}
330
D
100
AcDbGroup
300

 70
     1
 71
     1
  0
GROUP
  5
145E9
102
{ACAD_REACTORS
330
D
102
}
330
D
100
AcDbGroup
300

 70
     1
 71
     1
  0
GROUP
  5
14FDB
102
{ACAD_REACTORS
330
D
102
}
330
D
100
AcDbGroup
300

 70
     1
 71
     1
  0
GROUP
  5
DDED
102
{ACAD_REACTORS
330
D
102
}
330
D
100
AcDbGroup
300

 70
     1
 71
     1
  0
GROUP
  5
14FDC
102
{ACAD_REACTORS
330
D
102
}
330
D
100
AcDbGroup
300

 70
     1
 71
     1
  0
GROUP
  5
13CD3
102
{ACAD_REACTORS
330
D
102
}
330
D
100
AcDbGroup
300

 70
     1
 71
     1
  0
GROUP
  5
14FDD
102
{ACAD_REACTORS
330
D
102
}
330
D
100
AcDbGroup
300

 70
     1
 71
     1
  0
GROUP
  5
14FDE
102
{ACAD_REACTORS
330
D
102
}
330
D
100
AcDbGroup
300

 70
     1
 71
     1
  0
GROUP
  5
14FDF
102
{ACAD_REACTORS
330
D
102
}
330
D
100
AcDbGroup
300

 70
     1
 71
     1
  0
GROUP
  5
14FE0
102
{ACAD_REACTORS
330
D
102
}
330
D
100
AcDbGroup
300

 70
     1
 71
     1
  0
GROUP
  5
DDE3
102
{ACAD_REACTORS
330
D
102
}
330
D
100
AcDbGroup
300

 70
     1
 71
     1
  0
GROUP
  5
DDE6
102
{ACAD_REACTORS
330
D
102
}
330
D
100
AcDbGroup
300

 70
     1
 71
     1
  0
GROUP
  5
145EA
102
{ACAD_REACTORS
330
D
102
}
330
D
100
AcDbGroup
300

 70
     1
 71
     1
  0
GROUP
  5
14FE1
102
{ACAD_REACTORS
330
D
102
}
330
D
100
AcDbGroup
300

 70
     1
 71
     1
  0
GROUP
  5
14FE2
102
{ACAD_REACTORS
330
D
102
}
330
D
100
AcDbGroup
300

 70
     1
 71
     1
  0
GROUP
  5
14FE3
102
{ACAD_REACTORS
330
D
102
}
330
D
100
AcDbGroup
300

 70
     1
 71
     1
  0
GROUP
  5
167FE
102
{ACAD_REACTORS
330
D
102
}
330
D
100
AcDbGroup
300

 70
     1
 71
     1
  0
GROUP
  5
DDEB
102
{ACAD_REACTORS
330
D
102
}
330
D
100
AcDbGroup
300

 70
     1
 71
     1
  0
GROUP
  5
DDEE
102
{ACAD_REACTORS
330
D
102
}
330
D
100
AcDbGroup
300

 70
     1
 71
     1
  0
GROUP
  5
167FF
102
{ACAD_REACTORS
330
D
102
}
330
D
100
AcDbGroup
300

 70
     1
 71
     1
  0
GROUP
  5
16800
102
{ACAD_REACTORS
330
D
102
}
330
D
100
AcDbGroup
300

 70
     1
 71
     1
  0
GROUP
  5
16801
102
{ACAD_REACTORS
330
D
102
}
330
D
100
AcDbGroup
300

 70
     1
 71
     1
  0
GROUP
  5
16802
102
{ACAD_REACTORS
330
D
102
}
330
D
100
AcDbGroup
300

 70
     1
 71
     1
  0
GROUP
  5
13CCB
102
{ACAD_REACTORS
330
D
102
}
330
D
100
AcDbGroup
300

 70
     1
 71
     1
  0
GROUP
  5
13CCD
102
{ACAD_REACTORS
330
D
102
}
330
D
100
AcDbGroup
300

 70
     1
 71
     1
  0
GROUP
  5
16803
102
{ACAD_REACTORS
330
D
102
}
330
D
100
AcDbGroup
300

 70
     1
 71
     1
  0
GROUP
  5
16804
102
{ACAD_REACTORS
330
D
102
}
330
D
100
AcDbGroup
300

 70
     1
 71
     1
  0
GROUP
  5
DDE7
102
{ACAD_REACTORS
330
D
102
}
330
D
100
AcDbGroup
300

 70
     1
 71
     1
  0
GROUP
  5
16805
102
{ACAD_REACTORS
330
D
102
}
330
D
100
AcDbGroup
300

 70
     1
 71
     1
  0
GROUP
  5
145E5
102
{ACAD_REACTORS
330
D
102
}
330
D
100
AcDbGroup
300

 70
     1
 71
     1
  0
GROUP
  5
16806
102
{ACAD_REACTORS
330
D
102
}
330
D
100
AcDbGroup
300

 70
     1
 71
     1
  0
GROUP
  5
16807
102
{ACAD_REACTORS
330
D
102
}
330
D
100
AcDbGroup
300

 70
     1
 71
     1
  0
GROUP
  5
13CC7
102
{ACAD_REACTORS
330
D
102
}
330
D
100
AcDbGroup
300

 70
     1
 71
     1
  0
GROUP
  5
16808
102
{ACAD_REACTORS
330
D
102
}
330
D
100
AcDbGroup
300

 70
     1
 71
     1
  0
GROUP
  5
145EB
102
{ACAD_REACTORS
330
D
102
}
330
D
100
AcDbGroup
300

 70
     1
 71
     1
  0
GROUP
  5
16809
102
{ACAD_REACTORS
330
D
102
}
330
D
100
AcDbGroup
300

 70
     1
 71
     1
  0
GROUP
  5
1680A
102
{ACAD_REACTORS
330
D
102
}
330
D
100
AcDbGroup
300

 70
     1
 71
     1
  0
GROUP
  5
13CCE
102
{ACAD_REACTORS
330
D
102
}
330
D
100
AcDbGroup
300

 70
     1
 71
     1
  0
GROUP
  5
DDE8
102
{ACAD_REACTORS
330
D
102
}
330
D
100
AcDbGroup
300

 70
     1
 71
     1
  0
GROUP
  5
DDE9
102
{ACAD_REACTORS
330
D
102
}
330
D
100
AcDbGroup
300

 70
     1
 71
     1
  0
GROUP
  5
DDEA
102
{ACAD_REACTORS
330
D
102
}
330
D
100
AcDbGroup
300

 70
     1
 71
     1
  0
GROUP
  5
145E6
102
{ACAD_REACTORS
330
D
102
}
330
D
100
AcDbGroup
300

 70
     1
 71
     1
  0
GROUP
  5
13CC8
102
{ACAD_REACTORS
330
D
102
}
330
D
100
AcDbGroup
300

 70
     1
 71
     1
  0
GROUP
  5
13CC9
102
{ACAD_REACTORS
330
D
102
}
330
D
100
AcDbGroup
300

 70
     1
 71
     1
  0
GROUP
  5
13CCA
102
{ACAD_REACTORS
330
D
102
}
330
D
100
AcDbGroup
300

 70
     1
 71
     1
  0
GROUP
  5
145EC
102
{ACAD_REACTORS
330
D
102
}
330
D
100
AcDbGroup
300

 70
     1
 71
     1
  0
GROUP
  5
13CCF
102
{ACAD_REACTORS
330
D
102
}
330
D
100
AcDbGroup
300

 70
     1
 71
     1
  0
GROUP
  5
13CD0
102
{ACAD_REACTORS
330
D
102
}
330
D
100
AcDbGroup
300

 70
     1
 71
     1
  0
GROUP
  5
13CD1
102
{ACAD_REACTORS
330
D
102
}
330
D
100
AcDbGroup
300

 70
     1
 71
     1
  0
GROUP
  5
145E7
102
{ACAD_REACTORS
330
D
102
}
330
D
100
AcDbGroup
300

 70
     1
 71
     1
  0
GROUP
  5
DDE4
102
{ACAD_REACTORS
330
D
102
}
330
D
100
AcDbGroup
300

 70
     1
 71
     1
  0
GROUP
  5
145E8
102
{ACAD_REACTORS
330
D
102
}
330
D
100
AcDbGroup
300

 70
     1
 71
     1
  0
GROUP
  5
145ED
102
{ACAD_REACTORS
330
D
102
}
330
D
100
AcDbGroup
300

 70
     1
 71
     1
  0
GROUP
  5
DDEC
102
{ACAD_REACTORS
330
D
102
}
330
D
100
AcDbGroup
300

 70
     1
 71
     1
  0
GROUP
  5
145EE
102
{ACAD_REACTORS
330
D
102
}
330
D
100
AcDbGroup
300

 70
     1
 71
     1
  0
MLINESTYLE
  5
18
102
{ACAD_REACTORS
330
17
102
}
330
17
100
AcDbMlineStyle
  2
STANDARD
 70
     0
  3

 62
   256
 51
90.0
 52
90.0
 71
     2
 49
0.5
 62
   256
  6
BYLAYER
 49
-0.5
 62
   256
  6
BYLAYER
  0
PLOTSETTINGS
  5
1AB
102
{ACAD_XDICTIONARY
360
13503
102
}
102
{ACAD_REACTORS
330
19
102
}
330
19
100
AcDbPlotSettings
  1
LANSRO
  2
\\1260\HP2200
  4
A4
  6

 40
6.043083190917967
 41
6.762742042541503
 42
7.736419677734375
 43
5.027069091796875
 44
209.9733276367186
 45
296.9683227539062
 46
5.15
 47
0.0
 48
0.0
 49
0.0
140
0.0
141
0.0
142
1.0
143
0.8829829263240881
 70
  1716
 72
     1
 73
     1
 74
     0
  7
AAA.ctb
 75
     0
147
1.132524729739748
148
-132.2970149058029
149
-71.78507365635891
  0
ACDBPLACEHOLDER
  5
F
102
{ACAD_REACTORS
330
E
102
}
330
E
100
AcDbPlaceHolder
280
     0
  0
XRECORD
  5
20BFF
102
{ACAD_REACTORS
330
20BF5
102
}
330
20BF5
100
AcDbXrecord
 90
        0
  0
XRECORD
  5
20C00
102
{ACAD_REACTORS
330
20BF5
102
}
330
20BF5
100
AcDbXrecord
  1
{39E6D4C8-9137-4BAE-85E5-615910EF8948}
  0
XRECORD
  5
20BF8
102
{ACAD_REACTORS
330
20BF5
102
}
330
20BF5
100
AcDbXrecord
  1

  0
XRECORD
  5
20BFE
102
{ACAD_REACTORS
330
20BF5
102
}
330
20BF5
100
AcDbXrecord
 90
        4
  0
XRECORD
  5
20BFA
102
{ACAD_REACTORS
330
20BF5
102
}
330
20BF5
100
AcDbXrecord
340
1A
  0
XRECORD
  5
20BFD
102
{ACAD_REACTORS
330
20BF5
102
}
330
20BF5
100
AcDbXrecord
 90
    10781
  0
XRECORD
  5
20BFB
102
{ACAD_REACTORS
330
20BF5
102
}
330
20BF5
100
AcDbXrecord
340
19
  0
XRECORD
  5
20BFC
102
{ACAD_REACTORS
330
20BF5
102
}
330
20BF5
100
AcDbXrecord
340
E
  0
XRECORD
  5
20C02
102
{ACAD_REACTORS
330
20BF5
102
}
330
20BF5
100
AcDbXrecord
 40
0.0
  0
XRECORD
  5
20C05
102
{ACAD_REACTORS
330
20BF5
102
}
330
20BF5
100
AcDbXrecord
340
0
  0
XRECORD
  5
20C0B
102
{ACAD_REACTORS
330
20BF5
102
}
330
20BF5
100
AcDbXrecord
 10
0.0
 20
0.0
 30
0.0
  0
XRECORD
  5
20C07
102
{ACAD_REACTORS
330
20BF5
102
}
330
20BF5
100
AcDbXrecord
 10
0.0
 20
0.0
 30
0.0
  0
XRECORD
  5
20C0A
102
{ACAD_REACTORS
330
20BF5
102
}
330
20BF5
100
AcDbXrecord
 10
0.0
 20
0.0
 30
0.0
  0
XRECORD
  5
20C08
102
{ACAD_REACTORS
330
20BF5
102
}
330
20BF5
100
AcDbXrecord
 10
0.0
 20
0.0
 30
0.0
  0
XRECORD
  5
20C09
102
{ACAD_REACTORS
330
20BF5
102
}
330
20BF5
100
AcDbXrecord
 10
0.0
 20
0.0
 30
0.0
  0
XRECORD
  5
20C06
102
{ACAD_REACTORS
330
20BF5
102
}
330
20BF5
100
AcDbXrecord
 10
0.0
 20
0.0
 30
0.0
  0
XRECORD
  5
20C03
102
{ACAD_REACTORS
330
20BF5
102
}
330
20BF5
100
AcDbXrecord
340
0
  0
XRECORD
  5
20C04
102
{ACAD_REACTORS
330
20BF5
102
}
330
20BF5
100
AcDbXrecord
 70
     0
  0
XRECORD
  5
20BF9
102
{ACAD_REACTORS
330
20BF5
102
}
330
20BF5
100
AcDbXrecord
  1
AAA.ctb
  0
XRECORD
  5
20BF6
102
{ACAD_REACTORS
330
20BF5
102
}
330
20BF5
100
AcDbXrecord
 90
        1
  0
XRECORD
  5
20BF7
102
{ACAD_REACTORS
330
20BF5
102
}
330
20BF5
100
AcDbXrecord
 90
       70
  0
XRECORD
  5
20C0E
102
{ACAD_REACTORS
330
20BF5
102
}
330
20BF5
100
AcDbXrecord
340
0
  0
XRECORD
  5
20C14
102
{ACAD_REACTORS
330
20BF5
102
}
330
20BF5
100
AcDbXrecord
 10
0.0
 20
0.0
 30
0.0
  0
XRECORD
  5
20C10
102
{ACAD_REACTORS
330
20BF5
102
}
330
20BF5
100
AcDbXrecord
 10
0.0
 20
0.0
 30
0.0
  0
XRECORD
  5
20C13
102
{ACAD_REACTORS
330
20BF5
102
}
330
20BF5
100
AcDbXrecord
 10
0.0
 20
0.0
 30
0.0
  0
XRECORD
  5
20C11
102
{ACAD_REACTORS
330
20BF5
102
}
330
20BF5
100
AcDbXrecord
 10
0.0
 20
0.0
 30
0.0
  0
XRECORD
  5
20C12
102
{ACAD_REACTORS
330
20BF5
102
}
330
20BF5
100
AcDbXrecord
 10
0.0
 20
0.0
 30
0.0
  0
XRECORD
  5
20C0F
102
{ACAD_REACTORS
330
20BF5
102
}
330
20BF5
100
AcDbXrecord
 10
0.0
 20
0.0
 30
0.0
  0
XRECORD
  5
20C0C
102
{ACAD_REACTORS
330
20BF5
102
}
330
20BF5
100
AcDbXrecord
340
0
  0
XRECORD
  5
20C0D
102
{ACAD_REACTORS
330
20BF5
102
}
330
20BF5
100
AcDbXrecord
 70
     0
  0
XRECORD
  5
20C01
102
{ACAD_REACTORS
330
20BF5
102
}
330
20BF5
100
AcDbXrecord
  1
{0ED56DF1-66B0-11D8-88CD-00A024540C4A}
  0
DICTIONARYVAR
  5
1350B
102
{ACAD_REACTORS
330
4E
102
}
330
4E
100
DictionaryVariables
280
     0
  1
1
  0
DICTIONARYVAR
  5
1350C
102
{ACAD_REACTORS
330
4E
102
}
330
4E
100
DictionaryVariables
280
     0
  1

  0
DICTIONARYVAR
  5
4F
102
{ACAD_REACTORS
330
4E
102
}
330
4E
100
DictionaryVariables
280
     0
  1
96
  0
DICTIONARY
  5
13503
330
1AB
100
AcDbDictionary
280
     1
  3
ACAD_XREC_ROUNDTRIP
360
13504
  0
XRECORD
  5
13504
102
{ACAD_REACTORS
330
13503
102
}
330
13503
100
AcDbXrecord
102
SHADEPLOT
 70
     0
102
SHADEPLOTRESLEVEL
 70
     2
102
SHADEPLOTCUSTOMDPI
 70
   300
  0
ENDSEC
  0
EOF
