  0
SECTION
  2
HEADER
  9
$ACADVER
  1
AC1015
  9
$ACADMAINTVER
 70
    11
  9
$DWGCODEPAGE
  3
ANSI_950
  9
$INSBASE
 10
0.0
 20
0.0
 30
0.0
  9
$EXTMIN
 10
-23.49999999999988
 20
-54.89742670626291
 30
-36.44690213228052
  9
$EXTMAX
 10
222.3807324061459
 20
107.9712770586755
 30
31.44690213228115
  9
$LIMMIN
 10
0.0
 20
0.0
  9
$LIMMAX
 10
420.0
 20
297.0
  9
$ORTHOMODE
 70
     0
  9
$REGENMODE
 70
     1
  9
$FILLMODE
 70
     1
  9
$QTEXTMODE
 70
     0
  9
$MIRRTEXT
 70
     0
  9
$LTSCALE
 40
1.199999999999999
  9
$ATTMODE
 70
     1
  9
$TEXTSIZE
 40
2.5
  9
$TRACEWID
 40
1.0
  9
$TEXTSTYLE
  7
型式2
  9
$CLAYER
  8
0
  9
$CELTYPE
  6
BYLAYER
  9
$CECOLOR
 62
   256
  9
$CELTSCALE
 40
1.0
  9
$DISPSILH
 70
     0
  9
$DIMSCALE
 40
1.0
  9
$DIMASZ
 40
1.0
  9
$DIMEXO
 40
0.7
  9
$DIMDLI
 40
3.75
  9
$DIMRND
 40
0.0
  9
$DIMDLE
 40
0.0
  9
$DIMEXE
 40
0.3
  9
$DIMTP
 40
0.0
  9
$DIMTM
 40
0.0
  9
$DIMTXT
 40
1.199999999999999
  9
$DIMCEN
 40
2.5
  9
$DIMTSZ
 40
0.0
  9
$DIMTOL
 70
     0
  9
$DIMLIM
 70
     0
  9
$DIMTIH
 70
     0
  9
$DIMTOH
 70
     0
  9
$DIMSE1
 70
     0
  9
$DIMSE2
 70
     0
  9
$DIMTAD
 70
     1
  9
$DIMZIN
 70
     8
  9
$DIMBLK
  1

  9
$DIMASO
 70
     1
  9
$DIMSHO
 70
     1
  9
$DIMPOST
  1

  9
$DIMAPOST
  1

  9
$DIMALT
 70
     0
  9
$DIMALTD
 70
     3
  9
$DIMALTF
 40
0.03937007874016
  9
$DIMLFAC
 40
1.0
  9
$DIMTOFL
 70
     1
  9
$DIMTVP
 40
0.0
  9
$DIMTIX
 70
     0
  9
$DIMSOXD
 70
     0
  9
$DIMSAH
 70
     0
  9
$DIMBLK1
  1

  9
$DIMBLK2
  1

  9
$DIMSTYLE
  2
ISO-25
  9
$DIMCLRD
 70
     3
  9
$DIMCLRE
 70
     3
  9
$DIMCLRT
 70
     2
  9
$DIMTFAC
 40
1.0
  9
$DIMGAP
 40
0.5
  9
$DIMJUST
 70
     0
  9
$DIMSD1
 70
     0
  9
$DIMSD2
 70
     0
  9
$DIMTOLJ
 70
     0
  9
$DIMTZIN
 70
     8
  9
$DIMALTZ
 70
     0
  9
$DIMALTTZ
 70
     0
  9
$DIMUPT
 70
     0
  9
$DIMDEC
 70
     2
  9
$DIMTDEC
 70
     8
  9
$DIMALTU
 70
     2
  9
$DIMALTTD
 70
     3
  9
$DIMTXSTY
  7
STANDARD
  9
$DIMAUNIT
 70
     0
  9
$DIMADEC
 70
     0
  9
$DIMALTRND
 40
0.0
  9
$DIMAZIN
 70
     0
  9
$DIMDSEP
 70
    46
  9
$DIMATFIT
 70
     3
  9
$DIMFRAC
 70
     0
  9
$DIMLDRBLK
  1

  9
$DIMLUNIT
 70
     2
  9
$DIMLWD
 70
    -2
  9
$DIMLWE
 70
    -2
  9
$DIMTMOVE
 70
     0
  9
$LUNITS
 70
     2
  9
$LUPREC
 70
     4
  9
$SKETCHINC
 40
1.0
  9
$FILLETRAD
 40
0.0
  9
$AUNITS
 70
     0
  9
$AUPREC
 70
     0
  9
$MENU
  1
.
  9
$ELEVATION
 40
0.0
  9
$PELEVATION
 40
0.0
  9
$THICKNESS
 40
0.0
  9
$LIMCHECK
 70
     0
  9
$CHAMFERA
 40
0.0
  9
$CHAMFERB
 40
0.0
  9
$CHAMFERC
 40
20.0
  9
$CHAMFERD
 40
0.0
  9
$SKPOLY
 70
     0
  9
$TDCREATE
 40
2452648.449707060
  9
$TDUCREATE
 40
2452648.116373726
  9
$TDUPDATE
 40
2453022.599275173
  9
$TDUUPDATE
 40
2453022.265941840
  9
$TDINDWG
 40
0.8964098495
  9
$TDUSRTIMER
 40
0.8964097338
  9
$USRTIMER
 70
     1
  9
$ANGBASE
 50
0.0
  9
$ANGDIR
 70
     0
  9
$PDMODE
 70
     0
  9
$PDSIZE
 40
0.0
  9
$PLINEWID
 40
0.0
  9
$SPLFRAME
 70
     0
  9
$SPLINETYPE
 70
     6
  9
$SPLINESEGS
 70
    30
  9
$HANDSEED
  5
14043
  9
$SURFTAB1
 70
     6
  9
$SURFTAB2
 70
     6
  9
$SURFTYPE
 70
     6
  9
$SURFU
 70
     6
  9
$SURFV
 70
     6
  9
$UCSBASE
  2

  9
$UCSNAME
  2

  9
$UCSORG
 10
0.0
 20
0.0
 30
0.0
  9
$UCSXDIR
 10
1.0
 20
0.0
 30
0.0
  9
$UCSYDIR
 10
0.0
 20
1.0
 30
0.0
  9
$UCSORTHOREF
  2

  9
$UCSORTHOVIEW
 70
     0
  9
$UCSORGTOP
 10
0.0
 20
0.0
 30
0.0
  9
$UCSORGBOTTOM
 10
0.0
 20
0.0
 30
0.0
  9
$UCSORGLEFT
 10
0.0
 20
0.0
 30
0.0
  9
$UCSORGRIGHT
 10
0.0
 20
0.0
 30
0.0
  9
$UCSORGFRONT
 10
0.0
 20
0.0
 30
0.0
  9
$UCSORGBACK
 10
0.0
 20
0.0
 30
0.0
  9
$PUCSBASE
  2

  9
$PUCSNAME
  2

  9
$PUCSORG
 10
0.0
 20
0.0
 30
0.0
  9
$PUCSXDIR
 10
1.0
 20
0.0
 30
0.0
  9
$PUCSYDIR
 10
0.0
 20
1.0
 30
0.0
  9
$PUCSORTHOREF
  2

  9
$PUCSORTHOVIEW
 70
     0
  9
$PUCSORGTOP
 10
0.0
 20
0.0
 30
0.0
  9
$PUCSORGBOTTOM
 10
0.0
 20
0.0
 30
0.0
  9
$PUCSORGLEFT
 10
0.0
 20
0.0
 30
0.0
  9
$PUCSORGRIGHT
 10
0.0
 20
0.0
 30
0.0
  9
$PUCSORGFRONT
 10
0.0
 20
0.0
 30
0.0
  9
$PUCSORGBACK
 10
0.0
 20
0.0
 30
0.0
  9
$USERI1
 70
     0
  9
$USERI2
 70
     0
  9
$USERI3
 70
     0
  9
$USERI4
 70
     0
  9
$USERI5
 70
     0
  9
$USERR1
 40
0.0
  9
$USERR2
 40
0.0
  9
$USERR3
 40
0.0
  9
$USERR4
 40
0.0
  9
$USERR5
 40
0.0
  9
$WORLDVIEW
 70
     1
  9
$SHADEDGE
 70
     3
  9
$SHADEDIF
 70
    70
  9
$TILEMODE
 70
     1
  9
$MAXACTVP
 70
    48
  9
$PINSBASE
 10
0.0
 20
0.0
 30
0.0
  9
$PLIMCHECK
 70
     0
  9
$PEXTMIN
 10
1.000000000000000E+20
 20
1.000000000000000E+20
 30
1.000000000000000E+20
  9
$PEXTMAX
 10
-1.000000000000000E+20
 20
-1.000000000000000E+20
 30
-1.000000000000000E+20
  9
$PLIMMIN
 10
0.0
 20
0.0
  9
$PLIMMAX
 10
420.0
 20
297.0
  9
$UNITMODE
 70
     0
  9
$VISRETAIN
 70
     1
  9
$PLINEGEN
 70
     0
  9
$PSLTSCALE
 70
     1
  9
$TREEDEPTH
 70
  3020
  9
$CMLSTYLE
  2
STANDARD
  9
$CMLJUST
 70
     0
  9
$CMLSCALE
 40
20.0
  9
$PROXYGRAPHICS
 70
     1
  9
$MEASUREMENT
 70
     0
  9
$CELWEIGHT
370
    -1
  9
$ENDCAPS
280
     0
  9
$JOINSTYLE
280
     0
  9
$LWDISPLAY
290
     0
  9
$INSUNITS
 70
     4
  9
$HYPERLINKBASE
  1

  9
$STYLESHEET
  1
AAA.ctb
  9
$XEDIT
290
     1
  9
$CEPSNTYPE
380
     0
  9
$PSTYLEMODE
290
     1
  9
$FINGERPRINTGUID
  2
{39E6D4C8-9137-4BAE-85E5-615910EF8948}
  9
$VERSIONGUID
  2
{E6C20174-6E3B-429A-8B42-473DFA0A83E8}
  9
$EXTNAMES
290
     1
  9
$PSVPSCALE
 40
0.0
  9
$OLESTARTUP
290
     0
  0
ENDSEC
  0
SECTION
  2
CLASSES
  0
CLASS
  1
ACDBDICTIONARYWDFLT
  2
AcDbDictionaryWithDefault
  3
AutoCAD 2000
 90
        0
280
     0
281
     0
  0
CLASS
  1
ACDBPLACEHOLDER
  2
AcDbPlaceHolder
  3
AutoCAD 2000
 90
        0
280
     0
281
     0
  0
CLASS
  1
LAYOUT
  2
AcDbLayout
  3
AutoCAD 2000
 90
        0
280
     0
281
     0
  0
CLASS
  1
DICTIONARYVAR
  2
AcDbDictionaryVar
  3
AutoCAD 2000
 90
        0
280
     0
281
     0
  0
CLASS
  1
PLOTSETTINGS
  2
AcDbPlotSettings
  3
AutoCAD 2000
 90
        0
280
     0
281
     0
  0
CLASS
  1
LONG_TRANSACTION
  2
AcDbLongTransaction
  3
AutoCAD 2000
 90
    32768
280
     0
281
     0
  0
CLASS
  1
LWPOLYLINE
  2
AcDbPolyline
  3
AutoCAD 2000
 90
    32768
280
     0
281
     1
  0
CLASS
  1
HATCH
  2
AcDbHatch
  3
AutoCAD 2000
 90
    32768
280
     0
281
     1
  0
CLASS
  1
XRECORD
  2
AcDbXrecord
  3
AutoCAD 2000
 90
    32768
280
     0
281
     0
  0
CLASS
  1
LONG_TRANSACTION
  2
AcDbLongTransaction
  3
AutoCAD 2000
 90
    32768
280
     0
281
     0
  0
CLASS
  1
LWPOLYLINE
  2
AcDbPolyline
  3
AutoCAD 2000
 90
    32768
280
     0
281
     1
  0
CLASS
  1
HATCH
  2
AcDbHatch
  3
AutoCAD 2000
 90
    32768
280
     0
281
     1
  0
CLASS
  1
XRECORD
  2
AcDbXrecord
  3
AutoCAD 2000
 90
    32768
280
     0
281
     0
  0
CLASS
  1
LONG_TRANSACTION
  2
AcDbLongTransaction
  3
AutoCAD 2000
 90
    32768
280
     0
281
     0
  0
CLASS
  1
LWPOLYLINE
  2
AcDbPolyline
  3
AutoCAD 2000
 90
    32768
280
     0
281
     1
  0
CLASS
  1
HATCH
  2
AcDbHatch
  3
AutoCAD 2000
 90
    32768
280
     0
281
     1
  0
CLASS
  1
XRECORD
  2
AcDbXrecord
  3
AutoCAD 2000
 90
    32768
280
     0
281
     0
  0
CLASS
  1
LONG_TRANSACTION
  2
AcDbLongTransaction
  3
AutoCAD 2000
 90
    32768
280
     0
281
     0
  0
CLASS
  1
LWPOLYLINE
  2
AcDbPolyline
  3
AutoCAD 2000
 90
    32768
280
     0
281
     1
  0
CLASS
  1
HATCH
  2
AcDbHatch
  3
AutoCAD 2000
 90
    32768
280
     0
281
     1
  0
CLASS
  1
XRECORD
  2
AcDbXrecord
  3
AutoCAD 2000
 90
    32768
280
     0
281
     0
  0
ENDSEC
  0
SECTION
  2
TABLES
  0
TABLE
  2
VPORT
  5
8
330
0
100
AcDbSymbolTable
 70
     2
  0
VPORT
  5
14022
330
8
100
AcDbSymbolTableRecord
100
AcDbViewportTableRecord
  2
*Active
 70
     0
 10
0.0
 20
0.0
 11
1.0
 21
1.0
 12
105.6608733394821
 22
32.07353365976695
 13
0.0
 23
0.0
 14
10.0
 24
10.0
 15
10.0
 25
10.0
 16
0.0
 26
0.0
 36
1.0
 17
0.0
 27
0.0
 37
0.0
 40
185.0880145508755
 41
1.936974789915966
 42
50.0
 43
0.0
 44
0.0
 50
0.0
 51
0.0
 71
     0
 72
 20000
 73
     1
 74
     0
 75
     0
 76
     0
 77
     0
 78
     1
281
     0
 65
     1
110
0.0
120
0.0
130
0.0
111
1.0
121
0.0
131
0.0
112
0.0
122
1.0
132
0.0
 79
     0
146
0.0
  0
ENDTAB
  0
TABLE
  2
LTYPE
  5
5
330
0
100
AcDbSymbolTable
 70
     3
  0
LTYPE
  5
14
330
5
100
AcDbSymbolTableRecord
100
AcDbLinetypeTableRecord
  2
BYBLOCK
 70
     0
  3

 72
    65
 73
     0
 40
0.0
  0
LTYPE
  5
15
330
5
100
AcDbSymbolTableRecord
100
AcDbLinetypeTableRecord
  2
BYLAYER
 70
     0
  3

 72
    65
 73
     0
 40
0.0
  0
LTYPE
  5
16
330
5
100
AcDbSymbolTableRecord
100
AcDbLinetypeTableRecord
  2
CONTINUOUS
 70
     0
  3
連續線 ________________________
 72
    65
 73
     2
 40
200000.0
 49
200000.0
 74
     0
 49
0.0
 74
     0
  0
LTYPE
  5
2D
330
5
100
AcDbSymbolTableRecord
100
AcDbLinetypeTableRecord
  2
CENTER2
 70
     0
  3
Center (.5x) ___ _ ___ _ ___ _ ___ _ ___ _ ___
 72
    65
 73
     4
 40
28.57499999999999
 49
19.05
 74
     0
 49
-3.174999999999998
 74
     0
 49
3.174999999999998
 74
     0
 49
-3.174999999999998
 74
     0
  0
LTYPE
  5
2E
330
5
100
AcDbSymbolTableRecord
100
AcDbLinetypeTableRecord
  2
DASHED2
 70
     0
  3
Dashed (.5x) _ _ _ _ _ _ _ _ _ _ _ _ _ _ _ _ _
 72
    65
 73
     2
 40
9.524999999999996
 49
6.349999999999998
 74
     0
 49
-3.174999999999998
 74
     0
  0
ENDTAB
  0
TABLE
  2
LAYER
  5
2
102
{ACAD_XDICTIONARY
360
DDEF
102
}
330
0
100
AcDbSymbolTable
 70
     7
  0
LAYER
  5
10
330
2
100
AcDbSymbolTableRecord
100
AcDbLayerTableRecord
  2
0
 70
     0
 62
     7
  6
CONTINUOUS
370
    -3
390
F
  0
LAYER
  5
30
330
2
100
AcDbSymbolTableRecord
100
AcDbLayerTableRecord
  2
虛線
 70
     0
 62
     6
  6
DASHED2
370
    -3
390
F
  0
LAYER
  5
32
330
2
100
AcDbSymbolTableRecord
100
AcDbLayerTableRecord
  2
指線
 70
     0
 62
     3
  6
CONTINUOUS
370
    -3
390
F
  0
LAYER
  5
34
330
2
100
AcDbSymbolTableRecord
100
AcDbLayerTableRecord
  2
中心線
 70
     0
 62
     4
  6
CENTER2
370
    -3
390
F
  0
LAYER
  5
13796
330
2
100
AcDbSymbolTableRecord
100
AcDbLayerTableRecord
  2
建構線
 70
     0
 62
     1
  6
CONTINUOUS
370
    -3
390
F
  0
LAYER
  5
13B65
330
2
100
AcDbSymbolTableRecord
100
AcDbLayerTableRecord
  2
Defpoints
 70
     0
 62
     7
  6
CONTINUOUS
290
     0
370
    -3
390
F
  0
LAYER
  5
13F18
330
2
100
AcDbSymbolTableRecord
100
AcDbLayerTableRecord
  2
AM4
 70
     0
 62
     3
  6
CONTINUOUS
370
    15
390
F
  0
ENDTAB
  0
TABLE
  2
STYLE
  5
3
330
0
100
AcDbSymbolTable
 70
     2
  0
STYLE
  5
11
330
3
100
AcDbSymbolTableRecord
100
AcDbTextStyleTableRecord
  2
STANDARD
 70
     0
 40
0.0
 41
1.0
 50
0.0
 71
     0
 42
2.5
  3
isocp.shx
  4
chineset.shx
  0
STYLE
  5
58
330
3
100
AcDbSymbolTableRecord
100
AcDbTextStyleTableRecord
  2
型式2
 70
     0
 40
0.0
 41
1.0
 50
0.0
 71
     0
 42
2.5
  3
KAIU.TTF
  4

1001
ACAD
1000
DFKai-SB
1071
    34881
  0
ENDTAB
  0
TABLE
  2
VIEW
  5
6
330
0
100
AcDbSymbolTable
 70
     0
  0
ENDTAB
  0
TABLE
  2
UCS
  5
7
330
0
100
AcDbSymbolTable
 70
     0
  0
ENDTAB
  0
TABLE
  2
APPID
  5
9
330
0
100
AcDbSymbolTable
 70
     4
  0
APPID
  5
12
330
9
100
AcDbSymbolTableRecord
100
AcDbRegAppTableRecord
  2
ACAD
 70
     0
  0
APPID
  5
131A7
330
9
100
AcDbSymbolTableRecord
100
AcDbRegAppTableRecord
  2
CONTENTBLOCKICON
 70
     0
  0
APPID
  5
13880
330
9
100
AcDbSymbolTableRecord
100
AcDbRegAppTableRecord
  2
TCAD
 70
     0
  0
APPID
  5
13881
330
9
100
AcDbSymbolTableRecord
100
AcDbRegAppTableRecord
  2
pntflag
 70
     0
  0
ENDTAB
  0
TABLE
  2
DIMSTYLE
  5
A
330
0
100
AcDbSymbolTable
 70
     2
100
AcDbDimStyleTable
 71
     0
  0
DIMSTYLE
105
27
330
A
100
AcDbSymbolTableRecord
100
AcDbDimStyleTableRecord
  2
ISO-25
 70
     0
 41
1.0
 42
0.7
 43
3.75
 44
0.3
 73
     0
 74
     0
 77
     1
 78
     8
140
1.199999999999999
141
2.5
143
0.03937007874016
147
0.5
171
     3
172
     1
176
     3
177
     3
178
     2
271
     2
272
     2
274
     3
283
     0
284
     8
340
11
  0
DIMSTYLE
105
13235
330
A
100
AcDbSymbolTableRecord
100
AcDbDimStyleTableRecord
  2
Standard
 70
     0
340
11
  0
ENDTAB
  0
TABLE
  2
BLOCK_RECORD
  5
1
330
0
100
AcDbSymbolTable
 70
     4
  0
BLOCK_RECORD
  5
1F
102
{ACAD_XDICTIONARY
360
131A3
102
}
330
1
100
AcDbSymbolTableRecord
100
AcDbBlockTableRecord
  2
*MODEL_SPACE
340
131AF
  0
BLOCK_RECORD
  5
1B
102
{ACAD_XDICTIONARY
360
131A1
102
}
330
1
100
AcDbSymbolTableRecord
100
AcDbBlockTableRecord
  2
*PAPER_SPACE
340
131B0
  0
BLOCK_RECORD
  5
1377B
330
1
100
AcDbSymbolTableRecord
100
AcDbBlockTableRecord
  2
I1
340
0
102
{BLKREFS
331
1378C
331
13FF3
331
13FF7
331
14001
331
14002
102
}
  0
BLOCK_RECORD
  5
13782
330
1
100
AcDbSymbolTableRecord
100
AcDbBlockTableRecord
  2
C15_FWI
340
0
102
{BLKREFS
331
1378F
331
13794
102
}
  0
BLOCK_RECORD
  5
13DED
330
1
100
AcDbSymbolTableRecord
100
AcDbBlockTableRecord
  2
HGW15CC_F
340
0
102
{BLKREFS
331
13E2F
102
}
  0
BLOCK_RECORD
  5
13F11
330
1
100
AcDbSymbolTableRecord
100
AcDbBlockTableRecord
  2
A$C56C87D7E
340
0
102
{BLKREFS
331
13FF5
331
13FFE
331
14005
331
14006
102
}
  0
ENDTAB
  0
ENDSEC
  0
SECTION
  2
BLOCKS
  0
BLOCK
  5
20
330
1F
100
AcDbEntity
  8
0
100
AcDbBlockBegin
  2
*MODEL_SPACE
 70
     0
 10
0.0
 20
0.0
 30
0.0
  3
*MODEL_SPACE
  1

  0
ENDBLK
  5
21
330
1F
100
AcDbEntity
  8
0
100
AcDbBlockEnd
  0
BLOCK
  5
1C
330
1B
100
AcDbEntity
 67
     1
  8
0
100
AcDbBlockBegin
  2
*PAPER_SPACE
 70
     0
 10
0.0
 20
0.0
 30
0.0
  3
*PAPER_SPACE
  1

  0
ENDBLK
  5
1D
330
1B
100
AcDbEntity
 67
     1
  8
0
100
AcDbBlockEnd
  0
BLOCK
  5
13780
330
1377B
100
AcDbEntity
  8
0
100
AcDbBlockBegin
  2
I1
 70
     0
 10
0.0
 20
0.0
 30
0.0
  3
I1
  1

  0
LINE
  5
1377C
330
1377B
100
AcDbEntity
  8
中心線
100
AcDbLine
 10
-1.783849796371328
 20
0.0
 30
0.0
 11
3.967787178009643
 21
0.0
 31
0.0
  0
ARC
  5
1377D
330
1377B
100
AcDbEntity
  8
0
100
AcDbCircle
 10
0.335523819494028
 20
0.9802483619828871
 30
0.0
 40
1.220011576012179
100
AcDbArc
 50
105.9630221688284
 51
179.0723572120024
  0
LINE
  5
1377E
330
1377B
100
AcDbEntity
  8
0
100
AcDbLine
 10
-0.88432785935845
 20
1.0
 30
0.0
 11
-0.88432785935845
 21
-1.0
 31
0.0
  0
ARC
  5
1377F
330
1377B
100
AcDbEntity
  8
0
100
AcDbCircle
 10
0.335523819494028
 20
-0.9802483619828871
 30
0.0
 40
1.220011576012179
100
AcDbArc
 50
180.9276427879975
 51
254.0369778311715
  0
ENDBLK
  5
13781
330
1377B
100
AcDbEntity
  8
0
100
AcDbBlockEnd
  0
BLOCK
  5
1378D
330
13782
100
AcDbEntity
  8
0
100
AcDbBlockBegin
  2
C15_FWI
 70
     0
 10
0.0
 20
0.0
 30
0.0
  3
C15_FWI
  1

  0
LINE
  5
13783
330
13782
100
AcDbEntity
  8
0
100
AcDbLine
 10
-2.999999999999772
 20
0.0000000000649081
 30
0.0
 11
-2.999999999999772
 21
10.91980573366498
 31
0.0
  0
LINE
  5
13784
330
13782
100
AcDbEntity
  8
0
100
AcDbLine
 10
-1.5
 20
0.0000000000649081
 30
0.0
 11
-1.5
 21
19.5000000000649
 31
0.0
  0
LINE
  5
13785
330
13782
100
AcDbEntity
  8
0
100
AcDbLine
 10
0.0
 20
19.5000000000001
 30
0.0
 11
0.0
 21
0.0
 31
0.0
  0
LINE
  5
13786
330
13782
100
AcDbEntity
  8
0
100
AcDbLine
 10
-2.999999999999772
 20
0.0000000000649081
 30
0.0
 11
0.0
 21
0.0000000000649081
 31
0.0
  0
LINE
  5
13787
330
13782
100
AcDbEntity
  8
0
100
AcDbLine
 10
0.0
 20
1.000000000064908
 30
0.0
 11
-1.5
 21
1.000000000064908
 31
0.0
  0
LINE
  5
13788
330
13782
100
AcDbEntity
  8
0
100
AcDbLine
 10
-2.999999999999772
 20
12.57000000006518
 30
0.0
 11
-1.5
 21
13.44000000006491
 31
0.0
  0
LINE
  5
13789
330
13782
100
AcDbEntity
  8
0
100
AcDbLine
 10
-2.999999999999772
 20
10.93241362216492
 30
0.0
 11
-3.000000094899974
 21
12.57000020306491
 31
0.0
  0
LINE
  5
1378A
330
13782
100
AcDbEntity
  8
0
100
AcDbLine
 10
0.0
 20
18.50000000006503
 30
0.0
 11
-1.5
 21
18.50000000006503
 31
0.0
  0
LINE
  5
1378B
330
13782
100
AcDbEntity
  8
0
100
AcDbLine
 10
0.0
 20
19.5000000000649
 30
0.0
 11
-1.5
 21
19.5000000000649
 31
0.0
  0
INSERT
  5
1378C
330
13782
100
AcDbEntity
  8
0
100
AcDbBlockReference
  2
I1
 10
-1.5
 20
11.00000000006492
 30
0.0
  0
ENDBLK
  5
1378E
330
13782
100
AcDbEntity
  8
0
100
AcDbBlockEnd
  0
BLOCK
  5
13E2D
330
13DED
100
AcDbEntity
  8
0
100
AcDbBlockBegin
  2
HGW15CC_F
 70
     0
 10
0.0
 20
0.0
 30
0.0
  3
HGW15CC_F
  1

  0
LINE
  5
13DEE
330
13DED
100
AcDbEntity
  8
0
 48
0.27
100
AcDbLine
 10
-19.69999999999986
 20
0.0
 30
0.0
 11
19.69999999999986
 21
0.0
 31
0.0
  0
LINE
  5
13DEF
330
13DED
100
AcDbEntity
  8
0
 48
0.27
100
AcDbLine
 10
19.69999999999986
 20
0.9659258262893786
 30
0.0
 11
-19.69999999999986
 21
0.9659258262893786
 31
0.0
  0
LINE
  5
13DF0
330
13DED
100
AcDbEntity
  8
0
 48
0.27
100
AcDbLine
 10
-19.69999999999986
 20
20.50000000000011
 30
0.0
 11
19.69999999999986
 21
20.50000000000011
 31
0.0
  0
LINE
  5
13DF1
330
13DED
100
AcDbEntity
  8
0
 48
0.27
100
AcDbLine
 10
19.69999999999986
 20
19.50000000000028
 30
0.0
 11
-19.69999999999986
 21
19.50000000000028
 31
0.0
  0
LINE
  5
13DF2
330
13DED
100
AcDbEntity
  8
0
 48
0.27
100
AcDbLine
 10
-11.63999999999987
 20
11.60000000000007
 30
0.0
 11
11.63999999999998
 21
11.60000000000007
 31
0.0
  0
LINE
  5
13DF3
330
13DED
100
AcDbEntity
  8
中心線
 48
0.27
100
AcDbLine
 10
-14.99999999999988
 20
21.00560079881176
 30
0.0
 11
-14.99999999999988
 21
11.13027140829069
 31
0.0
  0
LINE
  5
13DF4
330
13DED
100
AcDbEntity
  8
0
 48
0.27
100
AcDbLine
 10
-11.63999999999987
 20
13.55000000000001
 30
0.0
 11
-11.63999999999987
 21
10.67000000000001
 31
0.0
  0
LINE
  5
13DF5
330
13DED
100
AcDbEntity
  8
0
 48
0.27
100
AcDbLine
 10
-18.35999999999989
 20
13.55000000000001
 30
0.0
 11
-18.35999999999989
 21
10.67000000000001
 31
0.0
  0
LINE
  5
13DF6
330
13DED
100
AcDbEntity
  8
0
 48
0.27
100
AcDbLine
 10
-19.69999999999986
 20
20.50000000000011
 30
0.0
 11
-19.69999999999986
 21
0.0
 31
0.0
  0
LINE
  5
13DF7
330
13DED
100
AcDbEntity
  8
0
 48
0.27
100
AcDbLine
 10
-27.70000000130237
 20
19.4999999999352
 30
0.0
 11
-27.70000000130237
 21
-0.0000000000649152
 31
0.0
  0
LINE
  5
13DF8
330
13DED
100
AcDbEntity
  8
0
 48
0.27
100
AcDbLine
 10
-19.69999999999986
 20
11.60000000000007
 30
0.0
 11
-18.36000000000001
 21
11.60000000000002
 31
0.0
  0
LINE
  5
13DF9
330
13DED
100
AcDbEntity
  8
0
 48
0.27
100
AcDbLine
 10
-27.70000000130237
 20
-0.0000000000649152
 30
0.0
 11
-19.69999999999986
 21
-0.0000000000649152
 31
0.0
  0
LINE
  5
13DFA
330
13DED
100
AcDbEntity
  8
0
 48
0.27
100
AcDbLine
 10
-27.70000000130237
 20
1.000000001367709
 30
0.0
 11
-19.69999999999986
 21
1.000000001367709
 31
0.0
  0
LWPOLYLINE
  5
13DFB
330
13DED
100
AcDbEntity
  8
0
 48
0.27
100
AcDbPolyline
 90
       73
 70
     0
 43
0.0
 10
-18.35999999999989
 20
10.64492767000001
 10
-18.3564997548799
 20
10.60244908919997
 10
-18.34638691223983
 20
10.53835253391997
 10
-18.34175353567991
 20
10.51260418271999
 10
-18.32289912863984
 20
10.41279068
 10
-18.30567263039984
 20
10.32082813727998
 10
-18.27594252511983
 20
10.14596624768
 10
-18.24826248575982
 20
9.940800617600018
 10
-18.24062560631989
 20
9.867863016960029
 10
-18.23012935823987
 20
9.741368752319999
 10
-18.22052804087991
 20
9.618625404320027
 10
-18.1994975735198
 20
9.364661091199991
 10
-18.15371162527992
 20
8.86787227904
 10
-18.06343434367988
 20
8.042640081119998
 10
-17.95082296407986
 20
7.196748853679991
 10
-17.90849205215988
 20
6.915413390240018
 10
-17.76986673079989
 20
6.09518433047998
 10
-17.64612210631992
 20
5.465832914399982
 10
-17.53846346935984
 20
4.978565969519991
 10
-17.40099487047984
 20
4.421749094159963
 10
-17.28242043919988
 20
3.991517250480001
 10
-17.12061672215986
 20
3.467174967519952
 10
-16.98033728519988
 20
3.063790700480012
 10
-16.79247673695988
 20
2.587731300799987
 10
-16.74361117279988
 20
2.474875450399963
 10
-16.71843088935986
 20
2.419096286959984
 10
-16.68163629311982
 20
2.351397617599957
 10
-16.59274193479984
 20
2.23150105295997
 10
-16.51107659599984
 20
2.15068586359996
 10
-16.39152810471989
 20
2.06073040775999
 10
-16.23133919959991
 20
1.972913116720008
 10
-16.09839106359982
 20
1.918630522399951
 10
-15.90475288215986
 20
1.859872205279998
 10
-15.62795042199991
 20
1.805324836719989
 10
-15.34069835135983
 20
1.773894179039984
 10
-15.1142946786399
 20
1.763146112480001
 10
-14.8056234733599
 20
1.765624008879967
 10
-14.56707294903992
 20
1.781699977360005
 10
-14.27104701455982
 20
1.821909968239992
 10
-14.04803925727981
 20
1.872419879439974
 10
-13.84845835223984
 20
1.938605267839989
 10
-13.70316170087983
 20
2.005308592159963
 10
-13.5970236769599
 20
2.068344418159995
 10
-13.47360134023984
 20
2.164370034239993
 10
-13.3890351558399
 20
2.252647121359984
 10
-13.3082009930398
 20
2.368587231599974
 10
-13.27871512607987
 20
2.42508581559997
 10
-13.25369419407991
 20
2.480986902320012
 10
-13.06721413447985
 20
2.93666968783998
 10
-12.88122501207988
 20
3.461564271919996
 10
-12.75188727455986
 20
3.874634095679994
 10
-12.5891087899198
 20
4.459020122639969
 10
-12.41659114431991
 20
5.175398992800012
 10
-12.29884488375989
 20
5.736093712880006
 10
-12.15303681327986
 20
6.533774961999995
 10
-12.02615408007989
 20
7.357258216160005
 10
-11.98855122759982
 20
7.632395916799964
 10
-11.89454301295984
 20
8.40604975527998
 10
-11.81471769375991
 20
9.202941424159973
 10
-11.79168028767992
 20
9.46888715064
 10
-11.77276808503984
 20
9.703834233760005
 10
-11.76393496703985
 20
9.817343085280015
 10
-11.7533427354399
 20
9.926523796080005
 10
-11.73016743303981
 20
10.10587103111998
 10
-11.70325323175984
 20
10.27120494199999
 10
-11.69425205127981
 20
10.32123933951999
 10
-11.67234013047982
 20
10.43806629479996
 10
-11.65590585223992
 20
10.52591647240001
 10
-11.64437898847984
 20
10.59579219224002
 10
-11.64206085191983
 20
10.61416105207996
 10
-11.64024514287984
 20
10.65241115111996
 10
-11.64401782151992
 20
10.66733681631996
 10
-11.64793979863986
 20
10.66978367960001
  0
CIRCLE
  5
13DFC
330
13DED
100
AcDbEntity
  8
0
 48
0.27
100
AcDbCircle
 10
-24.54999999983697
 20
14.9999999985672
 30
0.0
 40
0.7500000010746155
  0
LINE
  5
13DFD
330
13DED
100
AcDbEntity
  8
中心線
 48
0.27
100
AcDbLine
 10
-24.54999999983697
 20
17.3399553156679
 30
0.0
 11
-24.54999999983697
 21
12.66004468146638
 31
0.0
  0
LINE
  5
13DFE
330
13DED
100
AcDbEntity
  8
0
 48
0.27
100
AcDbLine
 10
-27.70000000130237
 20
19.4999999999352
 30
0.0
 11
-19.7000000013026
 21
19.4999999999352
 31
0.0
  0
LINE
  5
13DFF
330
13DED
100
AcDbEntity
  8
0
 48
0.27
100
AcDbLine
 10
-27.70000000130237
 20
18.49999999850223
 30
0.0
 11
-19.69999999999986
 21
18.49999999850223
 31
0.0
  0
CIRCLE
  5
13E00
330
13DED
100
AcDbEntity
  8
0
 48
0.27
100
AcDbCircle
 10
-24.54999999983697
 20
14.9999999985672
 30
0.0
 40
1.571452208743
  0
CIRCLE
  5
13E01
330
13DED
100
AcDbEntity
  8
0
 48
0.27
100
AcDbCircle
 10
-24.54999999983697
 20
14.9999999985672
 30
0.0
 40
1.645636899076534
  0
CIRCLE
  5
13E02
330
13DED
100
AcDbEntity
  8
0
 48
0.27
100
AcDbCircle
 10
-24.54999999983697
 20
14.9999999985672
 30
0.0
 40
1.899999999674358
  0
LINE
  5
13E03
330
13DED
100
AcDbEntity
  8
中心線
 48
0.27
100
AcDbLine
 10
-26.88995531693756
 20
14.9999999985672
 30
0.0
 11
-22.21004468273592
 21
14.9999999985672
 31
0.0
  0
LINE
  5
13E04
330
13DED
100
AcDbEntity
  8
虛線
 48
0.27
100
AcDbLine
 10
-12.50000000000011
 20
20.10000000000008
 30
0.0
 11
-12.50000000000011
 21
13.9500000000001
 31
0.0
  0
LINE
  5
13E05
330
13DED
100
AcDbEntity
  8
虛線
 48
0.27
100
AcDbLine
 10
-12.89999999999997
 20
20.10000000000008
 30
0.0
 11
-12.90000000000009
 21
13.9500000000001
 31
0.0
  0
LINE
  5
13E06
330
13DED
100
AcDbEntity
  8
虛線
 48
0.27
100
AcDbLine
 10
-12.09999999999979
 20
13.55000000000001
 30
0.0
 11
-12.50000000000011
 21
13.9500000000001
 31
0.0
  0
LINE
  5
13E07
330
13DED
100
AcDbEntity
  8
虛線
 48
0.27
100
AcDbLine
 10
-12.09999999999979
 20
20.50000000000011
 30
0.0
 11
-12.50000000000011
 21
20.10000000000008
 31
0.0
  0
LINE
  5
13E08
330
13DED
100
AcDbEntity
  8
虛線
 48
0.27
100
AcDbLine
 10
-17.10000000000013
 20
20.10000000000008
 30
0.0
 11
-17.10000000000013
 21
13.9500000000001
 31
0.0
  0
LINE
  5
13E09
330
13DED
100
AcDbEntity
  8
虛線
 48
0.27
100
AcDbLine
 10
-17.49999999999966
 20
20.10000000000008
 30
0.0
 11
-17.49999999999988
 21
13.9500000000001
 31
0.0
  0
LINE
  5
13E0A
330
13DED
100
AcDbEntity
  8
虛線
 48
0.27
100
AcDbLine
 10
-17.89999999999986
 20
13.55000000000001
 30
0.0
 11
-17.49999999999966
 21
13.9500000000001
 31
0.0
  0
LINE
  5
13E0B
330
13DED
100
AcDbEntity
  8
虛線
 48
0.27
100
AcDbLine
 10
-17.89999999999986
 20
20.50000000000011
 30
0.0
 11
-17.49999999999966
 21
20.10000000000008
 31
0.0
  0
LINE
  5
13E0C
330
13DED
100
AcDbEntity
  8
0
 48
0.27
100
AcDbLine
 10
-18.35999999999989
 20
13.55000000000001
 30
0.0
 11
-11.63999999999987
 21
13.55000000000001
 31
0.0
  0
LINE
  5
13E0D
330
13DED
100
AcDbEntity
  8
虛線
 48
0.27
100
AcDbLine
 10
-17.49999999999988
 20
13.9500000000001
 30
0.0
 11
-12.50000000000011
 21
13.9500000000001
 31
0.0
  0
LINE
  5
13E0E
330
13DED
100
AcDbEntity
  8
虛線
 48
0.27
100
AcDbLine
 10
-17.49999999999988
 20
20.10000000000008
 30
0.0
 11
-12.50000000000011
 21
20.10000000000008
 31
0.0
  0
CIRCLE
  5
13E0F
330
13DED
100
AcDbEntity
  8
0
 48
0.27
100
AcDbCircle
 10
24.54999999983709
 20
14.9999999985672
 30
0.0
 40
1.571452208743
  0
CIRCLE
  5
13E10
330
13DED
100
AcDbEntity
  8
0
 48
0.27
100
AcDbCircle
 10
24.54999999983709
 20
14.9999999985672
 30
0.0
 40
1.645636899076534
  0
CIRCLE
  5
13E11
330
13DED
100
AcDbEntity
  8
0
 48
0.27
100
AcDbCircle
 10
24.54999999983709
 20
14.9999999985672
 30
0.0
 40
1.899999999674358
  0
LINE
  5
13E12
330
13DED
100
AcDbEntity
  8
0
 48
0.27
100
AcDbLine
 10
27.7000000013026
 20
18.49999999850223
 30
0.0
 11
19.69999999999986
 21
18.49999999850223
 31
0.0
  0
LINE
  5
13E13
330
13DED
100
AcDbEntity
  8
0
 48
0.27
100
AcDbLine
 10
27.7000000013026
 20
19.4999999999352
 30
0.0
 11
19.69999999999986
 21
19.4999999999352
 31
0.0
  0
LINE
  5
13E14
330
13DED
100
AcDbEntity
  8
中心線
 48
0.27
100
AcDbLine
 10
22.21004468273627
 20
14.99999999856754
 30
0.0
 11
26.8899553169379
 21
14.99999999856754
 31
0.0
  0
LINE
  5
13E15
330
13DED
100
AcDbEntity
  8
0
 48
0.27
100
AcDbLine
 10
27.7000000013026
 20
-0.0000000000649152
 30
0.0
 11
19.69999999999986
 21
-0.0000000000649152
 31
0.0
  0
LINE
  5
13E16
330
13DED
100
AcDbEntity
  8
0
 48
0.27
100
AcDbLine
 10
27.7000000013026
 20
1.000000001367709
 30
0.0
 11
19.69999999999986
 21
1.000000001367709
 31
0.0
  0
LINE
  5
13E17
330
13DED
100
AcDbEntity
  8
中心線
 48
0.27
100
AcDbLine
 10
14.99999999999988
 20
21.00560079881176
 30
0.0
 11
14.99999999999988
 21
11.13027140829069
 31
0.0
  0
LINE
  5
13E18
330
13DED
100
AcDbEntity
  8
0
 48
0.27
100
AcDbLine
 10
19.69999999999986
 20
0.0
 30
0.0
 11
19.69999999999986
 21
20.50000000000011
 31
0.0
  0
LINE
  5
13E19
330
13DED
100
AcDbEntity
  8
0
 48
0.27
100
AcDbLine
 10
11.63999999999987
 20
13.55000000000001
 30
0.0
 11
11.63999999999987
 21
10.67000000000001
 31
0.0
  0
LINE
  5
13E1A
330
13DED
100
AcDbEntity
  8
0
 48
0.27
100
AcDbLine
 10
18.35999999999989
 20
13.55000000000001
 30
0.0
 11
18.35999999999989
 21
10.67000000000001
 31
0.0
  0
LWPOLYLINE
  5
13E1B
330
13DED
100
AcDbEntity
  8
0
 48
0.27
100
AcDbPolyline
 90
       73
 70
     0
 43
0.0
 10
18.35999999999989
 20
10.64492767000001
 10
18.3564997548799
 20
10.60244908919997
 10
18.34638691223983
 20
10.53835253391997
 10
18.34175353567991
 20
10.51260418271999
 10
18.32289912863984
 20
10.41279068
 10
18.30567263039984
 20
10.32082813727998
 10
18.27594252511983
 20
10.14596624768
 10
18.24826248575982
 20
9.940800617600018
 10
18.24062560631989
 20
9.867863016960029
 10
18.23012935823987
 20
9.741368752319999
 10
18.22052804087991
 20
9.618625404320027
 10
18.1994975735198
 20
9.364661091199991
 10
18.15371162527992
 20
8.86787227904
 10
18.06343434367988
 20
8.042640081119998
 10
17.95082296407986
 20
7.196748853679991
 10
17.90849205215988
 20
6.915413390240018
 10
17.76986673079989
 20
6.09518433047998
 10
17.64612210631992
 20
5.465832914399982
 10
17.53846346935984
 20
4.978565969519991
 10
17.40099487047984
 20
4.421749094159963
 10
17.28242043919988
 20
3.991517250480001
 10
17.12061672215986
 20
3.467174967519952
 10
16.98033728519988
 20
3.063790700480012
 10
16.79247673695988
 20
2.587731300799987
 10
16.74361117279988
 20
2.474875450399963
 10
16.71843088935986
 20
2.419096286959984
 10
16.68163629311982
 20
2.351397617599957
 10
16.59274193479984
 20
2.23150105295997
 10
16.51107659599984
 20
2.15068586359996
 10
16.39152810471989
 20
2.06073040775999
 10
16.23133919959991
 20
1.972913116720008
 10
16.09839106359982
 20
1.918630522399951
 10
15.90475288215986
 20
1.859872205279998
 10
15.62795042199991
 20
1.805324836719989
 10
15.34069835135983
 20
1.773894179039984
 10
15.1142946786399
 20
1.763146112480001
 10
14.8056234733599
 20
1.765624008879967
 10
14.56707294903992
 20
1.781699977360005
 10
14.27104701455982
 20
1.821909968239992
 10
14.04803925727981
 20
1.872419879439974
 10
13.84845835223984
 20
1.938605267839989
 10
13.70316170087983
 20
2.005308592159963
 10
13.5970236769599
 20
2.068344418159995
 10
13.47360134023984
 20
2.164370034239993
 10
13.3890351558399
 20
2.252647121359984
 10
13.3082009930398
 20
2.368587231599974
 10
13.27871512607987
 20
2.42508581559997
 10
13.25369419407991
 20
2.480986902320012
 10
13.06721413447985
 20
2.93666968783998
 10
12.88122501207988
 20
3.461564271919996
 10
12.75188727455986
 20
3.874634095679994
 10
12.5891087899198
 20
4.459020122639969
 10
12.41659114431991
 20
5.175398992800012
 10
12.29884488375989
 20
5.736093712880006
 10
12.15303681327986
 20
6.533774961999995
 10
12.02615408007989
 20
7.357258216160005
 10
11.98855122759982
 20
7.632395916799964
 10
11.89454301295984
 20
8.40604975527998
 10
11.81471769375991
 20
9.202941424159973
 10
11.79168028767992
 20
9.46888715064
 10
11.77276808503984
 20
9.703834233760005
 10
11.76393496703985
 20
9.817343085280015
 10
11.7533427354399
 20
9.926523796080005
 10
11.73016743303981
 20
10.10587103111998
 10
11.70325323175984
 20
10.27120494199999
 10
11.69425205127981
 20
10.32123933951999
 10
11.67234013047982
 20
10.43806629479996
 10
11.65590585223992
 20
10.52591647240001
 10
11.64437898847984
 20
10.59579219224002
 10
11.64206085191983
 20
10.61416105207996
 10
11.64024514287984
 20
10.65241115111996
 10
11.64401782151992
 20
10.66733681631996
 10
11.64793979863986
 20
10.66978367960001
  0
LINE
  5
13E1C
330
13DED
100
AcDbEntity
  8
0
 48
0.27
100
AcDbLine
 10
18.35999999999989
 20
11.60000000000002
 30
0.0
 11
19.69999999999986
 21
11.60000000000007
 31
0.0
  0
LINE
  5
13E1D
330
13DED
100
AcDbEntity
  8
虛線
 48
0.27
100
AcDbLine
 10
17.49999999999988
 20
13.9500000000001
 30
0.0
 11
12.49999999999988
 21
13.9500000000001
 31
0.0
  0
LINE
  5
13E1E
330
13DED
100
AcDbEntity
  8
虛線
 48
0.27
100
AcDbLine
 10
17.49999999999988
 20
20.10000000000008
 30
0.0
 11
12.49999999999988
 21
20.10000000000008
 31
0.0
  0
LINE
  5
13E1F
330
13DED
100
AcDbEntity
  8
0
 48
0.27
100
AcDbLine
 10
18.35999999999989
 20
13.55000000000001
 30
0.0
 11
11.63999999999987
 21
13.55000000000001
 31
0.0
  0
LINE
  5
13E20
330
13DED
100
AcDbEntity
  8
虛線
 48
0.27
100
AcDbLine
 10
12.5
 20
20.10000000000008
 30
0.0
 11
12.5
 21
13.9500000000001
 31
0.0
  0
LINE
  5
13E21
330
13DED
100
AcDbEntity
  8
虛線
 48
0.27
100
AcDbLine
 10
12.9000000000002
 20
20.10000000000008
 30
0.0
 11
12.90000000000043
 21
13.9500000000001
 31
0.0
  0
LINE
  5
13E22
330
13DED
100
AcDbEntity
  8
虛線
 48
0.27
100
AcDbLine
 10
12.10000000000002
 20
13.55000000000001
 30
0.0
 11
12.49999999999988
 21
13.9500000000001
 31
0.0
  0
LINE
  5
13E23
330
13DED
100
AcDbEntity
  8
虛線
 48
0.27
100
AcDbLine
 10
12.10000000000002
 20
20.50000000000011
 30
0.0
 11
12.49999999999988
 21
20.10000000000008
 31
0.0
  0
CIRCLE
  5
13E24
330
13DED
100
AcDbEntity
  8
0
 48
0.27
100
AcDbCircle
 10
24.54999999983709
 20
14.9999999985672
 30
0.0
 40
0.7500000010746155
  0
LINE
  5
13E25
330
13DED
100
AcDbEntity
  8
虛線
 48
0.27
100
AcDbLine
 10
17.49999999999988
 20
20.10000000000008
 30
0.0
 11
17.50000000000034
 21
13.9500000000001
 31
0.0
  0
LINE
  5
13E26
330
13DED
100
AcDbEntity
  8
虛線
 48
0.27
100
AcDbLine
 10
17.09999999999991
 20
20.10000000000008
 30
0.0
 11
17.10000000000036
 21
13.9500000000001
 31
0.0
  0
LINE
  5
13E27
330
13DED
100
AcDbEntity
  8
虛線
 48
0.27
100
AcDbLine
 10
17.89999999999986
 20
13.55000000000001
 30
0.0
 11
17.49999999999988
 21
13.9500000000001
 31
0.0
  0
LINE
  5
13E28
330
13DED
100
AcDbEntity
  8
虛線
 48
0.27
100
AcDbLine
 10
17.89999999999986
 20
20.50000000000011
 30
0.0
 11
17.49999999999988
 21
20.10000000000008
 31
0.0
  0
LINE
  5
13E29
330
13DED
100
AcDbEntity
  8
中心線
 48
0.27
100
AcDbLine
 10
24.54999999983709
 20
17.3399553156679
 30
0.0
 11
24.54999999983709
 21
12.66004468146667
 31
0.0
  0
LINE
  5
13E2A
330
13DED
100
AcDbEntity
  8
0
 48
0.27
100
AcDbLine
 10
30.70000000130237
 20
10.9324136221
 30
0.0
 11
30.70000009620212
 21
12.570000203
 31
0.0
  0
LINE
  5
13E2B
330
13DED
100
AcDbEntity
  8
0
 48
0.27
100
AcDbLine
 10
27.7000000013026
 20
-0.0000000000649152
 30
0.0
 11
27.7000000013026
 21
19.4999999999352
 31
0.0
  0
LINE
  5
13E2C
330
13DED
100
AcDbEntity
  8
0
 48
0.27
100
AcDbLine
 10
30.70000000130237
 20
0.0
 30
0.0
 11
30.70000000130237
 21
10.91980573360007
 31
0.0
  0
ENDBLK
  5
13E2E
330
13DED
100
AcDbEntity
  8
0
100
AcDbBlockEnd
  0
BLOCK
  5
13F16
330
13F11
100
AcDbEntity
  8
0
100
AcDbBlockBegin
  2
A$C56C87D7E
 70
     0
 10
0.0
 20
0.0
 30
0.0
  3
A$C56C87D7E
  1

  0
LINE
  5
13F12
330
13F11
100
AcDbEntity
  8
中心線
100
AcDbLine
 10
-3.0
 20
0.0
 30
0.0
 11
3.0
 21
0.0
 31
0.0
  0
ARC
  5
13F13
330
13F11
100
AcDbEntity
  8
AM4
100
AcDbCircle
 10
0.0
 20
0.0
 30
0.0
 40
2.499999999999886
100
AcDbArc
 50
265.4114342642135
 51
184.5885657357865
  0
LINE
  5
13F14
330
13F11
100
AcDbEntity
  8
中心線
100
AcDbLine
 10
0.0
 20
-3.0
 30
0.0
 11
0.0
 21
3.0
 31
0.0
  0
CIRCLE
  5
13F15
330
13F11
100
AcDbEntity
  8
0
100
AcDbCircle
 10
0.0
 20
0.0
 30
0.0
 40
2.09999999999988
  0
ENDBLK
  5
13F17
330
13F11
100
AcDbEntity
  8
0
100
AcDbBlockEnd
  0
ENDSEC
  0
SECTION
  2
ENTITIES
  0
ARC
  5
1347F
330
1F
100
AcDbEntity
  8
0
 48
0.27
100
AcDbCircle
 10
6.821506203499893
 20
11.43420120340003
 30
0.0
 40
1.629999999999999
100
AcDbArc
 50
186.5882452203976
 51
263.4117571311989
  0
ARC
  5
13484
330
1F
100
AcDbEntity
  8
0
 48
0.27
100
AcDbCircle
 10
-6.821506203400076
 20
11.43420120340003
 30
0.0
 40
1.629999999999999
100
AcDbArc
 50
276.588242868801
 51
353.4117547796018
  0
LINE
  5
1348D
330
1F
100
AcDbEntity
  8
0
 48
0.27
100
AcDbLine
 10
4.79980469999964
 20
2.899634400000064
 30
0.0
 11
4.79980469999964
 21
4.909149261700004
 31
0.0
  0
LINE
  5
13492
330
1F
100
AcDbEntity
  8
0
 48
0.27
100
AcDbLine
 10
-4.799804699999981
 20
4.909149261700004
 30
0.0
 11
-4.799804699999981
 21
2.899634400000064
 31
0.0
  0
LINE
  5
13493
330
1F
100
AcDbEntity
  8
0
 48
0.27
100
AcDbLine
 10
-4.799804699999981
 20
2.899634400000064
 30
0.0
 11
-6.899439100000058
 21
0.7999999999999936
 31
0.0
  0
LINE
  5
1349C
330
1F
100
AcDbEntity
  8
0
 48
0.27
100
AcDbLine
 10
6.899439099999881
 20
0.7999999999999936
 30
0.0
 11
4.79980469999964
 21
2.899634400000064
 31
0.0
  0
LINE
  5
134A2
330
1F
100
AcDbEntity
  8
0
 48
0.27
100
AcDbLine
 10
-7.5
 20
7.609345046299988
 30
0.0
 11
-6.648080611200157
 21
6.757425237500097
 31
0.0
  0
LINE
  5
134A3
330
1F
100
AcDbEntity
  8
0
 48
0.27
100
AcDbLine
 10
-7.499999999964416
 20
8.949454443470852
 30
0.0
 11
-7.499999999964416
 21
7.609345046300216
 31
0.0
  0
LINE
  5
134A4
330
1F
100
AcDbEntity
  8
0
 48
0.27
100
AcDbLine
 10
-7.5
 20
8.949454443499956
 30
0.0
 11
-7.5
 21
7.609345046299988
 31
0.0
  0
LINE
  5
134AC
330
1F
100
AcDbEntity
  8
0
 48
0.27
100
AcDbLine
 10
-5.200758379900094
 20
5.310103151699973
 30
0.0
 11
-4.799804699999981
 21
4.909149261700004
 31
0.0
  0
ARC
  5
134AE
330
1F
100
AcDbEntity
  8
0
 48
0.27
100
AcDbCircle
 10
-6.821506203400076
 20
5.136677396500072
 30
0.0
 40
1.629999999999999
100
AcDbArc
 50
6.107611780399468
 51
83.89239397910079
  0
LINE
  5
134AF
330
1F
100
AcDbEntity
  8
0
 48
0.27
100
AcDbLine
 10
-6.634490912500041
 20
9.814965185700071
 30
0.0
 11
-7.5
 21
8.949454443499956
 31
0.0
  0
LINE
  5
134B0
330
1F
100
AcDbEntity
  8
0
 48
0.27
100
AcDbLine
 10
7.500000000035356
 20
8.949454443470852
 30
0.0
 11
7.500000000035356
 21
7.609345046300216
 31
0.0
  0
LINE
  5
134B1
330
1F
100
AcDbEntity
  8
0
 48
0.27
100
AcDbLine
 10
7.5
 20
7.609345046299988
 30
0.0
 11
7.5
 21
8.949454443499956
 31
0.0
  0
LINE
  5
134B9
330
1F
100
AcDbEntity
  8
0
 48
0.27
100
AcDbLine
 10
4.79980469999964
 20
4.909149261700004
 30
0.0
 11
5.200758379900094
 21
5.310103151699973
 31
0.0
  0
ARC
  5
134BB
330
1F
100
AcDbEntity
  8
0
 48
0.27
100
AcDbCircle
 10
6.821506203499893
 20
5.136677396500072
 30
0.0
 40
1.629999999999999
100
AcDbArc
 50
96.10760602089921
 51
173.8923882196005
  0
LINE
  5
134BC
330
1F
100
AcDbEntity
  8
0
 48
0.27
100
AcDbLine
 10
6.648080611199588
 20
6.757425237500097
 30
0.0
 11
7.5
 21
7.609345046299988
 31
0.0
  0
LINE
  5
134C0
330
1F
100
AcDbEntity
  8
0
 48
0.27
100
AcDbLine
 10
7.5
 20
8.949454443499956
 30
0.0
 11
6.634490912500041
 21
9.814965185700071
 31
0.0
  0
ARC
  5
134C5
330
1F
100
AcDbEntity
  8
0
 48
0.27
100
AcDbCircle
 10
0.0
 20
16.00000000000009
 30
0.0
 40
3.0
100
AcDbArc
 50
301.4239064858002
 51
238.5760935141998
  0
LINE
  5
134C7
330
1F
100
AcDbEntity
  8
0
 48
0.27
100
AcDbLine
 10
4.949456226317579
 20
11.49999999996445
 30
0.0
 11
-4.949456226246638
 21
11.49999999996445
 31
0.0
  0
LINE
  5
134C8
330
1F
100
AcDbEntity
  8
中心線
 48
0.27
100
AcDbLine
 10
-3.394263050102495
 20
16.00000000000009
 30
0.0
 11
3.39426305010204
 21
16.00000000000009
 31
0.0
  0
LINE
  5
134C9
330
1F
100
AcDbEntity
  8
0
 48
0.27
100
AcDbLine
 10
4.949456226299844
 20
11.49999999999998
 30
0.0
 11
-4.949456226300185
 21
11.49999999999998
 31
0.0
  0
ARC
  5
134CB
330
1F
100
AcDbEntity
  8
0
 48
0.27
100
AcDbCircle
 10
0.0
 20
16.00000000000009
 30
0.0
 40
3.0
100
AcDbArc
 50
238.5760935141998
 51
301.4239064858002
  0
LINE
  5
134D7
330
1F
100
AcDbEntity
  8
0
 48
0.27
100
AcDbLine
 10
-4.949456226300185
 20
11.49999999999998
 30
0.0
 11
-5.202270193400067
 21
11.24718584600007
 31
0.0
  0
LINE
  5
134E1
330
1F
100
AcDbEntity
  8
0
 48
0.27
100
AcDbLine
 10
5.202270193499998
 20
11.24718584600007
 30
0.0
 11
4.949456226299844
 21
11.49999999999998
 31
0.0
  0
LINE
  5
1370C
330
1F
100
AcDbEntity
  8
0
 48
0.27
100
AcDbLine
 10
7.500000000035356
 20
0.1994390999644615
 30
0.0
 11
7.500000000035356
 21
-2.800048830035581
 31
0.0
  0
LINE
  5
1370D
330
1F
100
AcDbEntity
  8
虛線
 48
0.27
100
AcDbLine
 10
2.250308041280959
 20
5.895600375885447
 30
0.0
 11
2.250308041280959
 21
-3.000000000035544
 31
0.0
  0
LINE
  5
1370E
330
1F
100
AcDbEntity
  8
0
 48
0.27
100
AcDbLine
 10
-7.499999999964416
 20
0.1994391000356295
 30
0.0
 11
-7.499999999964416
 21
-2.800048830035581
 31
0.0
  0
LINE
  5
1370F
330
1F
100
AcDbEntity
  8
虛線
 48
0.27
100
AcDbLine
 10
-2.24969195871904
 20
5.895600375885447
 30
0.0
 11
-2.24969195871904
 21
-3.000000000035544
 31
0.0
  0
LINE
  5
13710
330
1F
100
AcDbEntity
  8
中心線
 48
0.27
100
AcDbLine
 10
0.0000000000353571
 20
21.00850643833911
 30
0.0
 11
0.0000000000353566
 21
-4.688378900035576
 31
0.0
  0
LINE
  5
13711
330
1F
100
AcDbEntity
  8
虛線
 48
0.27
100
AcDbLine
 10
2.250308041280959
 20
-3.000000000035544
 30
0.0
 11
-2.24969195871904
 21
-3.000000000035544
 31
0.0
  0
LINE
  5
13712
330
1F
100
AcDbEntity
  8
0
 48
0.27
100
AcDbLine
 10
6.799858100035294
 20
-3.500000000035544
 30
0.0
 11
-6.800048799964656
 21
-3.500000000035544
 31
0.0
  0
LINE
  5
13713
330
1F
100
AcDbEntity
  8
0
 48
0.27
100
AcDbLine
 10
-7.500340899964726
 20
-2.800324740035552
 30
0.0
 11
-6.800333499964608
 21
-3.500331763275557
 31
0.0
  0
LINE
  5
13714
330
1F
100
AcDbEntity
  8
虛線
 48
0.27
100
AcDbLine
 10
-2.24969195871904
 20
-3.000000000035544
 30
0.0
 11
-2.749691958719381
 21
-3.500000000035544
 31
0.0
  0
LINE
  5
13715
330
1F
100
AcDbEntity
  8
虛線
 48
0.27
100
AcDbLine
 10
2.250308041280959
 20
-3.000000000035544
 30
0.0
 11
2.750308041280618
 21
-3.500000000035544
 31
0.0
  0
LINE
  5
13716
330
1F
100
AcDbEntity
  8
0
 48
0.27
100
AcDbLine
 10
7.499729600035266
 20
-2.800129180035543
 30
0.0
 11
6.7997007000356
 21
-3.50015778089558
 31
0.0
  0
LINE
  5
13717
330
1F
100
AcDbEntity
  8
虛線
 48
0.27
100
AcDbLine
 10
3.750308041280959
 20
11.29999999996439
 30
0.0
 11
3.750308041280959
 21
6.195600375885401
 31
0.0
  0
ARC
  5
13718
330
1F
100
AcDbEntity
  8
0
 48
0.27
100
AcDbCircle
 10
6.821506203499893
 20
11.43420120340003
 30
0.0
 40
1.629999999999999
100
AcDbArc
 50
186.5882452203976
 51
263.4117571311989
  0
LINE
  5
13719
330
1F
100
AcDbEntity
  8
虛線
 48
0.27
100
AcDbLine
 10
-3.74969195871904
 20
11.29999999996439
 30
0.0
 11
-3.74969195871904
 21
6.195600375885401
 31
0.0
  0
ARC
  5
1371A
330
1F
100
AcDbEntity
  8
0
 48
0.27
100
AcDbCircle
 10
-6.821506203400076
 20
11.43420120340003
 30
0.0
 40
1.629999999999999
100
AcDbArc
 50
276.588242868801
 51
353.4117547796018
  0
LINE
  5
1371B
330
1F
100
AcDbEntity
  8
0
 48
0.27
100
AcDbLine
 10
4.79980469999964
 20
2.899634400000064
 30
0.0
 11
4.79980469999964
 21
4.909149261700004
 31
0.0
  0
LINE
  5
1371C
330
1F
100
AcDbEntity
  8
0
 48
0.27
100
AcDbLine
 10
-4.799804699999981
 20
4.909149261700004
 30
0.0
 11
-4.799804699999981
 21
2.899634400000064
 31
0.0
  0
LINE
  5
1371D
330
1F
100
AcDbEntity
  8
0
 48
0.27
100
AcDbLine
 10
-4.799804699999981
 20
2.899634400000064
 30
0.0
 11
-7.499999999964416
 21
0.1994391000356295
 31
0.0
  0
LINE
  5
1371E
330
1F
100
AcDbEntity
  8
0
 48
0.27
100
AcDbLine
 10
7.500000000035356
 20
0.199439099964561
 30
0.0
 11
4.79980469999964
 21
2.899634400000064
 31
0.0
  0
LINE
  5
1371F
330
1F
100
AcDbEntity
  8
虛線
 48
0.27
100
AcDbLine
 10
3.750308041280959
 20
6.195600375885401
 30
0.0
 11
-3.74969195871904
 21
6.195600375885401
 31
0.0
  0
LINE
  5
13720
330
1F
100
AcDbEntity
  8
虛線
 48
0.27
100
AcDbLine
 10
2.250308041280959
 20
5.895600375885447
 30
0.0
 11
-2.24969195871904
 21
5.895600375885447
 31
0.0
  0
LINE
  5
13721
330
1F
100
AcDbEntity
  8
0
 48
0.27
100
AcDbLine
 10
-7.5
 20
7.609345046299988
 30
0.0
 11
-6.648080611200157
 21
6.757425237500097
 31
0.0
  0
LINE
  5
13722
330
1F
100
AcDbEntity
  8
0
 48
0.27
100
AcDbLine
 10
-7.499999999964416
 20
8.949454443470852
 30
0.0
 11
-7.499999999964416
 21
7.609345046300216
 31
0.0
  0
LINE
  5
13723
330
1F
100
AcDbEntity
  8
0
 48
0.27
100
AcDbLine
 10
-7.5
 20
8.949454443499956
 30
0.0
 11
-7.5
 21
7.609345046299988
 31
0.0
  0
LINE
  5
13724
330
1F
100
AcDbEntity
  8
虛線
 48
0.27
100
AcDbLine
 10
-2.24969195871904
 20
5.895600375885447
 30
0.0
 11
-2.549691958719336
 21
6.195600375885401
 31
0.0
  0
LINE
  5
13725
330
1F
100
AcDbEntity
  8
0
 48
0.27
100
AcDbLine
 10
-5.200758379900094
 20
5.310103151699973
 30
0.0
 11
-4.799804699999981
 21
4.909149261700004
 31
0.0
  0
ARC
  5
13726
330
1F
100
AcDbEntity
  8
0
 48
0.27
100
AcDbCircle
 10
-6.821506203400076
 20
5.136677396500072
 30
0.0
 40
1.629999999999999
100
AcDbArc
 50
6.107611780399468
 51
83.89239397910079
  0
LINE
  5
13727
330
1F
100
AcDbEntity
  8
0
 48
0.27
100
AcDbLine
 10
-6.634490912500041
 20
9.814965185700071
 30
0.0
 11
-7.5
 21
8.949454443499956
 31
0.0
  0
LINE
  5
13728
330
1F
100
AcDbEntity
  8
0
 48
0.27
100
AcDbLine
 10
7.500000000035356
 20
8.949454443470852
 30
0.0
 11
7.500000000035356
 21
7.609345046300216
 31
0.0
  0
LINE
  5
13729
330
1F
100
AcDbEntity
  8
0
 48
0.27
100
AcDbLine
 10
7.5
 20
7.609345046299988
 30
0.0
 11
7.5
 21
8.949454443499956
 31
0.0
  0
LINE
  5
1372A
330
1F
100
AcDbEntity
  8
虛線
 48
0.27
100
AcDbLine
 10
2.250308041280959
 20
5.895600375885447
 30
0.0
 11
2.550308041280914
 21
6.195600375885401
 31
0.0
  0
LINE
  5
1372B
330
1F
100
AcDbEntity
  8
0
 48
0.27
100
AcDbLine
 10
4.79980469999964
 20
4.909149261700004
 30
0.0
 11
5.200758379900094
 21
5.310103151699973
 31
0.0
  0
ARC
  5
1372C
330
1F
100
AcDbEntity
  8
0
 48
0.27
100
AcDbCircle
 10
6.821506203499893
 20
5.136677396500072
 30
0.0
 40
1.629999999999999
100
AcDbArc
 50
96.10760602089921
 51
173.8923882196005
  0
LINE
  5
1372D
330
1F
100
AcDbEntity
  8
0
 48
0.27
100
AcDbLine
 10
6.648080611199588
 20
6.757425237500097
 30
0.0
 11
7.5
 21
7.609345046299988
 31
0.0
  0
LINE
  5
1372E
330
1F
100
AcDbEntity
  8
0
 48
0.27
100
AcDbLine
 10
7.5
 20
8.949454443499956
 30
0.0
 11
6.634490912500041
 21
9.814965185700071
 31
0.0
  0
LINE
  5
1372F
330
1F
100
AcDbEntity
  8
虛線
 48
0.27
100
AcDbLine
 10
3.750308041280959
 20
11.29999999996439
 30
0.0
 11
-3.74969195871904
 21
11.29999999996439
 31
0.0
  0
LINE
  5
13730
330
1F
100
AcDbEntity
  8
0
 48
0.27
100
AcDbLine
 10
4.949456226317579
 20
11.49999999996445
 30
0.0
 11
-4.949456226246638
 21
11.49999999996445
 31
0.0
  0
LINE
  5
13731
330
1F
100
AcDbEntity
  8
0
 48
0.27
100
AcDbLine
 10
4.949456226299844
 20
11.49999999999998
 30
0.0
 11
-4.949456226300185
 21
11.49999999999998
 31
0.0
  0
LINE
  5
13732
330
1F
100
AcDbEntity
  8
虛線
 48
0.27
100
AcDbLine
 10
-3.74969195871904
 20
11.29999999996439
 30
0.0
 11
-3.865162012557107
 21
11.49999999996445
 31
0.0
  0
LINE
  5
13733
330
1F
100
AcDbEntity
  8
0
 48
0.27
100
AcDbLine
 10
-4.949456226300185
 20
11.49999999999998
 30
0.0
 11
-5.202270193400067
 21
11.24718584600007
 31
0.0
  0
LINE
  5
13734
330
1F
100
AcDbEntity
  8
虛線
 48
0.27
100
AcDbLine
 10
3.750308041280959
 20
11.29999999996439
 30
0.0
 11
3.865778095118912
 21
11.49999999996445
 31
0.0
  0
LINE
  5
13735
330
1F
100
AcDbEntity
  8
0
 48
0.27
100
AcDbLine
 10
5.202270193499998
 20
11.24718584600007
 30
0.0
 11
4.949456226299844
 21
11.49999999999998
 31
0.0
  0
INSERT
  5
1378F
330
1F
100
AcDbEntity
  8
0
100
AcDbBlockReference
  2
C15_FWI
 10
110.0708658423207
 20
-0.0000000000649081
 30
0.0
  0
INSERT
  5
13794
330
1F
100
AcDbEntity
  8
0
100
AcDbBlockReference
  2
C15_FWI
 10
165.4708658449261
 20
-0.0000000000649187
 30
0.0
 41
-1.0
  0
LINE
  5
13815
330
1F
100
AcDbEntity
  8
0
 48
0.27
100
AcDbLine
 10
222.3135476476282
 20
11.49984221910444
 30
0.0
 11
168.4708658778091
 21
11.49984221910445
 31
0.0
  0
LINE
  5
13817
330
1F
100
AcDbEntity
  8
0
 48
0.27
100
AcDbLine
 10
222.3135476476282
 20
0.1995788191044383
 30
0.0
 11
168.4708658449259
 21
0.1995788191044383
 31
0.0
  0
LINE
  5
13818
330
1F
100
AcDbEntity
  8
0
 48
0.27
100
AcDbLine
 10
222.3135476476282
 20
2.900200751456726
 30
0.0
 11
168.4708658449259
 21
2.899871127677645
 31
0.0
  0
LINE
  5
13819
330
1F
100
AcDbEntity
  8
0
 48
0.27
100
AcDbLine
 10
222.3135476476282
 20
4.908991480828497
 30
0.0
 11
168.4708658449259
 21
4.908991480828497
 31
0.0
  0
LINE
  5
1381A
330
1F
100
AcDbEntity
  8
0
 48
0.27
100
AcDbLine
 10
222.3135476476282
 20
5.428887297683679
 30
0.0
 11
168.4708658449259
 21
5.428887297683679
 31
0.0
  0
LINE
  5
1381B
330
1F
100
AcDbEntity
  8
0
 48
0.27
100
AcDbLine
 10
222.3135476476282
 20
6.638325639089494
 30
0.0
 11
168.4708658449259
 21
6.638325639089401
 31
0.0
  0
LINE
  5
1381C
330
1F
100
AcDbEntity
  8
0
 48
0.27
100
AcDbLine
 10
222.3135476476282
 20
7.609187265440205
 30
0.0
 11
168.4708658449259
 21
7.609187265440205
 31
0.0
  0
LINE
  5
1381D
330
1F
100
AcDbEntity
  8
0
 48
0.27
100
AcDbLine
 10
222.3135476476282
 20
8.949296662610841
 30
0.0
 11
168.4708658449259
 21
8.949296662610841
 31
0.0
  0
LINE
  5
1381E
330
1F
100
AcDbEntity
  8
0
 48
0.27
100
AcDbLine
 10
107.0708658423209
 20
9.93525500850513
 30
0.0
 11
90.76163070326179
 21
9.93525500850513
 31
0.0
  0
LINE
  5
1381F
330
1F
100
AcDbEntity
  8
0
 48
0.27
100
AcDbLine
 10
222.3135476476282
 20
11.1265802825667
 30
0.0
 11
168.4708658561781
 21
11.12658028256666
 31
0.0
  0
LINE
  5
13821
330
1F
100
AcDbEntity
  8
0
 48
0.27
100
AcDbLine
 10
80.07129014967905
 20
5.899842219104648
 30
0.0
 11
80.37129014967922
 21
6.199842219104432
 31
0.0
  0
LINE
  5
13822
330
1F
100
AcDbEntity
  8
0
 48
0.27
100
AcDbLine
 10
74.07129014967882
 20
6.199842219104432
 30
0.0
 11
81.57129014967916
 21
6.199842219104432
 31
0.0
  0
LINE
  5
13823
330
1F
100
AcDbEntity
  8
0
 48
0.27
100
AcDbLine
 10
74.07129014967882
 20
11.30424184318366
 30
0.0
 11
81.57129014967916
 21
11.30424184318366
 31
0.0
  0
LINE
  5
13824
330
1F
100
AcDbEntity
  8
0
 48
0.27
100
AcDbLine
 10
80.07129014967905
 20
-2.995758156816453
 30
0.0
 11
80.57568977375821
 21
-3.500157780895548
 31
0.0
  0
LINE
  5
13825
330
1F
100
AcDbEntity
  8
0
 48
0.27
100
AcDbLine
 10
222.3135476476282
 20
-3.500157780895492
 30
0.0
 11
57.82159819092476
 21
-3.500157780895559
 31
0.0
  0
LINE
  5
13826
330
1F
100
AcDbEntity
  8
0
 48
0.27
100
AcDbLine
 10
57.82159819092476
 20
11.49984221910444
 30
0.0
 11
57.82159819092476
 21
-3.500157780895548
 31
0.0
  0
LINE
  5
13827
330
1F
100
AcDbEntity
  8
0
 48
0.27
100
AcDbLine
 10
75.57129014967904
 20
5.899842219104648
 30
0.0
 11
75.57129014967904
 21
-2.995758156816453
 31
0.0
  0
LINE
  5
13828
330
1F
100
AcDbEntity
  8
0
 48
0.27
100
AcDbLine
 10
80.07129014967905
 20
5.899842219104648
 30
0.0
 11
80.07129014967905
 21
-2.995758156816453
 31
0.0
  0
LINE
  5
13829
330
1F
100
AcDbEntity
  8
中心線
 48
0.27
100
AcDbLine
 10
77.82159819092476
 20
12.59984221910452
 30
0.0
 11
77.82159819092476
 21
-4.500157780895492
 31
0.0
  0
LINE
  5
1382A
330
1F
100
AcDbEntity
  8
0
 48
0.27
100
AcDbLine
 10
75.57129014967904
 20
-2.995758156816453
 30
0.0
 11
80.07129014967905
 21
-2.995758156816453
 31
0.0
  0
LINE
  5
1382B
330
1F
100
AcDbEntity
  8
0
 48
0.27
100
AcDbLine
 10
75.57129014967904
 20
-2.995758156816453
 30
0.0
 11
75.06689052560045
 21
-3.500157780895548
 31
0.0
  0
LINE
  5
1382C
330
1F
100
AcDbEntity
  8
0
 48
0.27
100
AcDbLine
 10
75.57129014967904
 20
5.899842219104648
 30
0.0
 11
80.07129014967905
 21
5.899842219104648
 31
0.0
  0
LINE
  5
1382D
330
1F
100
AcDbEntity
  8
0
 48
0.27
100
AcDbLine
 10
74.07129014967882
 20
11.30424184318366
 30
0.0
 11
74.07129014967882
 21
6.199842219104432
 31
0.0
  0
LINE
  5
1382E
330
1F
100
AcDbEntity
  8
0
 48
0.27
100
AcDbLine
 10
75.57129014967904
 20
5.899842219104648
 30
0.0
 11
75.27129014967897
 21
6.199842219104432
 31
0.0
  0
LINE
  5
1382F
330
1F
100
AcDbEntity
  8
0
 48
0.27
100
AcDbLine
 10
74.07129014967882
 20
11.30424184318366
 30
0.0
 11
73.9583602199873
 21
11.49984221910444
 31
0.0
  0
LINE
  5
13830
330
1F
100
AcDbEntity
  8
0
 48
0.27
100
AcDbLine
 10
222.3135476476282
 20
-2.800206610895472
 30
0.0
 11
91.41016912345955
 21
-2.800206610895472
 31
0.0
  0
LINE
  5
13831
330
1F
100
AcDbEntity
  8
建構線
 48
0.27
100
AcDbLine
 10
91.32252068874777
 20
6.049673299398314
 30
0.0
 11
90.72424684574343
 21
2.169115071398724
 31
0.0
  0
LINE
  5
13832
330
1F
100
AcDbEntity
  8
建構線
 48
0.27
100
AcDbLine
 10
91.17295222799658
 20
-2.015103619981502
 30
0.0
 11
91.62165761025006
 21
-3.500157780895548
 31
0.0
  0
LINE
  5
13833
330
1F
100
AcDbEntity
  8
建構線
 48
0.27
100
AcDbLine
 10
91.99558029227182
 20
0.6747513719239571
 30
0.0
 11
91.17295222799658
 21
-2.015103619981502
 31
0.0
  0
LINE
  5
13834
330
1F
100
AcDbEntity
  8
建構線
 48
0.27
100
AcDbLine
 10
90.72424684574343
 20
2.169115071398724
 30
0.0
 11
91.99558029227182
 21
0.6747513719239571
 31
0.0
  0
LINE
  5
13835
330
1F
100
AcDbEntity
  8
0
 48
0.27
100
AcDbLine
 10
81.57129014967916
 20
11.30424184318366
 30
0.0
 11
81.57129014967916
 21
6.199842219104432
 31
0.0
  0
LINE
  5
13836
330
1F
100
AcDbEntity
  8
0
 48
0.27
100
AcDbLine
 10
81.57129014967916
 20
11.30424184318366
 30
0.0
 11
81.68422007937067
 21
11.49984221910444
 31
0.0
  0
LINE
  5
13837
330
1F
100
AcDbEntity
  8
建構線
 48
0.27
100
AcDbLine
 10
90.35032416372155
 20
8.370724798676128
 30
0.0
 11
91.32252068874777
 21
6.049673299398314
 31
0.0
  0
LINE
  5
13838
330
1F
100
AcDbEntity
  8
建構線
 48
0.27
100
AcDbLine
 10
91.17295222799658
 20
11.49984221910444
 30
0.0
 11
90.35032416372155
 21
8.370724798676128
 31
0.0
  0
LINE
  5
13839
330
1F
100
AcDbEntity
  8
虛線
 48
0.27
100
AcDbLine
 10
135.5712901496791
 20
0.0
 30
0.0
 11
135.5712901496791
 21
-2.995758156816453
 31
0.0
  0
LINE
  5
1383A
330
1F
100
AcDbEntity
  8
虛線
 48
0.27
100
AcDbLine
 10
140.0712901496791
 20
0.0
 30
0.0
 11
140.0712901496791
 21
-2.995758156816453
 31
0.0
  0
LINE
  5
1383B
330
1F
100
AcDbEntity
  8
中心線
 48
0.27
100
AcDbLine
 10
137.8215981909247
 20
1.49510403807352
 30
0.0
 11
137.8215981909247
 21
-4.500157780895492
 31
0.0
  0
LINE
  5
1383C
330
1F
100
AcDbEntity
  8
虛線
 48
0.27
100
AcDbLine
 10
135.5712901496791
 20
-2.995758156816453
 30
0.0
 11
140.0712901496791
 21
-2.995758156816453
 31
0.0
  0
LINE
  5
1383D
330
1F
100
AcDbEntity
  8
虛線
 48
0.27
100
AcDbLine
 10
135.5712901496791
 20
-2.995758156816453
 30
0.0
 11
135.0668905256006
 21
-3.500157780895548
 31
0.0
  0
LINE
  5
1383E
330
1F
100
AcDbEntity
  8
虛線
 48
0.27
100
AcDbLine
 10
140.0712901496791
 20
-2.995758156816453
 30
0.0
 11
140.5756897737583
 21
-3.500157780895548
 31
0.0
  0
LINE
  5
13864
330
1F
100
AcDbEntity
  8
0
 48
0.27
100
AcDbLine
 10
222.3135476476282
 20
11.49984221910444
 30
0.0
 11
222.3135476476282
 21
-3.500157780895548
 31
0.0
  0
LINE
  5
13865
330
1F
100
AcDbEntity
  8
中心線
 48
0.27
100
AcDbLine
 10
202.3135476476282
 20
12.59984221910452
 30
0.0
 11
202.3135476476282
 21
-4.500157780895492
 31
0.0
  0
LINE
  5
13866
330
1F
100
AcDbEntity
  8
虛線
 48
0.27
100
AcDbLine
 10
204.5632396063831
 20
5.899842219104648
 30
0.0
 11
204.5632396063831
 21
-2.995758156816453
 31
0.0
  0
LINE
  5
13867
330
1F
100
AcDbEntity
  8
虛線
 48
0.27
100
AcDbLine
 10
200.0632396063831
 20
5.899842219104648
 30
0.0
 11
200.0632396063831
 21
-2.995758156816453
 31
0.0
  0
LINE
  5
13868
330
1F
100
AcDbEntity
  8
虛線
 48
0.27
100
AcDbLine
 10
200.0632396063831
 20
-2.995758156816453
 30
0.0
 11
199.5588399823042
 21
-3.500157780895492
 31
0.0
  0
LINE
  5
13869
330
1F
100
AcDbEntity
  8
虛線
 48
0.27
100
AcDbLine
 10
204.5632396063831
 20
-2.995758156816453
 30
0.0
 11
205.0676392304622
 21
-3.500157780895548
 31
0.0
  0
LINE
  5
1386A
330
1F
100
AcDbEntity
  8
虛線
 48
0.27
100
AcDbLine
 10
200.0632396063831
 20
-2.995758156816453
 30
0.0
 11
204.5632396063831
 21
-2.995758156816453
 31
0.0
  0
LINE
  5
1386B
330
1F
100
AcDbEntity
  8
虛線
 48
0.27
100
AcDbLine
 10
200.0632396063831
 20
5.899842219104648
 30
0.0
 11
199.7632396063831
 21
6.199842219104432
 31
0.0
  0
LINE
  5
1386C
330
1F
100
AcDbEntity
  8
虛線
 48
0.27
100
AcDbLine
 10
198.5632396063823
 20
6.199842219104432
 30
0.0
 11
206.063239606383
 21
6.199842219104432
 31
0.0
  0
LINE
  5
1386D
330
1F
100
AcDbEntity
  8
虛線
 48
0.27
100
AcDbLine
 10
198.5632396063823
 20
11.30424184318366
 30
0.0
 11
206.063239606383
 21
11.30424184318366
 31
0.0
  0
LINE
  5
1386E
330
1F
100
AcDbEntity
  8
虛線
 48
0.27
100
AcDbLine
 10
198.5632396063823
 20
11.30424184318366
 30
0.0
 11
198.5632396063823
 21
6.199842219104432
 31
0.0
  0
LINE
  5
1386F
330
1F
100
AcDbEntity
  8
虛線
 48
0.27
100
AcDbLine
 10
198.5632396063823
 20
11.30424184318366
 30
0.0
 11
198.4503096766913
 21
11.49984221910444
 31
0.0
  0
LINE
  5
13870
330
1F
100
AcDbEntity
  8
虛線
 48
0.27
100
AcDbLine
 10
206.063239606383
 20
11.30424184318366
 30
0.0
 11
206.063239606383
 21
6.199842219104432
 31
0.0
  0
LINE
  5
13871
330
1F
100
AcDbEntity
  8
虛線
 48
0.27
100
AcDbLine
 10
204.5632396063831
 20
5.899842219104648
 30
0.0
 11
204.863239606383
 21
6.199842219104432
 31
0.0
  0
LINE
  5
13872
330
1F
100
AcDbEntity
  8
虛線
 48
0.27
100
AcDbLine
 10
200.0632396063831
 20
5.899842219104648
 30
0.0
 11
204.5632396063831
 21
5.899842219104648
 31
0.0
  0
LINE
  5
13873
330
1F
100
AcDbEntity
  8
虛線
 48
0.27
100
AcDbLine
 10
206.063239606383
 20
11.30424184318366
 30
0.0
 11
206.1761695360747
 21
11.49984221910444
 31
0.0
  0
LINE
  5
13874
330
1F
100
AcDbEntity
  8
0
 48
0.27
100
AcDbLine
 10
107.0708658310687
 20
11.12658028256663
 30
0.0
 11
91.07482368148788
 21
11.12658028256662
 31
0.0
  0
LINE
  5
13875
330
1F
100
AcDbEntity
  8
0
 48
0.27
100
AcDbLine
 10
107.0708658094378
 20
11.49984221910445
 30
0.0
 11
57.82159819092476
 21
11.49984221910445
 31
0.0
  0
LINE
  5
13876
330
1F
100
AcDbEntity
  8
0
 48
0.27
100
AcDbLine
 10
107.0708658423209
 20
8.949296662610841
 30
0.0
 11
90.50242758092329
 21
8.949296662610848
 31
0.0
  0
LINE
  5
13877
330
1F
100
AcDbEntity
  8
0
 48
0.27
100
AcDbLine
 10
107.0708658423209
 20
7.609187265440205
 30
0.0
 11
90.66930206822707
 21
7.609187265440205
 31
0.0
  0
LINE
  5
13878
330
1F
100
AcDbEntity
  8
0
 48
0.27
100
AcDbLine
 10
107.0708658423209
 20
6.638325639089302
 30
0.0
 11
91.07595754300362
 21
6.638325639089273
 31
0.0
  0
LINE
  5
13879
330
1F
100
AcDbEntity
  8
0
 48
0.27
100
AcDbLine
 10
107.0708658423209
 20
5.428887297683679
 30
0.0
 11
91.22681280212225
 21
5.428887297683679
 31
0.0
  0
LINE
  5
1387A
330
1F
100
AcDbEntity
  8
0
 48
0.27
100
AcDbLine
 10
107.0708658423209
 20
4.908991480828497
 30
0.0
 11
91.14665936799323
 21
4.908991480828497
 31
0.0
  0
LINE
  5
1387B
330
1F
100
AcDbEntity
  8
0
 48
0.27
100
AcDbLine
 10
107.0708658423209
 20
2.899495238153594
 30
0.0
 11
90.83683577353799
 21
2.899395853758875
 31
0.0
  0
LINE
  5
1387C
330
1F
100
AcDbEntity
  8
0
 48
0.27
100
AcDbLine
 10
107.0708658423209
 20
0.1995788191044383
 30
0.0
 11
91.85026008783742
 21
0.1995788191044383
 31
0.0
  0
LINE
  5
1399A
330
1F
100
AcDbEntity
  8
中心線
 48
0.27
100
AcDbLine
 10
113.0462756716977
 20
16.00000000000009
 30
0.0
 11
99.9208658423208
 21
16.00000000000009
 31
0.0
  0
ARC
  5
1399B
330
1F
100
AcDbEntity
  8
0
 48
0.27
100
AcDbCircle
 10
-104.570865765592
 20
35.23347686392492
 30
0.6323677910580319
 40
1.65831239517767
210
-0.0000000000000001
220
0.8660254037844373
230
-0.5000000000000023
100
AcDbArc
 50
299.4962084965611
 51
60.50379150343132
  0
ARC
  5
1399C
330
1F
100
AcDbEntity
  8
0
 48
0.27
100
AcDbCircle
 10
104.5708657655928
 20
-37.39854037338537
 30
5.617632208941436
 40
1.658312395177813
210
0.0000000000000001
220
-0.8660254037844397
230
-0.4999999999999979
100
AcDbArc
 50
119.4962084965724
 51
240.5037915034295
  0
ARC
  5
1399D
330
1F
100
AcDbEntity
  8
0
 48
0.27
100
AcDbCircle
 10
104.5708657655924
 20
15.99932149409279
 30
-2.499999999999928
 40
1.658312395177744
100
AcDbArc
 50
119.4962084965744
 51
240.5037915034332
  0
LINE
  5
1399E
330
1F
100
AcDbEntity
  8
0
 48
0.27
100
AcDbLine
 10
103.754369261393
 20
18.8867513459482
 30
0.0
 11
108.5708658423207
 21
18.8867513459482
 31
0.0
  0
LINE
  5
1399F
330
1F
100
AcDbEntity
  8
0
 48
0.27
100
AcDbLine
 10
103.754369261393
 20
13.11324865405195
 30
0.0
 11
108.007501452755
 21
13.11324865405195
 31
0.0
  0
ARC
  5
139A0
330
1F
100
AcDbEntity
  8
0
 48
0.27
100
AcDbCircle
 10
104.5708657655923
 20
15.99932149409279
 30
0.0
 40
2.999999999999999
100
AcDbArc
 50
179.9870414916012
 51
254.2068309517417
  0
ARC
  5
139A1
330
1F
100
AcDbEntity
  8
0
 48
0.27
100
AcDbCircle
 10
101.6708658423207
 20
16.00000000000009
 30
0.0
 40
0.25
100
AcDbArc
 50
111.3333270897199
 51
248.66667291028
  0
ARC
  5
139A2
330
1F
100
AcDbEntity
  8
0
 48
0.27
100
AcDbCircle
 10
104.5708657655923
 20
15.99932149409279
 30
0.0
 40
2.999999999999998
100
AcDbArc
 50
105.7931690482683
 51
179.9870414916012
  0
LINE
  5
139A3
330
1F
100
AcDbEntity
  8
0
 48
0.27
100
AcDbLine
 10
108.5708658423207
 20
18.88675134594823
 30
0.0
 11
108.5708658423207
 21
13.11324865405195
 31
0.0
  0
LINE
  5
139A4
330
1F
100
AcDbEntity
  8
0
 48
0.27
100
AcDbLine
 10
108.5708658423207
 20
17.44269716706678
 30
2.499999999999928
 11
103.7543691846644
 21
17.44269716706678
 31
2.499999999999928
  0
LINE
  5
139A5
330
1F
100
AcDbEntity
  8
0
 48
0.27
100
AcDbLine
 10
108.5708658423207
 20
14.55594582111866
 30
2.49999999999996
 11
103.7543691846646
 21
14.55594582111866
 31
2.49999999999996
  0
POINT
  5
139A6
330
1F
100
AcDbEntity
  8
0
100
AcDbPoint
 10
101.4208658423207
 20
16.00000000000009
 30
0.0
1001
pntflag
1000
endpoint
  0
LINE
  5
13A6D
330
1F
100
AcDbEntity
  8
0
 48
0.27
100
AcDbLine
 10
-4.799804700000207
 20
2.899634400000067
 30
0.0
 11
-6.899439100000204
 21
0.7999999999999865
 31
0.0
  0
LINE
  5
13A6E
330
1F
100
AcDbEntity
  8
0
 48
0.27
100
AcDbLine
 10
-6.634490912500154
 20
9.814965185700073
 30
0.0
 11
-7.5
 21
8.949454443499956
 31
0.0
  0
LINE
  5
13A6F
330
1F
100
AcDbEntity
  8
0
 48
0.27
100
AcDbLine
 10
-7.5
 20
7.609345046299988
 30
0.0
 11
-6.648080611200157
 21
6.757425237500099
 31
0.0
  0
LINE
  5
13A70
330
1F
100
AcDbEntity
  8
0
 48
0.27
100
AcDbLine
 10
-7.051246334100254
 20
5.647382274499916
 30
0.0
 11
-7.559669704202065
 21
4.989169042150185
 31
0.0
  0
ARC
  5
13A71
330
1F
100
AcDbEntity
  8
0
 48
0.27
100
AcDbCircle
 10
-7.489000000000372
 20
4.463000000000066
 30
0.0
 40
0.5
100
AcDbArc
 50
5.988810016223172
 51
84.01116181987161
  0
LINE
  5
13A72
330
1F
100
AcDbEntity
  8
0
 48
0.27
100
AcDbLine
 10
-7.042859542200175
 20
10.91980573350006
 30
0.0
 11
-7.554920606591962
 21
11.57575560652518
 31
0.0
  0
ARC
  5
13A73
330
1F
100
AcDbEntity
  8
0
 48
0.27
100
AcDbCircle
 10
-7.489000000000372
 20
12.10200000000007
 30
0.0
 40
0.5
100
AcDbArc
 50
276.3895456483094
 51
353.6105762354623
  0
LINE
  5
13A74
330
1F
100
AcDbEntity
  8
0
 48
0.27
100
AcDbLine
 10
-8.412647611700215
 20
0.7999999999999865
 30
0.0
 11
-5.869804700000371
 21
3.342842911700005
 31
0.0
  0
LINE
  5
13A75
330
1F
100
AcDbEntity
  8
0
 48
0.27
100
AcDbLine
 10
-8.570000000000161
 20
9.392662356099986
 30
0.0
 11
-7.042859542200175
 21
10.91980573350006
 31
0.0
  0
LINE
  5
13A76
330
1F
100
AcDbEntity
  8
0
 48
0.27
100
AcDbLine
 10
-7.051246334100254
 20
5.647382274499916
 30
0.0
 11
-8.570000000000161
 21
7.166136689100067
 31
0.0
  0
LINE
  5
13A77
330
1F
100
AcDbEntity
  8
0
 48
0.27
100
AcDbLine
 10
-9.643013411000271
 20
0.7999999999999865
 30
0.0
 11
-6.739804700000148
 21
3.703208711000156
 31
0.0
  0
LINE
  5
13A86
330
1F
100
AcDbEntity
  8
0
 48
0.27
100
AcDbLine
 10
-7.499999999964642
 20
8.949454443470854
 30
0.0
 11
-7.499999999964642
 21
7.609345046300218
 31
0.0
  0
LINE
  5
13A87
330
1F
100
AcDbEntity
  8
0
 48
0.27
100
AcDbLine
 10
-7.5
 20
8.949454443499956
 30
0.0
 11
-7.5
 21
7.609345046299988
 31
0.0
  0
ARC
  5
13A88
330
1F
100
AcDbEntity
  8
0
 48
0.27
100
AcDbCircle
 10
-7.384665282029799
 20
5.457542239739595
 30
0.0
 40
0.5
100
AcDbArc
 50
224.999985878311
 51
264.0111618198714
  0
ARC
  5
13A89
330
1F
100
AcDbEntity
  8
0
 48
0.27
100
AcDbCircle
 10
-7.377712395383355
 20
11.1082117584422
 30
0.0
 40
0.5
100
AcDbArc
 50
96.38954564830946
 51
135.00005477157
  0
LINE
  5
13A8E
330
1F
100
AcDbEntity
  8
0
 48
0.27
100
AcDbLine
 10
-8.570000000000161
 20
7.166136689100067
 30
0.0
 11
-8.570000000000161
 21
9.392662356099986
 31
0.0
  0
LINE
  5
13A8F
330
1F
100
AcDbEntity
  8
0
 48
0.27
100
AcDbLine
 10
-9.440000000000168
 20
6.805771015400052
 30
0.0
 11
-9.440000000000168
 21
9.753027668099871
 31
0.0
  0
LINE
  5
13A90
330
1F
100
AcDbEntity
  8
0
 48
0.27
100
AcDbLine
 10
-9.440000000000168
 20
9.753027668099871
 30
0.0
 11
-7.731266123953787
 21
11.46176481105798
 31
0.0
  0
LINE
  5
13A91
330
1F
100
AcDbEntity
  8
0
 48
0.27
100
AcDbLine
 10
-7.738218759763412
 20
5.103988936286658
 30
0.0
 11
-9.440000000000168
 21
6.805771015400052
 31
0.0
  0
LINE
  5
13A92
330
1F
100
AcDbEntity
  8
0
 48
0.27
100
AcDbLine
 10
-7.5
 20
7.609345046299988
 30
0.0
 11
-9.440000000000168
 21
6.805771015400052
 31
0.0
  0
LINE
  5
13A94
330
1F
100
AcDbEntity
  8
0
 48
0.27
100
AcDbLine
 10
-7.5
 20
8.949454443499956
 30
0.0
 11
-9.440000000000168
 21
9.753027668100042
 31
0.0
  0
LINE
  5
13AA3
330
1F
100
AcDbEntity
  8
0
 48
0.27
100
AcDbLine
 10
6.307110372099827
 20
11.65555363459996
 30
0.0
 11
6.962763832630002
 21
12.16790096993421
 31
0.0
  0
LINE
  5
13AA4
330
1F
100
AcDbEntity
  8
0
 48
0.27
100
AcDbLine
 10
5.392664885499811
 20
12.56999979689997
 30
0.0
 11
6.307110228499822
 21
11.65555377819991
 31
0.0
  0
LINE
  5
13AA5
330
1F
100
AcDbEntity
  8
0
 48
0.27
100
AcDbLine
 10
4.949456226299843
 20
11.49999999999998
 30
0.0
 11
5.753034352199847
 21
13.43999999999998
 31
0.0
  0
ARC
  5
13AA6
330
1F
100
AcDbEntity
  8
0
 48
0.27
100
AcDbCircle
 10
6.495211429651021
 20
11.99071533149672
 30
0.0
 40
0.5
100
AcDbArc
 50
6.389376369905729
 51
44.99997882606006
  0
LINE
  5
13AA7
330
1F
100
AcDbEntity
  8
0
 48
0.27
100
AcDbLine
 10
-6.307110504200181
 20
11.65555407670005
 30
0.0
 11
-6.962763803291977
 21
12.1679004682068
 31
0.0
  0
LINE
  5
13AA8
330
1F
100
AcDbEntity
  8
0
 48
0.27
100
AcDbLine
 10
-6.307110647800186
 20
11.65555393319998
 30
0.0
 11
-5.39266505370017
 21
12.57000020299998
 31
0.0
  0
ARC
  5
13AA9
330
1F
100
AcDbEntity
  8
0
 48
0.27
100
AcDbCircle
 10
-6.495211521705414
 20
11.99071450944226
 30
0.0
 40
0.5
100
AcDbArc
 50
135.0000211739306
 51
173.6105762354623
  0
LINE
  5
13AAB
330
1F
100
AcDbEntity
  8
0
 48
0.27
100
AcDbLine
 10
-4.949456226300298
 20
11.49999999999998
 30
0.0
 11
-5.753033622200177
 21
13.43999999999998
 31
0.0
  0
LINE
  5
13AAC
330
1F
100
AcDbEntity
  8
0
 48
0.27
100
AcDbLine
 10
4.949456226317464
 20
11.49999999996445
 30
0.0
 11
-4.949456226246752
 21
11.49999999996445
 31
0.0
  0
LINE
  5
13AAD
330
1F
100
AcDbEntity
  8
0
 48
0.27
100
AcDbLine
 10
4.949456226299843
 20
11.49999999999998
 30
0.0
 11
-4.949456226300298
 21
11.49999999999998
 31
0.0
  0
LINE
  5
13AAE
330
1F
100
AcDbEntity
  8
0
 48
0.27
100
AcDbLine
 10
-5.202270193400181
 20
11.24718584600007
 30
0.0
 11
-6.307110647800186
 21
11.65555393319998
 31
0.0
  0
LINE
  5
13AAF
330
1F
100
AcDbEntity
  8
0
 48
0.27
100
AcDbLine
 10
-5.200758379900206
 20
5.310103151699976
 30
0.0
 11
-6.310801170000218
 21
4.906937613700156
 31
0.0
  0
LINE
  5
13AB0
330
1F
100
AcDbEntity
  8
0
 48
0.27
100
AcDbLine
 10
-4.799804700000207
 20
4.909149261699996
 30
0.0
 11
-6.739804700000148
 21
4.105574382200067
 31
0.0
  0
LINE
  5
13AB1
330
1F
100
AcDbEntity
  8
0
 48
0.27
100
AcDbLine
 10
-5.869804701100179
 20
4.465940913700006
 30
0.0
 11
-6.310801170000218
 21
4.906937613700156
 31
0.0
  0
ARC
  5
13AB2
330
1F
100
AcDbEntity
  8
0
 48
0.27
100
AcDbCircle
 10
-6.82150620340019
 20
5.136677396500076
 30
0.0
 40
1.629999999999999
100
AcDbArc
 50
6.107611780398972
 51
83.89239397910067
  0
LINE
  5
13AB3
330
1F
100
AcDbEntity
  8
0
 48
0.27
100
AcDbLine
 10
-4.799804700000207
 20
2.899634400000067
 30
0.0
 11
-6.739804700000148
 21
3.703208711000156
 31
0.0
  0
ARC
  5
13AB4
330
1F
100
AcDbEntity
  8
0
 48
0.27
100
AcDbCircle
 10
-6.82150620340019
 20
11.43420120340003
 30
0.0
 40
1.629999999999999
100
AcDbArc
 50
276.5882428688011
 51
353.4117547796018
  0
LINE
  5
13AB5
330
1F
100
AcDbEntity
  8
0
 48
0.27
100
AcDbLine
 10
-6.310801169200201
 20
4.906937612899964
 30
0.0
 11
-6.962996147126999
 21
4.392772687018625
 31
0.0
  0
LINE
  5
13AB6
330
1F
100
AcDbEntity
  8
0
 48
0.27
100
AcDbLine
 10
-6.648080611200157
 20
6.757425237500099
 30
0.0
 11
-7.051246334100254
 21
5.647382274499916
 31
0.0
  0
LINE
  5
13AB7
330
1F
100
AcDbEntity
  8
0
 48
0.27
100
AcDbLine
 10
-6.739804700000148
 20
4.105574382200067
 30
0.0
 11
-6.848011192262786
 21
4.213780931201865
 31
0.0
  0
ARC
  5
13AB8
330
1F
100
AcDbEntity
  8
0
 48
0.27
100
AcDbCircle
 10
-6.82150620340019
 20
5.136677396500076
 30
0.0
 40
0.5600000000000001
100
AcDbArc
 50
335.7794840317001
 51
114.2205550405001
  0
ARC
  5
13AB9
330
1F
100
AcDbEntity
  8
0
 48
0.27
100
AcDbCircle
 10
-6.494457708975005
 20
4.567334229100406
 30
0.0
 40
0.5
100
AcDbArc
 50
185.988810016223
 51
224.9999849781891
  0
LINE
  5
13ABA
330
1F
100
AcDbEntity
  8
0
 48
0.27
100
AcDbLine
 10
-6.739804700000148
 20
3.703208711000156
 30
0.0
 11
-6.739804700000148
 21
4.105574382200067
 31
0.0
  0
LINE
  5
13ABB
330
1F
100
AcDbEntity
  8
0
 48
0.27
100
AcDbLine
 10
-6.634490912500154
 20
9.814965185700073
 30
0.0
 11
-7.042859542200175
 21
10.91980573350006
 31
0.0
  0
ARC
  5
13ABC
330
1F
100
AcDbEntity
  8
0
 48
0.27
100
AcDbCircle
 10
-6.82150620340019
 20
11.43420120340003
 30
0.0
 40
0.5600000000000001
100
AcDbArc
 50
246.7169474446982
 51
23.28297609000065
  0
LINE
  5
13ABD
330
1F
100
AcDbEntity
  8
0
 48
0.27
100
AcDbLine
 10
-5.869804700000371
 20
3.342842911700005
 30
0.0
 11
-5.869804700000371
 21
4.465940914200066
 31
0.0
  0
LINE
  5
13ABE
330
1F
100
AcDbEntity
  8
0
 48
0.27
100
AcDbLine
 10
-5.200758379900206
 20
5.310103151699976
 30
0.0
 11
-4.799804700000207
 21
4.909149261699996
 31
0.0
  0
LINE
  5
13ABF
330
1F
100
AcDbEntity
  8
0
 48
0.27
100
AcDbLine
 10
-4.799804700000207
 20
4.909149261699996
 30
0.0
 11
-4.799804700000207
 21
2.899634400000067
 31
0.0
  0
LINE
  5
13AC0
330
1F
100
AcDbEntity
  8
0
 48
0.27
100
AcDbLine
 10
-4.949456226300298
 20
11.49999999999998
 30
0.0
 11
-5.202270193400181
 21
11.24718584600007
 31
0.0
  0
LINE
  5
13AC1
330
1F
100
AcDbEntity
  8
0
 48
0.27
100
AcDbLine
 10
7.731266123953217
 20
11.46176481105798
 30
0.0
 11
9.439999999999828
 21
9.753027668100212
 31
0.0
  0
LINE
  5
13AC2
330
1F
100
AcDbEntity
  8
0
 48
0.27
100
AcDbLine
 10
7.5
 20
8.949454443499956
 30
0.0
 11
6.634490912499813
 21
9.814965185700073
 31
0.0
  0
ARC
  5
13AC3
330
1F
100
AcDbEntity
  8
0
 48
0.27
100
AcDbCircle
 10
6.821506203499892
 20
11.43420120340003
 30
0.0
 40
1.629999999999999
100
AcDbArc
 50
186.588245220398
 51
263.4117571311987
  0
LINE
  5
13AC4
330
1F
100
AcDbEntity
  8
0
 48
0.27
100
AcDbLine
 10
7.042859542199834
 20
10.91980573350006
 30
0.0
 11
8.569999999999822
 21
9.392662356099986
 31
0.0
  0
LINE
  5
13AC5
330
1F
100
AcDbEntity
  8
0
 48
0.27
100
AcDbLine
 10
7.500000000035356
 20
8.949454443470854
 30
0.0
 11
7.500000000035356
 21
7.609345046300218
 31
0.0
  0
LINE
  5
13AC6
330
1F
100
AcDbEntity
  8
0
 48
0.27
100
AcDbLine
 10
7.5
 20
7.609345046299988
 30
0.0
 11
7.5
 21
8.949454443499956
 31
0.0
  0
LINE
  5
13AC7
330
1F
100
AcDbEntity
  8
0
 48
0.27
100
AcDbLine
 10
8.569999999999822
 20
9.392662356099986
 30
0.0
 11
8.569999999999822
 21
7.166136689100067
 31
0.0
  0
LINE
  5
13AC8
330
1F
100
AcDbEntity
  8
0
 48
0.27
100
AcDbLine
 10
9.439999999999828
 20
6.805771015400052
 30
0.0
 11
7.738218759874938
 21
5.103988936306944
 31
0.0
  0
ARC
  5
13AC9
330
1F
100
AcDbEntity
  8
0
 48
0.27
100
AcDbCircle
 10
7.384665282131891
 20
5.457542239750285
 30
0.0
 40
0.5
100
AcDbArc
 50
275.9888381742208
 51
315.0000141232433
  0
LINE
  5
13ACA
330
1F
100
AcDbEntity
  8
0
 48
0.27
100
AcDbLine
 10
7.5
 20
7.609345046299988
 30
0.0
 11
9.439999999999828
 21
6.805771015400052
 31
0.0
  0
LINE
  5
13ACB
330
1F
100
AcDbEntity
  8
0
 48
0.27
100
AcDbLine
 10
6.848011191720387
 20
4.213780926617953
 30
0.0
 11
6.739804699999807
 21
4.105574378200104
 31
0.0
  0
LINE
  5
13ACC
330
1F
100
AcDbEntity
  8
0
 48
0.27
100
AcDbLine
 10
6.648080611199701
 20
6.757425237500099
 30
0.0
 11
7.051246334199731
 21
5.647382274499916
 31
0.0
  0
LINE
  5
13ACD
330
1F
100
AcDbEntity
  8
0
 48
0.27
100
AcDbLine
 10
6.310801168499892
 20
4.906937615300067
 30
0.0
 11
6.962996147310718
 21
4.392772684269505
 31
0.0
  0
ARC
  5
13ACE
330
1F
100
AcDbEntity
  8
0
 48
0.27
100
AcDbCircle
 10
6.821506203499892
 20
5.136677396500076
 30
0.0
 40
0.5600000000000001
100
AcDbArc
 50
65.77944495949968
 51
204.2205159682997
  0
LINE
  5
13ACF
330
1F
100
AcDbEntity
  8
0
 48
0.27
100
AcDbLine
 10
6.310801167699878
 20
4.906937614499996
 30
0.0
 11
5.869804698899997
 21
4.465940914600068
 31
0.0
  0
LINE
  5
13AD0
330
1F
100
AcDbEntity
  8
0
 48
0.27
100
AcDbLine
 10
6.739804699999807
 20
4.105574378200104
 30
0.0
 11
6.739804699999807
 21
3.703208711000156
 31
0.0
  0
LINE
  5
13AD1
330
1F
100
AcDbEntity
  8
0
 48
0.27
100
AcDbLine
 10
4.799804699999639
 20
4.909149261699996
 30
0.0
 11
5.20075837989998
 21
5.310103151699976
 31
0.0
  0
LINE
  5
13AD2
330
1F
100
AcDbEntity
  8
0
 48
0.27
100
AcDbLine
 10
5.869804699999803
 20
4.465940914200066
 30
0.0
 11
5.869804699999803
 21
3.342842911700005
 31
0.0
  0
LINE
  5
13AD3
330
1F
100
AcDbEntity
  8
0
 48
0.27
100
AcDbLine
 10
4.799804699999639
 20
4.909149261699996
 30
0.0
 11
6.739804699999807
 21
4.105574378200104
 31
0.0
  0
LINE
  5
13AD4
330
1F
100
AcDbEntity
  8
0
 48
0.27
100
AcDbLine
 10
5.20075837989998
 20
5.310103151699976
 30
0.0
 11
6.310801167699878
 21
4.906937614499996
 31
0.0
  0
ARC
  5
13AD5
330
1F
100
AcDbEntity
  8
0
 48
0.27
100
AcDbCircle
 10
6.821506203499892
 20
5.136677396500076
 30
0.0
 40
1.629999999999999
100
AcDbArc
 50
96.10760602089928
 51
173.8923882196008
  0
LINE
  5
13AD6
330
1F
100
AcDbEntity
  8
0
 48
0.27
100
AcDbLine
 10
4.799804699999639
 20
2.899634400000067
 30
0.0
 11
6.739804699999807
 21
3.703208711000156
 31
0.0
  0
LINE
  5
13AD7
330
1F
100
AcDbEntity
  8
0
 48
0.27
100
AcDbLine
 10
4.799804699999639
 20
2.899634400000067
 30
0.0
 11
4.799804699999639
 21
4.909149261699996
 31
0.0
  0
ARC
  5
13AD8
330
1F
100
AcDbEntity
  8
0
 48
0.27
100
AcDbCircle
 10
6.494457708500816
 20
4.567334224584884
 30
0.0
 40
0.5
100
AcDbArc
 50
315.0000150107542
 51
354.0111902439174
  0
LINE
  5
13AD9
330
1F
100
AcDbEntity
  8
0
 48
0.27
100
AcDbLine
 10
6.739804699999807
 20
3.703208711000156
 30
0.0
 11
9.643013410999845
 21
0.7999999999999883
 31
0.0
  0
LINE
  5
13ADA
330
1F
100
AcDbEntity
  8
0
 48
0.27
100
AcDbLine
 10
8.412647611775922
 20
0.7999999999999883
 30
0.0
 11
5.869804699999803
 21
3.342842911700005
 31
0.0
  0
LINE
  5
13ADB
330
1F
100
AcDbEntity
  8
0
 48
0.27
100
AcDbLine
 10
6.8994390999998
 20
0.7999999999999883
 30
0.0
 11
4.799804699999639
 21
2.899634400000067
 31
0.0
  0
LINE
  5
13ADC
330
1F
100
AcDbEntity
  8
0
 48
0.27
100
AcDbLine
 10
6.648080611199701
 20
6.757425237500099
 30
0.0
 11
7.5
 21
7.609345046299988
 31
0.0
  0
LINE
  5
13ADD
330
1F
100
AcDbEntity
  8
0
 48
0.27
100
AcDbLine
 10
7.051246334199731
 20
5.647382274499916
 30
0.0
 11
7.559669704295856
 21
4.989169042157685
 31
0.0
  0
ARC
  5
13ADE
330
1F
100
AcDbEntity
  8
0
 48
0.27
100
AcDbCircle
 10
7.488999999999804
 20
4.463000000000066
 30
0.0
 40
0.5
100
AcDbArc
 50
95.988838174214
 51
174.0111902439174
  0
LINE
  5
13ADF
330
1F
100
AcDbEntity
  8
0
 48
0.27
100
AcDbLine
 10
8.569999999999822
 20
7.166136689100067
 30
0.0
 11
7.051246334199731
 21
5.647382274499916
 31
0.0
  0
LINE
  5
13AE0
330
1F
100
AcDbEntity
  8
0
 48
0.27
100
AcDbLine
 10
9.439999999999828
 20
9.753027668100212
 30
0.0
 11
9.439999999999828
 21
6.805771015400052
 31
0.0
  0
LINE
  5
13AE1
330
1F
100
AcDbEntity
  8
0
 48
0.27
100
AcDbLine
 10
7.5
 20
8.949454443499956
 30
0.0
 11
9.439999999999828
 21
9.753027668100157
 31
0.0
  0
ARC
  5
13AE2
330
1F
100
AcDbEntity
  8
0
 48
0.27
100
AcDbCircle
 10
7.377712395382785
 20
11.1082117584422
 30
0.0
 40
0.5
100
AcDbArc
 50
44.99994522843893
 51
83.61045435169051
  0
LINE
  5
13AE3
330
1F
100
AcDbEntity
  8
0
 48
0.27
100
AcDbLine
 10
6.634490912499813
 20
9.814965185700073
 30
0.0
 11
7.042859542199834
 21
10.91980573350006
 31
0.0
  0
ARC
  5
13AE4
330
1F
100
AcDbEntity
  8
0
 48
0.27
100
AcDbCircle
 10
6.821506203499892
 20
11.43420120340003
 30
0.0
 40
0.5600000000000001
100
AcDbArc
 50
156.7170239099993
 51
293.2830525552943
  0
LINE
  5
13AE5
330
1F
100
AcDbEntity
  8
0
 48
0.27
100
AcDbLine
 10
5.202270193499997
 20
11.24718584600007
 30
0.0
 11
4.949456226299843
 21
11.49999999999998
 31
0.0
  0
LINE
  5
13AE6
330
1F
100
AcDbEntity
  8
0
 48
0.27
100
AcDbLine
 10
5.202270193499997
 20
11.24718584600007
 30
0.0
 11
6.307110228499822
 21
11.65555377819991
 31
0.0
  0
LINE
  5
13AE7
330
1F
100
AcDbEntity
  8
0
 48
0.27
100
AcDbLine
 10
7.042859542199834
 20
10.91980573350006
 30
0.0
 11
7.554920606591394
 21
11.57575560652518
 31
0.0
  0
ARC
  5
13AE8
330
1F
100
AcDbEntity
  8
0
 48
0.27
100
AcDbCircle
 10
7.488999999999804
 20
12.10200000000007
 30
0.0
 40
0.5
100
AcDbArc
 50
186.3893763699057
 51
263.6104543516903
  0
LINE
  5
13AE9
330
1F
100
AcDbEntity
  8
0
 48
0.27
100
AcDbLine
 10
1.564097183681155
 20
13.43999999999998
 30
0.0
 11
5.753034352199847
 21
13.43999999999998
 31
0.0
  0
LINE
  5
13AEA
330
1F
100
AcDbEntity
  8
0
 48
0.27
100
AcDbLine
 10
-4.0
 20
20.49999999999998
 30
0.0
 11
4.0
 21
20.49999999999998
 31
0.0
  0
LINE
  5
13AEB
330
1F
100
AcDbEntity
  8
0
 48
0.27
100
AcDbLine
 10
-5.392664969600104
 20
12.57000000000003
 30
0.0
 11
5.392664969599876
 21
12.57000000000003
 31
0.0
  0
ARC
  5
13AED
330
1F
100
AcDbEntity
  8
0
 48
0.27
100
AcDbCircle
 10
0.0
 20
16.00000000000009
 30
0.0
 40
3.0
100
AcDbArc
 50
301.4239064858001
 51
238.5760935141998
  0
LINE
  5
13AEE
330
1F
100
AcDbEntity
  8
0
 48
0.27
100
AcDbLine
 10
-6.848765042956188
 20
12.34426776937827
 30
0.0
 11
-5.753033622200177
 21
13.43999999999998
 31
0.0
  0
LINE
  5
13AEF
330
1F
100
AcDbEntity
  8
0
 48
0.27
100
AcDbLine
 10
-4.5
 20
20.00000000000009
 30
0.0
 11
-4.0
 21
20.49999999999998
 31
0.0
  0
LINE
  5
13AF0
330
1F
100
AcDbEntity
  8
0
 48
0.27
100
AcDbLine
 10
-5.753033622200177
 20
13.43999999999998
 30
0.0
 11
-1.564097183681724
 21
13.43999999999998
 31
0.0
  0
ARC
  5
13AF1
330
1F
100
AcDbEntity
  8
0
 48
0.27
100
AcDbCircle
 10
0.0
 20
16.00000000000009
 30
0.0
 40
3.0
100
AcDbArc
 50
238.5760935141998
 51
301.4239064858001
  0
LINE
  5
13AF2
330
1F
100
AcDbEntity
  8
0
 48
0.27
100
AcDbLine
 10
5.753034352199847
 20
13.43999999999998
 30
0.0
 11
6.848764950901794
 21
12.3442685914325
 31
0.0
  0
LINE
  5
13AF3
330
1F
100
AcDbEntity
  8
0
 48
0.27
100
AcDbLine
 10
4.5
 20
20.00000000000009
 30
0.0
 11
4.0
 21
20.49999999999998
 31
0.0
  0
CIRCLE
  5
13B27
330
1F
100
AcDbEntity
  8
0
 48
0.27
100
AcDbCircle
 10
0.0
 20
16.00000000000009
 30
0.0
 40
0.25
  0
LWPOLYLINE
  5
13B28
330
1F
100
AcDbEntity
  8
0
 48
0.27
100
AcDbPolyline
 90
        6
 70
     1
 43
0.0
 10
0.0
 20
18.88675134594822
 10
-2.5
 20
17.44337567297416
 10
-2.5
 20
14.55662432702603
 10
0.0
 20
13.11324865405197
 10
2.5
 20
14.55662432702603
 10
2.5
 20
17.44337567297415
  0
POINT
  5
13B2B
330
1F
100
AcDbEntity
  8
0
100
AcDbPoint
 10
2.5
 20
16.00000000000009
 30
0.0
1001
pntflag
1000
endpoint
  0
INSERT
  5
13E2F
330
1F
100
AcDbEntity
  8
0
100
AcDbBlockReference
  2
HGW15CC_F
 10
137.7708658436231
 20
0.0000000000000071
 30
0.0
  0
LINE
  5
13E30
330
1F
100
AcDbEntity
  8
虛線
 48
0.27
100
AcDbLine
 10
16.09999999999979
 20
13.54999999999999
 30
0.0
 11
16.5
 21
13.94999999999991
 31
0.0
  0
LINE
  5
13E31
330
1F
100
AcDbEntity
  8
虛線
 48
0.27
100
AcDbLine
 10
15.25
 20
13.54999999999999
 30
0.0
 11
17.5
 21
13.54999999999999
 31
0.0
  0
LINE
  5
13E32
330
1F
100
AcDbEntity
  8
0
 48
0.27
100
AcDbLine
 10
13.24999999999977
 20
14.0000000000001
 30
0.0
 11
16.19999999999981
 21
14.0000000000001
 31
0.0
  0
LINE
  5
13E33
330
1F
100
AcDbEntity
  8
0
 48
0.27
100
AcDbLine
 10
15.19999999999981
 20
19.49999999999998
 30
0.0
 11
16.19999999999981
 21
18.5000000000001
 31
0.0
  0
LINE
  5
13E34
330
1F
100
AcDbEntity
  8
0
 48
0.27
100
AcDbLine
 10
16.7327824346394
 20
1.972112343840947
 30
0.0
 11
15.20525588832561
 21
0.7999999999999901
 31
0.0
  0
LINE
  5
13E35
330
1F
100
AcDbEntity
  8
0
 48
0.27
100
AcDbLine
 10
16.19999999999981
 20
1.79999999999999
 30
0.0
 11
15.19999999999981
 21
0.7999999999999901
 31
0.0
  0
LINE
  5
13E36
330
1F
100
AcDbEntity
  8
0
 48
0.27
100
AcDbLine
 10
13.24999999999977
 20
8.000000000000099
 30
0.0
 11
16.19999999999981
 21
8.000000000000099
 31
0.0
  0
LINE
  5
13E37
330
1F
100
AcDbEntity
  8
0
 48
0.27
100
AcDbLine
 10
14.5
 20
20.49999999999998
 30
0.0
 11
22.5
 21
20.49999999999998
 31
0.0
  0
LINE
  5
13E38
330
1F
100
AcDbEntity
  8
虛線
 48
0.27
100
AcDbLine
 10
-16.5
 20
13.94999999999991
 30
0.0
 11
-21.49999999999999
 21
13.94999999999991
 31
0.0
  0
LINE
  5
13E39
330
1F
100
AcDbEntity
  8
0
 48
0.27
100
AcDbLine
 10
-17.5
 20
13.54999999999999
 30
0.0
 11
-23.0
 21
13.54999999999999
 31
0.0
  0
ARC
  5
13E3A
330
1F
100
AcDbEntity
  8
0
 48
0.27
100
AcDbCircle
 10
-20.84812049648506
 20
9.600000000000008
 30
0.0
 40
2.0
100
AcDbArc
 50
15.00000000000037
 51
90.0
  0
LINE
  5
13E3B
330
1F
100
AcDbEntity
  8
虛線
 48
0.27
100
AcDbLine
 10
-16.5
 20
20.1499999999999
 30
0.0
 11
-21.49999999999999
 21
20.1499999999999
 31
0.0
  0
LINE
  5
13E3C
330
1F
100
AcDbEntity
  8
0
 48
0.27
100
AcDbLine
 10
-16.73391457067
 20
1.972981062371424
 30
0.0
 11
-18.91626884390677
 21
10.11763809020509
 31
0.0
  0
LINE
  5
13E3D
330
1F
100
AcDbEntity
  8
0
 48
0.27
100
AcDbLine
 10
-22.5
 20
20.5000000000001
 30
0.0
 11
-14.5
 21
20.49999999999998
 31
0.0
  0
LINE
  5
13E3E
330
1F
100
AcDbEntity
  8
虛線
 48
0.27
100
AcDbLine
 10
-21.10000000000002
 20
20.1499999999999
 30
0.0
 11
-21.10000000000002
 21
13.94999999999991
 31
0.0
  0
LINE
  5
13E3F
330
1F
100
AcDbEntity
  8
0
 48
0.27
100
AcDbLine
 10
-22.5
 20
20.5000000000001
 30
0.0
 11
-23.49999999999988
 21
19.50000000000009
 31
0.0
  0
LINE
  5
13E40
330
1F
100
AcDbEntity
  8
0
 48
0.27
100
AcDbLine
 10
-23.49999999999988
 20
14.49999999999987
 30
0.0
 11
-23.49999999999988
 21
19.50000000000009
 31
0.0
  0
LINE
  5
13E41
330
1F
100
AcDbEntity
  8
虛線
 48
0.27
100
AcDbLine
 10
-21.9000000000002
 20
13.54999999999999
 30
0.0
 11
-21.49999999999999
 21
13.94999999999991
 31
0.0
  0
LINE
  5
13E42
330
1F
100
AcDbEntity
  8
0
 48
0.27
100
AcDbLine
 10
-23.0
 20
13.99999999999998
 30
0.0
 11
-23.49999999999988
 21
14.49999999999987
 31
0.0
  0
LINE
  5
13E43
330
1F
100
AcDbEntity
  8
0
 48
0.27
100
AcDbLine
 10
-23.0
 20
12.1
 30
0.0
 11
-22.5
 21
11.6
 31
0.0
  0
LINE
  5
13E44
330
1F
100
AcDbEntity
  8
0
 48
0.27
100
AcDbLine
 10
-20.84812049648506
 20
11.6
 30
0.0
 11
-22.5
 21
11.6
 31
0.0
  0
LINE
  5
13E45
330
1F
100
AcDbEntity
  8
0
 48
0.27
100
AcDbLine
 10
-23.0
 20
12.1
 30
0.0
 11
-23.0
 21
13.99999999999998
 31
0.0
  0
LINE
  5
13E46
330
1F
100
AcDbEntity
  8
虛線
 48
0.27
100
AcDbLine
 10
-21.84999999999991
 20
20.5000000000001
 30
0.0
 11
-21.49999999999999
 21
20.1499999999999
 31
0.0
  0
LINE
  5
13E47
330
1F
100
AcDbEntity
  8
虛線
 48
0.27
100
AcDbLine
 10
-21.49999999999999
 20
20.1499999999999
 30
0.0
 11
-21.49999999999999
 21
13.94999999999991
 31
0.0
  0
LINE
  5
13E48
330
1F
100
AcDbEntity
  8
中心線
 48
0.27
100
AcDbLine
 10
-19.0
 20
21.54999999999999
 30
0.0
 11
-19.0
 21
10.54999999999999
 31
0.0
  0
LINE
  5
13E50
330
1F
100
AcDbEntity
  8
0
 48
0.27
100
AcDbLine
 10
-15.20000000000016
 20
19.49999999999998
 30
0.0
 11
15.19999999999981
 21
19.49999999999998
 31
0.0
  0
LINE
  5
13E55
330
1F
100
AcDbEntity
  8
虛線
 48
0.27
100
AcDbLine
 10
-15.25
 20
13.54999999999999
 30
0.0
 11
-15.25
 21
0.8343333644411714
 31
0.0
  0
ARC
  5
13E57
330
1F
100
AcDbEntity
  8
0
 48
0.27
100
AcDbCircle
 10
-13.25
 20
10.99999999999998
 30
0.0
 40
3.0
100
AcDbArc
 50
270.0
 51
90.0
  0
LINE
  5
13E58
330
1F
100
AcDbEntity
  8
0
 48
0.27
100
AcDbLine
 10
-17.5
 20
13.54999999999999
 30
0.0
 11
-17.5
 21
4.782050807568737
 31
0.0
  0
LINE
  5
13E59
330
1F
100
AcDbEntity
  8
0
 48
0.27
100
AcDbLine
 10
-16.20000000000015
 20
1.799999999999982
 30
0.0
 11
-16.20000000000016
 21
18.5000000000001
 31
0.0
  0
LINE
  5
13E5A
330
1F
100
AcDbEntity
  8
0
 48
0.27
100
AcDbLine
 10
-6.899439100000208
 20
0.7999999999999901
 30
0.0
 11
-15.20000000000016
 21
0.7999999999999901
 31
0.0
  0
LINE
  5
13E5C
330
1F
100
AcDbEntity
  8
0
 48
0.27
100
AcDbLine
 10
-16.73391457067
 20
1.972981062371417
 30
0.0
 11
-15.20525588832525
 21
0.7999999999999901
 31
0.0
  0
LINE
  5
13E5D
330
1F
100
AcDbEntity
  8
0
 48
0.27
100
AcDbLine
 10
-15.20000000000016
 20
0.7999999999999901
 30
0.0
 11
-16.20000000000016
 21
1.79999999999999
 31
0.0
  0
LINE
  5
13E5E
330
1F
100
AcDbEntity
  8
0
 48
0.27
100
AcDbLine
 10
-13.25
 20
8.000000000000099
 30
0.0
 11
-16.20000000000016
 21
8.000000000000099
 31
0.0
  0
LINE
  5
13E79
330
1F
100
AcDbEntity
  8
0
 48
0.27
100
AcDbLine
 10
-14.0
 20
20.0000000000001
 30
0.0
 11
-4.5
 21
20.0000000000001
 31
0.0
  0
LINE
  5
13E7A
330
1F
100
AcDbEntity
  8
0
 48
0.27
100
AcDbLine
 10
-14.0
 20
20.0000000000001
 30
0.0
 11
-14.5
 21
20.49999999999998
 31
0.0
  0
LINE
  5
13E7B
330
1F
100
AcDbEntity
  8
虛線
 48
0.27
100
AcDbLine
 10
-16.9000000000002
 20
20.1499999999999
 30
0.0
 11
-16.9000000000002
 21
13.94999999999991
 31
0.0
  0
LINE
  5
13E7C
330
1F
100
AcDbEntity
  8
虛線
 48
0.27
100
AcDbLine
 10
-16.5
 20
20.1499999999999
 30
0.0
 11
-16.5
 21
13.94999999999991
 31
0.0
  0
LINE
  5
13E7D
330
1F
100
AcDbEntity
  8
虛線
 48
0.27
100
AcDbLine
 10
-16.09999999999989
 20
13.54999999999999
 30
0.0
 11
-16.5
 21
13.94999999999991
 31
0.0
  0
LINE
  5
13E7E
330
1F
100
AcDbEntity
  8
虛線
 48
0.27
100
AcDbLine
 10
-16.15000000000009
 20
20.5000000000001
 30
0.0
 11
-16.5
 21
20.1499999999999
 31
0.0
  0
LINE
  5
13E7F
330
1F
100
AcDbEntity
  8
虛線
 48
0.27
100
AcDbLine
 10
-15.25
 20
13.54999999999999
 30
0.0
 11
-17.5
 21
13.54999999999999
 31
0.0
  0
LINE
  5
13E80
330
1F
100
AcDbEntity
  8
0
 48
0.27
100
AcDbLine
 10
-13.25
 20
14.0000000000001
 30
0.0
 11
-16.20000000000016
 21
14.0000000000001
 31
0.0
  0
LINE
  5
13E81
330
1F
100
AcDbEntity
  8
0
 48
0.27
100
AcDbLine
 10
-16.20000000000016
 20
18.5000000000001
 30
0.0
 11
-15.20000000000016
 21
19.49999999999998
 31
0.0
  0
LINE
  5
13E95
330
1F
100
AcDbEntity
  8
虛線
 48
0.27
100
AcDbLine
 10
15.25
 20
13.54999999999999
 30
0.0
 11
15.25
 21
0.8343333644408943
 31
0.0
  0
ARC
  5
13E97
330
1F
100
AcDbEntity
  8
0
 48
0.27
100
AcDbCircle
 10
13.24999999999977
 20
10.99999999999998
 30
0.0
 40
3.0
100
AcDbArc
 50
90.0
 51
270.0
  0
LINE
  5
13EB3
330
1F
100
AcDbEntity
  8
0
 48
0.27
100
AcDbLine
 10
15.19999999999981
 20
0.7999999999999901
 30
0.0
 11
6.899439099999803
 21
0.7999999999999901
 31
0.0
  0
LINE
  5
13EB6
330
1F
100
AcDbEntity
  8
0
 48
0.27
100
AcDbLine
 10
14.0
 20
20.0000000000001
 30
0.0
 11
4.5
 21
20.0000000000001
 31
0.0
  0
LINE
  5
13EC3
330
1F
100
AcDbEntity
  8
0
 48
0.27
100
AcDbLine
 10
14.0
 20
20.0000000000001
 30
0.0
 11
14.5
 21
20.49999999999998
 31
0.0
  0
LINE
  5
13EC6
330
1F
100
AcDbEntity
  8
0
 48
0.27
100
AcDbLine
 10
17.5
 20
13.54999999999999
 30
0.0
 11
17.5
 21
4.782050807568957
 31
0.0
  0
LINE
  5
13EC7
330
1F
100
AcDbEntity
  8
0
 48
0.27
100
AcDbLine
 10
16.19999999999981
 20
18.5000000000001
 30
0.0
 11
16.19999999999981
 21
1.79999999999999
 31
0.0
  0
LINE
  5
13EC8
330
1F
100
AcDbEntity
  8
0
 48
0.27
100
AcDbLine
 10
16.7327824346394
 20
1.97211234384094
 30
0.0
 11
18.90221489359372
 21
10.11488781379516
 31
0.0
  0
LINE
  5
13EC9
330
1F
100
AcDbEntity
  8
0
 48
0.27
100
AcDbLine
 10
20.83480138304412
 20
11.6
 30
0.0
 11
23.0
 21
11.6
 31
0.0
  0
LINE
  5
13ECA
330
1F
100
AcDbEntity
  8
虛線
 48
0.27
100
AcDbLine
 10
21.49999999999998
 20
20.10000000000001
 30
0.0
 11
21.49999999999998
 21
13.94999999999991
 31
0.0
  0
LINE
  5
13ECB
330
1F
100
AcDbEntity
  8
0
 48
0.27
100
AcDbLine
 10
22.5
 20
20.49999999999998
 30
0.0
 11
23.5
 21
19.49999999999998
 31
0.0
  0
LINE
  5
13ECC
330
1F
100
AcDbEntity
  8
0
 48
0.27
100
AcDbLine
 10
23.5
 20
12.1
 30
0.0
 11
23.5
 21
19.49999999999998
 31
0.0
  0
LINE
  5
13ECD
330
1F
100
AcDbEntity
  8
虛線
 48
0.27
100
AcDbLine
 10
21.89999999999996
 20
13.54999999999999
 30
0.0
 11
21.49999999999998
 21
13.94999999999991
 31
0.0
  0
LINE
  5
13ECE
330
1F
100
AcDbEntity
  8
0
 48
0.27
100
AcDbLine
 10
23.5
 20
12.1
 30
0.0
 11
23.0
 21
11.6
 31
0.0
  0
LINE
  5
13ECF
330
1F
100
AcDbEntity
  8
虛線
 48
0.27
100
AcDbLine
 10
21.89999999999996
 20
20.5000000000001
 30
0.0
 11
21.49999999999998
 21
20.10000000000001
 31
0.0
  0
LINE
  5
13ED0
330
1F
100
AcDbEntity
  8
虛線
 48
0.27
100
AcDbLine
 10
21.09999999999979
 20
20.10000000000001
 30
0.0
 11
21.09999999999979
 21
13.94999999999991
 31
0.0
  0
LINE
  5
13ED1
330
1F
100
AcDbEntity
  8
中心線
 48
0.27
100
AcDbLine
 10
18.99999999999977
 20
21.54999999999999
 30
0.0
 11
18.99999999999977
 21
10.54999999999999
 31
0.0
  0
LINE
  5
13ED2
330
1F
100
AcDbEntity
  8
虛線
 48
0.27
100
AcDbLine
 10
16.5
 20
20.10000000000001
 30
0.0
 11
16.5
 21
13.94999999999991
 31
0.0
  0
LINE
  5
13ED3
330
1F
100
AcDbEntity
  8
虛線
 48
0.27
100
AcDbLine
 10
16.89999999999997
 20
20.10000000000001
 30
0.0
 11
16.89999999999997
 21
13.94999999999991
 31
0.0
  0
LINE
  5
13ED4
330
1F
100
AcDbEntity
  8
虛線
 48
0.27
100
AcDbLine
 10
16.14999999999997
 20
20.44999999999991
 30
0.0
 11
16.5
 21
20.10000000000001
 31
0.0
  0
LINE
  5
13ED5
330
1F
100
AcDbEntity
  8
0
 48
0.27
100
AcDbLine
 10
17.5
 20
13.54999999999999
 30
0.0
 11
23.49999999999977
 21
13.54999999999999
 31
0.0
  0
LINE
  5
13ED6
330
1F
100
AcDbEntity
  8
虛線
 48
0.27
100
AcDbLine
 10
16.5
 20
13.94999999999991
 30
0.0
 11
21.49999999999998
 21
13.94999999999991
 31
0.0
  0
LINE
  5
13ED7
330
1F
100
AcDbEntity
  8
虛線
 48
0.27
100
AcDbLine
 10
16.5
 20
20.10000000000001
 30
0.0
 11
21.49999999999998
 21
20.10000000000001
 31
0.0
  0
ARC
  5
13ED8
330
1F
100
AcDbEntity
  8
0
 48
0.27
100
AcDbCircle
 10
20.83480138304412
 20
9.600000000000008
 30
0.0
 40
2.0
100
AcDbArc
 50
90.0
 51
165.0815534876677
  0
LINE
  5
13ED9
330
1F
100
AcDbEntity
  8
指線
 48
0.27
100
AcDbLine
 10
12.69394366859127
 20
11.5482670123344
 30
0.0
 11
10.55966317351138
 21
11.5486496415708
 31
0.0
  0
LINE
  5
13EDA
330
1F
100
AcDbEntity
  8
指線
 48
0.27
100
AcDbLine
 10
12.69377414930825
 20
10.45234903520029
 30
0.0
 11
10.55949365422837
 21
10.45273166443669
 31
0.0
  0
LINE
  5
13EDB
330
1F
100
AcDbEntity
  8
指線
 48
0.27
100
AcDbLine
 10
13.78985944653776
 20
11.5480973886288
 30
0.0
 11
15.92853208790077
 21
11.54781865816383
 31
0.0
  0
LINE
  5
13EDC
330
1F
100
AcDbEntity
  8
指線
 48
0.27
100
AcDbLine
 10
13.78968992725499
 20
10.45217941149493
 30
0.0
 11
15.928362568618
 21
10.45190068102972
 31
0.0
  0
LINE
  5
13EDD
330
1F
100
AcDbEntity
  8
指線
 48
0.27
100
AcDbLine
 10
12.69377414930825
 20
10.45234903520029
 30
0.0
 11
12.69361917228904
 21
9.450445957364237
 31
0.0
  0
LINE
  5
13EDE
330
1F
100
AcDbEntity
  8
指線
 48
0.27
100
AcDbLine
 10
13.78968992725499
 20
10.45217941149493
 30
0.0
 11
13.78953495045481
 21
9.450276333663623
 31
0.0
  0
LINE
  5
13EDF
330
1F
100
AcDbEntity
  8
指線
 48
0.27
100
AcDbLine
 10
12.69409864539119
 20
12.55017009016546
 30
0.0
 11
12.69394366859127
 21
11.5482670123344
 31
0.0
  0
LINE
  5
13EE0
330
1F
100
AcDbEntity
  8
指線
 48
0.27
100
AcDbLine
 10
13.79001442355696
 20
12.55000046646509
 30
0.0
 11
13.78985944653776
 21
11.5480973886288
 31
0.0
  0
CIRCLE
  5
13EE1
330
1F
100
AcDbEntity
  8
指線
 48
0.27
100
AcDbCircle
 10
13.24999999999977
 20
10.99999999999998
 30
0.0
 40
2.733551208880377
  0
ARC
  5
13EE2
330
1F
100
AcDbEntity
  8
指線
 48
0.27
100
AcDbCircle
 10
13.24999999999977
 20
10.99999999999998
 30
0.0
 40
1.640957465861179
100
AcDbArc
 50
109.8017739016531
 51
160.4747460815326
  0
ARC
  5
13EE3
330
1F
100
AcDbEntity
  8
指線
 48
0.27
100
AcDbCircle
 10
13.24999999999977
 20
10.99999999999998
 30
0.0
 40
1.640957465861179
100
AcDbArc
 50
19.50753063170088
 51
70.78675677480628
  0
ARC
  5
13EE4
330
1F
100
AcDbEntity
  8
指線
 48
0.27
100
AcDbCircle
 10
13.24999999999977
 20
10.99999999999998
 30
0.0
 40
1.640957465861179
100
AcDbArc
 50
289.1955179156217
 51
340.4929998358233
  0
ARC
  5
13EE5
330
1F
100
AcDbEntity
  8
指線
 48
0.27
100
AcDbCircle
 10
13.24999999999977
 20
10.99999999999998
 30
0.0
 40
1.640957465861179
100
AcDbArc
 50
199.4892768756594
 51
250.180500788784
  0
CIRCLE
  5
13EE6
330
1F
100
AcDbEntity
  8
指線
 48
0.27
100
AcDbCircle
 10
-13.25
 20
10.99999999999998
 30
0.0
 40
2.733551208880377
  0
ARC
  5
13EE7
330
1F
100
AcDbEntity
  8
指線
 48
0.27
100
AcDbCircle
 10
-13.25
 20
10.99999999999998
 30
0.0
 40
1.640957465861179
100
AcDbArc
 50
199.4892768756594
 51
250.180500788784
  0
ARC
  5
13EE8
330
1F
100
AcDbEntity
  8
指線
 48
0.27
100
AcDbCircle
 10
-13.25
 20
10.99999999999998
 30
0.0
 40
1.640957465861179
100
AcDbArc
 50
289.1955179156217
 51
340.4929998358233
  0
LINE
  5
13EE9
330
1F
100
AcDbEntity
  8
指線
 48
0.27
100
AcDbLine
 10
-12.71031007274477
 20
10.45217941149493
 30
0.0
 11
-12.71046504954495
 21
9.450276333663623
 31
0.0
  0
LINE
  5
13EEA
330
1F
100
AcDbEntity
  8
指線
 48
0.27
100
AcDbLine
 10
-13.80622585069151
 20
10.45234903520029
 30
0.0
 11
-13.80638082771072
 21
9.450445957364237
 31
0.0
  0
ARC
  5
13EEB
330
1F
100
AcDbEntity
  8
指線
 48
0.27
100
AcDbCircle
 10
-13.25
 20
10.99999999999998
 30
0.0
 40
1.640957465861179
100
AcDbArc
 50
109.8017739016531
 51
160.4747460815326
  0
LINE
  5
13EEC
330
1F
100
AcDbEntity
  8
指線
 48
0.27
100
AcDbLine
 10
-13.80622585069151
 20
10.45234903520029
 30
0.0
 11
-15.94050634577139
 21
10.45273166443669
 31
0.0
  0
LINE
  5
13EED
330
1F
100
AcDbEntity
  8
指線
 48
0.27
100
AcDbLine
 10
-13.8060563314085
 20
11.5482670123344
 30
0.0
 11
-15.94033682648838
 21
11.5486496415708
 31
0.0
  0
ARC
  5
13EEE
330
1F
100
AcDbEntity
  8
指線
 48
0.27
100
AcDbCircle
 10
-13.25
 20
10.99999999999998
 30
0.0
 40
1.640957465861179
100
AcDbArc
 50
19.50753063170088
 51
70.78675677480628
  0
LINE
  5
13EEF
330
1F
100
AcDbEntity
  8
指線
 48
0.27
100
AcDbLine
 10
-12.7099855764428
 20
12.55000046646509
 30
0.0
 11
-12.71014055346201
 21
11.5480973886288
 31
0.0
  0
LINE
  5
13EF0
330
1F
100
AcDbEntity
  8
指線
 48
0.27
100
AcDbLine
 10
-13.80590135460857
 20
12.55017009016546
 30
0.0
 11
-13.8060563314085
 21
11.5482670123344
 31
0.0
  0
LINE
  5
13EF1
330
1F
100
AcDbEntity
  8
指線
 48
0.27
100
AcDbLine
 10
-12.71031007274477
 20
10.45217941149493
 30
0.0
 11
-10.57163743138176
 21
10.45190068102972
 31
0.0
  0
LINE
  5
13EF2
330
1F
100
AcDbEntity
  8
指線
 48
0.27
100
AcDbLine
 10
-12.71014055346201
 20
11.5480973886288
 30
0.0
 11
-10.57146791209899
 21
11.54781865816383
 31
0.0
  0
MTEXT
  5
13F00
330
1F
100
AcDbEntity
  8
0
100
AcDbMText
 10
-21.21983315129926
 20
-18.15853339138472
 30
0.0
 40
7.449612372967188
 41
70.3632
 71
     1
 72
     5
  1
\A1;{\fTimes New Roman|b0|i0|c0|p18;HGW15CC\PC\f???|b0|i0|c0|p65; \fTimes New Roman|b0|i0|c0|p18;: 1160 kgf\PC\f@標楷體|b0|i0|c136|p65;\H0.7x;\S^ 0; \fTimes New Roman|b0|i0|c0|p18;\H1.429x;: 2581 kgf}
  7
型式2
 73
     1
 44
1.0
  0
LINE
  5
13FD5
330
1F
100
AcDbEntity
  8
中心線
 48
0.27
100
AcDbLine
 10
210.8635476476282
 20
83.47127705867556
 30
0.0
 11
193.7635476476282
 21
83.47127705867556
 31
0.0
  0
LINE
  5
13FD6
330
1F
100
AcDbEntity
  8
0
100
AcDbLine
 10
166.9708658449262
 20
90.97127705867547
 30
0.0
 11
222.3807324061459
 21
90.97127705867546
 31
0.0
  0
LINE
  5
13FD7
330
1F
100
AcDbEntity
  8
0
100
AcDbLine
 10
222.3807324061459
 20
75.97127705867568
 30
0.0
 11
166.9708658449261
 21
75.97127705867563
 31
0.0
  0
ARC
  5
13FD8
330
1F
100
AcDbEntity
  8
0
 48
0.27
100
AcDbCircle
 10
104.5708657655928
 20
-71.13417890272301
 30
-52.81420774964979
 40
1.658312395177813
210
0.0000000000000001
220
-0.8660254037844399
230
-0.4999999999999981
100
AcDbArc
 50
119.4962084965723
 51
240.5037915034293
  0
ARC
  5
13FD9
330
1F
100
AcDbEntity
  8
0
 48
0.27
100
AcDbCircle
 10
104.5708657655924
 20
83.47059855276828
 30
-2.499999999999928
 40
1.658312395177744
100
AcDbArc
 50
119.4962084965742
 51
240.503791503433
  0
LINE
  5
13FDA
330
1F
100
AcDbEntity
  8
0
100
AcDbLine
 10
108.5708658423207
 20
75.97127705867554
 30
0.0
 11
57.82159819092476
 21
75.97127705867551
 31
0.0
  0
LINE
  5
13FDB
330
1F
100
AcDbEntity
  8
0
100
AcDbLine
 10
57.82159819092476
 20
90.97127705867546
 30
0.0
 11
108.5708658423207
 21
90.97127705867546
 31
0.0
  0
LINE
  5
13FDC
330
1F
100
AcDbEntity
  8
0
 48
0.27
100
AcDbLine
 10
57.82159819092476
 20
75.97127705867568
 30
0.0
 11
57.82159819092476
 21
90.97127705867546
 31
0.0
  0
LINE
  5
13FDD
330
1F
100
AcDbEntity
  8
0
100
AcDbLine
 10
157.470865843623
 20
87.47127705867567
 30
0.0
 11
118.0708658436229
 21
87.47127705867557
 31
0.0
  0
LINE
  5
13FDE
330
1F
100
AcDbEntity
  8
0
100
AcDbLine
 10
157.470865843623
 20
87.97127705867557
 30
0.0
 11
118.0708658436229
 21
87.97127705867568
 31
0.0
  0
LINE
  5
13FDF
330
1F
100
AcDbEntity
  8
中心線
100
AcDbLine
 10
101.4208658423208
 20
83.47127705867558
 30
0.0
 11
169.347158055612
 21
83.47127705867555
 31
0.0
  0
LINE
  5
13FE0
330
1F
100
AcDbEntity
  8
0
100
AcDbLine
 10
157.470865843623
 20
105.9712770586755
 30
0.0
 11
118.0708658436229
 21
105.9712770586755
 31
0.0
  0
LINE
  5
13FE1
330
1F
100
AcDbEntity
  8
0
100
AcDbLine
 10
157.470865843623
 20
106.9712770586755
 30
0.0
 11
118.0708658436229
 21
106.9712770586755
 31
0.0
  0
LINE
  5
13FE2
330
1F
100
AcDbEntity
  8
0
100
AcDbLine
 10
157.470865843623
 20
97.47127705867569
 30
0.0
 11
118.0708658436229
 21
97.4712770586756
 31
0.0
  0
LINE
  5
13FE3
330
1F
100
AcDbEntity
  8
0
100
AcDbLine
 10
157.470865843623
 20
97.97127705867557
 30
0.0
 11
118.3708658436228
 21
97.97127705867559
 31
0.0
  0
LINE
  5
13FE4
330
1F
100
AcDbEntity
  8
0
100
AcDbLine
 10
157.470865843623
 20
69.47127705867557
 30
0.0
 11
118.0708658436229
 21
69.47127705867557
 31
0.0
  0
LINE
  5
13FE5
330
1F
100
AcDbEntity
  8
0
100
AcDbLine
 10
157.470865843623
 20
68.97127705867557
 30
0.0
 11
118.0708658436229
 21
68.97127705867557
 31
0.0
  0
LINE
  5
13FE6
330
1F
100
AcDbEntity
  8
0
100
AcDbLine
 10
157.470865843623
 20
78.97127705867557
 30
0.0
 11
118.0708658436229
 21
78.97127705867557
 31
0.0
  0
LINE
  5
13FE7
330
1F
100
AcDbEntity
  8
0
100
AcDbLine
 10
157.470865843623
 20
79.47127705867557
 30
0.0
 11
118.0708658436229
 21
79.47127705867557
 31
0.0
  0
LINE
  5
13FE8
330
1F
100
AcDbEntity
  8
0
100
AcDbLine
 10
157.470865843623
 20
59.97127705867557
 30
0.0
 11
118.0708658436229
 21
59.97127705867568
 31
0.0
  0
LINE
  5
13FE9
330
1F
100
AcDbEntity
  8
0
100
AcDbLine
 10
157.470865843623
 20
60.97127705867546
 30
0.0
 11
118.0708658436229
 21
60.97127705867568
 31
0.0
  0
CIRCLE
  5
13FEA
330
1F
100
AcDbEntity
  8
0
100
AcDbCircle
 10
77.82159819092476
 20
83.47127705867556
 30
0.0
 40
3.750308041245887
  0
LINE
  5
13FEB
330
1F
100
AcDbEntity
  8
中心線
 48
0.27
100
AcDbLine
 10
77.82159819092476
 20
92.02127705867559
 30
0.0
 11
77.82159819092476
 21
74.92127705867557
 31
0.0
  0
CIRCLE
  5
13FEC
330
1F
100
AcDbEntity
  8
0
100
AcDbCircle
 10
77.82159819092476
 20
83.47127705867556
 30
0.0
 40
2.250308041245659
  0
LINE
  5
13FED
330
1F
100
AcDbEntity
  8
中心線
 48
0.27
100
AcDbLine
 10
86.37159819092477
 20
83.47127705867556
 30
0.0
 11
69.27159819092475
 21
83.47127705867556
 31
0.0
  0
LINE
  5
13FEE
330
1F
100
AcDbEntity
  8
0
100
AcDbLine
 10
110.0708658423207
 20
99.67127705867568
 30
0.0
 11
110.0708658423207
 21
67.2712770586757
 31
0.0
  0
LINE
  5
13FEF
330
1F
100
AcDbEntity
  8
0
100
AcDbLine
 10
108.5708658423207
 20
67.2712770586757
 30
0.0
 11
108.5708658423207
 21
99.67127705867568
 31
0.0
  0
ARC
  5
13FF0
330
1F
100
AcDbEntity
  8
0
 48
0.27
100
AcDbCircle
 10
104.5708657655924
 20
83.47059855276828
 30
0.0
 40
2.999999999999999
100
AcDbArc
 50
179.9870414916012
 51
254.2068309517417
  0
LINE
  5
13FF1
330
1F
100
AcDbEntity
  8
0
100
AcDbLine
 10
118.0708658436229
 20
59.97127705867557
 30
0.0
 11
118.0708658436229
 21
106.9712770586755
 31
0.0
  0
INSERT
  5
13FF3
330
1F
100
AcDbEntity
  8
0
100
AcDbBlockReference
  2
I1
 10
108.5708658423207
 20
70.2205985527684
 30
0.0
  0
LINE
  5
13FF4
330
1F
100
AcDbEntity
  8
0
 48
0.27
100
AcDbLine
 10
103.754369261393
 20
80.58452571272743
 30
0.0
 11
108.5708658423207
 21
80.58452571272743
 31
0.0
  0
INSERT
  5
13FF5
330
1F
100
AcDbEntity
  8
0
100
AcDbBlockReference
  2
A$C56C87D7E
 10
122.7708658436229
 20
64.47127705867557
 30
0.0
 41
-1.0
 50
270.0
  0
INSERT
  5
13FF7
330
1F
100
AcDbEntity
  8
0
100
AcDbBlockReference
  2
I1
 10
108.5708658423207
 20
96.72059855276817
 30
0.0
  0
ARC
  5
13FF8
330
1F
100
AcDbEntity
  8
0
 48
0.27
100
AcDbCircle
 10
104.5708657655924
 20
83.47059855276828
 30
0.0
 40
2.999999999999998
100
AcDbArc
 50
105.7931690482683
 51
179.9870414916012
  0
ARC
  5
13FF9
330
1F
100
AcDbEntity
  8
0
 48
0.27
100
AcDbCircle
 10
101.6708658423208
 20
83.47127705867558
 30
0.0
 40
0.25
100
AcDbArc
 50
111.3333270897199
 51
248.66667291028
  0
POINT
  5
13FFA
330
1F
100
AcDbEntity
  8
0
100
AcDbPoint
 10
101.4208658423208
 20
83.47127705867558
 30
0.0
1001
pntflag
1000
endpoint
  0
LINE
  5
13FFB
330
1F
100
AcDbEntity
  8
0
 48
0.27
100
AcDbLine
 10
103.754369261393
 20
86.35802840462369
 30
0.0
 11
108.5708658423207
 21
86.35802840462369
 31
0.0
  0
LINE
  5
13FFC
330
1F
100
AcDbEntity
  8
0
 48
0.27
100
AcDbLine
 10
108.5708658423207
 20
84.91397422574227
 30
2.499999999999928
 11
103.7543691846644
 21
84.91397422574227
 31
2.499999999999928
  0
LINE
  5
13FFD
330
1F
100
AcDbEntity
  8
0
 48
0.27
100
AcDbLine
 10
108.5708658423207
 20
82.02722287979415
 30
2.49999999999996
 11
103.7543691846647
 21
82.02722287979415
 31
2.49999999999996
  0
INSERT
  5
13FFE
330
1F
100
AcDbEntity
  8
0
100
AcDbBlockReference
  2
A$C56C87D7E
 10
122.7708658436229
 20
102.4712770586755
 30
0.0
 50
270.0
  0
INSERT
  5
14001
330
1F
100
AcDbEntity
  8
0
100
AcDbBlockReference
  2
I1
 10
166.9708658449262
 20
96.72059855276817
 30
0.0
 41
-1.0
  0
INSERT
  5
14002
330
1F
100
AcDbEntity
  8
0
100
AcDbBlockReference
  2
I1
 10
166.9708658449261
 20
70.2205985527684
 30
0.0
 41
-1.0
  0
LINE
  5
14003
330
1F
100
AcDbEntity
  8
0
100
AcDbLine
 10
157.470865843623
 20
59.97127705867557
 30
0.0
 11
157.470865843623
 21
106.9712770586755
 31
0.0
  0
LINE
  5
14004
330
1F
100
AcDbEntity
  8
中心線
100
AcDbLine
 10
137.7708658436229
 20
58.97127705867557
 30
0.0
 11
137.7708658436229
 21
107.9712770586755
 31
0.0
  0
INSERT
  5
14005
330
1F
100
AcDbEntity
  8
0
100
AcDbBlockReference
  2
A$C56C87D7E
 10
152.7708658436229
 20
64.47127705867557
 30
0.0
 41
-1.0
 50
270.0
  0
INSERT
  5
14006
330
1F
100
AcDbEntity
  8
0
100
AcDbBlockReference
  2
A$C56C87D7E
 10
152.7708658436229
 20
102.4712770586755
 30
0.0
 50
270.0
  0
LINE
  5
14007
330
1F
100
AcDbEntity
  8
0
100
AcDbLine
 10
166.9708658449251
 20
67.2712770586757
 30
0.0
 11
166.9708658449252
 21
99.67127705867568
 31
0.0
  0
LINE
  5
14008
330
1F
100
AcDbEntity
  8
0
100
AcDbLine
 10
165.4708658449252
 20
99.67127705867568
 30
0.0
 11
165.4708658449251
 21
67.2712770586757
 31
0.0
  0
ARC
  5
14009
330
1F
100
AcDbEntity
  8
0
 48
0.27
100
AcDbCircle
 10
-104.570865765592
 20
68.96911539326282
 30
59.0642077496491
 40
1.65831239517767
210
-0.0000000000000001
220
0.8660254037844373
230
-0.5000000000000023
100
AcDbArc
 50
299.4962084965611
 51
60.50379150343128
  0
LINE
  5
1400A
330
1F
100
AcDbEntity
  8
中心線
 48
0.27
100
AcDbLine
 10
202.3135476476283
 20
92.02127705867559
 30
0.0
 11
202.3135476476283
 21
74.92127705867557
 31
0.0
  0
CIRCLE
  5
1400B
330
1F
100
AcDbEntity
  8
0
100
AcDbCircle
 10
202.3135476476283
 20
83.47127705867558
 30
0.0
 40
3.750308041245887
  0
LINE
  5
1400C
330
1F
100
AcDbEntity
  8
0
 48
0.27
100
AcDbLine
 10
222.3807324061459
 20
75.97127705867568
 30
0.0
 11
222.3807324061459
 21
90.97127705867546
 31
0.0
  0
CIRCLE
  5
1400D
330
1F
100
AcDbEntity
  8
0
100
AcDbCircle
 10
202.3135476476283
 20
83.47127705867558
 30
0.0
 40
2.250308041245659
  0
LINE
  5
14016
330
1F
100
AcDbEntity
  8
0
100
AcDbLine
 10
118.0708658436229
 20
99.67127705867568
 30
0.0
 11
108.5708658423207
 21
99.67127705867568
 31
0.0
  0
LINE
  5
14017
330
1F
100
AcDbEntity
  8
0
100
AcDbLine
 10
118.0708658436228
 20
67.2712770586757
 30
0.0
 11
108.5708658423207
 21
67.2712770586757
 31
0.0
  0
LINE
  5
14018
330
1F
100
AcDbEntity
  8
0
100
AcDbLine
 10
157.470865843623
 20
67.2712770586757
 30
0.0
 11
166.9708658449251
 21
67.2712770586757
 31
0.0
  0
LINE
  5
14019
330
1F
100
AcDbEntity
  8
0
100
AcDbLine
 10
157.470865843623
 20
99.67127705867568
 30
0.0
 11
166.9708658449251
 21
99.67127705867568
 31
0.0
  0
ENDSEC
  0
SECTION
  2
OBJECTS
  0
DICTIONARY
  5
C
330
0
100
AcDbDictionary
281
     1
  3
ACAD_COLOR
350
13437
  3
ACAD_GROUP
350
D
  3
ACAD_LAYOUT
350
1A
  3
ACAD_MATERIAL
350
13436
  3
ACAD_MLINESTYLE
350
17
  3
ACAD_PLOTSETTINGS
350
19
  3
ACAD_PLOTSTYLENAME
350
E
  3
ACDBHEADERROUNDTRIPXREC
350
14023
  3
ACDBVARIABLEDICTIONARY
350
4E
  0
DICTIONARY
  5
DDEF
330
2
100
AcDbDictionary
280
     1
281
     1
  3
ACAD_LAYERFILTERS
360
E68E
  3
ACAD_LAYERSTATES
360
DDF0
  0
DICTIONARY
  5
131A3
330
1F
100
AcDbDictionary
280
     1
281
     1
  3
ACAD_LAYOUTSELFREF
360
1342D
  0
DICTIONARY
  5
131A1
330
1B
100
AcDbDictionary
280
     1
281
     1
  3
ACAD_LAYOUTSELFREF
360
1342C
  0
DICTIONARY
  5
13437
102
{ACAD_REACTORS
330
C
102
}
330
C
100
AcDbDictionary
281
     1
  0
DICTIONARY
  5
D
102
{ACAD_REACTORS
330
C
102
}
330
C
100
AcDbDictionary
281
     1
  3
*A1
350
DDE2
  3
*A10
350
137A7
  3
*A11
350
137A8
  3
*A12
350
1379F
  3
*A13
350
137A9
  3
*A14
350
136D5
  3
*A15
350
136D7
  3
*A16
350
1379B
  3
*A17
350
137AA
  3
*A18
350
137AB
  3
*A19
350
DDEB
  3
*A2
350
137A3
  3
*A20
350
137AC
  3
*A21
350
136DC
  3
*A22
350
13736
  3
*A23
350
137A0
  3
*A24
350
137AD
  3
*A25
350
137AE
  3
*A26
350
136D1
  3
*A27
350
137AF
  3
*A28
350
1373A
  3
*A29
350
1373C
  3
*A3
350
137A4
  3
*A30
350
137B0
  3
*A31
350
137B1
  3
*A32
350
136D8
  3
*A33
350
DDEC
  3
*A34
350
13740
  3
*A35
350
13742
  3
*A36
350
DDED
  3
*A37
350
DDEE
  3
*A38
350
13737
  3
*A39
350
136D2
  3
*A4
350
1379A
  3
*A40
350
1379C
  3
*A41
350
136D3
  3
*A42
350
136D4
  3
*A43
350
1373D
  3
*A44
350
136D9
  3
*A45
350
137A1
  3
*A46
350
136DA
  3
*A47
350
136DB
  3
*A48
350
DDE9
  3
*A49
350
13738
  3
*A5
350
137A5
  3
*A50
350
DDE8
  3
*A51
350
13739
  3
*A52
350
DDE5
  3
*A53
350
1373E
  3
*A54
350
DDE4
  3
*A55
350
1373F
  3
*A56
350
DDE7
  3
*A57
350
13798
  3
*A58
350
136D6
  3
*A59
350
13799
  3
*A6
350
DDE3
  3
*A60
350
1379D
  3
*A61
350
136DD
  3
*A62
350
1379E
  3
*A63
350
DDEA
  3
*A64
350
1373B
  3
*A65
350
137A2
  3
*A7
350
DDE6
  3
*A8
350
13741
  3
*A9
350
137A6
  0
DICTIONARY
  5
1A
102
{ACAD_REACTORS
330
C
102
}
330
C
100
AcDbDictionary
281
     1
  3
Model
350
131AF
  3
配置1
350
131B0
  0
DICTIONARY
  5
13436
102
{ACAD_REACTORS
330
C
102
}
330
C
100
AcDbDictionary
281
     1
  0
DICTIONARY
  5
17
102
{ACAD_REACTORS
330
C
102
}
330
C
100
AcDbDictionary
281
     1
  3
STANDARD
350
18
  0
DICTIONARY
  5
19
102
{ACAD_REACTORS
330
C
102
}
330
C
100
AcDbDictionary
281
     1
  3
LANSRO
350
1AB
  0
ACDBDICTIONARYWDFLT
  5
E
102
{ACAD_REACTORS
330
C
102
}
330
C
100
AcDbDictionary
281
     1
  3
Normal
350
F
100
AcDbDictionaryWithDefault
340
F
  0
DICTIONARY
  5
14023
102
{ACAD_REACTORS
330
C
102
}
330
C
100
AcDbDictionary
281
     1
  3
CEPSNTYPE
350
1402D
  3
FINGERPRINTGUID
350
1402E
  3
HYPERLINKBASE
350
14026
  3
INSUNITS
350
1402C
  3
LAYOUTDICT
350
14028
  3
LWETCUNION
350
1402B
  3
PLOTSETDICT
350
14029
  3
PLOTSTYLNAMDICT
350
1402A
  3
PSVPSCALE
350
14030
  3
PUCSBASE
350
14033
  3
PUCSORGBACK
350
14039
  3
PUCSORGBOTTOM
350
14035
  3
PUCSORGFRONT
350
14038
  3
PUCSORGLEFT
350
14036
  3
PUCSORGRIGHT
350
14037
  3
PUCSORGTOP
350
14034
  3
PUCSORTHOREF
350
14031
  3
PUCSORTHOVIEW
350
14032
  3
STYLESHEET
350
14027
  3
TSTACKALIGN
350
14024
  3
TSTACKSIZE
350
14025
  3
UCSBASE
350
1403C
  3
UCSORGBACK
350
14042
  3
UCSORGBOTTOM
350
1403E
  3
UCSORGFRONT
350
14041
  3
UCSORGLEFT
350
1403F
  3
UCSORGRIGHT
350
14040
  3
UCSORGTOP
350
1403D
  3
UCSORTHOREF
350
1403A
  3
UCSORTHOVIEW
350
1403B
  3
VERSIONGUID
350
1402F
  0
DICTIONARY
  5
4E
102
{ACAD_REACTORS
330
C
102
}
330
C
100
AcDbDictionary
281
     1
  3
DIMASSOC
350
13518
  3
PROJECTNAME
350
13519
  3
SORTENTS
350
4F
  0
DICTIONARY
  5
E68E
102
{ACAD_REACTORS
330
DDEF
102
}
330
DDEF
100
AcDbDictionary
280
     1
281
     1
  0
DICTIONARY
  5
DDF0
102
{ACAD_REACTORS
330
DDEF
102
}
330
DDEF
100
AcDbDictionary
281
     1
  0
XRECORD
  5
1342D
102
{ACAD_REACTORS
330
131A3
102
}
330
131A3
100
AcDbXrecord
280
     1
340
1F
  0
XRECORD
  5
1342C
102
{ACAD_REACTORS
330
131A1
102
}
330
131A1
100
AcDbXrecord
280
     1
340
1B
  0
GROUP
  5
DDE2
102
{ACAD_REACTORS
330
D
102
}
330
D
100
AcDbGroup
300

 70
     1
 71
     1
  0
GROUP
  5
137A7
102
{ACAD_REACTORS
330
D
102
}
330
D
100
AcDbGroup
300

 70
     1
 71
     1
  0
GROUP
  5
137A8
102
{ACAD_REACTORS
330
D
102
}
330
D
100
AcDbGroup
300

 70
     1
 71
     1
  0
GROUP
  5
1379F
102
{ACAD_REACTORS
330
D
102
}
330
D
100
AcDbGroup
300

 70
     1
 71
     1
  0
GROUP
  5
137A9
102
{ACAD_REACTORS
330
D
102
}
330
D
100
AcDbGroup
300

 70
     1
 71
     1
  0
GROUP
  5
136D5
102
{ACAD_REACTORS
330
D
102
}
330
D
100
AcDbGroup
300

 70
     1
 71
     1
  0
GROUP
  5
136D7
102
{ACAD_REACTORS
330
D
102
}
330
D
100
AcDbGroup
300

 70
     1
 71
     1
  0
GROUP
  5
1379B
102
{ACAD_REACTORS
330
D
102
}
330
D
100
AcDbGroup
300

 70
     1
 71
     1
  0
GROUP
  5
137AA
102
{ACAD_REACTORS
330
D
102
}
330
D
100
AcDbGroup
300

 70
     1
 71
     1
  0
GROUP
  5
137AB
102
{ACAD_REACTORS
330
D
102
}
330
D
100
AcDbGroup
300

 70
     1
 71
     1
  0
GROUP
  5
DDEB
102
{ACAD_REACTORS
330
D
102
}
330
D
100
AcDbGroup
300

 70
     1
 71
     1
  0
GROUP
  5
137A3
102
{ACAD_REACTORS
330
D
102
}
330
D
100
AcDbGroup
300

 70
     1
 71
     1
  0
GROUP
  5
137AC
102
{ACAD_REACTORS
330
D
102
}
330
D
100
AcDbGroup
300

 70
     1
 71
     1
  0
GROUP
  5
136DC
102
{ACAD_REACTORS
330
D
102
}
330
D
100
AcDbGroup
300

 70
     1
 71
     1
  0
GROUP
  5
13736
102
{ACAD_REACTORS
330
D
102
}
330
D
100
AcDbGroup
300

 70
     1
 71
     1
  0
GROUP
  5
137A0
102
{ACAD_REACTORS
330
D
102
}
330
D
100
AcDbGroup
300

 70
     1
 71
     1
  0
GROUP
  5
137AD
102
{ACAD_REACTORS
330
D
102
}
330
D
100
AcDbGroup
300

 70
     1
 71
     1
  0
GROUP
  5
137AE
102
{ACAD_REACTORS
330
D
102
}
330
D
100
AcDbGroup
300

 70
     1
 71
     1
  0
GROUP
  5
136D1
102
{ACAD_REACTORS
330
D
102
}
330
D
100
AcDbGroup
300

 70
     1
 71
     1
  0
GROUP
  5
137AF
102
{ACAD_REACTORS
330
D
102
}
330
D
100
AcDbGroup
300

 70
     1
 71
     1
  0
GROUP
  5
1373A
102
{ACAD_REACTORS
330
D
102
}
330
D
100
AcDbGroup
300

 70
     1
 71
     1
  0
GROUP
  5
1373C
102
{ACAD_REACTORS
330
D
102
}
330
D
100
AcDbGroup
300

 70
     1
 71
     1
  0
GROUP
  5
137A4
102
{ACAD_REACTORS
330
D
102
}
330
D
100
AcDbGroup
300

 70
     1
 71
     1
  0
GROUP
  5
137B0
102
{ACAD_REACTORS
330
D
102
}
330
D
100
AcDbGroup
300

 70
     1
 71
     1
  0
GROUP
  5
137B1
102
{ACAD_REACTORS
330
D
102
}
330
D
100
AcDbGroup
300

 70
     1
 71
     1
  0
GROUP
  5
136D8
102
{ACAD_REACTORS
330
D
102
}
330
D
100
AcDbGroup
300

 70
     1
 71
     1
  0
GROUP
  5
DDEC
102
{ACAD_REACTORS
330
D
102
}
330
D
100
AcDbGroup
300

 70
     1
 71
     1
  0
GROUP
  5
13740
102
{ACAD_REACTORS
330
D
102
}
330
D
100
AcDbGroup
300

 70
     1
 71
     1
  0
GROUP
  5
13742
102
{ACAD_REACTORS
330
D
102
}
330
D
100
AcDbGroup
300

 70
     1
 71
     1
  0
GROUP
  5
DDED
102
{ACAD_REACTORS
330
D
102
}
330
D
100
AcDbGroup
300

 70
     1
 71
     1
  0
GROUP
  5
DDEE
102
{ACAD_REACTORS
330
D
102
}
330
D
100
AcDbGroup
300

 70
     1
 71
     1
  0
GROUP
  5
13737
102
{ACAD_REACTORS
330
D
102
}
330
D
100
AcDbGroup
300

 70
     1
 71
     1
  0
GROUP
  5
136D2
102
{ACAD_REACTORS
330
D
102
}
330
D
100
AcDbGroup
300

 70
     1
 71
     1
  0
GROUP
  5
1379A
102
{ACAD_REACTORS
330
D
102
}
330
D
100
AcDbGroup
300

 70
     1
 71
     1
  0
GROUP
  5
1379C
102
{ACAD_REACTORS
330
D
102
}
330
D
100
AcDbGroup
300

 70
     1
 71
     1
  0
GROUP
  5
136D3
102
{ACAD_REACTORS
330
D
102
}
330
D
100
AcDbGroup
300

 70
     1
 71
     1
  0
GROUP
  5
136D4
102
{ACAD_REACTORS
330
D
102
}
330
D
100
AcDbGroup
300

 70
     1
 71
     1
  0
GROUP
  5
1373D
102
{ACAD_REACTORS
330
D
102
}
330
D
100
AcDbGroup
300

 70
     1
 71
     1
  0
GROUP
  5
136D9
102
{ACAD_REACTORS
330
D
102
}
330
D
100
AcDbGroup
300

 70
     1
 71
     1
  0
GROUP
  5
137A1
102
{ACAD_REACTORS
330
D
102
}
330
D
100
AcDbGroup
300

 70
     1
 71
     1
  0
GROUP
  5
136DA
102
{ACAD_REACTORS
330
D
102
}
330
D
100
AcDbGroup
300

 70
     1
 71
     1
  0
GROUP
  5
136DB
102
{ACAD_REACTORS
330
D
102
}
330
D
100
AcDbGroup
300

 70
     1
 71
     1
  0
GROUP
  5
DDE9
102
{ACAD_REACTORS
330
D
102
}
330
D
100
AcDbGroup
300

 70
     1
 71
     1
  0
GROUP
  5
13738
102
{ACAD_REACTORS
330
D
102
}
330
D
100
AcDbGroup
300

 70
     1
 71
     1
  0
GROUP
  5
137A5
102
{ACAD_REACTORS
330
D
102
}
330
D
100
AcDbGroup
300

 70
     1
 71
     1
  0
GROUP
  5
DDE8
102
{ACAD_REACTORS
330
D
102
}
330
D
100
AcDbGroup
300

 70
     1
 71
     1
  0
GROUP
  5
13739
102
{ACAD_REACTORS
330
D
102
}
330
D
100
AcDbGroup
300

 70
     1
 71
     1
  0
GROUP
  5
DDE5
102
{ACAD_REACTORS
330
D
102
}
330
D
100
AcDbGroup
300

 70
     1
 71
     1
  0
GROUP
  5
1373E
102
{ACAD_REACTORS
330
D
102
}
330
D
100
AcDbGroup
300

 70
     1
 71
     1
  0
GROUP
  5
DDE4
102
{ACAD_REACTORS
330
D
102
}
330
D
100
AcDbGroup
300

 70
     1
 71
     1
  0
GROUP
  5
1373F
102
{ACAD_REACTORS
330
D
102
}
330
D
100
AcDbGroup
300

 70
     1
 71
     1
  0
GROUP
  5
DDE7
102
{ACAD_REACTORS
330
D
102
}
330
D
100
AcDbGroup
300

 70
     1
 71
     1
  0
GROUP
  5
13798
102
{ACAD_REACTORS
330
D
102
}
330
D
100
AcDbGroup
300

 70
     1
 71
     1
  0
GROUP
  5
136D6
102
{ACAD_REACTORS
330
D
102
}
330
D
100
AcDbGroup
300

 70
     1
 71
     1
  0
GROUP
  5
13799
102
{ACAD_REACTORS
330
D
102
}
330
D
100
AcDbGroup
300

 70
     1
 71
     1
  0
GROUP
  5
DDE3
102
{ACAD_REACTORS
330
D
102
}
330
D
100
AcDbGroup
300

 70
     1
 71
     1
  0
GROUP
  5
1379D
102
{ACAD_REACTORS
330
D
102
}
330
D
100
AcDbGroup
300

 70
     1
 71
     1
  0
GROUP
  5
136DD
102
{ACAD_REACTORS
330
D
102
}
330
D
100
AcDbGroup
300

 70
     1
 71
     1
  0
GROUP
  5
1379E
102
{ACAD_REACTORS
330
D
102
}
330
D
100
AcDbGroup
300

 70
     1
 71
     1
  0
GROUP
  5
DDEA
102
{ACAD_REACTORS
330
D
102
}
330
D
100
AcDbGroup
300

 70
     1
 71
     1
  0
GROUP
  5
1373B
102
{ACAD_REACTORS
330
D
102
}
330
D
100
AcDbGroup
300

 70
     1
 71
     1
  0
GROUP
  5
137A2
102
{ACAD_REACTORS
330
D
102
}
330
D
100
AcDbGroup
300

 70
     1
 71
     1
  0
GROUP
  5
DDE6
102
{ACAD_REACTORS
330
D
102
}
330
D
100
AcDbGroup
300

 70
     1
 71
     1
  0
GROUP
  5
13741
102
{ACAD_REACTORS
330
D
102
}
330
D
100
AcDbGroup
300

 70
     1
 71
     1
  0
GROUP
  5
137A6
102
{ACAD_REACTORS
330
D
102
}
330
D
100
AcDbGroup
300

 70
     1
 71
     1
  0
LAYOUT
  5
131AF
102
{ACAD_XDICTIONARY
360
13514
102
}
102
{ACAD_REACTORS
330
1A
102
}
330
1A
100
AcDbPlotSettings
  1

  2
HP 2200
  4

  6

 40
0.0
 41
0.0
 42
0.0
 43
0.0
 44
0.0
 45
0.0
 46
0.0
 47
0.0
 48
0.0
 49
0.0
140
0.0
141
0.0
142
1.0
143
1.0
 70
  1712
 72
     0
 73
     0
 74
     0
  7
AAA.ctb
 75
     0
147
1.0
148
0.0
149
0.0
100
AcDbLayout
  1
Model
 70
     1
 71
     0
 10
0.0
 20
0.0
 11
12.0
 21
9.0
 12
0.0
 22
0.0
 32
0.0
 14
0.0
 24
0.0
 34
0.0
 15
0.0
 25
0.0
 35
0.0
146
0.0
 13
0.0
 23
0.0
 33
0.0
 16
1.0
 26
0.0
 36
0.0
 17
0.0
 27
1.0
 37
0.0
 76
     0
330
1F
  0
LAYOUT
  5
131B0
102
{ACAD_XDICTIONARY
360
13516
102
}
102
{ACAD_REACTORS
330
1A
102
}
330
1A
100
AcDbPlotSettings
  1

  2
HP 2200
  4

  6

 40
0.0
 41
0.0
 42
0.0
 43
0.0
 44
0.0
 45
0.0
 46
0.0
 47
0.0
 48
0.0
 49
0.0
140
0.0
141
0.0
142
1.0
143
1.0
 70
   688
 72
     0
 73
     0
 74
     5
  7
AAA.ctb
 75
    16
147
1.0
148
0.0
149
0.0
100
AcDbLayout
  1
配置1
 70
     1
 71
     1
 10
0.0
 20
0.0
 11
420.0
 21
297.0
 12
0.0
 22
0.0
 32
0.0
 14
1.000000000000000E+20
 24
1.000000000000000E+20
 34
1.000000000000000E+20
 15
-1.000000000000000E+20
 25
-1.000000000000000E+20
 35
-1.000000000000000E+20
146
0.0
 13
0.0
 23
0.0
 33
0.0
 16
1.0
 26
0.0
 36
0.0
 17
0.0
 27
1.0
 37
0.0
 76
     0
330
1B
  0
MLINESTYLE
  5
18
102
{ACAD_REACTORS
330
17
102
}
330
17
100
AcDbMlineStyle
  2
STANDARD
 70
     0
  3

 62
   256
 51
90.0
 52
90.0
 71
     2
 49
0.5
 62
   256
  6
BYLAYER
 49
-0.5
 62
   256
  6
BYLAYER
  0
PLOTSETTINGS
  5
1AB
102
{ACAD_XDICTIONARY
360
13510
102
}
102
{ACAD_REACTORS
330
19
102
}
330
19
100
AcDbPlotSettings
  1
LANSRO
  2
\\1260\HP2200
  4
A4
  6

 40
6.043083190917967
 41
6.762742042541503
 42
7.736419677734375
 43
5.027069091796875
 44
209.9733276367186
 45
296.9683227539062
 46
5.15
 47
0.0
 48
0.0
 49
0.0
140
0.0
141
0.0
142
1.0
143
0.8829829263240881
 70
  1716
 72
     1
 73
     1
 74
     0
  7
AAA.ctb
 75
     0
147
1.132524729739748
148
-132.2970149058029
149
-71.78507365635891
  0
ACDBPLACEHOLDER
  5
F
102
{ACAD_REACTORS
330
E
102
}
330
E
  0
XRECORD
  5
1402D
102
{ACAD_REACTORS
330
14023
102
}
330
14023
100
AcDbXrecord
280
     1
 90
        0
  0
XRECORD
  5
1402E
102
{ACAD_REACTORS
330
14023
102
}
330
14023
100
AcDbXrecord
280
     1
  1
{39E6D4C8-9137-4BAE-85E5-615910EF8948}
  0
XRECORD
  5
14026
102
{ACAD_REACTORS
330
14023
102
}
330
14023
100
AcDbXrecord
280
     1
  1

  0
XRECORD
  5
1402C
102
{ACAD_REACTORS
330
14023
102
}
330
14023
100
AcDbXrecord
280
     1
 90
        4
  0
XRECORD
  5
14028
102
{ACAD_REACTORS
330
14023
102
}
330
14023
100
AcDbXrecord
280
     1
340
1A
  0
XRECORD
  5
1402B
102
{ACAD_REACTORS
330
14023
102
}
330
14023
100
AcDbXrecord
280
     1
 90
    10781
  0
XRECORD
  5
14029
102
{ACAD_REACTORS
330
14023
102
}
330
14023
100
AcDbXrecord
280
     1
340
19
  0
XRECORD
  5
1402A
102
{ACAD_REACTORS
330
14023
102
}
330
14023
100
AcDbXrecord
280
     1
340
E
  0
XRECORD
  5
14030
102
{ACAD_REACTORS
330
14023
102
}
330
14023
100
AcDbXrecord
280
     1
 40
0.0
  0
XRECORD
  5
14033
102
{ACAD_REACTORS
330
14023
102
}
330
14023
100
AcDbXrecord
280
     1
340
0
  0
XRECORD
  5
14039
102
{ACAD_REACTORS
330
14023
102
}
330
14023
100
AcDbXrecord
280
     1
 10
0.0
 20
0.0
 30
0.0
  0
XRECORD
  5
14035
102
{ACAD_REACTORS
330
14023
102
}
330
14023
100
AcDbXrecord
280
     1
 10
0.0
 20
0.0
 30
0.0
  0
XRECORD
  5
14038
102
{ACAD_REACTORS
330
14023
102
}
330
14023
100
AcDbXrecord
280
     1
 10
0.0
 20
0.0
 30
0.0
  0
XRECORD
  5
14036
102
{ACAD_REACTORS
330
14023
102
}
330
14023
100
AcDbXrecord
280
     1
 10
0.0
 20
0.0
 30
0.0
  0
XRECORD
  5
14037
102
{ACAD_REACTORS
330
14023
102
}
330
14023
100
AcDbXrecord
280
     1
 10
0.0
 20
0.0
 30
0.0
  0
XRECORD
  5
14034
102
{ACAD_REACTORS
330
14023
102
}
330
14023
100
AcDbXrecord
280
     1
 10
0.0
 20
0.0
 30
0.0
  0
XRECORD
  5
14031
102
{ACAD_REACTORS
330
14023
102
}
330
14023
100
AcDbXrecord
280
     1
340
0
  0
XRECORD
  5
14032
102
{ACAD_REACTORS
330
14023
102
}
330
14023
100
AcDbXrecord
280
     1
 70
     0
  0
XRECORD
  5
14027
102
{ACAD_REACTORS
330
14023
102
}
330
14023
100
AcDbXrecord
280
     1
  1
AAA.ctb
  0
XRECORD
  5
14024
102
{ACAD_REACTORS
330
14023
102
}
330
14023
100
AcDbXrecord
280
     1
 90
        1
  0
XRECORD
  5
14025
102
{ACAD_REACTORS
330
14023
102
}
330
14023
100
AcDbXrecord
280
     1
 90
       70
  0
XRECORD
  5
1403C
102
{ACAD_REACTORS
330
14023
102
}
330
14023
100
AcDbXrecord
280
     1
340
0
  0
XRECORD
  5
14042
102
{ACAD_REACTORS
330
14023
102
}
330
14023
100
AcDbXrecord
280
     1
 10
0.0
 20
0.0
 30
0.0
  0
XRECORD
  5
1403E
102
{ACAD_REACTORS
330
14023
102
}
330
14023
100
AcDbXrecord
280
     1
 10
0.0
 20
0.0
 30
0.0
  0
XRECORD
  5
14041
102
{ACAD_REACTORS
330
14023
102
}
330
14023
100
AcDbXrecord
280
     1
 10
0.0
 20
0.0
 30
0.0
  0
XRECORD
  5
1403F
102
{ACAD_REACTORS
330
14023
102
}
330
14023
100
AcDbXrecord
280
     1
 10
0.0
 20
0.0
 30
0.0
  0
XRECORD
  5
14040
102
{ACAD_REACTORS
330
14023
102
}
330
14023
100
AcDbXrecord
280
     1
 10
0.0
 20
0.0
 30
0.0
  0
XRECORD
  5
1403D
102
{ACAD_REACTORS
330
14023
102
}
330
14023
100
AcDbXrecord
280
     1
 10
0.0
 20
0.0
 30
0.0
  0
XRECORD
  5
1403A
102
{ACAD_REACTORS
330
14023
102
}
330
14023
100
AcDbXrecord
280
     1
340
0
  0
XRECORD
  5
1403B
102
{ACAD_REACTORS
330
14023
102
}
330
14023
100
AcDbXrecord
280
     1
 70
     0
  0
XRECORD
  5
1402F
102
{ACAD_REACTORS
330
14023
102
}
330
14023
100
AcDbXrecord
280
     1
  1
{E6C20174-6E3B-429A-8B42-473DFA0A83E8}
  0
DICTIONARYVAR
  5
13518
102
{ACAD_REACTORS
330
4E
102
}
330
4E
100
DictionaryVariables
280
     0
  1
1
  0
DICTIONARYVAR
  5
13519
102
{ACAD_REACTORS
330
4E
102
}
330
4E
100
DictionaryVariables
280
     0
  1

  0
DICTIONARYVAR
  5
4F
102
{ACAD_REACTORS
330
4E
102
}
330
4E
100
DictionaryVariables
280
     0
  1
96
  0
DICTIONARY
  5
13514
330
131AF
100
AcDbDictionary
280
     1
281
     1
  3
ACAD_XREC_ROUNDTRIP
360
13515
  0
DICTIONARY
  5
13516
330
131B0
100
AcDbDictionary
280
     1
281
     1
  3
ACAD_XREC_ROUNDTRIP
360
13517
  0
DICTIONARY
  5
13510
330
1AB
100
AcDbDictionary
280
     1
281
     1
  3
ACAD_XREC_ROUNDTRIP
360
13511
  0
XRECORD
  5
13515
102
{ACAD_REACTORS
330
13514
102
}
330
13514
100
AcDbXrecord
280
     1
102
SHADEPLOT
 70
     0
102
SHADEPLOTRESLEVEL
 70
     2
102
SHADEPLOTCUSTOMDPI
 70
   300
  0
XRECORD
  5
13517
102
{ACAD_REACTORS
330
13516
102
}
330
13516
100
AcDbXrecord
280
     1
102
SHADEPLOT
 70
     0
102
SHADEPLOTRESLEVEL
 70
     2
102
SHADEPLOTCUSTOMDPI
 70
   300
  0
XRECORD
  5
13511
102
{ACAD_REACTORS
330
13510
102
}
330
13510
100
AcDbXrecord
280
     1
102
SHADEPLOT
 70
     0
102
SHADEPLOTRESLEVEL
 70
     2
102
SHADEPLOTCUSTOMDPI
 70
   300
  0
ENDSEC
  0
EOF
