  0
SECTION
  2
HEADER
  9
$ACADVER
  1
AC1009
  9
$INSBASE
 10
0.0
 20
0.0
 30
0.0
  9
$EXTMIN
 10
-420.16117479895559
 20
-60.42909700407953
 30
0.0
  9
$EXTMAX
 10
-96.506461712388159
 20
172.05204042443879
 30
0.0
  9
$LIMMIN
 10
-10.0
 20
-15.0
  9
$LIMMAX
 10
120.0
 20
90.0
  9
$ORTHOMODE
 70
     0
  9
$REGENMODE
 70
     0
  9
$FILLMODE
 70
     1
  9
$QTEXTMODE
 70
     0
  9
$MIRRTEXT
 70
     0
  9
$DRAGMODE
 70
     2
  9
$LTSCALE
 40
2.0
  9
$OSMODE
 70
  3071
  9
$ATTMODE
 70
     1
  9
$TEXTSIZE
 40
3.0
  9
$TRACEWID
 40
1.0
  9
$TEXTSTYLE
  7
STANDARD
  9
$CLAYER
  8
0
  9
$CELTYPE
  6
ByLayer
  9
$CECOLOR
 62
   256
  9
$DIMSCALE
 40
1.0
  9
$DIMASZ
 40
3.0
  9
$DIMEXO
 40
1.0
  9
$DIMDLI
 40
6.0
  9
$DIMRND
 40
0.0
  9
$DIMDLE
 40
0.0
  9
$DIMEXE
 40
1.0
  9
$DIMTP
 40
0.0
  9
$DIMTM
 40
0.0
  9
$DIMTXT
 40
3.0
  9
$DIMCEN
 40
1.5
  9
$DIMTSZ
 40
0.0
  9
$DIMTOL
 70
     0
  9
$DIMLIM
 70
     0
  9
$DIMTIH
 70
     1
  9
$DIMTOH
 70
     1
  9
$DIMSE1
 70
     0
  9
$DIMSE2
 70
     0
  9
$DIMTAD
 70
     0
  9
$DIMZIN
 70
     0
  9
$DIMBLK
  1

  9
$DIMASO
 70
     1
  9
$DIMSHO
 70
     0
  9
$DIMPOST
  1

  9
$DIMAPOST
  1

  9
$DIMALT
 70
     0
  9
$DIMALTD
 70
     2
  9
$DIMALTF
 40
25.399999999999999
  9
$DIMLFAC
 40
1.0
  9
$DIMTOFL
 70
     1
  9
$DIMTVP
 40
0.0
  9
$DIMTIX
 70
     0
  9
$DIMSOXD
 70
     0
  9
$DIMSAH
 70
     0
  9
$DIMBLK1
  1

  9
$DIMBLK2
  1

  9
$DIMSTYLE
  2
STANDARD
  9
$DIMCLRD
 70
     0
  9
$DIMCLRE
 70
     0
  9
$DIMCLRT
 70
     0
  9
$DIMTFAC
 40
1.0
  9
$DIMGAP
 40
0.09
  9
$LUNITS
 70
     2
  9
$LUPREC
 70
     4
  9
$SKETCHINC
 40
0.5
  9
$FILLETRAD
 40
0.0
  9
$AUNITS
 70
     0
  9
$AUPREC
 70
     0
  9
$MENU
  1
ACAD
  9
$ELEVATION
 40
0.0
  9
$PELEVATION
 40
0.0
  9
$THICKNESS
 40
0.0
  9
$LIMCHECK
 70
     0
  9
$BLIPMODE
 70
     0
  9
$CHAMFERA
 40
0.0
  9
$CHAMFERB
 40
0.0
  9
$SKPOLY
 70
     0
  9
$TDCREATE
 40
2444975.333333334
  9
$TDUPDATE
 40
2453689.3988311919
  9
$TDINDWG
 40
0.0369552778
  9
$TDUSRTIMER
 40
0.0
  9
$USRTIMER
 70
     0
  9
$ANGBASE
 50
0.0
  9
$ANGDIR
 70
     0
  9
$PDMODE
 70
   171
  9
$PDSIZE
 40
0.001
  9
$PLINEWID
 40
0.0
  9
$COORDS
 70
     2
  9
$SPLFRAME
 70
     0
  9
$SPLINETYPE
 70
     6
  9
$SPLINESEGS
 70
     8
  9
$ATTDIA
 70
     0
  9
$ATTREQ
 70
     1
  9
$HANDLING
 70
     1
  9
$HANDSEED
  5
63F7
  9
$SURFTAB1
 70
     6
  9
$SURFTAB2
 70
     6
  9
$SURFTYPE
 70
     6
  9
$SURFU
 70
     6
  9
$SURFV
 70
     6
  9
$UCSNAME
  2

  9
$UCSORG
 10
0.0
 20
0.0
 30
0.0
  9
$UCSXDIR
 10
1.0
 20
0.0
 30
0.0
  9
$UCSYDIR
 10
0.0
 20
1.0
 30
0.0
  9
$PUCSNAME
  2

  9
$PUCSORG
 10
0.0
 20
0.0
 30
0.0
  9
$PUCSXDIR
 10
1.0
 20
0.0
 30
0.0
  9
$PUCSYDIR
 10
0.0
 20
1.0
 30
0.0
  9
$USERI1
 70
     0
  9
$USERI2
 70
     0
  9
$USERI3
 70
     0
  9
$USERI4
 70
     0
  9
$USERI5
 70
     0
  9
$USERR1
 40
0.0
  9
$USERR2
 40
0.0
  9
$USERR3
 40
0.0
  9
$USERR4
 40
0.0
  9
$USERR5
 40
0.0
  9
$WORLDVIEW
 70
     1
  9
$SHADEDGE
 70
     3
  9
$SHADEDIF
 70
    70
  9
$TILEMODE
 70
     1
  9
$MAXACTVP
 70
    48
  9
$PLIMCHECK
 70
     0
  9
$PEXTMIN
 10
1.0000000000000000E+020
 20
1.0000000000000000E+020
 30
1.0000000000000000E+020
  9
$PEXTMAX
 10
-1.0000000000000000E+020
 20
-1.0000000000000000E+020
 30
-1.0000000000000000E+020
  9
$PLIMMIN
 10
0.0
 20
0.0
  9
$PLIMMAX
 10
12.0
 20
9.0
  9
$UNITMODE
 70
     0
  9
$VISRETAIN
 70
     1
  9
$PLINEGEN
 70
     0
  9
$PSLTSCALE
 70
     0
  0
ENDSEC
  0
SECTION
  2
TABLES
  0
TABLE
  2
VPORT
 70
     2
  0
VPORT
  2
*ACTIVE
 70
     0
 10
0.0
 20
0.0
 11
1.0
 21
1.0
 12
-237.10879170028639
 22
58.73593075527279
 13
457.99999999999972
 23
1082.0
 14
10.0
 24
10.0
 15
10.0
 25
10.0
 16
0.0
 26
0.0
 36
1.0
 17
0.0
 27
0.0
 37
0.0
 40
326.18139922559442
 41
1.7038081805359659
 42
1.0
 43
0.0
 44
0.0
 50
0.0
 51
0.0
 71
     0
 72
   100
 73
     1
 74
     1
 75
     0
 76
     0
 77
     0
 78
     0
  0
ENDTAB
  0
TABLE
  2
LTYPE
 70
     5
  0
LTYPE
  2
ByBlock
 70
     0
  3

 72
    65
 73
     0
 40
0.0
  0
LTYPE
  2
ByLayer
 70
     0
  3

 72
    65
 73
     0
 40
0.0
  0
LTYPE
  2
CONTINUOUS
 70
     0
  3
łsÄň˝u ________________________
 72
    65
 73
     2
 40
200000.0
 49
200000.0
 49
0.0
  0
LTYPE
  2
CENTER2
 70
     0
  3
Center (.5x) ___ _ ___ _ ___ _ ___ _ ___ _ ___
 72
    65
 73
     4
 40
28.574999999999999
 49
19.050000000000001
 49
-3.1749999999999989
 49
3.1749999999999989
 49
-3.1749999999999989
  0
LTYPE
  2
DASHED2
 70
     0
  3
Dashed (.5x) _ _ _ _ _ _ _ _ _ _ _ _ _ _ _ _ _
 72
    65
 73
     2
 40
9.5249999999999986
 49
6.3499999999999988
 49
-3.1749999999999989
  0
ENDTAB
  0
TABLE
  2
LAYER
 70
     8
  0
LAYER
  2
0
 70
     0
 62
     7
  6
CONTINUOUS
  0
LAYER
  2
«ü˝u
 70
     0
 62
     3
  6
CONTINUOUS
  0
LAYER
  2
¤¤¤ß˝u
 70
     0
 62
     4
  6
CENTER2
  0
LAYER
  2
µę˝u
 70
     0
 62
     6
  6
DASHED2
  0
LAYER
  2
«Řşc˝u
 70
     0
 62
     1
  6
CONTINUOUS
  0
LAYER
  2
ĽĐµů˝u
 70
     0
 62
     3
  6
CONTINUOUS
  0
LAYER
  2
AM7
 70
     0
 62
     4
  6
CENTER2
  0
LAYER
  2
AM5
 70
     0
 62
     3
  6
CONTINUOUS
  0
ENDTAB
  0
TABLE
  2
STYLE
 70
     1
  0
STYLE
  2
STANDARD
 70
     0
 40
0.0
 41
1.0
 50
0.0
 71
     0
 42
3.0
  3
txt
  4

  0
ENDTAB
  0
TABLE
  2
VIEW
 70
     0
  0
ENDTAB
  0
TABLE
  2
UCS
 70
     0
  0
ENDTAB
  0
TABLE
  2
APPID
 70
     4
  0
APPID
  2
ACAD
 70
     0
  0
APPID
  2
TCAD
 70
     0
  0
APPID
  2
CONTENTBLOCKICON
 70
     0
  0
APPID
  2
PNTFLAG
 70
     0
  0
ENDTAB
  0
TABLE
  2
DIMSTYLE
 70
     2
  0
DIMSTYLE
  2
STANDARD
 70
     0
  3

  4

  5

  6

  7

 40
1.0
 41
0.18
 42
0.0625
 43
0.38
 44
0.18
 45
0.0
 46
0.0
 47
0.0
 48
0.0
140
0.18
141
0.09
142
0.0
143
25.399999999999999
144
1.0
145
0.0
146
1.0
147
0.09
 71
     0
 72
     0
 73
     1
 74
     1
 75
     0
 76
     0
 77
     0
 78
     0
170
     0
171
     2
172
     0
173
     0
174
     0
175
     0
176
     0
177
     0
178
     0
  0
DIMSTYLE
  2
ISO-25
 70
     0
  3

  4

  5

  6

  7

 40
1.0
 41
1.1999999999999991
 42
0.7
 43
3.75
 44
0.3
 45
0.0
 46
0.0
 47
0.0
 48
0.0
140
1.5
141
2.5
142
0.0
143
0.03937007874016
144
1.0
145
0.0
146
1.0
147
0.5
 71
     0
 72
     0
 73
     0
 74
     0
 75
     0
 76
     0
 77
     1
 78
     1
170
     0
171
     3
172
     1
173
     0
174
     0
175
     0
176
     3
177
     3
178
     2
  0
ENDTAB
  0
ENDSEC
  0
SECTION
  2
BLOCKS
  0
BLOCK
  8
0
  2
$MODEL_SPACE
 70
     0
 10
0.0
 20
0.0
 30
0.0
  3
$MODEL_SPACE
  1

  0
ENDBLK
  5
255
  8
0
  0
BLOCK
 67
     1
  8
0
  2
$PAPER_SPACE
 70
     0
 10
0.0
 20
0.0
 30
0.0
  3
$PAPER_SPACE
  1

  0
ENDBLK
  5
253
 67
     1
  8
0
  0
BLOCK
  8
0
  2
HGW30HC_F
 70
     0
 10
0.0
 20
0.0
 30
0.0
  3
HGW30HC_F
  1

  0
LINE
  5
5464
  8
¤¤¤ß˝u
 10
57.341437231543409
 20
25.200000000000021
 30
0.0
 11
47.658562768456363
 21
25.200000000000021
 31
0.0
  0
LINE
  5
5465
  8
0
 10
57.0
 20
35.0
 30
0.0
 11
46.5
 21
35.0
 31
0.0
  0
LINE
  5
5466
  8
0
 10
57.0
 20
35.000000000000433
 30
0.0
 11
46.5
 21
35.000000000000433
 31
0.0
  0
LINE
  5
5467
  8
0
 10
57.0
 20
33.0
 30
0.0
 11
46.50000000000005
 21
33.0
 31
0.0
  0
LINE
  5
5468
  8
0
 10
57.0
 20
2.0
 30
0.0
 11
46.5
 21
2.0
 31
0.0
  0
LINE
  5
5469
  8
0
 10
57.0
 20
0.0
 30
0.0
 11
46.5
 21
0.0
 31
0.0
  0
LINE
  5
546A
  8
0
 10
57.0
 20
0.0000000000004263
 30
0.0
 11
46.5
 21
0.0000000000004263
 31
0.0
  0
LINE
  5
546B
  8
0
 10
57.0
 20
2.0000000000004259
 30
0.0
 11
46.5
 21
2.0000000000004259
 31
0.0
  0
LINE
  5
546C
  8
0
 10
35.000000000000057
 20
36.000863464771157
 30
0.0
 11
-35.0
 21
36.000863464771193
 31
0.0
  0
LINE
  5
546D
  8
0
 10
-34.99999999999995
 20
36.000863464771157
 30
0.0
 11
46.5
 21
36.000863464771193
 31
0.0
  0
LINE
  5
546E
  8
0
 10
-46.499999999999943
 20
20.000863464771221
 30
0.0
 11
-32.384394415441591
 21
20.000863464771211
 31
0.0
  0
LINE
  5
546F
  8
0
 10
-46.499999999999943
 20
1.9318516525781311
 30
0.0
 11
46.50000000000005
 21
1.9318516525781599
 31
0.0
  0
LINE
  5
5470
  8
0
 10
-46.499999999999943
 20
0.0000000000000284
 30
0.0
 11
46.5
 21
0.0
 31
0.0
  0
LINE
  5
5471
  8
0
 10
-56.999999999999879
 20
35.000000000000462
 30
0.0
 11
-46.499999999999879
 21
35.000000000000462
 31
0.0
  0
LINE
  5
5472
  8
0
 10
-46.499999999999879
 20
33.0
 30
0.0
 11
-56.999999999999879
 21
33.0
 31
0.0
  0
LINE
  5
5473
  8
0
 10
-46.499999999999943
 20
0.0000000000002842
 30
0.0
 11
-48.699999999999989
 21
0.0000000000003126
 31
0.0
  0
LINE
  5
5474
  8
0
 10
-56.999999999999879
 20
2.0000000000004539
 30
0.0
 11
-46.499999999999879
 21
2.0000000000004539
 31
0.0
  0
LINE
  5
5475
  8
0
 10
-56.999999999999879
 20
0.0000000000004547
 30
0.0
 11
-46.499999999999879
 21
0.0000000000004547
 31
0.0
  0
LINE
  5
5476
  8
¤¤¤ß˝u
 10
-52.499999999999893
 20
20.358562768456519
 30
0.0
 11
-52.499999999999893
 21
30.041437231543568
 31
0.0
  0
CIRCLE
  5
5477
  8
0
 10
-52.499999999999893
 20
25.200000000000468
 30
0.0
 40
2.75
  0
CIRCLE
  5
5478
  8
0
 10
-52.499999999999893
 20
25.200000000000468
 30
0.0
 40
2.486916010899999
  0
LINE
  5
5479
  8
0
 10
-56.999999999999879
 20
0.0000000000004547
 30
0.0
 11
-56.999999999999879
 21
35.000000000000462
 31
0.0
  0
LINE
  5
547A
  8
0
 10
-56.999999999999879
 20
35.000000000000433
 30
0.0
 11
-56.999999999999879
 21
0.0000000000004547
 31
0.0
  0
LINE
  5
547B
  8
0
 10
-56.999999999999879
 20
35.000000000000028
 30
0.0
 11
-56.999999999999879
 21
0.0000000000000284
 31
0.0
  0
LINE
  5
547C
  8
¤¤¤ß˝u
 10
-57.341437231543289
 20
25.200000000000049
 30
0.0
 11
-47.658562768456243
 21
25.200000000000049
 31
0.0
  0
CIRCLE
  5
547D
  8
0
 10
-52.499999999999893
 20
25.200000000000468
 30
0.0
 40
2.1855533242999989
  0
CIRCLE
  5
547E
  8
0
 10
-52.499999999999893
 20
25.200000000000468
 30
0.0
 40
0.7185553324000001
  0
LINE
  5
547F
  8
¤¤¤ß˝u
 10
-26.000000000000121
 20
20.87411795087985
 30
0.0
 11
-26.000000000000121
 21
37.029670360820717
 31
0.0
  0
LINE
  5
5480
  8
¤¤¤ß˝u
 10
-25.99999999999994
 20
20.87411795087991
 30
0.0
 11
-25.99999999999994
 21
37.029670360820766
 31
0.0
  0
LINE
  5
5481
  8
0
 10
-19.548800000000249
 20
26.000863464771189
 30
0.0
 11
-19.548800000000249
 21
20.471263464771109
 31
0.0
  0
LINE
  5
5482
  8
0
 10
-32.451200000000313
 20
26.000863464771189
 30
0.0
 11
-32.451200000000313
 21
20.471263464771109
 31
0.0
  0
LINE
  5
5483
  8
0
 10
-46.499999999999879
 20
35.0
 30
0.0
 11
-46.499999999999943
 21
0.0000000000000284
 31
0.0
  0
POLYLINE
  5
5484
  8
0
 66
     1
 10
0.0
 20
0.0
 30
0.0
  0
VERTEX
  5
6294
  8
0
 10
-32.451200000000313
 20
20.42312459117122
 30
0.0
  0
VERTEX
  5
6295
  8
0
 10
-32.444479529369858
 20
20.341565716035088
 30
0.0
  0
VERTEX
  5
6296
  8
0
 10
-32.425062871500757
 20
20.21850032989741
 30
0.0
  0
VERTEX
  5
6297
  8
0
 10
-32.416166788505677
 20
20.16906349559352
 30
0.0
  0
VERTEX
  5
6298
  8
0
 10
-32.379966326989013
 20
19.977421570371149
 30
0.0
  0
VERTEX
  5
6299
  8
0
 10
-32.346891450368283
 20
19.800853488348618
 30
0.0
  0
VERTEX
  5
629A
  8
0
 10
-32.289809648230751
 20
19.46511866031673
 30
0.0
  0
VERTEX
  5
629B
  8
0
 10
-32.236663972659301
 20
19.0712006505631
 30
0.0
  0
VERTEX
  5
629C
  8
0
 10
-32.222001164134497
 20
18.93116045733435
 30
0.0
  0
VERTEX
  5
629D
  8
0
 10
-32.201848367820787
 20
18.688291469225501
 30
0.0
  0
VERTEX
  5
629E
  8
0
 10
-32.183413838489741
 20
18.452624241065589
 30
0.0
  0
VERTEX
  5
629F
  8
0
 10
-32.143035341158338
 20
17.965012759875119
 30
0.0
  0
VERTEX
  5
62A0
  8
0
 10
-32.055126320537738
 20
17.011178240527919
 30
0.0
  0
VERTEX
  5
62A1
  8
0
 10
-31.881793939865759
 20
15.426732420521461
 30
0.0
  0
VERTEX
  5
62A2
  8
0
 10
-31.66558009103392
 20
13.8026212638367
 30
0.0
  0
VERTEX
  5
62A3
  8
0
 10
-31.584304740147271
 20
13.26245717403194
 30
0.0
  0
VERTEX
  5
62A4
  8
0
 10
-31.318144123136161
 20
11.68761737929267
 30
0.0
  0
VERTEX
  5
62A5
  8
0
 10
-31.080554444134521
 20
10.47926266041909
 30
0.0
  0
VERTEX
  5
62A6
  8
0
 10
-30.87384986117144
 20
9.5437101262495219
 30
0.0
  0
VERTEX
  5
62A7
  8
0
 10
-30.609910151321689
 20
8.4746217255581922
 30
0.0
  0
VERTEX
  5
62A8
  8
0
 10
-30.382247243264029
 20
7.6485765856926662
 30
0.0
  0
VERTEX
  5
62A9
  8
0
 10
-30.071584106547451
 20
6.6418394024093743
 30
0.0
  0
VERTEX
  5
62AA
  8
0
 10
-29.802247587584532
 20
5.8673416096927147
 30
0.0
  0
VERTEX
  5
62AB
  8
0
 10
-29.441555334963201
 20
4.9533075623071161
 30
0.0
  0
VERTEX
  5
62AC
  8
0
 10
-29.34773345177609
 20
4.736624329539068
 30
0.0
  0
VERTEX
  5
62AD
  8
0
 10
-29.299387307571291
 20
4.6295283357342489
 30
0.0
  0
VERTEX
  5
62AE
  8
0
 10
-29.228741682790321
 20
4.4995468905629821
 30
0.0
  0
VERTEX
  5
62AF
  8
0
 10
-29.05806451481595
 20
4.2693454864542844
 30
0.0
  0
VERTEX
  5
62B0
  8
0
 10
-28.901267064320219
 20
4.1141803228830147
 30
0.0
  0
VERTEX
  5
62B1
  8
0
 10
-28.67173396106244
 20
3.941465847670286
 30
0.0
  0
VERTEX
  5
62B2
  8
0
 10
-28.364171263232318
 20
3.7728566488735562
 30
0.0
  0
VERTEX
  5
62B3
  8
0
 10
-28.108910842112209
 20
3.668634067778981
 30
0.0
  0
VERTEX
  5
62B4
  8
0
 10
-27.73712553374725
 20
3.555818098908702
 30
0.0
  0
VERTEX
  5
62B5
  8
0
 10
-27.205664810240361
 20
3.4510871512734691
 30
0.0
  0
VERTEX
  5
62B6
  8
0
 10
-26.654140834611439
 20
3.3907402885278368
 30
0.0
  0
VERTEX
  5
62B7
  8
0
 10
-26.219445782989109
 20
3.370104000732709
 30
0.0
  0
VERTEX
  5
62B8
  8
0
 10
-25.626797068851491
 20
3.3748615618206652
 30
0.0
  0
VERTEX
  5
62B9
  8
0
 10
-25.168780062157001
 20
3.4057274213023159
 30
0.0
  0
VERTEX
  5
62BA
  8
0
 10
-24.60041026795534
 20
3.482930603791913
 30
0.0
  0
VERTEX
  5
62BB
  8
0
 10
-24.172235373977461
 20
3.5799096332958409
 30
0.0
  0
VERTEX
  5
62BC
  8
0
 10
-23.789040036300829
 20
3.7069855790238928
 30
0.0
  0
VERTEX
  5
62BD
  8
0
 10
-23.51007046568958
 20
3.8350559617182678
 30
0.0
  0
VERTEX
  5
62BE
  8
0
 10
-23.306285459763611
 20
3.956084747638243
 30
0.0
  0
VERTEX
  5
62BF
  8
0
 10
-23.069314573261011
 20
4.1404539305118808
 30
0.0
  0
VERTEX
  5
62C0
  8
0
 10
-22.90694749921289
 20
4.3099459377822589
 30
0.0
  0
VERTEX
  5
62C1
  8
0
 10
-22.7517459066367
 20
4.5325509494430491
 30
0.0
  0
VERTEX
  5
62C2
  8
0
 10
-22.695133042073682
 20
4.6410282307230366
 30
0.0
  0
VERTEX
  5
62C3
  8
0
 10
-22.647092852633762
 20
4.7483583172255228
 30
0.0
  0
VERTEX
  5
62C4
  8
0
 10
-22.289051138201842
 20
5.6232692654238292
 30
0.0
  0
VERTEX
  5
62C5
  8
0
 10
-21.93195202319367
 20
6.6310668668574797
 30
0.0
  0
VERTEX
  5
62C6
  8
0
 10
-21.68362356715523
 20
7.4241609284766517
 30
0.0
  0
VERTEX
  5
62C7
  8
0
 10
-21.371088876646301
 20
8.5461821002398608
 30
0.0
  0
VERTEX
  5
62C8
  8
0
 10
-21.039854997094661
 20
9.9216295309471132
 30
0.0
  0
VERTEX
  5
62C9
  8
0
 10
-20.813782176819299
 20
10.99816339350067
 30
0.0
  0
VERTEX
  5
62CA
  8
0
 10
-20.533830681497879
 20
12.5297113918111
 30
0.0
  0
VERTEX
  5
62CB
  8
0
 10
-20.290215833754079
 20
14.11079923979829
 30
0.0
  0
VERTEX
  5
62CC
  8
0
 10
-20.218018356992221
 20
14.639063625027029
 30
0.0
  0
VERTEX
  5
62CD
  8
0
 10
-20.03752258488322
 20
16.124478994908628
 30
0.0
  0
VERTEX
  5
62CE
  8
0
 10
-19.884257972019331
 20
17.654510999158251
 30
0.0
  0
VERTEX
  5
62CF
  8
0
 10
-19.840026152345729
 20
18.16512679399991
 30
0.0
  0
VERTEX
  5
62D0
  8
0
 10
-19.803714723276979
 20
18.616225193590338
 30
0.0
  0
VERTEX
  5
62D1
  8
0
 10
-19.78675513671703
 20
18.83416218850877
 30
0.0
  0
VERTEX
  5
62D2
  8
0
 10
-19.766418052045079
 20
19.04378915324471
 30
0.0
  0
VERTEX
  5
62D3
  8
0
 10
-19.721921471437209
 20
19.388135844521479
 30
0.0
  0
VERTEX
  5
62D4
  8
0
 10
-19.670246204979431
 20
19.705576953411111
 30
0.0
  0
VERTEX
  5
62D5
  8
0
 10
-19.652963938457841
 20
19.80164299664952
 30
0.0
  0
VERTEX
  5
62D6
  8
0
 10
-19.610893050521721
 20
20.025950750787018
 30
0.0
  0
VERTEX
  5
62D7
  8
0
 10
-19.579339236300939
 20
20.194623091779111
 30
0.0
  0
VERTEX
  5
62D8
  8
0
 10
-19.55720765788152
 20
20.328784473871991
 30
0.0
  0
VERTEX
  5
62D9
  8
0
 10
-19.552756835686349
 20
20.36405268476463
 30
0.0
  0
VERTEX
  5
62DA
  8
0
 10
-19.549270674329868
 20
20.437492874921389
 30
0.0
  0
VERTEX
  5
62DB
  8
0
 10
-19.556514217318579
 20
20.466150152105431
 30
0.0
  0
VERTEX
  5
62DC
  8
0
 10
-19.564044413388899
 20
20.47084812960318
 30
0.0
  0
SEQEND
  5
62DD
  8
0
  0
LINE
  5
5485
  8
µę˝u
 10
-20.99999999999994
 20
35.200863464771182
 30
0.0
 11
-30.99999999999994
 21
35.200863464771118
 31
0.0
  0
LINE
  5
5486
  8
µę˝u
 10
-31.00000000000006
 20
27.000863464771189
 30
0.0
 11
-20.99999999999994
 21
27.000863464771189
 31
0.0
  0
LINE
  5
5487
  8
0
 10
-32.451200000000313
 20
26.000863464771189
 30
0.0
 11
-19.548800000000249
 21
26.000863464771189
 31
0.0
  0
LINE
  5
5488
  8
µę˝u
 10
-30.99999999999994
 20
35.200863464771182
 30
0.0
 11
-30.99999999999994
 21
27.000863464771189
 31
0.0
  0
LINE
  5
5489
  8
µę˝u
 10
-30.24999999999995
 20
35.200863464771182
 30
0.0
 11
-30.24999999999995
 21
27.000863464771189
 31
0.0
  0
LINE
  5
548A
  8
µę˝u
 10
-30.99999999999994
 20
27.055789103080802
 30
0.0
 11
-31.849999999999969
 21
26.000863464771189
 31
0.0
  0
LINE
  5
548B
  8
0
 10
-35.0
 20
36.000863464771193
 30
0.0
 11
-46.499999999999879
 21
36.000863464771193
 31
0.0
  0
LINE
  5
548C
  8
0
 10
-46.499999999999879
 20
35.0
 30
0.0
 11
-46.499999999999879
 21
36.000863464771193
 31
0.0
  0
LINE
  5
548D
  8
µę˝u
 10
-30.99999999999994
 20
35.200863464771182
 30
0.0
 11
-31.68000000000001
 21
36.000863464771193
 31
0.0
  0
LINE
  5
548E
  8
µę˝u
 10
-20.99999999999994
 20
35.200863464771182
 30
0.0
 11
-20.99999999999994
 21
27.000863464771189
 31
0.0
  0
LINE
  5
548F
  8
µę˝u
 10
-21.74999999999994
 20
35.200863464771182
 30
0.0
 11
-21.74999999999994
 21
27.000863464771189
 31
0.0
  0
LINE
  5
5490
  8
µę˝u
 10
-20.99999999999994
 20
27.000863464771189
 30
0.0
 11
-20.14999999999992
 21
26.000863464771189
 31
0.0
  0
LINE
  5
5491
  8
µę˝u
 10
-20.99999999999994
 20
35.200863464771182
 30
0.0
 11
-20.319999999999879
 21
36.000863464771193
 31
0.0
  0
LINE
  5
5492
  8
µę˝u
 10
21.000000000000121
 20
27.000863464771189
 30
0.0
 11
31.000000000000231
 21
27.000863464771189
 31
0.0
  0
LINE
  5
5493
  8
µę˝u
 10
31.000000000000231
 20
35.200863464771182
 30
0.0
 11
21.000000000000231
 21
35.200863464771118
 31
0.0
  0
LINE
  5
5494
  8
0
 10
19.548799999999861
 20
26.000863464771189
 30
0.0
 11
32.451199999999922
 21
26.000863464771189
 31
0.0
  0
POLYLINE
  5
5495
  8
0
 66
     1
 10
0.0
 20
0.0
 30
0.0
  0
VERTEX
  5
62DE
  8
0
 10
19.548799999999861
 20
20.42312459117122
 30
0.0
  0
VERTEX
  5
62DF
  8
0
 10
19.555520470630309
 20
20.341565716035088
 30
0.0
  0
VERTEX
  5
62E0
  8
0
 10
19.57493712849941
 20
20.21850032989741
 30
0.0
  0
VERTEX
  5
62E1
  8
0
 10
19.58383321149449
 20
20.16906349559352
 30
0.0
  0
VERTEX
  5
62E2
  8
0
 10
19.620033673011161
 20
19.977421570371149
 30
0.0
  0
VERTEX
  5
62E3
  8
0
 10
19.653108549631892
 20
19.800853488348618
 30
0.0
  0
VERTEX
  5
62E4
  8
0
 10
19.71019035176943
 20
19.46511866031673
 30
0.0
  0
VERTEX
  5
62E5
  8
0
 10
19.76333602734087
 20
19.0712006505631
 30
0.0
  0
VERTEX
  5
62E6
  8
0
 10
19.77799883586567
 20
18.93116045733435
 30
0.0
  0
VERTEX
  5
62E7
  8
0
 10
19.79815163217938
 20
18.688291469225501
 30
0.0
  0
VERTEX
  5
62E8
  8
0
 10
19.816586161510429
 20
18.452624241065589
 30
0.0
  0
VERTEX
  5
62E9
  8
0
 10
19.856964658841829
 20
17.965012759875119
 30
0.0
  0
VERTEX
  5
62EA
  8
0
 10
19.944873679462429
 20
17.011178240527919
 30
0.0
  0
VERTEX
  5
62EB
  8
0
 10
20.118206060134408
 20
15.426732420521461
 30
0.0
  0
VERTEX
  5
62EC
  8
0
 10
20.33441990896625
 20
13.8026212638367
 30
0.0
  0
VERTEX
  5
62ED
  8
0
 10
20.415695259852889
 20
13.26245717403194
 30
0.0
  0
VERTEX
  5
62EE
  8
0
 10
20.68185587686401
 20
11.68761737929267
 30
0.0
  0
VERTEX
  5
62EF
  8
0
 10
20.91944555586565
 20
10.47926266041909
 30
0.0
  0
VERTEX
  5
62F0
  8
0
 10
21.126150138828731
 20
9.5437101262495219
 30
0.0
  0
VERTEX
  5
62F1
  8
0
 10
21.390089848678489
 20
8.4746217255581922
 30
0.0
  0
VERTEX
  5
62F2
  8
0
 10
21.617752756736142
 20
7.6485765856926662
 30
0.0
  0
VERTEX
  5
62F3
  8
0
 10
21.928415893452719
 20
6.6418394024093743
 30
0.0
  0
VERTEX
  5
62F4
  8
0
 10
22.197752412415639
 20
5.8673416096927147
 30
0.0
  0
VERTEX
  5
62F5
  8
0
 10
22.558444665036969
 20
4.9533075623071161
 30
0.0
  0
VERTEX
  5
62F6
  8
0
 10
22.65226654822408
 20
4.736624329539068
 30
0.0
  0
VERTEX
  5
62F7
  8
0
 10
22.70061269242888
 20
4.6295283357342489
 30
0.0
  0
VERTEX
  5
62F8
  8
0
 10
22.77125831720986
 20
4.4995468905629821
 30
0.0
  0
VERTEX
  5
62F9
  8
0
 10
22.941935485184221
 20
4.2693454864542844
 30
0.0
  0
VERTEX
  5
62FA
  8
0
 10
23.098732935679951
 20
4.1141803228830147
 30
0.0
  0
VERTEX
  5
62FB
  8
0
 10
23.328266038937731
 20
3.941465847670286
 30
0.0
  0
VERTEX
  5
62FC
  8
0
 10
23.635828736767849
 20
3.7728566488735562
 30
0.0
  0
VERTEX
  5
62FD
  8
0
 10
23.891089157887961
 20
3.668634067778981
 30
0.0
  0
VERTEX
  5
62FE
  8
0
 10
24.262874466252931
 20
3.555818098908702
 30
0.0
  0
VERTEX
  5
62FF
  8
0
 10
24.79433518975981
 20
3.4510871512734691
 30
0.0
  0
VERTEX
  5
6300
  8
0
 10
25.345859165388731
 20
3.3907402885278368
 30
0.0
  0
VERTEX
  5
6301
  8
0
 10
25.780554217011058
 20
3.370104000732709
 30
0.0
  0
VERTEX
  5
6302
  8
0
 10
26.373202931148679
 20
3.3748615618206652
 30
0.0
  0
VERTEX
  5
6303
  8
0
 10
26.831219937843169
 20
3.4057274213023159
 30
0.0
  0
VERTEX
  5
6304
  8
0
 10
27.399589732044831
 20
3.482930603791913
 30
0.0
  0
VERTEX
  5
6305
  8
0
 10
27.827764626022709
 20
3.5799096332958409
 30
0.0
  0
VERTEX
  5
6306
  8
0
 10
28.210959963699342
 20
3.7069855790238928
 30
0.0
  0
VERTEX
  5
6307
  8
0
 10
28.48992953431059
 20
3.8350559617182678
 30
0.0
  0
VERTEX
  5
6308
  8
0
 10
28.693714540236559
 20
3.956084747638243
 30
0.0
  0
VERTEX
  5
6309
  8
0
 10
28.93068542673916
 20
4.1404539305118808
 30
0.0
  0
VERTEX
  5
630A
  8
0
 10
29.09305250078728
 20
4.3099459377822589
 30
0.0
  0
VERTEX
  5
630B
  8
0
 10
29.248254093363471
 20
4.5325509494430491
 30
0.0
  0
VERTEX
  5
630C
  8
0
 10
29.304866957926489
 20
4.6410282307230366
 30
0.0
  0
VERTEX
  5
630D
  8
0
 10
29.352907147366409
 20
4.7483583172255228
 30
0.0
  0
VERTEX
  5
630E
  8
0
 10
29.710948861798329
 20
5.6232692654238292
 30
0.0
  0
VERTEX
  5
630F
  8
0
 10
30.068047976806501
 20
6.6310668668574797
 30
0.0
  0
VERTEX
  5
6310
  8
0
 10
30.316376432844951
 20
7.4241609284766517
 30
0.0
  0
VERTEX
  5
6311
  8
0
 10
30.62891112335388
 20
8.5461821002398608
 30
0.0
  0
VERTEX
  5
6312
  8
0
 10
30.960145002905509
 20
9.9216295309471132
 30
0.0
  0
VERTEX
  5
6313
  8
0
 10
31.186217823180868
 20
10.99816339350067
 30
0.0
  0
VERTEX
  5
6314
  8
0
 10
31.466169318502299
 20
12.5297113918111
 30
0.0
  0
VERTEX
  5
6315
  8
0
 10
31.709784166246099
 20
14.11079923979829
 30
0.0
  0
VERTEX
  5
6316
  8
0
 10
31.781981643007949
 20
14.639063625027029
 30
0.0
  0
VERTEX
  5
6317
  8
0
 10
31.96247741511695
 20
16.124478994908628
 30
0.0
  0
VERTEX
  5
6318
  8
0
 10
32.115742027980851
 20
17.654510999158251
 30
0.0
  0
VERTEX
  5
6319
  8
0
 10
32.159973847654442
 20
18.16512679399991
 30
0.0
  0
VERTEX
  5
631A
  8
0
 10
32.196285276723188
 20
18.616225193590338
 30
0.0
  0
VERTEX
  5
631B
  8
0
 10
32.213244863283137
 20
18.83416218850877
 30
0.0
  0
VERTEX
  5
631C
  8
0
 10
32.233581947955088
 20
19.04378915324471
 30
0.0
  0
VERTEX
  5
631D
  8
0
 10
32.278078528562958
 20
19.388135844521479
 30
0.0
  0
VERTEX
  5
631E
  8
0
 10
32.329753795020743
 20
19.705576953411111
 30
0.0
  0
VERTEX
  5
631F
  8
0
 10
32.347036061542333
 20
19.80164299664952
 30
0.0
  0
VERTEX
  5
6320
  8
0
 10
32.389106949478453
 20
20.025950750787018
 30
0.0
  0
VERTEX
  5
6321
  8
0
 10
32.420660763699232
 20
20.194623091779111
 30
0.0
  0
VERTEX
  5
6322
  8
0
 10
32.442792342118651
 20
20.328784473871991
 30
0.0
  0
VERTEX
  5
6323
  8
0
 10
32.447243164313818
 20
20.36405268476463
 30
0.0
  0
VERTEX
  5
6324
  8
0
 10
32.450729325670302
 20
20.437492874921389
 30
0.0
  0
VERTEX
  5
6325
  8
0
 10
32.443485782681591
 20
20.466150152105431
 30
0.0
  0
VERTEX
  5
6326
  8
0
 10
32.435955586611271
 20
20.47084812960318
 30
0.0
  0
SEQEND
  5
6327
  8
0
  0
LINE
  5
5496
  8
0
 10
19.548799999999861
 20
26.000863464771189
 30
0.0
 11
19.548799999999861
 21
20.471263464771109
 31
0.0
  0
LINE
  5
5497
  8
µę˝u
 10
21.000000000000231
 20
35.200863464771182
 30
0.0
 11
21.000000000000231
 21
27.000863464771189
 31
0.0
  0
LINE
  5
5498
  8
µę˝u
 10
21.000000000000231
 20
27.055789103080802
 30
0.0
 11
20.150000000000201
 21
26.000863464771189
 31
0.0
  0
LINE
  5
5499
  8
µę˝u
 10
21.000000000000231
 20
35.200863464771153
 30
0.0
 11
20.32000000000016
 21
36.000863464771157
 31
0.0
  0
LINE
  5
549A
  8
¤¤¤ß˝u
 10
52.499999999999893
 20
20.35856276845649
 30
0.0
 11
52.499999999999893
 21
30.04143723154354
 31
0.0
  0
LINE
  5
549B
  8
¤¤¤ß˝u
 10
26.00000000000006
 20
20.874117950879882
 30
0.0
 11
26.00000000000006
 21
37.029670360820752
 31
0.0
  0
LINE
  5
549C
  8
¤¤¤ß˝u
 10
26.000000000000231
 20
20.874117950879821
 30
0.0
 11
26.000000000000231
 21
37.029670360820688
 31
0.0
  0
CIRCLE
  5
549D
  8
0
 10
52.5
 20
25.200000000000021
 30
0.0
 40
2.75
  0
CIRCLE
  5
549E
  8
0
 10
52.5
 20
25.200000000000021
 30
0.0
 40
2.486916010899999
  0
LINE
  5
549F
  8
0
 10
32.451199999999922
 20
26.000863464771189
 30
0.0
 11
32.451199999999922
 21
20.471263464771109
 31
0.0
  0
LINE
  5
54A0
  8
0
 10
46.500000000000171
 20
35.000000000000028
 30
0.0
 11
46.50000000000005
 21
0.0
 31
0.0
  0
LINE
  5
54A1
  8
µę˝u
 10
30.250000000000231
 20
35.200863464771182
 30
0.0
 11
30.250000000000231
 21
27.000863464771189
 31
0.0
  0
LINE
  5
54A2
  8
µę˝u
 10
31.000000000000231
 20
35.200863464771182
 30
0.0
 11
31.000000000000231
 21
27.000863464771189
 31
0.0
  0
LINE
  5
54A3
  8
µę˝u
 10
21.750000000000231
 20
35.200863464771182
 30
0.0
 11
21.750000000000231
 21
27.000863464771189
 31
0.0
  0
LINE
  5
54A4
  8
µę˝u
 10
31.000000000000231
 20
27.000863464771189
 30
0.0
 11
31.85000000000025
 21
26.000863464771189
 31
0.0
  0
LINE
  5
54A5
  8
µę˝u
 10
31.000000000000231
 20
35.200863464771182
 30
0.0
 11
31.680000000000291
 21
36.000863464771193
 31
0.0
  0
CIRCLE
  5
54A6
  8
0
 10
52.5
 20
25.200000000000021
 30
0.0
 40
0.7185553324000001
  0
CIRCLE
  5
54A7
  8
0
 10
52.5
 20
25.200000000000021
 30
0.0
 40
2.1855533242999989
  0
LINE
  5
54A8
  8
0
 10
46.5
 20
35.000000000000433
 30
0.0
 11
46.5
 21
36.000863464771193
 31
0.0
  0
LINE
  5
54A9
  8
0
 10
57.0
 20
35.0
 30
0.0
 11
57.0
 21
0.0
 31
0.0
  0
LINE
  5
54AA
  8
0
 10
57.0
 20
35.000000000000398
 30
0.0
 11
57.0
 21
0.0000000000004263
 31
0.0
  0
LINE
  5
54AB
  8
0
 10
57.0
 20
0.0000000000004263
 30
0.0
 11
57.0
 21
35.000000000000433
 31
0.0
  0
LINE
  5
54AC
  8
0
 10
32.384401608806428
 20
20.000863464771189
 30
0.0
 11
46.500000000000107
 21
20.000863464771189
 31
0.0
  0
LINE
  5
54AD
  8
0
 10
-19.615598391193739
 20
20.000863464771211
 30
0.0
 11
19.61560558455858
 21
20.000863464771189
 31
0.0
  0
ENDBLK
  5
54AF
  8
0
  0
BLOCK
  8
0
  2
A$C2DEF36D5
 70
     0
 10
0.0
 20
0.0
 30
0.0
  3
A$C2DEF36D5
  1

  0
ARC
  5
564B
  8
ĽĐµů˝u
 10
-36.099999999999909
 20
26.0
 30
0.0
 40
5.0
 50
168.55797039413031
 51
74.132847475313611
  0
CIRCLE
  5
564C
  8
0
 10
-36.099999999999909
 20
26.0
 30
0.0
 40
4.25
  0
CIRCLE
  5
564D
  8
0
 10
-36.099999999999909
 20
-26.0
 30
0.0
 40
4.25
  0
ARC
  5
564E
  8
ĽĐµů˝u
 10
-36.099999999999909
 20
-26.0
 30
0.0
 40
5.0
 50
285.86715252468639
 51
191.44202960586961
  0
ARC
  5
564F
  8
ĽĐµů˝u
 10
35.900000000000091
 20
-26.0
 30
0.0
 40
5.0
 50
348.55797039413028
 51
254.13284747531361
  0
CIRCLE
  5
5650
  8
0
 10
35.900000000000091
 20
-26.0
 30
0.0
 40
4.25
  0
ARC
  5
5651
  8
ĽĐµů˝u
 10
35.900000000000091
 20
26.0
 30
0.0
 40
5.0
 50
105.8671525246864
 51
11.442029605869649
  0
CIRCLE
  5
5652
  8
0
 10
35.900000000000091
 20
26.0
 30
0.0
 40
4.25
  0
ENDBLK
  5
5654
  8
0
  0
BLOCK
  8
0
  2
*U2
 70
     1
 10
0.0
 20
0.0
 30
0.0
  3
*U2
  1

  0
TEXT
  5
6329
  8
0
 10
-416.23923406771911
 20
-29.835256952479678
 30
0.0
 40
7.8000001593418631
  1
HGW30HC
  0
TEXT
  5
632A
  8
0
 10
-416.4585563504981
 20
-42.933671062886127
 30
0.0
 40
7.8000001593418631
  1
C : 4820 kgf
  0
TEXT
  5
632B
  8
0
 10
-416.4585563504981
 20
-56.13169854230663
 30
0.0
 40
7.8000001593418631
  1
C
  0
TEXT
  5
632C
  8
0
 10
-408.77665280496018
 20
-51.321698444045822
 30
0.0
 40
5.4600001115393031
  1

  0
TEXT
  5
632D
  8
0
 10
-409.60527070806643
 20
-58.594300218630011
 30
0.0
 40
5.4600001115393031
  1
0
  0
TEXT
  5
632E
  8
0
 10
-405.16624622714011
 20
-56.13286854233052
 30
0.0
 40
7.8023401593896651
  1
: 11230 kgf
  0
ENDBLK
  5
6330
  8
0
  0
ENDSEC
  0
SECTION
  2
ENTITIES
  0
TEXT
  5
4CBB
  8
0
 10
-10.651989752863271
 20
-43.468790589311993
 30
0.0
 40
5.4600001115393031
  1

  0
INSERT
  5
5644
  8
0
  2
*U2
 10
0.0
 20
0.0
 30
0.0
  0
LINE
  5
5F0D
  8
0
 10
-347.92823006687678
 20
8.6435738332303629
 30
0.0
 11
-361.86149651385199
 21
8.6435738332303913
 31
0.0
  0
LINE
  5
5F0E
  8
0
 10
-402.39322560652431
 20
8.6435738332303629
 30
0.0
 11
-388.46085308405929
 21
8.6435738332303913
 31
0.0
  0
LINE
  5
5F0F
  8
0
 10
-348.1611747989557
 20
43.643573833230327
 30
0.0
 11
-402.16117479895559
 21
43.643573833230327
 31
0.0
  0
POLYLINE
  5
5F10
  8
0
 66
     1
 10
0.0
 20
0.0
 30
0.0
  0
VERTEX
  5
6331
  8
0
 10
-366.2094870716557
 20
38.143573833368073
 30
0.0
  0
VERTEX
  5
6332
  8
0
 10
-366.1759387702557
 20
37.926536590868068
 30
0.0
  0
VERTEX
  5
6333
  8
0
 10
-366.14304778105571
 20
37.863632356868102
 30
0.0
  0
VERTEX
  5
6334
  8
0
 10
-366.10647744725571
 20
37.834090720168057
 30
0.0
  0
VERTEX
  5
6335
  8
0
 10
-366.07250028985572
 20
37.834398000168079
 30
0.0
  0
VERTEX
  5
6336
  8
0
 10
-366.03600744405571
 20
37.864602292968073
 30
0.0
  0
VERTEX
  5
6337
  8
0
 10
-366.0046635430557
 20
37.924372270468041
 30
0.0
  0
VERTEX
  5
6338
  8
0
 10
-365.97527688235567
 20
38.054445251168062
 30
0.0
  0
VERTEX
  5
6339
  8
0
 10
-365.9703096335557
 20
38.143573833368073
 30
0.0
  0
VERTEX
  5
633A
  8
0
 10
-366.00385659895568
 20
38.360609739868039
 30
0.0
  0
VERTEX
  5
633B
  8
0
 10
-366.03674892415569
 20
38.423513973868069
 30
0.0
  0
VERTEX
  5
633C
  8
0
 10
-366.07331925795569
 20
38.453055610568072
 30
0.0
  0
VERTEX
  5
633D
  8
0
 10
-366.10729507935571
 20
38.452748330468069
 30
0.0
  0
VERTEX
  5
633E
  8
0
 10
-366.14378926115569
 20
38.422544037668047
 30
0.0
  0
VERTEX
  5
633F
  8
0
 10
-366.17513182615568
 20
38.362774060168078
 30
0.0
  0
VERTEX
  5
6340
  8
0
 10
-366.20451982285579
 20
38.232701079568074
 30
0.0
  0
VERTEX
  5
6341
  8
0
 10
-366.2094870716557
 20
38.143573833368073
 30
0.0
  0
SEQEND
  5
6342
  8
0
  0
ARC
  5
5F11
  8
0
 10
-375.1611747989557
 20
38.143573833368073
 30
0.0
 40
3.999999331999998
 50
48.590377998899292
 51
311.40962200319859
  0
LINE
  5
5F12
  8
0
 10
-372.27442302795572
 20
41.143572998368057
 30
0.0
 11
-372.85177418375571
 21
42.143573165368018
 31
0.0
  0
LINE
  5
5F13
  8
0
 10
-377.47057541415569
 20
42.143573165368018
 30
0.0
 11
-372.85177418375571
 21
42.143573165368018
 31
0.0
  0
LINE
  5
5F14
  8
0
 10
-377.47057541415569
 20
42.143573165368018
 30
0.0
 11
-379.77997602935568
 21
38.143573833368073
 31
0.0
  0
LINE
  5
5F15
  8
0
 10
-379.77997602935568
 20
38.143573833368073
 30
0.0
 11
-377.47057541415569
 21
34.143573165368082
 31
0.0
  0
LINE
  5
5F16
  8
0
 10
-372.85177284775568
 20
34.143573165368082
 30
0.0
 11
-377.47057541415569
 21
34.143573165368082
 31
0.0
  0
LINE
  5
5F17
  8
0
 10
-372.27442302795572
 20
35.143573332368078
 30
0.0
 11
-372.85177284775568
 21
34.143573165368082
 31
0.0
  0
LINE
  5
5F18
  8
0
 10
-373.8596687759557
 20
35.143573332368078
 30
0.0
 11
-370.8456001927558
 21
35.143573332368078
 31
0.0
  0
LINE
  5
5F19
  8
0
 10
-370.7827013027557
 20
40.858886049068069
 30
0.0
 11
-370.8456001927558
 21
41.143572998368057
 31
0.0
  0
LINE
  5
5F1A
  8
0
 10
-370.8456001927558
 20
35.143573332368078
 30
0.0
 11
-370.7827013027557
 21
35.428260281668059
 31
0.0
  0
LINE
  5
5F1B
  8
0
 10
-373.8596687759557
 20
41.143572998368057
 30
0.0
 11
-370.8456001927558
 21
41.143572998368057
 31
0.0
  0
LINE
  5
5F1C
  8
0
 10
-371.28445355055572
 20
35.201217733568093
 30
0.0
 11
-369.2826469442557
 21
36.107032557568061
 31
0.0
  0
LINE
  5
5F1D
  8
0
 10
-365.41743266565572
 20
37.79403743376804
 30
0.0
 11
-365.40425836755571
 21
38.143573833368073
 31
0.0
  0
LINE
  5
5F1E
  8
0
 10
-365.45644921585568
 20
37.457933180368059
 30
0.0
 11
-365.41743266565572
 21
37.79403743376804
 31
0.0
  0
LINE
  5
5F1F
  8
0
 10
-365.40425836755571
 20
38.143573833368073
 30
0.0
 11
-365.41743266565572
 21
38.493110232968057
 31
0.0
  0
LINE
  5
5F20
  8
0
 10
-371.50842730615568
 20
35.143573332368078
 30
0.0
 11
-371.28445355055572
 21
35.201217733568093
 31
0.0
  0
LINE
  5
5F21
  8
0
 10
-371.50842730615568
 20
41.143572998368057
 30
0.0
 11
-371.28445355055572
 21
41.085928597168049
 31
0.0
  0
LINE
  5
5F22
  8
0
 10
-371.28445355055572
 20
41.085928597168049
 30
0.0
 11
-369.2826469442557
 21
40.180113773168038
 31
0.0
  0
LINE
  5
5F23
  8
0
 10
-365.51980902595568
 20
37.148178859068061
 30
0.0
 11
-365.45644921585568
 21
37.457933180368059
 31
0.0
  0
LINE
  5
5F24
  8
0
 10
-365.41743266565572
 20
38.493110232968057
 30
0.0
 11
-365.45644921585568
 21
38.829213150368048
 31
0.0
  0
LINE
  5
5F25
  8
0
 10
-365.6050779035557
 20
36.876675559968078
 30
0.0
 11
-365.51980902595568
 21
37.148178859068061
 31
0.0
  0
LINE
  5
5F26
  8
0
 10
-366.36443236825568
 20
36.505264828868071
 30
0.0
 11
-366.36253391195572
 21
36.506193348968061
 31
0.0
  0
LINE
  5
5F27
  8
0
 10
-365.45644921585568
 20
38.829213150368048
 30
0.0
 11
-365.51980902595568
 21
39.13896880766805
 31
0.0
  0
LINE
  5
5F28
  8
0
 10
-371.7324010617557
 20
35.201217733568093
 30
0.0
 11
-371.50842730615568
 21
35.143573332368078
 31
0.0
  0
LINE
  5
5F29
  8
0
 10
-371.7324010617557
 20
41.085928597168049
 30
0.0
 11
-371.50842730615568
 21
41.143572998368057
 31
0.0
  0
LINE
  5
5F2A
  8
0
 10
-365.70897730405568
 20
36.653858780468092
 30
0.0
 11
-365.6050779035557
 21
36.876675559968078
 31
0.0
  0
LINE
  5
5F2B
  8
0
 10
-365.51980902595568
 20
39.13896880766805
 30
0.0
 11
-365.6050779035557
 21
39.410470770768057
 31
0.0
  0
LINE
  5
5F2C
  8
0
 10
-369.2826469442557
 20
36.107032557568061
 30
0.0
 11
-369.0415242899557
 21
36.205435653168081
 31
0.0
  0
LINE
  5
5F2D
  8
0
 10
-369.2826469442557
 20
40.180113773168038
 30
0.0
 11
-369.0415242899557
 21
40.081712013568037
 31
0.0
  0
LINE
  5
5F2E
  8
0
 10
-365.82751525885573
 20
36.488292282168061
 30
0.0
 11
-365.70897730405568
 21
36.653858780468092
 31
0.0
  0
LINE
  5
5F2F
  8
0
 10
-365.6050779035557
 20
39.410470770768057
 30
0.0
 11
-365.70897730405568
 21
39.633287550268079
 31
0.0
  0
LINE
  5
5F30
  8
0
 10
-371.9477669680557
 20
35.371934512668084
 30
0.0
 11
-371.7324010617557
 21
35.201217733568093
 31
0.0
  0
LINE
  5
5F31
  8
0
 10
-371.9477669680557
 20
40.915211818068059
 30
0.0
 11
-371.7324010617557
 21
41.085928597168049
 31
0.0
  0
LINE
  5
5F32
  8
0
 10
-369.0415242899557
 20
36.205435653168081
 30
0.0
 11
-368.82660059975581
 21
36.196308099768061
 31
0.0
  0
LINE
  5
5F33
  8
0
 10
-369.0415242899557
 20
40.081712013568037
 30
0.0
 11
-368.82660059975581
 21
40.090838230968068
 31
0.0
  0
LINE
  5
5F34
  8
0
 10
-367.20661083015568
 20
35.639245443168079
 30
0.0
 11
-365.95613600735572
 21
36.38633542596807
 31
0.0
  0
LINE
  5
5F35
  8
0
 10
-365.95613600735572
 20
36.38633542596807
 30
0.0
 11
-365.82751525885573
 21
36.488292282168061
 31
0.0
  0
LINE
  5
5F36
  8
0
 10
-365.70897730405568
 20
39.633287550268079
 30
0.0
 11
-365.82751525885573
 21
39.798854048568053
 31
0.0
  0
LINE
  5
5F37
  8
0
 10
-374.5224958893557
 20
38.143573833368073
 30
0.0
 11
-373.8596687759557
 21
41.143572998368057
 31
0.0
  0
LINE
  5
5F38
  8
0
 10
-374.5224958893557
 20
38.143573833368073
 30
0.0
 11
-372.83408153295568
 21
38.143573833368073
 31
0.0
  0
LINE
  5
5F39
  8
0
 10
-373.8596687759557
 20
35.143573332368078
 30
0.0
 11
-374.5224958893557
 21
38.143573833368073
 31
0.0
  0
LINE
  5
5F3A
  8
0
 10
-371.9477669680557
 20
35.371934512668084
 30
0.0
 11
-372.14624983955571
 21
35.64916390876806
 31
0.0
  0
LINE
  5
5F3B
  8
0
 10
-372.14624983955571
 20
40.637982421968047
 30
0.0
 11
-371.9477669680557
 21
40.915211818068059
 31
0.0
  0
LINE
  5
5F3C
  8
0
 10
-367.39724069245568
 20
35.590182171368042
 30
0.0
 11
-367.20661083015568
 21
35.639245443168079
 31
0.0
  0
LINE
  5
5F3D
  8
0
 10
-367.75807297385569
 20
35.618065831768071
 30
0.0
 11
-367.39724069245568
 21
35.590182171368042
 31
0.0
  0
LINE
  5
5F3E
  8
0
 10
-368.82660059975581
 20
36.196308099768061
 30
0.0
 11
-368.27265349565567
 21
35.831091065668062
 31
0.0
  0
LINE
  5
5F3F
  8
0
 10
-366.08989768465568
 20
36.351909372468072
 30
0.0
 11
-365.95613600735572
 21
36.38633542596807
 31
0.0
  0
LINE
  5
5F40
  8
0
 10
-367.20661083015568
 20
40.647902223568053
 30
0.0
 11
-365.95613600735572
 21
39.900810904768058
 31
0.0
  0
LINE
  5
5F41
  8
0
 10
-365.95613600735572
 20
39.900810904768058
 30
0.0
 11
-365.82751525885573
 21
39.798854048568053
 31
0.0
  0
LINE
  5
5F42
  8
0
 10
-367.39724069245568
 20
40.696964159368058
 30
0.0
 11
-367.20661083015568
 21
40.647902223568053
 31
0.0
  0
LINE
  5
5F43
  8
0
 10
-367.75807297385569
 20
40.669081834868052
 30
0.0
 11
-367.39724069245568
 21
40.696964159368058
 31
0.0
  0
LINE
  5
5F44
  8
0
 10
-369.01743620605572
 20
36.340811218768067
 30
0.0
 11
-368.87735524785569
 21
36.229770897068079
 31
0.0
  0
LINE
  5
5F45
  8
0
 10
-368.27265349565567
 20
35.831091065668062
 30
0.0
 11
-367.94662134785568
 21
35.666592031568058
 31
0.0
  0
LINE
  5
5F46
  8
0
 10
-367.94662134785568
 20
35.666592031568058
 30
0.0
 11
-367.75807297385569
 21
35.618065831768071
 31
0.0
  0
LINE
  5
5F47
  8
0
 10
-368.82660059975581
 20
40.090838230968068
 30
0.0
 11
-368.27265349565567
 21
40.456055265068073
 31
0.0
  0
LINE
  5
5F48
  8
0
 10
-369.01743620605572
 20
39.946335111968068
 30
0.0
 11
-368.87735524785569
 21
40.057375433668078
 31
0.0
  0
LINE
  5
5F49
  8
0
 10
-372.14624983955571
 20
35.64916390876806
 30
0.0
 11
-372.32022111525572
 21
36.022252656068083
 31
0.0
  0
LINE
  5
5F4A
  8
0
 10
-372.32022111525572
 20
40.264893674668059
 30
0.0
 11
-372.14624983955571
 21
40.637982421968047
 31
0.0
  0
LINE
  5
5F4B
  8
0
 10
-367.58787189075571
 20
35.639245443168079
 30
0.0
 11
-367.39724069245568
 21
35.590182171368042
 31
0.0
  0
LINE
  5
5F4C
  8
0
 10
-367.94662134785568
 20
40.62055429916807
 30
0.0
 11
-367.75807297385569
 21
40.669081834868052
 31
0.0
  0
LINE
  5
5F4D
  8
0
 10
-368.27265349565567
 20
40.456055265068073
 30
0.0
 11
-367.94662134785568
 21
40.62055429916807
 31
0.0
  0
LINE
  5
5F4E
  8
0
 10
-372.17125441955568
 20
35.143573332368078
 30
0.0
 11
-372.83408153295568
 21
38.143573833368073
 31
0.0
  0
LINE
  5
5F4F
  8
0
 10
-372.83408153295568
 20
38.143573833368073
 30
0.0
 11
-372.17125441955568
 21
41.143572998368057
 31
0.0
  0
LINE
  5
5F50
  8
0
 10
-369.01743620605572
 20
36.340811218768067
 30
0.0
 11
-369.14653657865568
 21
36.521129831368057
 31
0.0
  0
LINE
  5
5F51
  8
0
 10
-366.22365936185571
 20
36.38633542596807
 30
0.0
 11
-366.08989768465568
 21
36.351909372468072
 31
0.0
  0
LINE
  5
5F52
  8
0
 10
-366.08989768465568
 20
39.935236958268071
 30
0.0
 11
-365.95613600735572
 21
39.900810904768058
 31
0.0
  0
LINE
  5
5F53
  8
0
 10
-367.58787189075571
 20
40.647902223568053
 30
0.0
 11
-367.39724069245568
 21
40.696964159368058
 31
0.0
  0
LINE
  5
5F54
  8
0
 10
-368.44191670655567
 20
40.321883435668042
 30
0.0
 11
-368.27265349565567
 21
40.456055265068073
 31
0.0
  0
LINE
  5
5F55
  8
0
 10
-369.14653657865568
 20
39.766016499368078
 30
0.0
 11
-369.01743620605572
 21
39.946335111968068
 31
0.0
  0
LINE
  5
5F56
  8
0
 10
-372.32022111525572
 20
36.022252656068083
 30
0.0
 11
-372.46299678595568
 21
36.476862800368053
 31
0.0
  0
LINE
  5
5F57
  8
0
 10
-372.46299678595568
 20
39.810283530368046
 30
0.0
 11
-372.32022111525572
 21
40.264893674668059
 31
0.0
  0
LINE
  5
5F58
  8
0
 10
-369.14653657865568
 20
36.521129831368057
 30
0.0
 11
-369.25969312455572
 21
36.763798237968068
 31
0.0
  0
LINE
  5
5F59
  8
0
 10
-367.77117646395573
 20
35.784547490268068
 30
0.0
 11
-367.58787189075571
 21
35.639245443168079
 31
0.0
  0
LINE
  5
5F5A
  8
0
 10
-369.25969312455572
 20
39.52334809276806
 30
0.0
 11
-369.14653657865568
 21
39.766016499368078
 31
0.0
  0
LINE
  5
5F5B
  8
0
 10
-366.35228144635568
 20
36.488292282168061
 30
0.0
 11
-366.22365936185571
 21
36.38633542596807
 31
0.0
  0
LINE
  5
5F5C
  8
0
 10
-367.77117646395573
 20
40.50259884046806
 30
0.0
 11
-367.58787189075571
 21
40.647902223568053
 31
0.0
  0
LINE
  5
5F5D
  8
0
 10
-366.22365936185571
 20
39.900810904768058
 30
0.0
 11
-366.08989768465568
 21
39.935236958268071
 31
0.0
  0
LINE
  5
5F5E
  8
0
 10
-369.25969312455572
 20
36.763798237968068
 30
0.0
 11
-369.35255849935572
 21
37.059491156968079
 31
0.0
  0
LINE
  5
5F5F
  8
0
 10
-372.46299678595568
 20
36.476862800368053
 30
0.0
 11
-372.5690872267557
 21
36.995523466868057
 31
0.0
  0
LINE
  5
5F60
  8
0
 10
-372.5690872267557
 20
39.291624199868039
 30
0.0
 11
-372.46299678595568
 21
39.810283530368046
 31
0.0
  0
LINE
  5
5F61
  8
0
 10
-369.35255849935572
 20
39.227655173768028
 30
0.0
 11
-369.25969312455572
 21
39.52334809276806
 31
0.0
  0
LINE
  5
5F62
  8
0
 10
-367.77117646395573
 20
35.784547490268068
 30
0.0
 11
-367.94011101875572
 21
36.020506503768047
 31
0.0
  0
LINE
  5
5F63
  8
0
 10
-369.35255849935572
 20
37.059491156968079
 30
0.0
 11
-369.4215629103557
 21
37.396844570668073
 31
0.0
  0
LINE
  5
5F64
  8
0
 10
-372.5690872267557
 20
36.995523466868057
 30
0.0
 11
-372.63441763715571
 21
37.558302868268072
 31
0.0
  0
LINE
  5
5F65
  8
0
 10
-372.63441763715571
 20
38.728844798368073
 30
0.0
 11
-372.5690872267557
 21
39.291624199868039
 31
0.0
  0
LINE
  5
5F66
  8
0
 10
-366.35228144635568
 20
39.798854048568053
 30
0.0
 11
-366.22365936185571
 21
39.900810904768058
 31
0.0
  0
LINE
  5
5F67
  8
0
 10
-366.35228144635568
 20
36.488292282168061
 30
0.0
 11
-366.47081940115572
 21
36.653858780468092
 31
0.0
  0
LINE
  5
5F68
  8
0
 10
-367.94011101875572
 20
40.266639826968053
 30
0.0
 11
-367.77117646395573
 21
40.50259884046806
 31
0.0
  0
LINE
  5
5F69
  8
0
 10
-369.4215629103557
 20
38.89030176006807
 30
0.0
 11
-369.35255849935572
 21
39.227655173768028
 31
0.0
  0
LINE
  5
5F6A
  8
0
 10
-369.4215629103557
 20
37.396844570668073
 30
0.0
 11
-369.4640570690558
 21
37.76289393286806
 31
0.0
  0
LINE
  5
5F6B
  8
0
 10
-372.63441763715571
 20
37.558302868268072
 30
0.0
 11
-372.65647767265568
 21
38.143573833368073
 31
0.0
  0
LINE
  5
5F6C
  8
0
 10
-372.65647767265568
 20
38.143573833368073
 30
0.0
 11
-372.63441763715571
 21
38.728844798368073
 31
0.0
  0
LINE
  5
5F6D
  8
0
 10
-369.4640570690558
 20
38.524252397868061
 30
0.0
 11
-369.4215629103557
 21
38.89030176006807
 31
0.0
  0
LINE
  5
5F6E
  8
0
 10
-369.4640570690558
 20
37.76289393286806
 30
0.0
 11
-369.47840437535569
 21
38.143573833368073
 31
0.0
  0
LINE
  5
5F6F
  8
0
 10
-369.47840437535569
 20
38.143573833368073
 30
0.0
 11
-369.4640570690558
 21
38.524252397868061
 31
0.0
  0
LINE
  5
5F70
  8
0
 10
-367.94011101875572
 20
36.020506503768047
 30
0.0
 11
-368.08818393035568
 21
36.338053714268092
 31
0.0
  0
LINE
  5
5F71
  8
0
 10
-366.47081940115572
 20
39.633287550268079
 30
0.0
 11
-366.35228144635568
 21
39.798854048568053
 31
0.0
  0
LINE
  5
5F72
  8
0
 10
-366.47081940115572
 20
36.653858780468092
 30
0.0
 11
-366.57471880165571
 21
36.876675559968078
 31
0.0
  0
LINE
  5
5F73
  8
0
 10
-368.08818393035568
 20
39.949093952468068
 30
0.0
 11
-367.94011101875572
 21
40.266639826968053
 31
0.0
  0
LINE
  5
5F74
  8
0
 10
-366.57471880165571
 20
39.410470770768057
 30
0.0
 11
-366.47081940115572
 21
39.633287550268079
 31
0.0
  0
LINE
  5
5F75
  8
0
 10
-368.08818393035568
 20
36.338053714268092
 30
0.0
 11
-368.2097038376557
 21
36.724984759768063
 31
0.0
  0
LINE
  5
5F76
  8
0
 10
-366.57471880165571
 20
36.876675559968078
 30
0.0
 11
-366.65998634325581
 21
37.148178859068061
 31
0.0
  0
LINE
  5
5F77
  8
0
 10
-368.2097038376557
 20
39.562161570868057
 30
0.0
 11
-368.08818393035568
 21
39.949093952468068
 31
0.0
  0
LINE
  5
5F78
  8
0
 10
-366.65998634325581
 20
39.13896880766805
 30
0.0
 11
-366.57471880165571
 21
39.410470770768057
 31
0.0
  0
LINE
  5
5F79
  8
0
 10
-368.2097038376557
 20
36.724984759768063
 30
0.0
 11
-368.30000142005571
 21
37.166432629968057
 31
0.0
  0
LINE
  5
5F7A
  8
0
 10
-366.65998634325581
 20
37.148178859068061
 30
0.0
 11
-366.72334615335569
 21
37.457933180368059
 31
0.0
  0
LINE
  5
5F7B
  8
0
 10
-368.30000142005571
 20
39.120713700768079
 30
0.0
 11
-368.2097038376557
 21
39.562161570868057
 31
0.0
  0
LINE
  5
5F7C
  8
0
 10
-366.72334615335569
 20
38.829213150368048
 30
0.0
 11
-366.65998634325581
 21
39.13896880766805
 31
0.0
  0
LINE
  5
5F7D
  8
0
 10
-368.30000142005571
 20
37.166432629968057
 30
0.0
 11
-368.35560574885568
 21
37.645431458168048
 31
0.0
  0
LINE
  5
5F7E
  8
0
 10
-366.72334615335569
 20
37.457933180368059
 30
0.0
 11
-366.76236403955568
 21
37.79403743376804
 31
0.0
  0
LINE
  5
5F7F
  8
0
 10
-368.35560574885568
 20
38.641714872568087
 30
0.0
 11
-368.30000142005571
 21
39.120713700768079
 31
0.0
  0
LINE
  5
5F80
  8
0
 10
-366.76236403955568
 20
38.493110232968057
 30
0.0
 11
-366.72334615335569
 21
38.829213150368048
 31
0.0
  0
LINE
  5
5F81
  8
0
 10
-368.35560574885568
 20
37.645431458168048
 30
0.0
 11
-368.37438189585572
 21
38.143573833368073
 31
0.0
  0
LINE
  5
5F82
  8
0
 10
-366.76236403955568
 20
37.79403743376804
 30
0.0
 11
-366.77553833765569
 21
38.143573833368073
 31
0.0
  0
LINE
  5
5F83
  8
0
 10
-366.77553833765569
 20
38.143573833368073
 30
0.0
 11
-366.76236403955568
 21
38.493110232968057
 31
0.0
  0
LINE
  5
5F84
  8
0
 10
-368.37438189585572
 20
38.143573833368073
 30
0.0
 11
-368.35560574885568
 21
38.641714872568087
 31
0.0
  0
LINE
  5
5F85
  8
0
 10
-368.87735524785569
 20
36.229770897068079
 30
0.0
 11
-368.82660059975581
 21
36.196308099768061
 31
0.0
  0
LINE
  5
5F86
  8
0
 10
-369.0898781455557
 20
36.207489085568092
 30
0.0
 11
-369.0415242899557
 21
36.205435653168081
 31
0.0
  0
LINE
  5
5F87
  8
0
 10
-368.87735524785569
 20
40.057375433668078
 30
0.0
 11
-368.82660059975581
 21
40.090838230968068
 31
0.0
  0
POINT
  5
5F88
  8
0
 10
-365.40425836755571
 20
38.143573833368073
 30
0.0
1001
PNTFLAG
1000
endpoint
  0
LINE
  5
5F89
  8
¤¤¤ß˝u
 10
-375.1611747989557
 20
0.0970993013858674
 30
0.0
 11
-375.1611747989557
 21
53.296181048253572
 31
0.0
  0
LINE
  5
5F8A
  8
0
 10
-377.47057541415569
 20
42.143573165368018
 30
0.0
 11
-372.85177418375571
 21
42.143573165368018
 31
0.0
  0
LINE
  5
5F8B
  8
0
 10
-346.1611747989557
 20
10.643573833230329
 30
0.0
 11
-346.1611747989557
 21
41.643573833230327
 31
0.0
  0
LINE
  5
5F8C
  8
0
 10
-346.16117479895553
 20
10.64357383323067
 30
0.0
 11
-348.16117479895559
 21
8.6435738332303913
 31
0.0
  0
LINE
  5
5F8D
  8
0
 10
-348.1611747989557
 20
43.643573833230327
 30
0.0
 11
-346.1611747989557
 21
41.643573833230327
 31
0.0
  0
LINE
  5
5F8E
  8
«ü˝u
 10
-350.81110188463799
 20
39.591675884454418
 30
0.0
 11
-348.67682138701502
 21
39.592044054881633
 31
0.0
  0
LINE
  5
5F8F
  8
«ü˝u
 10
-350.81093978971597
 20
38.495757906197042
 30
0.0
 11
-348.67665929209301
 21
38.49612607662425
 31
0.0
  0
LINE
  5
5F90
  8
«ü˝u
 10
-351.90701766370847
 20
39.591513685094931
 30
0.0
 11
-354.04569030691073
 21
39.591249443194023
 31
0.0
  0
LINE
  5
5F91
  8
«ü˝u
 10
-351.9068555687868
 20
38.495595706837797
 30
0.0
 11
-354.04552821198888
 21
38.49533146493664
 31
0.0
  0
LINE
  5
5F92
  8
«ü˝u
 10
-350.81093978971597
 20
38.495757906197042
 30
0.0
 11
-350.81079160014832
 21
37.493854827334083
 31
0.0
  0
LINE
  5
5F93
  8
«ü˝u
 10
-351.9068555687868
 20
38.495595706837797
 30
0.0
 11
-351.90670714989761
 21
37.492140712702202
 31
0.0
  0
LINE
  5
5F94
  8
«ü˝u
 10
-350.81125008943877
 20
40.593683436769879
 30
0.0
 11
-350.81110188463799
 21
39.591675884454418
 31
0.0
  0
LINE
  5
5F95
  8
«ü˝u
 10
-351.90716609830042
 20
40.595073362092307
 30
0.0
 11
-351.90701766370847
 21
39.591513685094931
 31
0.0
  0
CIRCLE
  5
5F96
  8
«ü˝u
 10
-351.3611747995019
 20
39.043687759909147
 30
0.0
 40
2.739789646400014
  0
ARC
  5
5F97
  8
«ü˝u
 10
-351.3611747995019
 20
39.043687759909147
 30
0.0
 40
1.644659169866167
 50
109.38889961061879
 51
160.5479173296242
  0
ARC
  5
5F98
  8
«ü˝u
 10
-351.3611747995019
 20
39.043687759909147
 30
0.0
 40
1.644659169866167
 50
19.469040519251578
 51
83.221091041674313
  0
ARC
  5
5F99
  8
«ü˝u
 10
-351.3611747995019
 20
39.043687759909147
 30
0.0
 40
1.644659169866167
 50
289.55118240030379
 51
340.54586684386732
  0
ARC
  5
5F9A
  8
«ü˝u
 10
-351.3611747995019
 20
39.043687759909147
 30
0.0
 40
1.644659169866167
 50
199.47109100509471
 51
250.62804939167731
  0
ARC
  5
5F9B
  8
«ü˝u
 10
-351.3611747995019
 20
11.29368772169766
 30
0.0
 40
1.644659169866167
 50
199.47109100509471
 51
250.62804939167731
  0
ARC
  5
5F9C
  8
«ü˝u
 10
-351.3611747995019
 20
11.29368772169766
 30
0.0
 40
1.644659169866167
 50
289.55118240030379
 51
340.54586684386732
  0
ARC
  5
5F9D
  8
«ü˝u
 10
-351.3611747995019
 20
11.29368772169766
 30
0.0
 40
1.644659169866167
 50
19.469040519251578
 51
83.221091041674313
  0
ARC
  5
5F9E
  8
«ü˝u
 10
-351.3611747995019
 20
11.29368772169766
 30
0.0
 40
1.644659169866167
 50
109.38889961061879
 51
160.5479173296242
  0
CIRCLE
  5
5F9F
  8
«ü˝u
 10
-351.3611747995019
 20
11.29368772169766
 30
0.0
 40
2.739789646400014
  0
LINE
  5
5FA0
  8
«ü˝u
 10
-351.90716609830042
 20
12.84507332388082
 30
0.0
 11
-351.90701766370847
 21
11.84151364688347
 31
0.0
  0
LINE
  5
5FA1
  8
«ü˝u
 10
-350.81125008943877
 20
12.843683398558399
 30
0.0
 11
-350.81110188463799
 21
11.84167584624293
 31
0.0
  0
LINE
  5
5FA2
  8
«ü˝u
 10
-351.9068555687868
 20
10.74559566862632
 30
0.0
 11
-351.90670714989761
 21
9.7421406744907131
 31
0.0
  0
LINE
  5
5FA3
  8
«ü˝u
 10
-350.81093978971597
 20
10.74575786798556
 30
0.0
 11
-350.81079160014832
 21
9.7438547891226222
 31
0.0
  0
LINE
  5
5FA4
  8
«ü˝u
 10
-351.9068555687868
 20
10.74559566862632
 30
0.0
 11
-354.04552821198888
 21
10.74533142672516
 31
0.0
  0
LINE
  5
5FA5
  8
«ü˝u
 10
-351.90701766370847
 20
11.84151364688347
 30
0.0
 11
-354.04569030691073
 21
11.841249404982531
 31
0.0
  0
LINE
  5
5FA6
  8
«ü˝u
 10
-350.81093978971597
 20
10.74575786798556
 30
0.0
 11
-348.67665929209301
 21
10.74612603841277
 31
0.0
  0
LINE
  5
5FA7
  8
«ü˝u
 10
-350.81110188463799
 20
11.84167584624293
 30
0.0
 11
-348.67682138701502
 21
11.84204401667014
 31
0.0
  0
LINE
  5
5FA8
  8
0
 10
-404.16117479895559
 20
41.643573833230327
 30
0.0
 11
-404.16117479895559
 21
10.643573833230329
 31
0.0
  0
LINE
  5
5FA9
  8
0
 10
-402.16117479895559
 20
8.6435738332303913
 30
0.0
 11
-404.16117479895553
 21
10.643573833230249
 31
0.0
  0
LINE
  5
5FAA
  8
0
 10
-404.16117479895559
 20
41.643573833230327
 30
0.0
 11
-402.16117479895559
 21
43.643573833230327
 31
0.0
  0
ARC
  5
5FAB
  8
«ü˝u
 10
-398.9611747984095
 20
39.04401022891804
 30
0.0
 40
1.644659169866167
 50
199.47109100509471
 51
250.62804939167731
  0
ARC
  5
5FAC
  8
«ü˝u
 10
-398.9611747984095
 20
39.04401022891804
 30
0.0
 40
1.644659169866167
 50
289.55118240030379
 51
340.54586684386732
  0
LINE
  5
5FAD
  8
«ü˝u
 10
-399.50685556769429
 20
38.495918175846697
 30
0.0
 11
-399.50670714880522
 21
37.492463181711088
 31
0.0
  0
CIRCLE
  5
5FAE
  8
«ü˝u
 10
-398.9611747984095
 20
39.04401022891804
 30
0.0
 40
2.739789646400014
  0
LINE
  5
5FAF
  8
«ü˝u
 10
-398.41093978862358
 20
38.496080375205942
 30
0.0
 11
-398.41079159905598
 21
37.494177296342968
 31
0.0
  0
ARC
  5
5FB0
  8
«ü˝u
 10
-398.9611747984095
 20
39.04401022891804
 30
0.0
 40
1.644659169866167
 50
109.38889961061879
 51
160.5479173296242
  0
LINE
  5
5FB1
  8
«ü˝u
 10
-399.50716609720803
 20
40.5953958311012
 30
0.0
 11
-399.50701766261608
 21
39.591836154103817
 31
0.0
  0
LINE
  5
5FB2
  8
«ü˝u
 10
-399.50685556769429
 20
38.495918175846697
 30
0.0
 11
-401.64552821089649
 21
38.49565393394554
 31
0.0
  0
LINE
  5
5FB3
  8
«ü˝u
 10
-399.50701766261608
 20
39.591836154103817
 30
0.0
 11
-401.64569030581822
 21
39.591571912202909
 31
0.0
  0
ARC
  5
5FB4
  8
«ü˝u
 10
-398.9611747984095
 20
39.04401022891804
 30
0.0
 40
1.644659169866167
 50
19.469040519251578
 51
83.221091041674313
  0
LINE
  5
5FB5
  8
«ü˝u
 10
-398.41125008834649
 20
40.594005905778772
 30
0.0
 11
-398.41110188354571
 21
39.591998353463339
 31
0.0
  0
LINE
  5
5FB6
  8
«ü˝u
 10
-398.41093978862358
 20
38.496080375205942
 30
0.0
 11
-396.27665929100061
 21
38.496448545633143
 31
0.0
  0
LINE
  5
5FB7
  8
«ü˝u
 10
-398.41110188354571
 20
39.591998353463339
 30
0.0
 11
-396.27682138592257
 21
39.592366523890519
 31
0.0
  0
LINE
  5
5FB8
  8
«ü˝u
 10
-398.41110188354571
 20
11.84199831525183
 30
0.0
 11
-396.27682138592257
 21
11.84236648567903
 31
0.0
  0
LINE
  5
5FB9
  8
«ü˝u
 10
-398.41093978862358
 20
10.746080336994449
 30
0.0
 11
-396.27665929100061
 21
10.74644850742169
 31
0.0
  0
LINE
  5
5FBA
  8
«ü˝u
 10
-398.41125008834649
 20
12.84400586756729
 30
0.0
 11
-398.41110188354571
 21
11.84199831525183
 31
0.0
  0
ARC
  5
5FBB
  8
«ü˝u
 10
-398.9611747984095
 20
11.29401019070656
 30
0.0
 40
1.644659169866167
 50
19.469040519251578
 51
83.221091041674313
  0
LINE
  5
5FBC
  8
«ü˝u
 10
-399.50701766261608
 20
11.84183611589236
 30
0.0
 11
-401.64569030581822
 21
11.84157187399143
 31
0.0
  0
LINE
  5
5FBD
  8
«ü˝u
 10
-399.50685556769429
 20
10.74591813763521
 30
0.0
 11
-401.64552821089649
 21
10.745653895734049
 31
0.0
  0
LINE
  5
5FBE
  8
«ü˝u
 10
-399.50716609720803
 20
12.84539579288969
 30
0.0
 11
-399.50701766261608
 21
11.84183611589236
 31
0.0
  0
ARC
  5
5FBF
  8
«ü˝u
 10
-398.9611747984095
 20
11.29401019070656
 30
0.0
 40
1.644659169866167
 50
109.38889961061879
 51
160.5479173296242
  0
LINE
  5
5FC0
  8
«ü˝u
 10
-398.41093978862358
 20
10.746080336994449
 30
0.0
 11
-398.41079159905598
 21
9.7441772581314865
 31
0.0
  0
CIRCLE
  5
5FC1
  8
«ü˝u
 10
-398.9611747984095
 20
11.29401019070656
 30
0.0
 40
2.739789646400014
  0
LINE
  5
5FC2
  8
«ü˝u
 10
-399.50685556769429
 20
10.74591813763521
 30
0.0
 11
-399.50670714880522
 21
9.7424631434996058
 31
0.0
  0
ARC
  5
5FC3
  8
«ü˝u
 10
-398.9611747984095
 20
11.29401019070656
 30
0.0
 40
1.644659169866167
 50
289.55118240030379
 51
340.54586684386732
  0
ARC
  5
5FC4
  8
«ü˝u
 10
-398.9611747984095
 20
11.29401019070656
 30
0.0
 40
1.644659169866167
 50
199.47109100509471
 51
250.62804939167731
  0
LINE
  5
5FC5
  8
0
 10
-366.04676879895561
 20
28.643573833230391
 30
0.0
 11
-364.93096647326649
 21
30.783575630813431
 31
0.0
  0
LINE
  5
5FC6
  8
0
 10
-362.56708967444661
 20
25.163895065996339
 30
0.0
 11
-362.10476505863272
 21
26.639984835782631
 31
0.0
  0
LINE
  5
5FC7
  8
0
 10
-365.38245381801539
 20
29.91757563081336
 30
0.0
 11
-363.95543823698932
 21
28.490560049787241
 31
0.0
  0
LINE
  5
5FC8
  8
0
 10
-364.93096647326649
 20
30.783575630813431
 30
0.0
 11
-363.18908263281628
 21
28.948988366755369
 31
0.0
  0
LINE
  5
5FC9
  8
0
 10
-365.38246651173102
 20
29.917641879217971
 30
0.0
 11
-363.9554412633363
 21
28.49063596562582
 31
0.0
  0
LINE
  5
5FCA
  8
0
 10
-363.95543823698932
 20
28.490560049787241
 30
0.0
 11
-363.18907650135139
 21
28.948907259164461
 31
0.0
  0
LINE
  5
5FCB
  8
0
 10
-363.9554412633363
 20
28.49063596562582
 30
0.0
 11
-363.18908263281628
 21
28.948988366755369
 31
0.0
  0
ARC
  5
5FCC
  8
0
 10
-363.54262989194473
 20
28.595353868571181
 30
0.0
 40
0.5
 50
338.59144850073852
 51
44.999999999999758
  0
ARC
  5
5FCD
  8
0
 10
-363.5426336282332
 20
28.595432581001891
 30
0.0
 40
0.5
 50
338.59183665437507
 51
45.000388153637111
  0
LINE
  5
5FCE
  8
0
 10
-365.431526549647
 20
28.028331583921702
 30
0.0
 11
-363.95544126333613
 21
28.490635965625579
 31
0.0
  0
LINE
  5
5FCF
  8
0
 10
-362.10477456967368
 20
26.639896382471711
 30
0.0
 11
-362.18248862191268
 21
27.518205401000561
 31
0.0
  0
LINE
  5
5FD0
  8
0
 10
-362.1047745696734
 20
26.63989638247136
 30
0.0
 11
-361.64642736029617
 21
27.406258118109239
 31
0.0
  0
ARC
  5
5FD1
  8
0
 10
-361.99998075088951
 20
27.052704727515959
 30
0.0
 40
0.5
 50
44.999999999999758
 51
111.4085514992649
  0
LINE
  5
5FD2
  8
0
 10
-362.10476505863301
 20
26.639984835782968
 30
0.0
 11
-362.18248506102651
 21
27.51829332781324
 31
0.0
  0
LINE
  5
5FD3
  8
0
 10
-362.10476505863272
 20
26.639984835782631
 30
0.0
 11
-361.64642304102892
 21
27.406349676503169
 31
0.0
  0
ARC
  5
5FD4
  8
0
 10
-361.99997403644568
 20
27.05279389074969
 30
0.0
 40
0.5
 50
45.000388153637111
 51
111.40893965290159
  0
ARC
  5
5FD5
  8
0
 10
-362.43445898864741
 20
28.16087563081334
 30
0.0
 40
0.6903000000000003
 50
158.59144850073591
 51
291.40855149926512
  0
ARC
  5
5FD6
  8
0
 10
-362.43445898864741
 20
28.16087563081334
 30
0.0
 40
1.5563
 50
167.7698790836308
 51
282.23012091637258
  0
ARC
  5
5FD7
  8
0
 10
-362.43445978156279
 20
28.16096185062321
 30
0.0
 40
0.6903000000000003
 50
158.59183665437499
 51
291.40893965290519
  0
LINE
  5
5FD8
  8
0
 10
-363.95543823698898
 20
28.49056004978695
 30
0.0
 11
-363.07712921846007
 21
28.412845997548001
 31
0.0
  0
LINE
  5
5FD9
  8
0
 10
-361.64642304102881
 20
27.406349676503218
 30
0.0
 11
-359.08307487506983
 21
24.843036241415689
 31
0.0
  0
LINE
  5
5FDA
  8
0
 10
-362.1047745696734
 20
26.63989638247136
 30
0.0
 11
-359.88775898864742
 21
24.422880801445331
 31
0.0
  0
LINE
  5
5FDB
  8
0
 10
-362.10476505863272
 20
26.639984835782631
 30
0.0
 11
-359.88773445835471
 21
24.42298427411038
 31
0.0
  0
LINE
  5
5FDC
  8
0
 10
-361.16117479895559
 20
23.757983146554871
 30
0.0
 11
-359.08307487506983
 21
24.843036241415689
 31
0.0
  0
LINE
  5
5FDD
  8
0
 10
-361.16117479895559
 20
21.523314493898908
 30
0.0
 11
-359.08452972632313
 21
20.433448133731812
 31
0.0
  0
LINE
  5
5FDE
  8
0
 10
-359.88775898864742
 20
20.85487046016226
 30
0.0
 11
-359.88775898864742
 21
24.422880801445331
 31
0.0
  0
LINE
  5
5FDF
  8
0
 10
-359.88771028665809
 20
20.854973932909221
 30
0.0
 11
-359.88773445835471
 21
24.42298427411038
 31
0.0
  0
LINE
  5
5FE0
  8
0
 10
-359.08307487506983
 20
24.843036241415689
 30
0.0
 11
-359.08452972632313
 21
20.433448133731812
 31
0.0
  0
LINE
  5
5FE1
  8
0
 10
-359.08452972632313
 20
20.433448133731812
 30
0.0
 11
-361.63990887981907
 21
17.878034357028579
 31
0.0
  0
LINE
  5
5FE2
  8
0
 10
-359.88775898864742
 20
20.85487046016226
 30
0.0
 11
-362.09739329260191
 21
18.645236156347149
 31
0.0
  0
LINE
  5
5FE3
  8
0
 10
-359.88771028665809
 20
20.854973932909221
 30
0.0
 11
-362.0973296212639
 21
18.645324659846779
 31
0.0
  0
LINE
  5
5FE4
  8
0
 10
-362.09739329260208
 20
18.645236156346868
 30
0.0
 11
-362.17874824844972
 21
17.76706679368732
 31
0.0
  0
LINE
  5
5FE5
  8
0
 10
-361.63997774922098
 20
17.87794275472271
 30
0.0
 11
-362.09739329260168
 21
18.645236156346812
 31
0.0
  0
LINE
  5
5FE6
  8
0
 10
-361.63990887981907
 20
17.878034357028579
 30
0.0
 11
-362.09732962126378
 21
18.645324659846441
 31
0.0
  0
LINE
  5
5FE7
  8
0
 10
-362.09732962126412
 20
18.645324659846551
 30
0.0
 11
-362.17867862789973
 21
17.76715474606317
 31
0.0
  0
ARC
  5
5FE8
  8
0
 10
-361.99353113980311
 20
18.231496145327132
 30
0.0
 40
0.5
 50
248.25760092478561
 51
314.99999999819408
  0
ARC
  5
5FE9
  8
0
 10
-361.99346466556142
 20
18.231585352456531
 30
0.0
 40
0.5
 50
248.25798907842869
 51
315.00038815183183
  0
LINE
  5
5FEA
  8
0
 10
-362.5612124855748
 20
20.123279784474342
 30
0.0
 11
-362.0973296212639
 21
18.645324659846779
 31
0.0
  0
LINE
  5
5FEB
  8
0
 10
-365.43170298564348
 20
17.252788656530299
 30
0.0
 11
-363.9537432663098
 21
16.788885861742699
 31
0.0
  0
LINE
  5
5FEC
  8
0
 10
-365.86117479895557
 20
16.82331686849005
 30
0.0
 11
-363.72167536700988
 21
15.700433830667579
 31
0.0
  0
ARC
  5
5FED
  8
0
 10
-362.43445898864741
 20
17.125875630813312
 30
0.0
 40
1.5563
 50
77.491676498283709
 51
192.5083235054291
  0
ARC
  5
5FEE
  8
0
 10
-362.43438502430399
 20
17.125961850876418
 30
0.0
 40
1.5563
 50
77.492064651922973
 51
192.50871165906781
  0
LINE
  5
5FEF
  8
0
 10
-363.95381951415931
 20
16.788809934669409
 30
0.0
 11
-363.18652611253083
 21
16.33139439128291
 31
0.0
  0
LINE
  5
5FF0
  8
0
 10
-363.95381951415931
 20
16.788809934669409
 30
0.0
 11
-364.58775898864729
 21
16.154870460181371
 31
0.0
  0
LINE
  5
5FF1
  8
0
 10
-363.1864467659102
 20
16.33147551644112
 30
0.0
 11
-363.72167536700988
 21
15.700433830667579
 31
0.0
  0
LINE
  5
5FF2
  8
0
 10
-363.72167536700988
 20
15.700433830667579
 30
0.0
 11
-363.72166227800773
 21
13.768352020839529
 31
0.0
  0
LINE
  5
5FF3
  8
0
 10
-363.9537432663098
 20
16.788885861742699
 30
0.0
 11
-364.58767844612282
 21
16.154942092608849
 31
0.0
  0
ARC
  5
5FF4
  8
0
 10
-362.43445898864741
 20
17.125875630813312
 30
0.0
 40
0.6903000000000003
 50
68.257600924789031
 51
201.7423990800244
  0
ARC
  5
5FF5
  8
0
 10
-362.43438502430399
 20
17.125961850876418
 30
0.0
 40
0.6903000000000003
 50
68.257989078428778
 51
201.7427872336651
  0
ARC
  5
5FF6
  8
0
 10
-363.5400795031241
 20
16.68494778187619
 30
0.0
 40
0.5
 50
315.00000000000421
 51
21.74239908002443
  0
LINE
  5
5FF7
  8
0
 10
-363.95381951415931
 20
16.788809934669409
 30
0.0
 11
-363.07565015149981
 21
16.870164890561849
 31
0.0
  0
LINE
  5
5FF8
  8
0
 10
-363.9537432663098
 20
16.788885861742699
 30
0.0
 11
-363.07557445481427
 21
16.870246766843419
 31
0.0
  0
ARC
  5
5FF9
  8
0
 10
-363.54000255166369
 20
16.685026511857981
 30
0.0
 40
0.5
 50
315.00038815364201
 51
21.74278723366514
  0
LINE
  5
5FFA
  8
0
 10
-364.58775898864729
 20
16.154870460181371
 30
0.0
 11
-364.58775898864729
 21
13.31288080144526
 31
0.0
  0
LINE
  5
5FFB
  8
0
 10
-364.58767844612282
 20
16.154942092608849
 30
0.0
 11
-364.58765919289613
 21
13.31295243393788
 31
0.0
  0
LINE
  5
5FFC
  8
0
 10
-365.86117479895557
 20
12.643252033230389
 30
0.0
 11
-363.72166227800773
 21
13.768352020839529
 31
0.0
  0
LINE
  5
5FFD
  8
0
 10
-364.58765919289613
 20
13.31295243393788
 30
0.0
 11
-359.91862239192022
 21
8.6439788938641282
 31
0.0
  0
LINE
  5
5FFE
  8
0
 10
-364.58775898864729
 20
13.31288080144526
 30
0.0
 11
-359.91875381801532
 21
8.6438756308132838
 31
0.0
  0
LINE
  5
5FFF
  8
0
 10
-363.72166227800761
 20
13.768352020839529
 30
0.0
 11
-358.63054950346822
 21
8.6773082259206831
 31
0.0
  0
LINE
  5
6000
  8
0
 10
-391.23927472284151
 20
24.843036241415689
 30
0.0
 11
-391.23781987158821
 21
20.433448133731812
 31
0.0
  0
LINE
  5
6001
  8
0
 10
-386.60068731990373
 20
13.768352020839529
 30
0.0
 11
-391.69180009444312
 21
8.6773082259206831
 31
0.0
  0
LINE
  5
6002
  8
0
 10
-385.73459060926399
 20
13.31288080144526
 30
0.0
 11
-390.40359577989602
 21
8.6438756308132838
 31
0.0
  0
LINE
  5
6003
  8
0
 10
-385.73469040501521
 20
13.31295243393788
 30
0.0
 11
-390.40372720599112
 21
8.6439788938641282
 31
0.0
  0
LINE
  5
6004
  8
0
 10
-384.46117479895571
 20
12.643252033230389
 30
0.0
 11
-386.60068731990373
 21
13.768352020839529
 31
0.0
  0
LINE
  5
6005
  8
0
 10
-387.76113711233648
 20
20.123279784474342
 30
0.0
 11
-388.22501997664739
 21
18.645324659846779
 31
0.0
  0
ARC
  5
6006
  8
0
 10
-388.32888493234992
 20
18.231585352456531
 30
0.0
 40
0.5
 50
224.9996118481682
 51
291.74201092157131
  0
ARC
  5
6007
  8
0
 10
-388.32881845810817
 20
18.231496145327132
 30
0.0
 40
0.5
 50
225.0000000018058
 51
291.74239907521439
  0
LINE
  5
6008
  8
0
 10
-388.22501997664722
 20
18.645324659846551
 30
0.0
 11
-388.1436709700115
 21
17.76715474606317
 31
0.0
  0
LINE
  5
6009
  8
0
 10
-388.68244071809221
 20
17.878034357028579
 30
0.0
 11
-388.2250199766475
 21
18.645324659846441
 31
0.0
  0
LINE
  5
600A
  8
0
 10
-388.68237184869031
 20
17.87794275472271
 30
0.0
 11
-388.22495630530949
 21
18.645236156346812
 31
0.0
  0
LINE
  5
600B
  8
0
 10
-388.22495630530909
 20
18.645236156346868
 30
0.0
 11
-388.14360134946151
 21
17.76706679368732
 31
0.0
  0
LINE
  5
600C
  8
0
 10
-385.73467115178852
 20
16.154942092608849
 30
0.0
 11
-385.73469040501521
 21
13.31295243393788
 31
0.0
  0
LINE
  5
600D
  8
0
 10
-385.73459060926399
 20
16.154870460181371
 30
0.0
 11
-385.73459060926399
 21
13.31288080144526
 31
0.0
  0
ARC
  5
600E
  8
0
 10
-386.78234704624759
 20
16.685026511857981
 30
0.0
 40
0.5
 50
158.25721276633479
 51
224.99961184635799
  0
LINE
  5
600F
  8
0
 10
-386.36860633160148
 20
16.788885861742699
 30
0.0
 11
-387.24677514309701
 21
16.870246766843419
 31
0.0
  0
LINE
  5
6010
  8
0
 10
-386.36853008375198
 20
16.788809934669409
 30
0.0
 11
-387.24669944641153
 21
16.870164890561849
 31
0.0
  0
ARC
  5
6011
  8
0
 10
-386.78227009478718
 20
16.68494778187619
 30
0.0
 40
0.5
 50
158.2576009199756
 51
224.99999999999571
  0
ARC
  5
6012
  8
0
 10
-387.88796457360729
 20
17.125961850876418
 30
0.0
 40
0.6903000000000003
 50
338.25721276633487
 51
111.74201092157119
  0
ARC
  5
6013
  8
0
 10
-387.88789060926388
 20
17.125875630813312
 30
0.0
 40
0.6903000000000003
 50
338.25760091997557
 51
111.7423990752109
  0
LINE
  5
6014
  8
0
 10
-386.36860633160148
 20
16.788885861742699
 30
0.0
 11
-385.73467115178852
 21
16.154942092608849
 31
0.0
  0
LINE
  5
6015
  8
0
 10
-386.60067423090152
 20
15.700433830667579
 30
0.0
 11
-386.60068731990373
 21
13.768352020839529
 31
0.0
  0
LINE
  5
6016
  8
0
 10
-387.13590283200108
 20
16.33147551644112
 30
0.0
 11
-386.60067423090152
 21
15.700433830667579
 31
0.0
  0
LINE
  5
6017
  8
0
 10
-386.36853008375198
 20
16.788809934669409
 30
0.0
 11
-385.73459060926399
 21
16.154870460181371
 31
0.0
  0
LINE
  5
6018
  8
0
 10
-386.36853008375198
 20
16.788809934669409
 30
0.0
 11
-387.13582348538051
 21
16.33139439128291
 31
0.0
  0
ARC
  5
6019
  8
0
 10
-387.88796457360729
 20
17.125961850876418
 30
0.0
 40
1.5563
 50
347.4912883409321
 51
102.507935348077
  0
ARC
  5
601A
  8
0
 10
-387.88789060926388
 20
17.125875630813312
 30
0.0
 40
1.5563
 50
347.49167649457081
 51
102.5083235017163
  0
LINE
  5
601B
  8
0
 10
-384.46117479895571
 20
16.82331686849005
 30
0.0
 11
-386.60067423090152
 21
15.700433830667579
 31
0.0
  0
LINE
  5
601C
  8
0
 10
-384.8906466122678
 20
17.252788656530299
 30
0.0
 11
-386.36860633160148
 21
16.788885861742699
 31
0.0
  0
LINE
  5
601D
  8
0
 10
-387.75525992346462
 20
25.163895065996339
 30
0.0
 11
-388.21758453927862
 21
26.639984835782631
 31
0.0
  0
LINE
  5
601E
  8
0
 10
-390.43463931125319
 20
20.854973932909221
 30
0.0
 11
-390.43461513955663
 21
24.42298427411038
 31
0.0
  0
LINE
  5
601F
  8
0
 10
-390.43459060926392
 20
20.85487046016226
 30
0.0
 11
-390.43459060926392
 21
24.422880801445331
 31
0.0
  0
LINE
  5
6020
  8
0
 10
-390.43463931125319
 20
20.854973932909221
 30
0.0
 11
-388.22501997664739
 21
18.645324659846779
 31
0.0
  0
LINE
  5
6021
  8
0
 10
-390.43459060926392
 20
20.85487046016226
 30
0.0
 11
-388.22495630530938
 21
18.645236156347149
 31
0.0
  0
LINE
  5
6022
  8
0
 10
-389.1611747989557
 20
21.523314493898908
 30
0.0
 11
-391.23781987158821
 21
20.433448133731812
 31
0.0
  0
LINE
  5
6023
  8
0
 10
-389.1611747989557
 20
23.757983146554871
 30
0.0
 11
-391.23927472284151
 21
24.843036241415689
 31
0.0
  0
LINE
  5
6024
  8
0
 10
-388.21758453927862
 20
26.639984835782631
 30
0.0
 11
-390.43461513955663
 21
24.42298427411038
 31
0.0
  0
LINE
  5
6025
  8
0
 10
-388.217575028238
 20
26.63989638247136
 30
0.0
 11
-390.43459060926392
 21
24.422880801445331
 31
0.0
  0
LINE
  5
6026
  8
0
 10
-391.23781987158821
 20
20.433448133731812
 30
0.0
 11
-388.68244071809221
 21
17.878034357028579
 31
0.0
  0
LINE
  5
6027
  8
0
 10
-386.3669113609223
 20
28.49056004978695
 30
0.0
 11
-387.2452203794511
 21
28.412845997548001
 31
0.0
  0
ARC
  5
6028
  8
0
 10
-387.88788981634849
 20
28.16096185062321
 30
0.0
 40
0.6903000000000003
 50
248.59106034709481
 51
21.408163345624949
  0
ARC
  5
6029
  8
0
 10
-387.88789060926388
 20
28.16087563081334
 30
0.0
 40
1.5563
 50
257.76987908362742
 51
12.2301209163692
  0
ARC
  5
602A
  8
0
 10
-387.88789060926388
 20
28.16087563081334
 30
0.0
 40
0.6903000000000003
 50
248.591448500735
 51
21.40855149926411
  0
ARC
  5
602B
  8
0
 10
-388.32237556146549
 20
27.05279389074969
 30
0.0
 40
0.5
 50
68.591060347098349
 51
134.99961184636291
  0
LINE
  5
602C
  8
0
 10
-388.21758453927862
 20
26.639984835782631
 30
0.0
 11
-388.67592655688242
 21
27.406349676503169
 31
0.0
  0
LINE
  5
602D
  8
0
 10
-388.21758453927828
 20
26.639984835782968
 30
0.0
 11
-388.13986453688477
 21
27.51829332781324
 31
0.0
  0
ARC
  5
602E
  8
0
 10
-388.32236884702178
 20
27.052704727515959
 30
0.0
 40
0.5
 50
68.591448500735041
 51
135.0000000000002
  0
LINE
  5
602F
  8
0
 10
-388.217575028238
 20
26.63989638247136
 30
0.0
 11
-388.67592223761511
 21
27.406258118109239
 31
0.0
  0
LINE
  5
6030
  8
0
 10
-388.2175750282376
 20
26.639896382471711
 30
0.0
 11
-388.1398609759986
 21
27.518205401000561
 31
0.0
  0
LINE
  5
6031
  8
0
 10
-388.67592655688247
 20
27.406349676503218
 30
0.0
 11
-391.23927472284151
 21
24.843036241415689
 31
0.0
  0
LINE
  5
6032
  8
0
 10
-384.89082304826428
 20
28.028331583921702
 30
0.0
 11
-386.36690833457521
 21
28.490635965625579
 31
0.0
  0
LINE
  5
6033
  8
0
 10
-384.27558079895567
 20
28.643573833230391
 30
0.0
 11
-385.39138312464479
 21
30.783575630813431
 31
0.0
  0
ARC
  5
6034
  8
0
 10
-386.77971596967808
 20
28.595432581001891
 30
0.0
 40
0.5
 50
134.99961184636291
 51
201.40816334562501
  0
ARC
  5
6035
  8
0
 10
-386.77971970596661
 20
28.595353868571181
 30
0.0
 40
0.5
 50
135.0000000000002
 51
201.40855149926151
  0
LINE
  5
6036
  8
0
 10
-386.36690833457487
 20
28.49063596562582
 30
0.0
 11
-387.133266965095
 21
28.948988366755369
 31
0.0
  0
LINE
  5
6037
  8
0
 10
-386.3669113609219
 20
28.490560049787241
 30
0.0
 11
-387.13327309655989
 21
28.948907259164461
 31
0.0
  0
LINE
  5
6038
  8
0
 10
-384.93988308618032
 20
29.917641879217971
 30
0.0
 11
-386.36690833457487
 21
28.49063596562582
 31
0.0
  0
LINE
  5
6039
  8
0
 10
-385.39138312464479
 20
30.783575630813431
 30
0.0
 11
-387.133266965095
 21
28.948988366755369
 31
0.0
  0
LINE
  5
603A
  8
0
 10
-384.93989577989589
 20
29.91757563081336
 30
0.0
 11
-386.3669113609219
 21
28.490560049787241
 31
0.0
  0
LINE
  5
603B
  8
0
 10
-385.39138312464479
 20
30.783575630813431
 30
0.0
 11
-365.02317649361692
 21
30.783575630813349
 31
0.0
  0
LINE
  5
603C
  8
0
 10
-384.93989577989578
 20
29.91757563081342
 30
0.0
 11
-365.38188543863203
 21
29.91757563081336
 31
0.0
  0
LINE
  5
603D
  8
0
 10
-384.27558079895567
 20
28.643573833230391
 30
0.0
 11
-366.04676879895561
 21
28.643573833230391
 31
0.0
  0
LINE
  5
603E
  8
0
 10
-367.91117479895559
 20
3.1435738332303909
 30
0.0
 11
-367.41117479895559
 21
2.6435738332303909
 31
0.0
  0
LINE
  5
603F
  8
0
 10
-389.1611747989557
 20
7.9432521332352053
 30
0.0
 11
-389.1611747989557
 21
4.1435738332303913
 31
0.0
  0
LINE
  5
6040
  8
µę˝u
 10
-379.66117479895559
 20
3.5435738332303681
 30
0.0
 11
-379.66117479895559
 21
16.34357383323038
 31
0.0
  0
LINE
  5
6041
  8
µę˝u
 10
-370.6611747989557
 20
3.5435738332303681
 30
0.0
 11
-370.6611747989557
 21
16.34357383323038
 31
0.0
  0
LINE
  5
6042
  8
0
 10
-382.41117479895559
 20
3.1435738332303909
 30
0.0
 11
-382.9111747989557
 21
2.6435738332303909
 31
0.0
  0
LINE
  5
6043
  8
0
 10
-389.1611747989557
 20
4.1435738332303913
 30
0.0
 11
-387.66117479895559
 21
2.6435738332303909
 31
0.0
  0
LINE
  5
6044
  8
0
 10
-382.9111747989557
 20
2.6435738332303909
 30
0.0
 11
-387.66117479895559
 21
2.6435738332303909
 31
0.0
  0
LINE
  5
6045
  8
µę˝u
 10
-370.6611747989557
 20
3.5435738332303681
 30
0.0
 11
-379.66117479895559
 21
3.5435738332303681
 31
0.0
  0
LINE
  5
6046
  8
0
 10
-371.41117479895559
 20
3.1435738332303909
 30
0.0
 11
-371.91117479895559
 21
2.6435738332303909
 31
0.0
  0
LINE
  5
6047
  8
0
 10
-382.41117479895559
 20
3.1435738332303909
 30
0.0
 11
-378.9111747989557
 21
3.1435738332303909
 31
0.0
  0
LINE
  5
6048
  8
0
 10
-378.9111747989557
 20
3.1435738332303909
 30
0.0
 11
-378.41117479895559
 21
2.6435738332303909
 31
0.0
  0
LINE
  5
6049
  8
0
 10
-378.41117479895559
 20
2.6435738332303909
 30
0.0
 11
-371.91117479895559
 21
2.6435738332303909
 31
0.0
  0
LINE
  5
604A
  8
0
 10
-367.91117479895559
 20
3.1435738332303909
 30
0.0
 11
-371.41117479895559
 21
3.1435738332303909
 31
0.0
  0
LINE
  5
604B
  8
µę˝u
 10
-380.06117479895562
 20
3.1435738332303909
 30
0.0
 11
-379.66117479895559
 21
3.5435738332303681
 31
0.0
  0
LINE
  5
604C
  8
µę˝u
 10
-370.26117479895572
 20
3.1435738332303909
 30
0.0
 11
-370.6611747989557
 21
3.5435738332303681
 31
0.0
  0
LINE
  5
604D
  8
µę˝u
 10
-382.16117479895559
 20
16.643573833230391
 30
0.0
 11
-382.16117479895559
 21
28.243573833230421
 31
0.0
  0
LINE
  5
604E
  8
µę˝u
 10
-368.1611747989557
 20
16.643573833230391
 30
0.0
 11
-368.1611747989557
 21
28.243573833230421
 31
0.0
  0
LINE
  5
604F
  8
0
 10
-384.46117479895571
 20
16.82331686849005
 30
0.0
 11
-384.46117479895571
 21
12.643252033230389
 31
0.0
  0
LINE
  5
6050
  8
0
 10
-389.1611747989557
 20
7.9432521332352053
 30
0.0
 11
-384.46117479895571
 21
12.643252033230389
 31
0.0
  0
LINE
  5
6051
  8
0
 10
-389.1611747989557
 20
23.757983146554871
 30
0.0
 11
-387.75525992346468
 21
25.163895065996339
 31
0.0
  0
LINE
  5
6052
  8
0
 10
-389.1611747989557
 20
21.523314493898908
 30
0.0
 11
-387.76113711233648
 21
20.123279784474342
 31
0.0
  0
LINE
  5
6053
  8
0
 10
-389.1611747989557
 20
23.757983146554871
 30
0.0
 11
-389.1611747989557
 21
21.523314493898908
 31
0.0
  0
LINE
  5
6054
  8
0
 10
-384.8906466122678
 20
17.252788656530299
 30
0.0
 11
-384.46117479895571
 21
16.82331686849005
 31
0.0
  0
LINE
  5
6055
  8
µę˝u
 10
-370.36117479895569
 20
16.643573833230391
 30
0.0
 11
-370.6611747989557
 21
16.34357383323038
 31
0.0
  0
LINE
  5
6056
  8
µę˝u
 10
-379.9611747989556
 20
16.643573833230391
 30
0.0
 11
-379.66117479895559
 21
16.34357383323038
 31
0.0
  0
LINE
  5
6057
  8
µę˝u
 10
-370.6611747989557
 20
16.34357383323038
 30
0.0
 11
-379.66117479895559
 21
16.34357383323038
 31
0.0
  0
LINE
  5
6058
  8
µę˝u
 10
-368.1611747989557
 20
16.643573833230391
 30
0.0
 11
-382.16117479895559
 21
16.643573833230391
 31
0.0
  0
LINE
  5
6059
  8
0
 10
-384.89082304826428
 20
28.028331583921702
 30
0.0
 11
-384.27558079895567
 21
28.643573833230391
 31
0.0
  0
LINE
  5
605A
  8
µę˝u
 10
-367.93023469127991
 20
28.643573833230391
 30
0.0
 11
-368.1611747989557
 21
28.243573833230421
 31
0.0
  0
LINE
  5
605B
  8
µę˝u
 10
-382.16117479895559
 20
28.243573833230421
 30
0.0
 11
-382.39211490663138
 21
28.643573833230391
 31
0.0
  0
LINE
  5
605C
  8
µę˝u
 10
-368.1611747989557
 20
28.243573833230421
 30
0.0
 11
-382.16117479895559
 21
28.243573833230421
 31
0.0
  0
LINE
  5
605D
  8
0
 10
-361.16117479895559
 20
7.9432521332352053
 30
0.0
 11
-361.16117479895559
 21
4.1435738332303913
 31
0.0
  0
LINE
  5
605E
  8
0
 10
-367.41117479895559
 20
2.6435738332303909
 30
0.0
 11
-362.66117479895559
 21
2.6435738332303909
 31
0.0
  0
LINE
  5
605F
  8
0
 10
-361.16117479895559
 20
4.1435738332303913
 30
0.0
 11
-362.66117479895559
 21
2.6435738332303909
 31
0.0
  0
LINE
  5
6060
  8
0
 10
-365.86117479895557
 20
16.82331686849005
 30
0.0
 11
-365.86117479895557
 21
12.643252033230389
 31
0.0
  0
LINE
  5
6061
  8
0
 10
-361.16117479895559
 20
7.9432521332352053
 30
0.0
 11
-365.86117479895557
 21
12.643252033230389
 31
0.0
  0
LINE
  5
6062
  8
0
 10
-361.16117479895559
 20
23.757983146554871
 30
0.0
 11
-362.56693567104912
 21
25.163741062922561
 31
0.0
  0
LINE
  5
6063
  8
0
 10
-361.16117479895559
 20
21.523314493898908
 30
0.0
 11
-362.56141118830288
 21
20.123081082168881
 31
0.0
  0
LINE
  5
6064
  8
0
 10
-365.4312562730118
 20
17.253235369135609
 30
0.0
 11
-365.86117479895557
 21
16.82331686849005
 31
0.0
  0
LINE
  5
6065
  8
0
 10
-361.16117479895559
 20
23.757983146554871
 30
0.0
 11
-361.16117479895559
 21
21.523314493898908
 31
0.0
  0
LINE
  5
6066
  8
0
 10
-365.43093814839602
 20
28.02774318267069
 30
0.0
 11
-366.04676879895561
 21
28.643573833230391
 31
0.0
  0
ARC
  5
6067
  8
0
 10
-362.43388981693249
 20
28.16078941099812
 30
0.0
 40
3.0
 50
182.5418294689097
 51
267.45817768503082
  0
ARC
  5
6068
  8
0
 10
-362.43396457419118
 20
17.125789411251329
 30
0.0
 40
3.0
 50
92.434783766460129
 51
177.56522877788561
  0
ARC
  5
6069
  8
0
 10
-387.88788981634849
 20
28.16096185062321
 30
0.0
 40
3.0
 50
272.53387024114153
 51
357.46612261247958
  0
ARC
  5
606A
  8
0
 10
-387.88796457360718
 20
17.125961850876418
 30
0.0
 40
3.0
 50
2.4229356526405521
 51
87.577051814798452
  0
LINE
  5
606B
  8
0
 10
-367.66117479895559
 20
44.143573833230377
 30
0.0
 11
-348.66117479895559
 21
44.143573833230377
 31
0.0
  0
LINE
  5
606C
  8
0
 10
-419.16117479895559
 20
28.643573833230391
 30
0.0
 11
-411.67052692509418
 21
28.643573833230391
 31
0.0
  0
LINE
  5
606D
  8
µę˝u
 10
-416.16117479895553
 20
43.843573833230373
 30
0.0
 11
-406.16117479895553
 21
43.843573833230323
 31
0.0
  0
LINE
  5
606E
  8
µę˝u
 10
-406.16117479895553
 20
35.643573833230391
 30
0.0
 11
-416.16117479895553
 21
35.643573833230391
 31
0.0
  0
LINE
  5
606F
  8
µę˝u
 10
-404.16117479895553
 20
34.643573833230391
 30
0.0
 11
-420.16117479895559
 21
34.643573833230391
 31
0.0
  0
LINE
  5
6070
  8
0
 10
-418.66117479895559
 20
44.643573833230391
 30
0.0
 11
-402.16117479895553
 21
44.643573833230391
 31
0.0
  0
LINE
  5
6071
  8
µę˝u
 10
-416.16117479895553
 20
35.643573833230391
 30
0.0
 11
-417.01117479895538
 21
34.643573833230391
 31
0.0
  0
LINE
  5
6072
  8
0
 10
-420.16117479895559
 20
29.643573833230391
 30
0.0
 11
-420.16117479895559
 21
43.143573833230391
 31
0.0
  0
LINE
  5
6073
  8
0
 10
-420.16117479895559
 20
29.643573833230391
 30
0.0
 11
-419.16117479895559
 21
28.643573833230391
 31
0.0
  0
LINE
  5
6074
  8
0
 10
-418.66117479895559
 20
44.643573833230391
 30
0.0
 11
-420.16117479895559
 21
43.143573833230391
 31
0.0
  0
LINE
  5
6075
  8
µę˝u
 10
-416.16117479895553
 20
43.843573833230373
 30
0.0
 11
-416.84117479895559
 21
44.643573833230391
 31
0.0
  0
LINE
  5
6076
  8
µę˝u
 10
-416.16117479895553
 20
43.843573833230373
 30
0.0
 11
-416.16117479895553
 21
35.643573833230391
 31
0.0
  0
LINE
  5
6077
  8
µę˝u
 10
-415.41117479895553
 20
43.843573833230373
 30
0.0
 11
-415.41117479895553
 21
35.643573833230391
 31
0.0
  0
LINE
  5
6078
  8
µę˝u
 10
-404.16117479895553
 20
10.000168961958529
 30
0.0
 11
-404.16117479895553
 21
34.643573833230391
 31
0.0
  0
LINE
  5
6079
  8
0
 10
-404.91086369672928
 20
10.57542548580852
 30
0.0
 11
-409.25571235937139
 21
26.790621445986691
 31
0.0
  0
LINE
  5
607A
  8
0
 10
-404.91086369672928
 20
10.57542548580852
 30
0.0
 11
-402.39322560652431
 21
8.6435738332303629
 31
0.0
  0
LINE
  5
607B
  8
0
 10
-401.66117479895553
 20
44.143573833230377
 30
0.0
 11
-382.66117479895559
 21
44.143573833230377
 31
0.0
  0
LINE
  5
607C
  8
µę˝u
 10
-406.16117479895553
 20
35.698499471540011
 30
0.0
 11
-405.31117479895551
 21
34.643573833230391
 31
0.0
  0
ARC
  5
607D
  8
0
 10
-411.67052692509418
 20
26.143573833230391
 30
0.0
 40
2.5
 50
14.99999999999884
 51
90.0
  0
LINE
  5
607E
  8
0
 10
-402.16117479895553
 20
44.643573833230391
 30
0.0
 11
-401.66117479895553
 21
44.143573833230377
 31
0.0
  0
LINE
  5
607F
  8
µę˝u
 10
-406.16117479895553
 20
43.843573833230373
 30
0.0
 11
-405.48117479895541
 21
44.643573833230391
 31
0.0
  0
LINE
  5
6080
  8
µę˝u
 10
-406.16117479895553
 20
43.843573833230373
 30
0.0
 11
-406.16117479895553
 21
35.643573833230391
 31
0.0
  0
LINE
  5
6081
  8
µę˝u
 10
-406.91117479895553
 20
43.843573833230373
 30
0.0
 11
-406.91117479895553
 21
35.643573833230391
 31
0.0
  0
LINE
  5
6082
  8
0
 10
-382.16117479895559
 20
44.643573833230391
 30
0.0
 11
-368.1611747989557
 21
44.643573833230391
 31
0.0
  0
LINE
  5
6083
  8
0
 10
-382.16117479895559
 20
44.643573833230391
 30
0.0
 11
-382.66117479895559
 21
44.143573833230377
 31
0.0
  0
LINE
  5
6084
  8
0
 10
-368.1611747989557
 20
44.643573833230391
 30
0.0
 11
-367.66117479895559
 21
44.143573833230377
 31
0.0
  0
LINE
  5
6085
  8
µę˝u
 10
-346.16117479895541
 20
10.000168961958529
 30
0.0
 11
-346.16117479895541
 21
34.643573833230391
 31
0.0
  0
LINE
  5
6086
  8
0
 10
-345.41148590118178
 20
10.57542548580852
 30
0.0
 11
-341.06663723853973
 21
26.790621445986691
 31
0.0
  0
LINE
  5
6087
  8
0
 10
-345.41171726586998
 20
10.574562021037361
 30
0.0
 11
-347.92823006687678
 21
8.6435738332303629
 31
0.0
  0
LINE
  5
6088
  8
µę˝u
 10
-334.16117479895553
 20
35.643573833230391
 30
0.0
 11
-333.31117479895551
 21
34.643573833230391
 31
0.0
  0
LINE
  5
6089
  8
0
 10
-330.6611747989557
 20
35.643573833230391
 30
0.0
 11
-330.6611747989557
 21
29.643573833230391
 31
0.0
  0
LINE
  5
608A
  8
µę˝u
 10
-344.16117479895553
 20
35.698499471540011
 30
0.0
 11
-345.01117479895561
 21
34.643573833230391
 31
0.0
  0
ARC
  5
608B
  8
0
 10
-338.6518226728171
 20
26.143573833230391
 30
0.0
 40
2.5
 50
90.0
 51
165.00000000000111
  0
LINE
  5
608C
  8
µę˝u
 10
-346.16117479895541
 20
34.643573833230391
 30
0.0
 11
-330.6611747989557
 21
34.643573833230391
 31
0.0
  0
LINE
  5
608D
  8
0
 10
-331.66117479895559
 20
28.643573833230391
 30
0.0
 11
-330.6611747989557
 21
29.643573833230391
 31
0.0
  0
LINE
  5
608E
  8
0
 10
-331.66117479895559
 20
28.643573833230391
 30
0.0
 11
-338.65182267281699
 21
28.643573833230391
 31
0.0
  0
LINE
  5
608F
  8
0
 10
-348.16117479895559
 20
44.643573833230391
 30
0.0
 11
-331.66117479895559
 21
44.643573833230391
 31
0.0
  0
LINE
  5
6090
  8
µę˝u
 10
-334.16117479895553
 20
43.843573833230373
 30
0.0
 11
-344.16117479895553
 21
43.843573833230323
 31
0.0
  0
LINE
  5
6091
  8
µę˝u
 10
-344.16117479895559
 20
35.643573833230391
 30
0.0
 11
-334.16117479895553
 21
35.643573833230391
 31
0.0
  0
LINE
  5
6092
  8
µę˝u
 10
-343.41117479895553
 20
43.843573833230373
 30
0.0
 11
-343.41117479895553
 21
35.643573833230391
 31
0.0
  0
LINE
  5
6093
  8
µę˝u
 10
-344.16117479895553
 20
43.843573833230373
 30
0.0
 11
-344.84117479895559
 21
44.643573833230391
 31
0.0
  0
LINE
  5
6094
  8
0
 10
-348.16117479895559
 20
44.643573833230391
 30
0.0
 11
-348.66117479895559
 21
44.143573833230377
 31
0.0
  0
LINE
  5
6095
  8
µę˝u
 10
-344.16117479895553
 20
43.843573833230373
 30
0.0
 11
-344.16117479895553
 21
35.643573833230391
 31
0.0
  0
LINE
  5
6096
  8
0
 10
-331.66117479895559
 20
44.643573833230391
 30
0.0
 11
-330.16117479895559
 21
43.143573833230391
 31
0.0
  0
LINE
  5
6097
  8
µę˝u
 10
-334.16117479895553
 20
43.843573833230373
 30
0.0
 11
-333.48117479895552
 21
44.643573833230391
 31
0.0
  0
LINE
  5
6098
  8
0
 10
-330.16117479895559
 20
36.143573833230448
 30
0.0
 11
-330.6611747989557
 21
35.643573833230391
 31
0.0
  0
LINE
  5
6099
  8
0
 10
-330.16117479895559
 20
43.143573833230391
 30
0.0
 11
-330.16117479895559
 21
36.143573833230448
 31
0.0
  0
LINE
  5
609A
  8
µę˝u
 10
-334.16117479895553
 20
43.843573833230373
 30
0.0
 11
-334.16117479895553
 21
35.643573833230391
 31
0.0
  0
LINE
  5
609B
  8
µę˝u
 10
-334.91117479895553
 20
43.843573833230373
 30
0.0
 11
-334.91117479895553
 21
35.643573833230391
 31
0.0
  0
POINT
  5
609C
  8
0
 10
-260.42813969129281
 20
38.144067401537988
 30
0.0
1001
PNTFLAG
1000
endpoint
  0
LINE
  5
609D
  8
0
 10
-256.95535169129278
 20
38.144067401537988
 30
0.0
 11
-256.98715769129308
 21
37.794531401538002
 31
0.0
  0
LINE
  5
609E
  8
0
 10
-256.98715769129308
 20
37.794531401538002
 30
0.0
 11
-257.08135269129258
 21
37.458427401537961
 31
0.0
  0
LINE
  5
609F
  8
0
 10
-256.98715769129308
 20
38.493603401538003
 30
0.0
 11
-256.95535169129278
 21
38.144067401537988
 31
0.0
  0
LINE
  5
60A0
  8
0
 10
-257.08135269129258
 20
37.458427401537961
 30
0.0
 11
-257.23431669129269
 21
37.148672401538022
 31
0.0
  0
LINE
  5
60A1
  8
0
 10
-257.08135269129258
 20
38.829707401537981
 30
0.0
 11
-256.98715769129308
 21
38.493603401538003
 31
0.0
  0
LINE
  5
60A2
  8
0
 10
-257.23431669129269
 20
37.148672401538022
 30
0.0
 11
-257.4401726912929
 21
36.877169401538033
 31
0.0
  0
LINE
  5
60A3
  8
0
 10
-257.23431669129269
 20
39.139462401537969
 30
0.0
 11
-257.08135269129258
 21
38.829707401537981
 31
0.0
  0
LINE
  5
60A4
  8
0
 10
-257.69100769129301
 20
36.65435340153801
 30
0.0
 11
-257.4401726912929
 21
36.877169401538033
 31
0.0
  0
LINE
  5
60A5
  8
0
 10
-257.4401726912929
 20
39.410964401537967
 30
0.0
 11
-257.23431669129269
 21
39.139462401537969
 31
0.0
  0
LINE
  5
60A6
  8
0
 10
-255.71008769129281
 20
38.144067401537988
 30
0.0
 11
-255.75541569129271
 21
37.645925401537973
 31
0.0
  0
LINE
  5
60A7
  8
0
 10
-255.75541569129271
 20
37.645925401537973
 30
0.0
 11
-255.88965869129279
 21
37.16692640153795
 31
0.0
  0
LINE
  5
60A8
  8
0
 10
-255.75541569129271
 20
38.642209401537997
 30
0.0
 11
-255.71008769129281
 21
38.144067401537988
 31
0.0
  0
LINE
  5
60A9
  8
0
 10
-257.97718469129279
 20
36.488785401538003
 30
0.0
 11
-257.69100769129301
 21
36.65435340153801
 31
0.0
  0
LINE
  5
60AA
  8
0
 10
-257.69100769129301
 20
39.633781401537959
 30
0.0
 11
-257.4401726912929
 21
39.410964401537967
 31
0.0
  0
LINE
  5
60AB
  8
0
 10
-255.88965869129279
 20
37.16692640153795
 30
0.0
 11
-256.10765569129308
 21
36.725479401538003
 31
0.0
  0
LINE
  5
60AC
  8
0
 10
-255.88965869129279
 20
39.121207401537959
 30
0.0
 11
-255.75541569129271
 21
38.642209401537997
 31
0.0
  0
LINE
  5
60AD
  8
0
 10
-256.10765569129308
 20
36.725479401538003
 30
0.0
 11
-256.40103069129259
 21
36.338547401537937
 31
0.0
  0
LINE
  5
60AE
  8
0
 10
-256.10765569129308
 20
39.562655401538002
 30
0.0
 11
-255.88965869129279
 21
39.121207401537959
 31
0.0
  0
LINE
  5
60AF
  8
0
 10
-258.28770369129279
 20
36.386829401537973
 30
0.0
 11
-257.97718469129279
 21
36.488785401538003
 31
0.0
  0
LINE
  5
60B0
  8
0
 10
-257.97718469129279
 20
39.799348401537941
 30
0.0
 11
-257.69100769129301
 21
39.633781401537959
 31
0.0
  0
LINE
  5
60B1
  8
0
 10
-256.7585096912926
 20
36.021000401537997
 30
0.0
 11
-256.40103069129259
 21
36.338547401537937
 31
0.0
  0
LINE
  5
60B2
  8
0
 10
-256.40103069129259
 20
39.949587401537997
 30
0.0
 11
-256.10765569129308
 21
39.562655401538002
 31
0.0
  0
LINE
  5
60B3
  8
0
 10
-255.5863876912928
 20
38.144067401537988
 30
0.0
 11
-255.63122069129281
 21
37.651365401537987
 31
0.0
  0
LINE
  5
60B4
  8
0
 10
-258.61063269129278
 20
36.352403401538027
 30
0.0
 11
-258.28770369129279
 21
36.386829401537973
 31
0.0
  0
LINE
  5
60B5
  8
0
 10
-258.28770369129279
 20
39.901304401537971
 30
0.0
 11
-257.97718469129279
 21
39.799348401537941
 31
0.0
  0
LINE
  5
60B6
  8
0
 10
-255.63122069129281
 20
37.651365401537987
 30
0.0
 11
-255.76399669129319
 21
37.177597401538009
 31
0.0
  0
LINE
  5
60B7
  8
0
 10
-255.63122069129281
 20
38.636769401537997
 30
0.0
 11
-255.5863876912928
 21
38.144067401537988
 31
0.0
  0
LINE
  5
60B8
  8
0
 10
-257.16635369129278
 20
35.785041401537967
 30
0.0
 11
-256.7585096912926
 21
36.021000401537997
 31
0.0
  0
LINE
  5
60B9
  8
0
 10
-256.7585096912926
 20
40.26713440153798
 30
0.0
 11
-256.40103069129259
 21
39.949587401537997
 31
0.0
  0
LINE
  5
60BA
  8
0
 10
-255.76399669129319
 20
37.177597401538009
 30
0.0
 11
-255.97961369129271
 21
36.740970401538
 31
0.0
  0
LINE
  5
60BB
  8
0
 10
-255.76399669129319
 20
39.110537401537947
 30
0.0
 11
-255.63122069129281
 21
38.636769401537997
 31
0.0
  0
LINE
  5
60BC
  8
0
 10
-255.97961369129271
 20
36.740970401538
 30
0.0
 11
-256.26978469129278
 21
36.358263401537982
 31
0.0
  0
LINE
  5
60BD
  8
0
 10
-255.97961369129271
 20
39.547164401537941
 30
0.0
 11
-255.76399669129319
 21
39.110537401537947
 31
0.0
  0
LINE
  5
60BE
  8
0
 10
-257.60889069129269
 20
35.639738401537961
 30
0.0
 11
-257.16635369129278
 21
35.785041401537967
 31
0.0
  0
LINE
  5
60BF
  8
0
 10
-257.16635369129278
 20
40.503093401537967
 30
0.0
 11
-256.7585096912926
 21
40.26713440153798
 31
0.0
  0
LINE
  5
60C0
  8
0
 10
-258.93356269129271
 20
36.386829401537973
 30
0.0
 11
-258.61063269129278
 21
36.352403401538027
 31
0.0
  0
LINE
  5
60C1
  8
0
 10
-258.61063269129278
 20
39.935730401537967
 30
0.0
 11
-258.28770369129279
 21
39.901304401537971
 31
0.0
  0
LINE
  5
60C2
  8
0
 10
-256.62335969129271
 20
36.044184401538018
 30
0.0
 11
-256.26978469129278
 21
36.358263401537982
 31
0.0
  0
LINE
  5
60C3
  8
0
 10
-256.26978469129278
 20
39.92987140153798
 30
0.0
 11
-255.97961369129271
 21
39.547164401537941
 31
0.0
  0
LINE
  5
60C4
  8
0
 10
-258.06911369129313
 20
35.590676401538019
 30
0.0
 11
-257.60889069129269
 21
35.639738401537961
 31
0.0
  0
LINE
  5
60C5
  8
0
 10
-257.60889069129269
 20
35.639738401537961
 30
0.0
 11
-257.4644546912927
 21
35.667086401538029
 31
0.0
  0
LINE
  5
60C6
  8
0
 10
-257.60889069129269
 20
40.648395401537918
 30
0.0
 11
-257.16635369129278
 21
40.503093401537967
 31
0.0
  0
LINE
  5
60C7
  8
0
 10
-259.24408169129282
 20
36.488785401538003
 30
0.0
 11
-258.93356269129271
 21
36.386829401537973
 31
0.0
  0
LINE
  5
60C8
  8
0
 10
-258.93356269129271
 20
39.901304401537971
 30
0.0
 11
-258.61063269129278
 21
39.935730401537967
 31
0.0
  0
LINE
  5
60C9
  8
0
 10
-257.02675069129282
 20
35.810802401538012
 30
0.0
 11
-256.62335969129271
 21
36.044184401538018
 31
0.0
  0
LINE
  5
60CA
  8
0
 10
-256.62335969129271
 20
40.243950401537973
 30
0.0
 11
-256.26978469129278
 21
39.92987140153798
 31
0.0
  0
LINE
  5
60CB
  8
0
 10
-257.4644546912927
 20
35.667086401538029
 30
0.0
 11
-257.02675069129282
 21
35.810802401538012
 31
0.0
  0
LINE
  5
60CC
  8
0
 10
-257.02675069129282
 20
40.477332401537907
 30
0.0
 11
-256.62335969129271
 21
40.243950401537973
 31
0.0
  0
LINE
  5
60CD
  8
0
 10
-258.52933669129283
 20
35.639738401537961
 30
0.0
 11
-258.06911369129313
 21
35.590676401538019
 31
0.0
  0
LINE
  5
60CE
  8
0
 10
-258.06911369129313
 20
40.697458401537972
 30
0.0
 11
-257.60889069129269
 21
40.648395401537918
 31
0.0
  0
LINE
  5
60CF
  8
0
 10
-257.60889069129269
 20
40.648395401537918
 30
0.0
 11
-257.4644546912927
 21
40.621048401537962
 31
0.0
  0
LINE
  5
60D0
  8
0
 10
-259.530258691293
 20
36.65435340153801
 30
0.0
 11
-259.24408169129282
 21
36.488785401538003
 31
0.0
  0
LINE
  5
60D1
  8
0
 10
-259.24408169129282
 20
39.799348401537941
 30
0.0
 11
-258.93356269129271
 21
39.901304401537971
 31
0.0
  0
LINE
  5
60D2
  8
0
 10
-257.4644546912927
 20
40.621048401537962
 30
0.0
 11
-257.02675069129282
 21
40.477332401537907
 31
0.0
  0
LINE
  5
60D3
  8
0
 10
-259.78109369129282
 20
36.877169401538033
 30
0.0
 11
-259.530258691293
 21
36.65435340153801
 31
0.0
  0
LINE
  5
60D4
  8
0
 10
-259.530258691293
 20
39.633781401537959
 30
0.0
 11
-259.24408169129282
 21
39.799348401537941
 31
0.0
  0
LINE
  5
60D5
  8
0
 10
-258.97187369129279
 20
35.785041401537967
 30
0.0
 11
-258.52933669129283
 21
35.639738401537961
 31
0.0
  0
LINE
  5
60D6
  8
0
 10
-258.52933669129283
 20
40.648395401537918
 30
0.0
 11
-258.06911369129313
 21
40.697458401537972
 31
0.0
  0
LINE
  5
60D7
  8
0
 10
-259.98694969129281
 20
37.148672401538022
 30
0.0
 11
-259.78109369129282
 21
36.877169401538033
 31
0.0
  0
LINE
  5
60D8
  8
0
 10
-259.78109369129282
 20
39.410964401537967
 30
0.0
 11
-259.530258691293
 21
39.633781401537959
 31
0.0
  0
LINE
  5
60D9
  8
0
 10
-259.37971869129291
 20
36.021000401537997
 30
0.0
 11
-258.97187369129279
 21
35.785041401537967
 31
0.0
  0
LINE
  5
60DA
  8
0
 10
-258.97187369129279
 20
40.503093401537967
 30
0.0
 11
-258.52933669129283
 21
40.648395401537918
 31
0.0
  0
LINE
  5
60DB
  8
0
 10
-260.1399136912928
 20
37.458427401537961
 30
0.0
 11
-259.98694969129281
 21
37.148672401538022
 31
0.0
  0
LINE
  5
60DC
  8
0
 10
-259.78109369129282
 20
39.410964401537967
 30
0.0
 11
-259.98694969129281
 21
39.139462401537969
 31
0.0
  0
LINE
  5
60DD
  8
0
 10
-259.73719669129258
 20
36.338547401537937
 30
0.0
 11
-259.37971869129291
 21
36.021000401537997
 31
0.0
  0
LINE
  5
60DE
  8
0
 10
-259.37971869129291
 20
40.26713440153798
 30
0.0
 11
-258.97187369129279
 21
40.503093401537967
 31
0.0
  0
LINE
  5
60DF
  8
0
 10
-260.23410869129259
 20
37.794531401538002
 30
0.0
 11
-260.1399136912928
 21
37.458427401537961
 31
0.0
  0
LINE
  5
60E0
  8
0
 10
-259.98694969129281
 20
39.139462401537969
 30
0.0
 11
-260.1399136912928
 21
38.829707401537981
 31
0.0
  0
LINE
  5
60E1
  8
0
 10
-260.26591469129278
 20
38.144067401537988
 30
0.0
 11
-260.23410869129259
 21
37.794531401538002
 31
0.0
  0
LINE
  5
60E2
  8
0
 10
-260.1399136912928
 20
38.829707401537981
 30
0.0
 11
-260.23410869129259
 21
38.493603401538003
 31
0.0
  0
LINE
  5
60E3
  8
0
 10
-260.23410869129259
 20
38.493603401538003
 30
0.0
 11
-260.26591469129278
 21
38.144067401537988
 31
0.0
  0
LINE
  5
60E4
  8
0
 10
-260.0305726912926
 20
36.725479401538003
 30
0.0
 11
-259.73719669129258
 21
36.338547401537937
 31
0.0
  0
LINE
  5
60E5
  8
0
 10
-259.73719669129258
 20
39.949587401537997
 30
0.0
 11
-259.37971869129291
 21
40.26713440153798
 31
0.0
  0
LINE
  5
60E6
  8
0
 10
-260.2485696912928
 20
37.16692640153795
 30
0.0
 11
-260.0305726912926
 21
36.725479401538003
 31
0.0
  0
LINE
  5
60E7
  8
0
 10
-259.73719669129258
 20
39.949587401537997
 30
0.0
 11
-260.0305726912926
 21
39.562655401538002
 31
0.0
  0
LINE
  5
60E8
  8
0
 10
-260.38281169129277
 20
37.645925401537973
 30
0.0
 11
-260.2485696912928
 21
37.16692640153795
 31
0.0
  0
LINE
  5
60E9
  8
0
 10
-260.0305726912926
 20
39.562655401538002
 30
0.0
 11
-260.2485696912928
 21
39.121207401537959
 31
0.0
  0
LINE
  5
60EA
  8
0
 10
-260.42813969129281
 20
38.144067401537988
 30
0.0
 11
-260.38281169129277
 21
37.645925401537973
 31
0.0
  0
LINE
  5
60EB
  8
0
 10
-260.2485696912928
 20
39.121207401537959
 30
0.0
 11
-260.38281169129277
 21
38.642209401537997
 31
0.0
  0
LINE
  5
60EC
  8
0
 10
-260.38281169129277
 20
38.642209401537997
 30
0.0
 11
-260.42813969129281
 21
38.144067401537988
 31
0.0
  0
LINE
  5
60ED
  8
0
 10
-259.27010169129278
 20
36.503839401538023
 30
0.0
 11
-259.26713069129278
 21
36.505455401537972
 31
0.0
  0
LINE
  5
60EE
  8
0
 10
-259.27010169129278
 20
39.78429440153792
 30
0.0
 11
-259.26713069129278
 21
39.782679401537962
 31
0.0
  0
LINE
  5
60EF
  8
0
 10
-253.5945666912929
 20
38.144067401537988
 30
0.0
 11
-253.6478226912931
 21
37.558796401537961
 31
0.0
  0
LINE
  5
60F0
  8
0
 10
-253.6478226912931
 20
38.72933840153803
 30
0.0
 11
-253.5945666912929
 21
38.144067401537988
 31
0.0
  0
LINE
  5
60F1
  8
0
 10
-253.6478226912931
 20
37.558796401537961
 30
0.0
 11
-253.80554469129271
 21
36.996016401538043
 31
0.0
  0
LINE
  5
60F2
  8
0
 10
-253.80554469129271
 20
39.292117401537979
 30
0.0
 11
-253.6478226912931
 21
38.72933840153803
 31
0.0
  0
LINE
  5
60F3
  8
0
 10
-253.80554469129271
 20
36.996016401538043
 30
0.0
 11
-254.06167169129279
 21
36.477356401537968
 31
0.0
  0
LINE
  5
60F4
  8
0
 10
-254.06167169129279
 20
39.810777401537962
 30
0.0
 11
-253.80554469129271
 21
39.292117401537979
 31
0.0
  0
LINE
  5
60F5
  8
0
 10
-254.06167169129279
 20
36.477356401537968
 30
0.0
 11
-254.4063606912928
 21
36.022746401537972
 31
0.0
  0
LINE
  5
60F6
  8
0
 10
-254.4063606912928
 20
40.265387401537957
 30
0.0
 11
-254.06167169129279
 21
39.810777401537962
 31
0.0
  0
LINE
  5
60F7
  8
0
 10
-253.16579269129281
 20
38.144067401537988
 30
0.0
 11
-254.76599869129279
 21
35.144067401538003
 31
0.0
  0
LINE
  5
60F8
  8
0
 10
-254.76599869129279
 20
41.144067401537939
 30
0.0
 11
-253.16579269129281
 21
38.144067401537988
 31
0.0
  0
LINE
  5
60F9
  8
0
 10
-254.82636469129309
 20
35.649658401537977
 30
0.0
 11
-254.4063606912928
 21
36.022746401537972
 31
0.0
  0
LINE
  5
60FA
  8
0
 10
-254.82636469129309
 20
40.63847640153795
 30
0.0
 11
-254.4063606912928
 21
40.265387401537957
 31
0.0
  0
LINE
  5
60FB
  8
0
 10
-255.30554469129279
 20
35.372428401538002
 30
0.0
 11
-254.82636469129309
 21
35.649658401537977
 31
0.0
  0
LINE
  5
60FC
  8
0
 10
-255.30554469129279
 20
40.915705401537927
 30
0.0
 11
-254.82636469129309
 21
40.63847640153795
 31
0.0
  0
LINE
  5
60FD
  8
0
 10
-255.8254846912929
 20
35.201711401538041
 30
0.0
 11
-255.30554469129279
 21
35.372428401538002
 31
0.0
  0
LINE
  5
60FE
  8
0
 10
-255.8254846912929
 20
41.0864234015379
 30
0.0
 11
-255.30554469129279
 21
40.915705401537927
 31
0.0
  0
LINE
  5
60FF
  8
0
 10
-256.36620469129258
 20
35.144067401538003
 30
0.0
 11
-255.8254846912929
 21
35.201711401538041
 31
0.0
  0
LINE
  5
6100
  8
0
 10
-256.36620469129258
 20
41.144067401537939
 30
0.0
 11
-255.8254846912929
 21
41.0864234015379
 31
0.0
  0
LINE
  5
6101
  8
0
 10
-256.90692469129311
 20
35.201711401538041
 30
0.0
 11
-256.36620469129258
 21
35.144067401538003
 31
0.0
  0
LINE
  5
6102
  8
0
 10
-256.90692469129311
 20
41.0864234015379
 30
0.0
 11
-256.36620469129258
 21
41.144067401537939
 31
0.0
  0
LINE
  5
6103
  8
0
 10
-257.42686469129319
 20
35.372428401538002
 30
0.0
 11
-256.90692469129311
 21
35.201711401538041
 31
0.0
  0
LINE
  5
6104
  8
0
 10
-257.42686469129319
 20
40.915705401537927
 30
0.0
 11
-256.90692469129311
 21
41.0864234015379
 31
0.0
  0
LINE
  5
6105
  8
0
 10
-257.84533169129281
 20
35.61453240153805
 30
0.0
 11
-257.42686469129319
 21
35.372428401538002
 31
0.0
  0
LINE
  5
6106
  8
0
 10
-257.84533169129281
 20
40.673601401537972
 30
0.0
 11
-257.42686469129319
 21
40.915705401537927
 31
0.0
  0
LINE
  5
6107
  8
0
 10
-252.4664286912928
 20
38.144067401537988
 30
0.0
 11
-254.06663469129319
 21
35.144067401538003
 31
0.0
  0
LINE
  5
6108
  8
0
 10
-254.06663469129319
 20
35.144067401538003
 30
0.0
 11
-257.96641069129259
 21
35.144067401538003
 31
0.0
  0
LINE
  5
6109
  8
0
 10
-254.06663469129319
 20
41.144067401537939
 30
0.0
 11
-252.4664286912928
 21
38.144067401537988
 31
0.0
  0
LINE
  5
610A
  8
0
 10
-253.16579269129281
 20
38.144067401537988
 30
0.0
 11
-252.4664286912928
 21
38.144067401537988
 31
0.0
  0
LINE
  5
610B
  8
0
 10
-257.96641069129259
 20
41.144067401537939
 30
0.0
 11
-258.21280369129278
 21
40.682140401537993
 31
0.0
  0
LINE
  5
610C
  8
0
 10
-258.21280369129278
 20
35.60599440153797
 30
0.0
 11
-257.96641069129259
 21
35.144067401538003
 31
0.0
  0
LINE
  5
610D
  8
0
 10
-257.96641069129259
 20
41.144067401537939
 30
0.0
 11
-254.06663469129319
 21
41.144067401537939
 31
0.0
  0
LINE
  5
610E
  8
0
 10
-250.69063369129279
 20
42.144067401537988
 30
0.0
 11
-250.69063369129279
 21
34.144067401538003
 31
0.0
  0
LINE
  5
610F
  8
0
 10
-254.43897369129269
 20
34.144067401538003
 30
0.0
 11
-246.92813969129281
 21
34.144067401538003
 31
0.0
  0
LINE
  5
6110
  8
0
 10
-246.92813969129281
 20
42.144067401537988
 30
0.0
 11
-254.43897369129269
 21
42.144067401537988
 31
0.0
  0
ARC
  5
6111
  8
0
 10
-254.43897369129269
 20
38.144067401537988
 30
0.0
 40
3.999999999999968
 50
228.5903779972968
 51
270.0
  0
ARC
  5
6112
  8
0
 10
-254.43897369129269
 20
38.144067401537988
 30
0.0
 40
3.999999999999968
 50
90.0
 51
131.40962199960279
  0
POLYLINE
  5
6113
  8
0
 66
     1
 10
0.0
 20
0.0
 30
0.0
  0
VERTEX
  5
6343
  8
0
 10
-258.0193506912928
 20
38.144067401537939
 30
0.0
  0
VERTEX
  5
6344
  8
0
 10
-258.05216869129271
 20
38.354322401537956
 30
0.0
  0
VERTEX
  5
6345
  8
0
 10
-258.0963156912926
 20
38.459809401537939
 30
0.0
  0
VERTEX
  5
6346
  8
0
 10
-258.15934869129319
 20
38.557588401537942
 30
0.0
  0
VERTEX
  5
6347
  8
0
 10
-258.23882469129308
 20
38.641701401537937
 30
0.0
  0
VERTEX
  5
6348
  8
0
 10
-258.3303156912927
 20
38.707574401537947
 30
0.0
  0
VERTEX
  5
6349
  8
0
 10
-258.42823569129268
 20
38.752855401537893
 30
0.0
  0
VERTEX
  5
634A
  8
0
 10
-258.5608716912929
 20
38.781796401537918
 30
0.0
  0
VERTEX
  5
634B
  8
0
 10
-258.68388069129281
 20
38.779137401537923
 30
0.0
  0
VERTEX
  5
634C
  8
0
 10
-258.79080469129281
 20
38.753631401537938
 30
0.0
  0
VERTEX
  5
634D
  8
0
 10
-258.90700969129279
 20
38.697863401537937
 30
0.0
  0
VERTEX
  5
634E
  8
0
 10
-259.01757969129278
 20
38.608374401537958
 30
0.0
  0
VERTEX
  5
634F
  8
0
 10
-259.10580969129262
 20
38.493824401537978
 30
0.0
  0
VERTEX
  5
6350
  8
0
 10
-259.16244369129271
 20
38.373985401537993
 30
0.0
  0
VERTEX
  5
6351
  8
0
 10
-259.19029469129259
 20
38.270329401537943
 30
0.0
  0
VERTEX
  5
6352
  8
0
 10
-259.20191569129281
 20
38.144067401537939
 30
0.0
  0
VERTEX
  5
6353
  8
0
 10
-259.16909769129279
 20
37.933812401537978
 30
0.0
  0
VERTEX
  5
6354
  8
0
 10
-259.12494969129312
 20
37.828324401537941
 30
0.0
  0
VERTEX
  5
6355
  8
0
 10
-259.06191769129288
 20
37.730546401537971
 30
0.0
  0
VERTEX
  5
6356
  8
0
 10
-258.98244169129259
 20
37.646433401537926
 30
0.0
  0
VERTEX
  5
6357
  8
0
 10
-258.89095069129269
 20
37.58056040153793
 30
0.0
  0
VERTEX
  5
6358
  8
0
 10
-258.79303069129298
 20
37.535279401537927
 30
0.0
  0
VERTEX
  5
6359
  8
0
 10
-258.66039469129282
 20
37.506337401537913
 30
0.0
  0
VERTEX
  5
635A
  8
0
 10
-258.53738569129268
 20
37.508997401537982
 30
0.0
  0
VERTEX
  5
635B
  8
0
 10
-258.43046169129258
 20
37.534502401537992
 30
0.0
  0
VERTEX
  5
635C
  8
0
 10
-258.3142566912926
 20
37.590270401537957
 30
0.0
  0
VERTEX
  5
635D
  8
0
 10
-258.20368669129277
 20
37.679760401537919
 30
0.0
  0
VERTEX
  5
635E
  8
0
 10
-258.11545669129282
 20
37.794309401537959
 30
0.0
  0
VERTEX
  5
635F
  8
0
 10
-258.0588226912929
 20
37.91414840153795
 30
0.0
  0
VERTEX
  5
6360
  8
0
 10
-258.03097069129308
 20
38.017805401537998
 30
0.0
  0
VERTEX
  5
6361
  8
0
 10
-258.0193506912928
 20
38.144067401537939
 30
0.0
  0
SEQEND
  5
6362
  8
0
  0
ARC
  5
6114
  8
0
 10
-247.73652169129269
 20
40.144067401537939
 30
0.0
 40
2.954111999999975
 50
137.3885980021995
 51
222.61140199989799
  0
ARC
  5
6115
  8
0
 10
-247.73652269129269
 20
36.144067401538059
 30
0.0
 40
2.9541109999999762
 50
137.38859300450039
 51
222.6114069975971
  0
LINE
  5
6116
  8
¤¤¤ß˝u
 10
-261.92813793227612
 20
38.144048070437982
 30
0.0
 11
-247.81246755065109
 21
38.144048070437982
 31
0.0
  0
LINE
  5
6117
  8
0
 10
-131.2281396912926
 20
8.6440480704380889
 30
0.0
 11
-131.2281396912926
 21
43.644048070438089
 31
0.0
  0
LINE
  5
6118
  8
0
 10
-131.2281396912926
 20
43.644048070438032
 30
0.0
 11
-131.2281396912926
 21
8.6440480704380889
 31
0.0
  0
LINE
  5
6119
  8
0
 10
-131.2281396912926
 20
43.644048070437691
 30
0.0
 11
-131.2281396912926
 21
8.6440480704376892
 31
0.0
  0
LINE
  5
611A
  8
0
 10
-245.2281396912928
 20
43.644048070437691
 30
0.0
 11
-245.2281396912928
 21
8.6440480704376892
 31
0.0
  0
LINE
  5
611B
  8
0
 10
-245.2281396912928
 20
43.644048070438032
 30
0.0
 11
-245.2281396912928
 21
8.6440480704380889
 31
0.0
  0
LINE
  5
611C
  8
0
 10
-245.2281396912928
 20
8.6440480704380889
 30
0.0
 11
-245.2281396912928
 21
43.644048070438089
 31
0.0
  0
LINE
  5
611D
  8
0
 10
-245.2281396912928
 20
43.644048070438487
 30
0.0
 11
-246.92813969129281
 21
43.644048070438487
 31
0.0
  0
LINE
  5
611E
  8
0
 10
-245.22813969129319
 20
43.644048070438373
 30
0.0
 11
-246.9281396912929
 21
43.644048070438373
 31
0.0
  0
LINE
  5
611F
  8
0
 10
-247.81246755065109
 20
39.144046376867607
 30
0.0
 11
-247.81246755065109
 21
37.144046376867607
 31
0.0
  0
LINE
  5
6120
  8
0
 10
-247.81246755065129
 20
39.144046376867408
 30
0.0
 11
-247.81246755065129
 21
37.144046376867408
 31
0.0
  0
ARC
  5
6121
  8
0
 10
-246.5926158717987
 20
37.163798014884669
 30
0.0
 40
1.220011576012179
 50
180.92764278799589
 51
254.03697783117121
  0
ARC
  5
6122
  8
0
 10
-246.5926158717989
 20
37.16379801488452
 30
0.0
 40
1.220011576012179
 50
180.92764278799589
 51
254.03697783117121
  0
ARC
  5
6123
  8
0
 10
-246.5926158717987
 20
39.124294738850409
 30
0.0
 40
1.220011576012179
 50
105.9630221688287
 51
179.07235721200399
  0
ARC
  5
6124
  8
0
 10
-246.5926158717989
 20
39.124294738850317
 30
0.0
 40
1.220011576012179
 50
105.9630221688287
 51
179.07235721200399
  0
LINE
  5
6125
  8
0
 10
-246.92813969129281
 20
30.783812183950261
 30
0.0
 11
-248.4281396912929
 21
29.917786780165841
 31
0.0
  0
LINE
  5
6126
  8
0
 10
-246.9281396912929
 20
30.783812183950118
 30
0.0
 11
-248.4281396912929
 21
29.917786780165731
 31
0.0
  0
LINE
  5
6127
  8
0
 10
-246.92813969129281
 20
43.644048070438487
 30
0.0
 11
-246.92813969129281
 21
30.783812183950261
 31
0.0
  0
LINE
  5
6128
  8
0
 10
-246.9281396912929
 20
43.644048070438373
 30
0.0
 11
-246.9281396912929
 21
30.783812183950118
 31
0.0
  0
ARC
  5
6129
  8
0
 10
-246.5926158717987
 20
12.27429643242175
 30
0.0
 40
1.220011576012179
 50
105.9630221688287
 51
179.07235721200399
  0
ARC
  5
612A
  8
0
 10
-246.5926158717987
 20
12.27429643242175
 30
0.0
 40
1.220011576012179
 50
105.9630221688287
 51
179.07235721200399
  0
LINE
  5
612B
  8
0
 10
-245.2281396912928
 20
8.6440480704385436
 30
0.0
 11
-248.4281396912929
 21
8.6440480704385436
 31
0.0
  0
LINE
  5
612C
  8
0
 10
-245.2281396912928
 20
8.6440480704383731
 30
0.0
 11
-248.4281396912929
 21
8.6440480704383731
 31
0.0
  0
ARC
  5
612D
  8
0
 10
-246.5926158717987
 20
10.313799708455971
 30
0.0
 40
1.220011576012179
 50
180.92764278799589
 51
254.03697783117121
  0
ARC
  5
612E
  8
0
 10
-246.5926158717987
 20
10.313799708455971
 30
0.0
 40
1.220011576012179
 50
180.92764278799589
 51
254.03697783117121
  0
LINE
  5
612F
  8
0
 10
-247.81246755065109
 20
12.29404807043886
 30
0.0
 11
-247.81246755065109
 21
10.29404807043886
 31
0.0
  0
LINE
  5
6130
  8
0
 10
-247.81246755065109
 20
12.29404807043886
 30
0.0
 11
-247.81246755065109
 21
10.29404807043886
 31
0.0
  0
LINE
  5
6131
  8
0
 10
-246.92813969129281
 20
30.783812183950261
 30
0.0
 11
-246.92813969129281
 21
8.6440480704385436
 31
0.0
  0
LINE
  5
6132
  8
0
 10
-248.4281396912929
 20
29.917786780165841
 30
0.0
 11
-248.4281396912929
 21
8.6440480704385436
 31
0.0
  0
LINE
  5
6133
  8
0
 10
-246.9281396912929
 20
30.783812183950118
 30
0.0
 11
-246.92813969129281
 21
8.6440480704383731
 31
0.0
  0
LINE
  5
6134
  8
0
 10
-248.4281396912929
 20
29.917786780165731
 30
0.0
 11
-248.4281396912929
 21
8.6440480704383731
 31
0.0
  0
LINE
  5
6135
  8
0
 10
-131.2281396912926
 20
43.644048070438487
 30
0.0
 11
-129.52813969129269
 21
43.644048070438487
 31
0.0
  0
LINE
  5
6136
  8
0
 10
-131.2281396912924
 20
43.644048070438323
 30
0.0
 11
-129.52813969129269
 21
43.644048070438323
 31
0.0
  0
LINE
  5
6137
  8
0
 10
-128.6438118319341
 20
39.144046376867578
 30
0.0
 11
-128.6438118319341
 21
37.144046376867607
 31
0.0
  0
LINE
  5
6138
  8
0
 10
-128.64381183193399
 20
39.144046376867408
 30
0.0
 11
-128.64381183193399
 21
37.144046376867408
 31
0.0
  0
ARC
  5
6139
  8
0
 10
-129.86366351078709
 20
37.163798014884669
 30
0.0
 40
1.220011576012179
 50
285.96302216882867
 51
359.07235721200408
  0
ARC
  5
613A
  8
0
 10
-129.86366351078641
 20
37.16379801488452
 30
0.0
 40
1.220011576012179
 50
285.96302216882867
 51
359.07235721200408
  0
ARC
  5
613B
  8
0
 10
-129.86366351078709
 20
39.124294738850409
 30
0.0
 40
1.220011576012179
 50
0.927642787995963
 51
74.036977831171257
  0
ARC
  5
613C
  8
0
 10
-129.86366351078641
 20
39.124294738850303
 30
0.0
 40
1.220011576012179
 50
0.927642787995963
 51
74.036977831171257
  0
LINE
  5
613D
  8
0
 10
-129.52813969129269
 20
30.783812183950229
 30
0.0
 11
-128.02813969129289
 21
29.917786780165809
 31
0.0
  0
LINE
  5
613E
  8
0
 10
-129.52813969129269
 20
43.644048070438487
 30
0.0
 11
-129.52813969129269
 21
30.783812183950229
 31
0.0
  0
LINE
  5
613F
  8
0
 10
-129.52813969129269
 20
43.644048070438323
 30
0.0
 11
-129.52813969129269
 21
30.783812183950118
 31
0.0
  0
ARC
  5
6140
  8
0
 10
-129.86366351078709
 20
12.27429643242175
 30
0.0
 40
1.220011576012179
 50
0.927642787995963
 51
74.036977831171257
  0
ARC
  5
6141
  8
0
 10
-129.86366351078709
 20
12.27429643242175
 30
0.0
 40
1.220011576012179
 50
0.927642787995963
 51
74.036977831171257
  0
LINE
  5
6142
  8
0
 10
-131.2281396912926
 20
8.6440480704385436
 30
0.0
 11
-128.02813969129289
 21
8.6440480704385436
 31
0.0
  0
ARC
  5
6143
  8
0
 10
-129.86366351078709
 20
10.313799708455971
 30
0.0
 40
1.220011576012179
 50
285.96302216882867
 51
359.07235721200408
  0
LINE
  5
6144
  8
0
 10
-128.6438118319341
 20
12.29404807043886
 30
0.0
 11
-128.6438118319341
 21
10.29404807043886
 31
0.0
  0
LINE
  5
6145
  8
0
 10
-128.6438118319341
 20
12.29404807043886
 30
0.0
 11
-128.6438118319341
 21
10.29404807043886
 31
0.0
  0
LINE
  5
6146
  8
0
 10
-129.52813969129269
 20
30.783812183950229
 30
0.0
 11
-129.52813969129269
 21
8.6440480704385436
 31
0.0
  0
LINE
  5
6147
  8
0
 10
-128.02813969129289
 20
29.917786780165809
 30
0.0
 11
-128.02813969129289
 21
8.6440480704385436
 31
0.0
  0
LINE
  5
6148
  8
0
 10
-248.4281396912933
 20
12.643726270437689
 30
0.0
 11
-259.80620570009012
 21
12.643726270437689
 31
0.0
  0
LINE
  5
6149
  8
0
 10
-248.4281396912933
 20
16.823791105697349
 30
0.0
 11
-258.5824774265941
 21
16.823791105697349
 31
0.0
  0
LINE
  5
614A
  8
0
 10
-248.4281396912933
 20
17.43767529549126
 30
0.0
 11
-258.75889760424491
 21
17.43767529549126
 31
0.0
  0
LINE
  5
614B
  8
0
 10
-248.4281396912933
 20
19.939245716226019
 30
0.0
 11
-258.55390005199138
 21
19.939245716226019
 31
0.0
  0
LINE
  5
614C
  8
0
 10
-248.4281396912933
 20
21.52378873110618
 30
0.0
 11
-258.26610898000848
 21
21.52378873110618
 31
0.0
  0
LINE
  5
614D
  8
0
 10
-248.4281396912933
 20
23.758457383762131
 30
0.0
 11
-258.0570599668672
 21
23.758457383762131
 31
0.0
  0
LINE
  5
614E
  8
0
 10
-248.4281396912933
 20
25.349310894000411
 30
0.0
 11
-257.60976628700041
 21
25.349310894000411
 31
0.0
  0
LINE
  5
614F
  8
0
 10
-248.4281396912933
 20
28.644048070437691
 30
0.0
 11
-296.50646171238839
 21
28.644048070437691
 31
0.0
  0
LINE
  5
6150
  8
0
 10
-248.4281396912933
 20
27.843864250895251
 30
0.0
 11
-258.57535752902731
 21
27.843864250895251
 31
0.0
  0
LINE
  5
6151
  8
¤¤¤ß˝u
 10
-116.5064617123885
 20
0.0440480704378388
 30
0.0
 11
-116.5064617123885
 21
29.644048070437812
 31
0.0
  0
LINE
  5
6152
  8
µę˝u
 10
-109.27552160471269
 20
28.144048070437812
 30
0.0
 11
-109.5064617123885
 21
27.744048070437831
 31
0.0
  0
LINE
  5
6153
  8
µę˝u
 10
-111.7064617123885
 20
16.144048070437769
 30
0.0
 11
-112.0064617123885
 21
15.84404807043776
 31
0.0
  0
LINE
  5
6154
  8
µę˝u
 10
-111.60646171238849
 20
2.6440480704377758
 30
0.0
 11
-112.0064617123885
 21
3.0440480704377531
 31
0.0
  0
LINE
  5
6155
  8
µę˝u
 10
-112.0064617123885
 20
3.0440480704377531
 30
0.0
 11
-112.0064617123885
 21
15.84404807043776
 31
0.0
  0
LINE
  5
6156
  8
0
 10
-96.506461712388401
 20
2.6440480704377469
 30
0.0
 11
-96.506461712388614
 21
28.644048070437691
 31
0.0
  0
LINE
  5
6157
  8
µę˝u
 10
-109.5064617123885
 20
16.144048070437769
 30
0.0
 11
-109.5064617123885
 21
27.744048070437831
 31
0.0
  0
LINE
  5
6158
  8
µę˝u
 10
-123.5064617123884
 20
27.744048070437831
 30
0.0
 11
-123.73740182006441
 21
28.144048070437812
 31
0.0
  0
LINE
  5
6159
  8
µę˝u
 10
-121.3064617123884
 20
16.144048070437769
 30
0.0
 11
-121.0064617123884
 21
15.84404807043776
 31
0.0
  0
LINE
  5
615A
  8
µę˝u
 10
-121.40646171238861
 20
2.6440480704377758
 30
0.0
 11
-121.0064617123884
 21
3.0440480704377531
 31
0.0
  0
LINE
  5
615B
  8
µę˝u
 10
-121.0064617123884
 20
3.0440480704377531
 30
0.0
 11
-121.0064617123884
 21
15.84404807043776
 31
0.0
  0
LINE
  5
615C
  8
µę˝u
 10
-123.5064617123884
 20
16.144048070437769
 30
0.0
 11
-123.5064617123884
 21
27.744048070437831
 31
0.0
  0
LINE
  5
615D
  8
µę˝u
 10
-191.60646171238869
 20
2.6440480704377758
 30
0.0
 11
-192.00646171238839
 21
3.0440480704377531
 31
0.0
  0
LINE
  5
615E
  8
µę˝u
 10
-201.40646171238839
 20
2.6440480704377758
 30
0.0
 11
-201.00646171238839
 21
3.0440480704377531
 31
0.0
  0
LINE
  5
615F
  8
µę˝u
 10
-192.00646171238839
 20
3.0440480704377531
 30
0.0
 11
-201.00646171238839
 21
3.0440480704377531
 31
0.0
  0
LINE
  5
6160
  8
µę˝u
 10
-192.00646171238839
 20
3.0440480704377531
 30
0.0
 11
-192.00646171238839
 21
8.6445223076451327
 31
0.0
  0
LINE
  5
6161
  8
µę˝u
 10
-201.00646171238839
 20
3.0440480704377531
 30
0.0
 11
-201.00646171238839
 21
8.6445223076451896
 31
0.0
  0
LINE
  5
6162
  8
¤¤¤ß˝u
 10
-196.5064617123885
 20
0.0440480704378388
 30
0.0
 11
-196.5064617123885
 21
9.8190378356844672
 31
0.0
  0
LINE
  5
6163
  8
«Řşc˝u
 10
-258.80199166322137
 20
26.66359340525872
 30
0.0
 11
-257.22901758898678
 21
24.92958207010193
 31
0.0
  0
LINE
  5
6164
  8
«Řşc˝u
 10
-258.83481327015261
 20
22.658458014536588
 30
0.0
 11
-258.01550511504888
 21
21.023788093153168
 31
0.0
  0
LINE
  5
6165
  8
«Řşc˝u
 10
-257.22901758898678
 20
24.92958207010193
 30
0.0
 11
-258.83481327015261
 21
22.658458014536588
 31
0.0
  0
LINE
  5
6166
  8
«Řşc˝u
 10
-258.01550511504888
 20
21.023788093153168
 30
0.0
 11
-259.13905718702568
 21
18.760505600819268
 31
0.0
  0
LINE
  5
6167
  8
«Řşc˝u
 10
-258.42170723103982
 20
28.644048070437691
 30
0.0
 11
-258.80199166322137
 21
26.66359340525872
 31
0.0
  0
LINE
  5
6168
  8
0
 10
-268.98684647011788
 20
28.644048070437691
 30
0.0
 11
-269.50646171238839
 21
27.744048070437831
 31
0.0
  0
LINE
  5
6169
  8
0
 10
-269.50646171238839
 20
27.744048070437831
 30
0.0
 11
-283.50646171238839
 21
27.744048070437831
 31
0.0
  0
LINE
  5
616A
  8
«Řşc˝u
 10
-258.35257063885308
 20
16.02379110569748
 30
0.0
 11
-260.15025473632721
 21
11.84372627043782
 31
0.0
  0
LINE
  5
616B
  8
«Řşc˝u
 10
-257.90314961448439
 20
3.6440480704377469
 30
0.0
 11
-258.91434716378569
 21
2.6440480704376901
 31
0.0
  0
LINE
  5
616C
  8
«Řşc˝u
 10
-260.15025473632721
 20
11.84372627043782
 30
0.0
 11
-257.90314961448439
 21
3.6440480704377758
 31
0.0
  0
LINE
  5
616D
  8
0
 10
-271.70646171238877
 20
16.144048070437769
 30
0.0
 11
-272.00646171238839
 21
15.84404807043776
 31
0.0
  0
LINE
  5
616E
  8
0
 10
-281.30646171238851
 20
16.144048070437769
 30
0.0
 11
-281.00646171238839
 21
15.84404807043776
 31
0.0
  0
LINE
  5
616F
  8
0
 10
-269.50646171238839
 20
16.144048070437769
 30
0.0
 11
-283.50646171238839
 21
16.144048070437769
 31
0.0
  0
LINE
  5
6170
  8
0
 10
-272.00646171238839
 20
15.84404807043776
 30
0.0
 11
-281.00646171238839
 21
15.84404807043776
 31
0.0
  0
LINE
  5
6171
  8
0
 10
-271.60646171238869
 20
2.6440480704377758
 30
0.0
 11
-272.00646171238839
 21
3.0440480704377531
 31
0.0
  0
LINE
  5
6172
  8
0
 10
-281.40646171238842
 20
2.6440480704377758
 30
0.0
 11
-281.00646171238839
 21
3.0440480704377531
 31
0.0
  0
LINE
  5
6173
  8
0
 10
-272.00646171238839
 20
3.0440480704377531
 30
0.0
 11
-281.00646171238839
 21
3.0440480704377531
 31
0.0
  0
LINE
  5
6174
  8
0
 10
-272.00646171238839
 20
3.0440480704377531
 30
0.0
 11
-272.00646171238839
 21
15.84404807043776
 31
0.0
  0
LINE
  5
6175
  8
0
 10
-281.00646171238839
 20
3.0440480704377531
 30
0.0
 11
-281.00646171238839
 21
15.84404807043776
 31
0.0
  0
LINE
  5
6176
  8
¤¤¤ß˝u
 10
-276.50646171238839
 20
0.0440480704378388
 30
0.0
 11
-276.50646171238839
 21
29.644048070437812
 31
0.0
  0
LINE
  5
6177
  8
0
 10
-269.50646171238839
 20
16.144048070437769
 30
0.0
 11
-269.50646171238839
 21
27.744048070437831
 31
0.0
  0
LINE
  5
6178
  8
0
 10
-283.50646171238839
 20
16.144048070437769
 30
0.0
 11
-283.50646171238839
 21
27.744048070437831
 31
0.0
  0
LINE
  5
6179
  8
«Řşc˝u
 10
-259.13905718702568
 20
18.760505600819268
 30
0.0
 11
-258.35257063885308
 21
16.02379110569748
 31
0.0
  0
LINE
  5
617A
  8
¤¤¤ß˝u
 10
-276.50646171238839
 20
0.0440480704378388
 30
0.0
 11
-276.50646171238839
 21
29.644048070437812
 31
0.0
  0
LINE
  5
617B
  8
0
 10
-96.506461712388614
 20
27.843864250895251
 30
0.0
 11
-128.02813969129289
 21
27.843864250895219
 31
0.0
  0
LINE
  5
617C
  8
0
 10
-96.506461712388614
 20
25.349310894000411
 30
0.0
 11
-128.02813969129289
 21
25.349310894000379
 31
0.0
  0
LINE
  5
617D
  8
0
 10
-96.506461712388614
 20
23.758457383762131
 30
0.0
 11
-128.02813969129289
 21
23.75845738376211
 31
0.0
  0
LINE
  5
617E
  8
0
 10
-96.506461712388614
 20
21.52378873110618
 30
0.0
 11
-128.02813969129289
 21
21.52378873110618
 31
0.0
  0
LINE
  5
617F
  8
0
 10
-96.506461712388614
 20
19.939245716226019
 30
0.0
 11
-128.02813969129289
 21
19.93924571622599
 31
0.0
  0
LINE
  5
6180
  8
0
 10
-96.506461712388614
 20
17.43767529549126
 30
0.0
 11
-128.02813969129289
 21
17.43767529549126
 31
0.0
  0
LINE
  5
6181
  8
0
 10
-96.506461712388614
 20
16.823791105697349
 30
0.0
 11
-128.02813969129289
 21
16.823791105697349
 31
0.0
  0
LINE
  5
6182
  8
0
 10
-96.506461712388614
 20
12.643726270437689
 30
0.0
 11
-128.02813969129281
 21
12.64372627043767
 31
0.0
  0
LINE
  5
6183
  8
0
 10
-96.506461712388614
 20
7.9437263704424756
 30
0.0
 11
-259.08146770143259
 21
7.9437263704424756
 31
0.0
  0
LINE
  5
6184
  8
0
 10
-96.506461712388401
 20
4.1440480704376901
 30
0.0
 11
-258.04017359683041
 21
4.1440480704376901
 31
0.0
  0
LINE
  5
6185
  8
µę˝u
 10
-109.5064617123885
 20
16.144048070437769
 30
0.0
 11
-123.5064617123884
 21
16.144048070437769
 31
0.0
  0
LINE
  5
6186
  8
µę˝u
 10
-112.0064617123885
 20
15.84404807043776
 30
0.0
 11
-121.0064617123884
 21
15.84404807043776
 31
0.0
  0
LINE
  5
6187
  8
µę˝u
 10
-112.0064617123885
 20
3.0440480704377531
 30
0.0
 11
-121.0064617123884
 21
3.0440480704377531
 31
0.0
  0
LINE
  5
6188
  8
µę˝u
 10
-109.5064617123885
 20
27.744048070437831
 30
0.0
 11
-123.5064617123884
 21
27.744048070437831
 31
0.0
  0
LINE
  5
6189
  8
0
 10
-296.50646171238839
 20
2.6440480704376901
 30
0.0
 11
-296.50646171238839
 21
28.644048070437691
 31
0.0
  0
LINE
  5
618A
  8
0
 10
-283.50646171238839
 20
27.744048070437831
 30
0.0
 11
-284.02607695465912
 21
28.644048070437691
 31
0.0
  0
LINE
  5
618B
  8
0
 10
-96.506461712388401
 20
2.6440480704376901
 30
0.0
 11
-296.50646171238839
 21
2.6440480704376901
 31
0.0
  0
LINE
  5
618C
  8
0
 10
-96.506461712388614
 20
28.644048070437691
 30
0.0
 11
-128.02813969129289
 21
28.644048070437719
 31
0.0
  0
LINE
  5
618D
  8
µę˝u
 10
-167.22813969129251
 20
43.844911535208951
 30
0.0
 11
-157.22813969129251
 21
43.844911535208951
 31
0.0
  0
LINE
  5
618E
  8
µę˝u
 10
-157.2281396912924
 20
35.644911535209047
 30
0.0
 11
-167.22813969129251
 21
35.644911535208962
 31
0.0
  0
LINE
  5
618F
  8
0
 10
-155.7769396912922
 20
34.644911535209019
 30
0.0
 11
-168.67933969129231
 21
34.644911535208962
 31
0.0
  0
POLYLINE
  5
6190
  8
0
 66
     1
 10
0.0
 20
0.0
 30
0.0
  0
VERTEX
  5
6363
  8
0
 10
-155.77693969129211
 20
29.06717266160905
 30
0.0
  0
VERTEX
  5
6364
  8
0
 10
-155.7836601619226
 20
28.985613786472928
 30
0.0
  0
VERTEX
  5
6365
  8
0
 10
-155.8030768197917
 20
28.862548400335239
 30
0.0
  0
VERTEX
  5
6366
  8
0
 10
-155.81197290278681
 20
28.813111566031349
 30
0.0
  0
VERTEX
  5
6367
  8
0
 10
-155.84817336430339
 20
28.621469640808979
 30
0.0
  0
VERTEX
  5
6368
  8
0
 10
-155.88124824092409
 20
28.444901558786452
 30
0.0
  0
VERTEX
  5
6369
  8
0
 10
-155.9383300430616
 20
28.10916673075457
 30
0.0
  0
VERTEX
  5
636A
  8
0
 10
-155.99147571863301
 20
27.715248721000929
 30
0.0
  0
VERTEX
  5
636B
  8
0
 10
-156.00613852715799
 20
27.57520852777219
 30
0.0
  0
VERTEX
  5
636C
  8
0
 10
-156.0262913234717
 20
27.332339539663341
 30
0.0
  0
VERTEX
  5
636D
  8
0
 10
-156.04472585280271
 20
27.096672311503429
 30
0.0
  0
VERTEX
  5
636E
  8
0
 10
-156.08510435013409
 20
26.609060830312959
 30
0.0
  0
VERTEX
  5
636F
  8
0
 10
-156.17301337075469
 20
25.655226310965759
 30
0.0
  0
VERTEX
  5
6370
  8
0
 10
-156.34634575142661
 20
24.07078049095929
 30
0.0
  0
VERTEX
  5
6371
  8
0
 10
-156.56255960025851
 20
22.446669334274532
 30
0.0
  0
VERTEX
  5
6372
  8
0
 10
-156.6438349511451
 20
21.90650524446977
 30
0.0
  0
VERTEX
  5
6373
  8
0
 10
-156.90999556815621
 20
20.331665449730512
 30
0.0
  0
VERTEX
  5
6374
  8
0
 10
-157.14758524715779
 20
19.123310730856929
 30
0.0
  0
VERTEX
  5
6375
  8
0
 10
-157.3542898301209
 20
18.187758196687351
 30
0.0
  0
VERTEX
  5
6376
  8
0
 10
-157.61822953997071
 20
17.118669795996031
 30
0.0
  0
VERTEX
  5
6377
  8
0
 10
-157.84589244802839
 20
16.292624656130499
 30
0.0
  0
VERTEX
  5
6378
  8
0
 10
-158.15655558474489
 20
15.285887472847209
 30
0.0
  0
VERTEX
  5
6379
  8
0
 10
-158.42589210370781
 20
14.51138968013055
 30
0.0
  0
VERTEX
  5
637A
  8
0
 10
-158.78658435632909
 20
13.59735563274495
 30
0.0
  0
VERTEX
  5
637B
  8
0
 10
-158.88040623951619
 20
13.3806723999769
 30
0.0
  0
VERTEX
  5
637C
  8
0
 10
-158.9287523837211
 20
13.273576406172079
 30
0.0
  0
VERTEX
  5
637D
  8
0
 10
-158.999398008502
 20
13.14359496100081
 30
0.0
  0
VERTEX
  5
637E
  8
0
 10
-159.17007517647639
 20
12.913393556892119
 30
0.0
  0
VERTEX
  5
637F
  8
0
 10
-159.32687262697209
 20
12.75822839332085
 30
0.0
  0
VERTEX
  5
6380
  8
0
 10
-159.55640573022981
 20
12.58551391810812
 30
0.0
  0
VERTEX
  5
6381
  8
0
 10
-159.86396842805999
 20
12.41690471931139
 30
0.0
  0
VERTEX
  5
6382
  8
0
 10
-160.1192288491801
 20
12.312682138216809
 30
0.0
  0
VERTEX
  5
6383
  8
0
 10
-160.4910141575451
 20
12.19986616934653
 30
0.0
  0
VERTEX
  5
6384
  8
0
 10
-161.02247488105189
 20
12.095135221711301
 30
0.0
  0
VERTEX
  5
6385
  8
0
 10
-161.57399885668079
 20
12.03478835896567
 30
0.0
  0
VERTEX
  5
6386
  8
0
 10
-162.00869390830309
 20
12.014152071170541
 30
0.0
  0
VERTEX
  5
6387
  8
0
 10
-162.6013426224408
 20
12.018909632258501
 30
0.0
  0
VERTEX
  5
6388
  8
0
 10
-163.05935962913529
 20
12.049775491740149
 30
0.0
  0
VERTEX
  5
6389
  8
0
 10
-163.627729423337
 20
12.12697867422969
 30
0.0
  0
VERTEX
  5
638A
  8
0
 10
-164.05590431731491
 20
12.223957703733619
 30
0.0
  0
VERTEX
  5
638B
  8
0
 10
-164.43909965499151
 20
12.351033649461669
 30
0.0
  0
VERTEX
  5
638C
  8
0
 10
-164.7180692256027
 20
12.479104032156039
 30
0.0
  0
VERTEX
  5
638D
  8
0
 10
-164.9218542315287
 20
12.60013281807602
 30
0.0
  0
VERTEX
  5
638E
  8
0
 10
-165.15882511803119
 20
12.78450200094966
 30
0.0
  0
VERTEX
  5
638F
  8
0
 10
-165.32119219207951
 20
12.953994008220031
 30
0.0
  0
VERTEX
  5
6390
  8
0
 10
-165.4763937846557
 20
13.17659901988082
 30
0.0
  0
VERTEX
  5
6391
  8
0
 10
-165.53300664921869
 20
13.28507630116081
 30
0.0
  0
VERTEX
  5
6392
  8
0
 10
-165.58104683865861
 20
13.3924063876633
 30
0.0
  0
VERTEX
  5
6393
  8
0
 10
-165.9390885530905
 20
14.2673173358616
 30
0.0
  0
VERTEX
  5
6394
  8
0
 10
-166.2961876680987
 20
15.27511493729526
 30
0.0
  0
VERTEX
  5
6395
  8
0
 10
-166.5445161241372
 20
16.068208998914429
 30
0.0
  0
VERTEX
  5
6396
  8
0
 10
-166.85705081464599
 20
17.190230170677641
 30
0.0
  0
VERTEX
  5
6397
  8
0
 10
-167.1882846941977
 20
18.565677601384891
 30
0.0
  0
VERTEX
  5
6398
  8
0
 10
-167.41435751447301
 20
19.642211463938452
 30
0.0
  0
VERTEX
  5
6399
  8
0
 10
-167.69430900979449
 20
21.173759462248881
 30
0.0
  0
VERTEX
  5
639A
  8
0
 10
-167.93792385753829
 20
22.75484731023607
 30
0.0
  0
VERTEX
  5
639B
  8
0
 10
-168.01012133430009
 20
23.283111695464779
 30
0.0
  0
VERTEX
  5
639C
  8
0
 10
-168.19061710640921
 20
24.768527065346412
 30
0.0
  0
VERTEX
  5
639D
  8
0
 10
-168.3438817192731
 20
26.298559069595999
 30
0.0
  0
VERTEX
  5
639E
  8
0
 10
-168.3881135389467
 20
26.809174864437701
 30
0.0
  0
VERTEX
  5
639F
  8
0
 10
-168.4244249680155
 20
27.260273264028118
 30
0.0
  0
VERTEX
  5
63A0
  8
0
 10
-168.44138455457539
 20
27.478210258946518
 30
0.0
  0
VERTEX
  5
63A1
  8
0
 10
-168.46172163924729
 20
27.6878372236825
 30
0.0
  0
VERTEX
  5
63A2
  8
0
 10
-168.50621821985521
 20
28.032183914959258
 30
0.0
  0
VERTEX
  5
63A3
  8
0
 10
-168.55789348631299
 20
28.34962502384889
 30
0.0
  0
VERTEX
  5
63A4
  8
0
 10
-168.57517575283461
 20
28.445691067087299
 30
0.0
  0
VERTEX
  5
63A5
  8
0
 10
-168.6172466407707
 20
28.669998821224802
 30
0.0
  0
VERTEX
  5
63A6
  8
0
 10
-168.64880045499149
 20
28.83867116221689
 30
0.0
  0
VERTEX
  5
63A7
  8
0
 10
-168.67093203341079
 20
28.972832544309739
 30
0.0
  0
VERTEX
  5
63A8
  8
0
 10
-168.6753828556061
 20
29.008100755202399
 30
0.0
  0
VERTEX
  5
63A9
  8
0
 10
-168.67886901696261
 20
29.081540945359158
 30
0.0
  0
VERTEX
  5
63AA
  8
0
 10
-168.6716254739739
 20
29.110198222543211
 30
0.0
  0
VERTEX
  5
63AB
  8
0
 10
-168.6640952779035
 20
29.11489620004096
 30
0.0
  0
SEQEND
  5
63AC
  8
0
  0
LINE
  5
6191
  8
0
 10
-141.7281396912924
 20
8.6440480704380889
 30
0.0
 11
-234.72813969129251
 21
8.6440480704374636
 31
0.0
  0
LINE
  5
6192
  8
0
 10
-141.7281396912924
 20
10.57589972301613
 30
0.0
 11
-234.72813969129251
 21
10.57589972301559
 31
0.0
  0
LINE
  5
6193
  8
0
 10
-141.7281396912924
 20
28.644911535209111
 30
0.0
 11
-155.84374527585089
 21
28.644911535209079
 31
0.0
  0
LINE
  5
6194
  8
0
 10
-168.67933969129271
 20
34.644911535208848
 30
0.0
 11
-155.77693969129271
 21
34.644911535208848
 31
0.0
  0
LINE
  5
6195
  8
µę˝u
 10
-157.2281396912924
 20
43.84491153520878
 30
0.0
 11
-167.2281396912924
 21
43.84491153520878
 31
0.0
  0
LINE
  5
6196
  8
µę˝u
 10
-167.22813969129251
 20
35.644911535208848
 30
0.0
 11
-157.2281396912924
 21
35.644911535208848
 31
0.0
  0
LINE
  5
6197
  8
0
 10
-234.72813969129251
 20
28.644911535208848
 30
0.0
 11
-220.61254130009891
 21
28.644911535208848
 31
0.0
  0
LINE
  5
6198
  8
0
 10
-234.72813969129251
 20
10.575899723015761
 30
0.0
 11
-164.72813969129251
 21
10.575899723015819
 31
0.0
  0
LINE
  5
6199
  8
0
 10
-245.22813969129271
 20
41.6440480704374
 30
0.0
 11
-234.7281396912928
 21
41.644048070437456
 31
0.0
  0
LINE
  5
619A
  8
0
 10
-245.2281396912928
 20
43.644048070437798
 30
0.0
 11
-234.7281396912928
 21
43.644048070437847
 31
0.0
  0
LINE
  5
619B
  8
0
 10
-245.2281396912928
 20
43.6440480704374
 30
0.0
 11
-234.7281396912928
 21
43.644048070437456
 31
0.0
  0
CIRCLE
  5
619C
  8
0
 10
-240.72813969129271
 20
33.844048070437879
 30
0.0
 40
2.75
  0
CIRCLE
  5
619D
  8
0
 10
-240.72813969129271
 20
33.844048070437879
 30
0.0
 40
2.486916010899999
  0
CIRCLE
  5
619E
  8
0
 10
-240.72813969129271
 20
33.844048070437459
 30
0.0
 40
2.486916010899999
  0
CIRCLE
  5
619F
  8
0
 10
-240.72813969129271
 20
33.844048070437459
 30
0.0
 40
2.75
  0
CIRCLE
  5
61A0
  8
0
 10
-240.72813969129271
 20
33.844048070437879
 30
0.0
 40
2.185553324299998
  0
CIRCLE
  5
61A1
  8
0
 10
-240.72813969129271
 20
33.844048070437459
 30
0.0
 40
2.185553324299998
  0
LINE
  5
61A2
  8
¤¤¤ß˝u
 10
-245.56957692283601
 20
33.844048070437402
 30
0.0
 11
-235.8867024597491
 21
33.844048070437459
 31
0.0
  0
LINE
  5
61A3
  8
0
 10
-245.22813969129251
 20
10.644048070437799
 30
0.0
 11
-234.72813969129251
 21
10.64404807043786
 31
0.0
  0
LINE
  5
61A4
  8
0
 10
-245.22813969129251
 20
8.6440480704378047
 30
0.0
 11
-234.72813969129251
 21
8.6440480704378615
 31
0.0
  0
LINE
  5
61A5
  8
0
 10
-245.22813969129251
 20
8.6440480704374067
 30
0.0
 11
-234.72813969129251
 21
8.6440480704374636
 31
0.0
  0
LINE
  5
61A6
  8
0
 10
-245.22813969129251
 20
10.6440480704374
 30
0.0
 11
-234.72813969129251
 21
10.64404807043746
 31
0.0
  0
LINE
  5
61A7
  8
¤¤¤ß˝u
 10
-245.56957692283601
 20
33.84404807043768
 30
0.0
 11
-235.8867024597491
 21
33.84404807043768
 31
0.0
  0
LINE
  5
61A8
  8
0
 10
-234.72813969129251
 20
41.644048070437627
 30
0.0
 11
-245.22813969129271
 21
41.644048070437627
 31
0.0
  0
CIRCLE
  5
61A9
  8
0
 10
-240.72813969129251
 20
33.844048070438127
 30
0.0
 40
2.185553324299998
  0
CIRCLE
  5
61AA
  8
0
 10
-240.72813969129251
 20
33.84404807043768
 30
0.0
 40
2.185553324299998
  0
CIRCLE
  5
61AB
  8
0
 10
-240.72813969129251
 20
33.844048070438127
 30
0.0
 40
2.75
  0
CIRCLE
  5
61AC
  8
0
 10
-240.72813969129251
 20
33.844048070438127
 30
0.0
 40
2.486916010899999
  0
CIRCLE
  5
61AD
  8
0
 10
-240.72813969129251
 20
33.84404807043768
 30
0.0
 40
2.486916010899999
  0
CIRCLE
  5
61AE
  8
0
 10
-240.72813969129251
 20
33.84404807043768
 30
0.0
 40
2.75
  0
LINE
  5
61AF
  8
0
 10
-245.22813969129271
 20
10.644048070438091
 30
0.0
 11
-234.72813969129251
 21
10.644048070438091
 31
0.0
  0
LINE
  5
61B0
  8
0
 10
-245.22813969129271
 20
43.644048070438089
 30
0.0
 11
-234.72813969129251
 21
43.644048070438089
 31
0.0
  0
LINE
  5
61B1
  8
0
 10
-245.22813969129271
 20
10.644048070437689
 30
0.0
 11
-234.72813969129251
 21
10.644048070437689
 31
0.0
  0
LINE
  5
61B2
  8
0
 10
-245.22813969129271
 20
43.644048070437691
 30
0.0
 11
-234.72813969129251
 21
43.644048070437691
 31
0.0
  0
LINE
  5
61B3
  8
0
 10
-245.22813969129251
 20
8.6440480704378047
 30
0.0
 11
-245.2281396912928
 21
43.644048070437798
 31
0.0
  0
LINE
  5
61B4
  8
0
 10
-245.2281396912928
 20
43.644048070437798
 30
0.0
 11
-245.22813969129251
 21
8.6440480704378047
 31
0.0
  0
LINE
  5
61B5
  8
0
 10
-245.2281396912928
 20
43.6440480704374
 30
0.0
 11
-245.22813969129251
 21
8.6440480704374067
 31
0.0
  0
LINE
  5
61B6
  8
0
 10
-245.22813969129271
 20
8.6440480704380889
 30
0.0
 11
-245.22813969129271
 21
43.644048070438089
 31
0.0
  0
LINE
  5
61B7
  8
0
 10
-245.22813969129271
 20
43.644048070438089
 30
0.0
 11
-245.22813969129271
 21
8.6440480704380889
 31
0.0
  0
LINE
  5
61B8
  8
0
 10
-245.22813969129271
 20
43.644048070437691
 30
0.0
 11
-245.22813969129271
 21
8.6440480704376892
 31
0.0
  0
CIRCLE
  5
61B9
  8
0
 10
-240.72813969129271
 20
33.844048070437879
 30
0.0
 40
0.7185553324000003
  0
CIRCLE
  5
61BA
  8
0
 10
-240.72813969129271
 20
33.844048070437459
 30
0.0
 40
0.7185553324000003
  0
LINE
  5
61BB
  8
¤¤¤ß˝u
 10
-240.72813969129251
 20
29.002610838893929
 30
0.0
 11
-240.72813969129251
 21
38.685485301980968
 31
0.0
  0
LINE
  5
61BC
  8
¤¤¤ß˝u
 10
-240.72813969129251
 20
29.00261083889416
 30
0.0
 11
-240.72813969129251
 21
38.685485301981203
 31
0.0
  0
CIRCLE
  5
61BD
  8
0
 10
-240.72813969129251
 20
33.844048070438127
 30
0.0
 40
0.7185553324000003
  0
CIRCLE
  5
61BE
  8
0
 10
-240.72813969129251
 20
33.84404807043768
 30
0.0
 40
0.7185553324000003
  0
POLYLINE
  5
61BF
  8
0
 66
     1
 10
0.0
 20
0.0
 30
0.0
  0
VERTEX
  5
63AD
  8
0
 10
-207.7769396912922
 20
29.067172661608769
 30
0.0
  0
VERTEX
  5
63AE
  8
0
 10
-207.78366016192271
 20
28.985613786472641
 30
0.0
  0
VERTEX
  5
63AF
  8
0
 10
-207.8030768197919
 20
28.862548400334958
 30
0.0
  0
VERTEX
  5
63B0
  8
0
 10
-207.81197290278689
 20
28.813111566031068
 30
0.0
  0
VERTEX
  5
63B1
  8
0
 10
-207.84817336430351
 20
28.621469640808701
 30
0.0
  0
VERTEX
  5
63B2
  8
0
 10
-207.88124824092429
 20
28.444901558786139
 30
0.0
  0
VERTEX
  5
63B3
  8
0
 10
-207.9383300430618
 20
28.109166730754279
 30
0.0
  0
VERTEX
  5
63B4
  8
0
 10
-207.9914757186333
 20
27.715248721000648
 30
0.0
  0
VERTEX
  5
63B5
  8
0
 10
-208.0061385271581
 20
27.575208527771881
 30
0.0
  0
VERTEX
  5
63B6
  8
0
 10
-208.02629132347181
 20
27.33233953966305
 30
0.0
  0
VERTEX
  5
63B7
  8
0
 10
-208.0447258528028
 20
27.096672311503141
 30
0.0
  0
VERTEX
  5
63B8
  8
0
 10
-208.0851043501342
 20
26.609060830312671
 30
0.0
  0
VERTEX
  5
63B9
  8
0
 10
-208.1730133707548
 20
25.655226310965471
 30
0.0
  0
VERTEX
  5
63BA
  8
0
 10
-208.34634575142681
 20
24.07078049095896
 30
0.0
  0
VERTEX
  5
63BB
  8
0
 10
-208.5625596002586
 20
22.446669334274191
 30
0.0
  0
VERTEX
  5
63BC
  8
0
 10
-208.64383495114529
 20
21.906505244469429
 30
0.0
  0
VERTEX
  5
63BD
  8
0
 10
-208.90999556815629
 20
20.331665449730171
 30
0.0
  0
VERTEX
  5
63BE
  8
0
 10
-209.14758524715791
 20
19.123310730856591
 30
0.0
  0
VERTEX
  5
63BF
  8
0
 10
-209.35428983012099
 20
18.18775819668701
 30
0.0
  0
VERTEX
  5
63C0
  8
0
 10
-209.6182295399708
 20
17.118669795995679
 30
0.0
  0
VERTEX
  5
63C1
  8
0
 10
-209.84589244802851
 20
16.292624656130162
 30
0.0
  0
VERTEX
  5
63C2
  8
0
 10
-210.15655558474509
 20
15.285887472846859
 30
0.0
  0
VERTEX
  5
63C3
  8
0
 10
-210.42589210370801
 20
14.511389680130209
 30
0.0
  0
VERTEX
  5
63C4
  8
0
 10
-210.78658435632931
 20
13.597355632744611
 30
0.0
  0
VERTEX
  5
63C5
  8
0
 10
-210.8804062395165
 20
13.380672399976561
 30
0.0
  0
VERTEX
  5
63C6
  8
0
 10
-210.92875238372119
 20
13.27357640617174
 30
0.0
  0
VERTEX
  5
63C7
  8
0
 10
-210.99939800850211
 20
13.143594961000471
 30
0.0
  0
VERTEX
  5
63C8
  8
0
 10
-211.1700751764765
 20
12.913393556891769
 30
0.0
  0
VERTEX
  5
63C9
  8
0
 10
-211.3268726269722
 20
12.758228393320501
 30
0.0
  0
VERTEX
  5
63CA
  8
0
 10
-211.55640573023001
 20
12.585513918107781
 30
0.0
  0
VERTEX
  5
63CB
  8
0
 10
-211.8639684280601
 20
12.41690471931105
 30
0.0
  0
VERTEX
  5
63CC
  8
0
 10
-212.1192288491803
 20
12.31268213821647
 30
0.0
  0
VERTEX
  5
63CD
  8
0
 10
-212.49101415754521
 20
12.199866169346191
 30
0.0
  0
VERTEX
  5
63CE
  8
0
 10
-213.02247488105209
 20
12.09513522171096
 30
0.0
  0
VERTEX
  5
63CF
  8
0
 10
-213.5739988566811
 20
12.034788358965329
 30
0.0
  0
VERTEX
  5
63D0
  8
0
 10
-214.0086939083034
 20
12.0141520711702
 30
0.0
  0
VERTEX
  5
63D1
  8
0
 10
-214.601342622441
 20
12.018909632258159
 30
0.0
  0
VERTEX
  5
63D2
  8
0
 10
-215.0593596291354
 20
12.04977549173981
 30
0.0
  0
VERTEX
  5
63D3
  8
0
 10
-215.62772942333709
 20
12.126978674229401
 30
0.0
  0
VERTEX
  5
63D4
  8
0
 10
-216.055904317315
 20
12.22395770373333
 30
0.0
  0
VERTEX
  5
63D5
  8
0
 10
-216.43909965499159
 20
12.35103364946138
 30
0.0
  0
VERTEX
  5
63D6
  8
0
 10
-216.7180692256029
 20
12.47910403215576
 30
0.0
  0
VERTEX
  5
63D7
  8
0
 10
-216.92185423152881
 20
12.60013281807573
 30
0.0
  0
VERTEX
  5
63D8
  8
0
 10
-217.1588251180315
 20
12.78450200094937
 30
0.0
  0
VERTEX
  5
63D9
  8
0
 10
-217.32119219207959
 20
12.95399400821969
 30
0.0
  0
VERTEX
  5
63DA
  8
0
 10
-217.47639378465581
 20
13.176599019880481
 30
0.0
  0
VERTEX
  5
63DB
  8
0
 10
-217.53300664921881
 20
13.285076301160469
 30
0.0
  0
VERTEX
  5
63DC
  8
0
 10
-217.58104683865869
 20
13.392406387662961
 30
0.0
  0
VERTEX
  5
63DD
  8
0
 10
-217.93908855309061
 20
14.267317335861261
 30
0.0
  0
VERTEX
  5
63DE
  8
0
 10
-218.2961876680989
 20
15.27511493729491
 30
0.0
  0
VERTEX
  5
63DF
  8
0
 10
-218.54451612413729
 20
16.068208998914091
 30
0.0
  0
VERTEX
  5
63E0
  8
0
 10
-218.85705081464619
 20
17.190230170677289
 30
0.0
  0
VERTEX
  5
63E1
  8
0
 10
-219.1882846941979
 20
18.56567760138455
 30
0.0
  0
VERTEX
  5
63E2
  8
0
 10
-219.41435751447321
 20
19.642211463938111
 30
0.0
  0
VERTEX
  5
63E3
  8
0
 10
-219.69430900979461
 20
21.17375946224854
 30
0.0
  0
VERTEX
  5
63E4
  8
0
 10
-219.93792385753849
 20
22.754847310235728
 30
0.0
  0
VERTEX
  5
63E5
  8
0
 10
-220.01012133430029
 20
23.28311169546447
 30
0.0
  0
VERTEX
  5
63E6
  8
0
 10
-220.19061710640941
 20
24.76852706534606
 30
0.0
  0
VERTEX
  5
63E7
  8
0
 10
-220.3438817192733
 20
26.298559069595679
 30
0.0
  0
VERTEX
  5
63E8
  8
0
 10
-220.3881135389469
 20
26.809174864437349
 30
0.0
  0
VERTEX
  5
63E9
  8
0
 10
-220.42442496801559
 20
27.26027326402777
 30
0.0
  0
VERTEX
  5
63EA
  8
0
 10
-220.44138455457551
 20
27.478210258946209
 30
0.0
  0
VERTEX
  5
63EB
  8
0
 10
-220.4617216392474
 20
27.687837223682148
 30
0.0
  0
VERTEX
  5
63EC
  8
0
 10
-220.50621821985541
 20
28.032183914958921
 30
0.0
  0
VERTEX
  5
63ED
  8
0
 10
-220.55789348631311
 20
28.349625023848539
 30
0.0
  0
VERTEX
  5
63EE
  8
0
 10
-220.5751757528347
 20
28.445691067086958
 30
0.0
  0
VERTEX
  5
63EF
  8
0
 10
-220.6172466407709
 20
28.669998821224478
 30
0.0
  0
VERTEX
  5
63F0
  8
0
 10
-220.6488004549916
 20
28.838671162216539
 30
0.0
  0
VERTEX
  5
63F1
  8
0
 10
-220.67093203341111
 20
28.97283254430943
 30
0.0
  0
VERTEX
  5
63F2
  8
0
 10
-220.67538285560619
 20
29.008100755202069
 30
0.0
  0
VERTEX
  5
63F3
  8
0
 10
-220.67886901696269
 20
29.081540945358832
 30
0.0
  0
VERTEX
  5
63F4
  8
0
 10
-220.67162547397399
 20
29.110198222542859
 30
0.0
  0
VERTEX
  5
63F5
  8
0
 10
-220.6640952779037
 20
29.114896200040619
 30
0.0
  0
SEQEND
  5
63F6
  8
0
  0
LINE
  5
61C0
  8
0
 10
-234.7281396912928
 20
44.644048070437691
 30
0.0
 11
-234.72813969129271
 21
8.6440480704376892
 31
0.0
  0
LINE
  5
61C1
  8
µę˝u
 10
-218.4781396912928
 20
43.844911535208659
 30
0.0
 11
-218.47813969129271
 21
35.644911535208649
 31
0.0
  0
LINE
  5
61C2
  8
µę˝u
 10
-219.2281396912928
 20
43.844911535208659
 30
0.0
 11
-219.2281396912926
 21
35.644911535208649
 31
0.0
  0
LINE
  5
61C3
  8
¤¤¤ß˝u
 10
-214.2281396912924
 20
29.518166021317342
 30
0.0
 11
-214.22813969129251
 21
45.67371843125818
 31
0.0
  0
LINE
  5
61C4
  8
¤¤¤ß˝u
 10
-214.22813969129271
 20
29.51816602131732
 30
0.0
 11
-214.22813969129271
 21
45.67371843125818
 31
0.0
  0
LINE
  5
61C5
  8
µę˝u
 10
-209.2281396912928
 20
43.844911535208659
 30
0.0
 11
-209.2281396912926
 21
35.644911535208678
 31
0.0
  0
LINE
  5
61C6
  8
µę˝u
 10
-209.97813969129271
 20
43.844911535208659
 30
0.0
 11
-209.97813969129271
 21
35.644911535208678
 31
0.0
  0
LINE
  5
61C7
  8
µę˝u
 10
-218.47813969129251
 20
43.84491153520878
 30
0.0
 11
-218.47813969129251
 21
35.644911535208848
 31
0.0
  0
LINE
  5
61C8
  8
µę˝u
 10
-219.2281396912926
 20
43.84491153520878
 30
0.0
 11
-219.2281396912926
 21
35.644911535208848
 31
0.0
  0
LINE
  5
61C9
  8
µę˝u
 10
-209.97813969129251
 20
43.84491153520878
 30
0.0
 11
-209.97813969129251
 21
35.644911535208848
 31
0.0
  0
LINE
  5
61CA
  8
µę˝u
 10
-209.22813969129251
 20
43.84491153520878
 30
0.0
 11
-209.22813969129251
 21
35.644911535208848
 31
0.0
  0
LINE
  5
61CB
  8
¤¤¤ß˝u
 10
-214.22813969129251
 20
29.518166021317541
 30
0.0
 11
-214.22813969129251
 21
45.673718431258401
 31
0.0
  0
LINE
  5
61CC
  8
¤¤¤ß˝u
 10
-214.22813969129271
 20
29.51816602131748
 30
0.0
 11
-214.22813969129271
 21
45.673718431258351
 31
0.0
  0
LINE
  5
61CD
  8
µę˝u
 10
-209.22813969129251
 20
35.644911535208678
 30
0.0
 11
-219.2281396912926
 21
35.644911535208649
 31
0.0
  0
LINE
  5
61CE
  8
0
 10
-207.77693969129231
 20
34.644911535208742
 30
0.0
 11
-220.6793396912924
 21
34.644911535208649
 31
0.0
  0
LINE
  5
61CF
  8
0
 10
-220.67933969129299
 20
34.644911535208848
 30
0.0
 11
-207.7769396912928
 21
34.644911535208848
 31
0.0
  0
LINE
  5
61D0
  8
µę˝u
 10
-219.2281396912926
 20
35.644911535208848
 30
0.0
 11
-209.22813969129251
 21
35.644911535208848
 31
0.0
  0
LINE
  5
61D1
  8
µę˝u
 10
-219.2281396912926
 20
35.644911535208649
 30
0.0
 11
-220.07813969129271
 21
34.644911535208649
 31
0.0
  0
LINE
  5
61D2
  8
µę˝u
 10
-219.2281396912926
 20
35.699837173518461
 30
0.0
 11
-220.07813969129259
 21
34.644911535208848
 31
0.0
  0
LINE
  5
61D3
  8
0
 10
-220.6793396912924
 20
34.644911535208649
 30
0.0
 11
-220.67933969129231
 21
29.115311535208551
 31
0.0
  0
LINE
  5
61D4
  8
0
 10
-220.67933969129299
 20
34.644911535208848
 30
0.0
 11
-220.67933969129299
 21
29.115311535208779
 31
0.0
  0
LINE
  5
61D5
  8
0
 10
-207.77693969129231
 20
34.644911535208742
 30
0.0
 11
-207.7769396912922
 21
29.115311535208662
 31
0.0
  0
LINE
  5
61D6
  8
0
 10
-207.7769396912928
 20
34.644911535208848
 30
0.0
 11
-207.7769396912928
 21
29.115311535208779
 31
0.0
  0
LINE
  5
61D7
  8
µę˝u
 10
-209.2281396912926
 20
35.69983717351829
 30
0.0
 11
-208.3781396912926
 21
34.644911535208678
 31
0.0
  0
LINE
  5
61D8
  8
µę˝u
 10
-209.22813969129251
 20
35.644911535208848
 30
0.0
 11
-208.37813969129249
 21
34.644911535208848
 31
0.0
  0
LINE
  5
61D9
  8
µę˝u
 10
-219.2281396912928
 20
43.844911535208659
 30
0.0
 11
-209.2281396912928
 21
43.844911535208659
 31
0.0
  0
LINE
  5
61DA
  8
µę˝u
 10
-209.22813969129251
 20
43.84491153520878
 30
0.0
 11
-219.2281396912926
 21
43.84491153520878
 31
0.0
  0
LINE
  5
61DB
  8
µę˝u
 10
-219.2281396912928
 20
43.844911535208659
 30
0.0
 11
-219.9081396912928
 21
44.644911535208621
 31
0.0
  0
LINE
  5
61DC
  8
µę˝u
 10
-219.2281396912926
 20
43.84491153520878
 30
0.0
 11
-219.9081396912926
 21
44.644911535208841
 31
0.0
  0
LINE
  5
61DD
  8
µę˝u
 10
-209.2281396912928
 20
43.844911535208659
 30
0.0
 11
-208.5481396912927
 21
44.644911535208621
 31
0.0
  0
LINE
  5
61DE
  8
µę˝u
 10
-209.22813969129251
 20
43.84491153520878
 30
0.0
 11
-208.5481396912925
 21
44.644911535208841
 31
0.0
  0
LINE
  5
61DF
  8
¤¤¤ß˝u
 10
-162.22813969129231
 20
29.518166021317661
 30
0.0
 11
-162.2281396912924
 21
45.673718431258521
 31
0.0
  0
LINE
  5
61E0
  8
¤¤¤ß˝u
 10
-162.22813969129251
 20
29.518166021317711
 30
0.0
 11
-162.22813969129251
 21
45.673718431258571
 31
0.0
  0
LINE
  5
61E1
  8
µę˝u
 10
-167.22813969129251
 20
43.844911535208951
 30
0.0
 11
-167.22813969129251
 21
35.644911535208962
 31
0.0
  0
LINE
  5
61E2
  8
µę˝u
 10
-166.4781396912926
 20
43.844911535208951
 30
0.0
 11
-166.47813969129251
 21
35.644911535208962
 31
0.0
  0
LINE
  5
61E3
  8
µę˝u
 10
-166.47813969129231
 20
43.84491153520878
 30
0.0
 11
-166.47813969129231
 21
35.644911535208848
 31
0.0
  0
LINE
  5
61E4
  8
µę˝u
 10
-167.2281396912924
 20
43.84491153520878
 30
0.0
 11
-167.2281396912924
 21
35.644911535208848
 31
0.0
  0
LINE
  5
61E5
  8
¤¤¤ß˝u
 10
-162.2281396912924
 20
29.51816602131748
 30
0.0
 11
-162.2281396912924
 21
45.673718431258287
 31
0.0
  0
LINE
  5
61E6
  8
¤¤¤ß˝u
 10
-162.22813969129251
 20
29.518166021317541
 30
0.0
 11
-162.22813969129251
 21
45.673718431258401
 31
0.0
  0
LINE
  5
61E7
  8
0
 10
-168.67933969129231
 20
34.644911535208962
 30
0.0
 11
-168.6793396912922
 21
29.115311535208889
 31
0.0
  0
LINE
  5
61E8
  8
0
 10
-168.67933969129271
 20
34.644911535208848
 30
0.0
 11
-168.67933969129271
 21
29.115311535208779
 31
0.0
  0
LINE
  5
61E9
  8
µę˝u
 10
-167.22813969129251
 20
35.644911535208962
 30
0.0
 11
-168.07813969129251
 21
34.644911535208962
 31
0.0
  0
LINE
  5
61EA
  8
µę˝u
 10
-167.2281396912924
 20
35.699837173518461
 30
0.0
 11
-168.07813969129239
 21
34.644911535208848
 31
0.0
  0
LINE
  5
61EB
  8
µę˝u
 10
-167.22813969129251
 20
43.844911535208951
 30
0.0
 11
-167.90813969129269
 21
44.644911535208962
 31
0.0
  0
LINE
  5
61EC
  8
µę˝u
 10
-167.2281396912924
 20
43.84491153520878
 30
0.0
 11
-167.90813969129249
 21
44.644911535208792
 31
0.0
  0
LINE
  5
61ED
  8
0
 10
-131.2281396912926
 20
43.644048070437968
 30
0.0
 11
-131.2281396912924
 21
8.6440480704379752
 31
0.0
  0
LINE
  5
61EE
  8
0
 10
-131.2281396912926
 20
43.644048070438373
 30
0.0
 11
-131.2281396912924
 21
8.6440480704383731
 31
0.0
  0
LINE
  5
61EF
  8
0
 10
-131.2281396912924
 20
8.6440480704383731
 30
0.0
 11
-131.2281396912926
 21
43.644048070438373
 31
0.0
  0
LINE
  5
61F0
  8
0
 10
-141.7281396912924
 20
44.644048070437691
 30
0.0
 11
-141.72813969129251
 21
8.6440480704376892
 31
0.0
  0
LINE
  5
61F1
  8
0
 10
-131.22813969129251
 20
43.644048070437691
 30
0.0
 11
-131.22813969129251
 21
8.6440480704376892
 31
0.0
  0
LINE
  5
61F2
  8
0
 10
-131.22813969129251
 20
43.644048070438089
 30
0.0
 11
-131.22813969129251
 21
8.6440480704380889
 31
0.0
  0
LINE
  5
61F3
  8
0
 10
-131.22813969129251
 20
8.6440480704380889
 30
0.0
 11
-131.22813969129251
 21
43.644048070438089
 31
0.0
  0
LINE
  5
61F4
  8
0
 10
-131.2281396912924
 20
10.64404807043797
 30
0.0
 11
-141.7281396912924
 21
10.64404807043792
 31
0.0
  0
LINE
  5
61F5
  8
0
 10
-131.2281396912924
 20
8.6440480704379752
 30
0.0
 11
-141.7281396912924
 21
8.6440480704379183
 31
0.0
  0
LINE
  5
61F6
  8
µę˝u
 10
-157.22813969129251
 20
43.844911535209
 30
0.0
 11
-157.22813969129251
 21
35.644911535209047
 31
0.0
  0
LINE
  5
61F7
  8
µę˝u
 10
-157.97813969129251
 20
43.844911535209
 30
0.0
 11
-157.97813969129251
 21
35.644911535209047
 31
0.0
  0
LINE
  5
61F8
  8
µę˝u
 10
-157.2281396912924
 20
43.84491153520878
 30
0.0
 11
-157.2281396912924
 21
35.644911535208848
 31
0.0
  0
LINE
  5
61F9
  8
µę˝u
 10
-157.97813969129231
 20
43.84491153520878
 30
0.0
 11
-157.97813969129231
 21
35.644911535208848
 31
0.0
  0
CIRCLE
  5
61FA
  8
0
 10
-135.7281396912926
 20
33.844048070437971
 30
0.0
 40
2.75
  0
CIRCLE
  5
61FB
  8
0
 10
-135.7281396912926
 20
33.844048070437971
 30
0.0
 40
2.486916010899999
  0
CIRCLE
  5
61FC
  8
0
 10
-135.7281396912926
 20
33.84404807043839
 30
0.0
 40
2.486916010899999
  0
CIRCLE
  5
61FD
  8
0
 10
-135.7281396912926
 20
33.84404807043839
 30
0.0
 40
2.75
  0
CIRCLE
  5
61FE
  8
0
 10
-135.7281396912926
 20
33.844048070437971
 30
0.0
 40
2.185553324299998
  0
CIRCLE
  5
61FF
  8
0
 10
-135.7281396912926
 20
33.84404807043839
 30
0.0
 40
2.185553324299998
  0
LINE
  5
6200
  8
¤¤¤ß˝u
 10
-130.88670245974899
 20
33.844048070437971
 30
0.0
 11
-140.56957692283621
 21
33.844048070437907
 31
0.0
  0
LINE
  5
6201
  8
¤¤¤ß˝u
 10
-130.88670245974899
 20
33.84404807043768
 30
0.0
 11
-140.56957692283621
 21
33.84404807043768
 31
0.0
  0
CIRCLE
  5
6202
  8
0
 10
-135.72813969129251
 20
33.84404807043768
 30
0.0
 40
2.185553324299998
  0
CIRCLE
  5
6203
  8
0
 10
-135.72813969129251
 20
33.844048070438127
 30
0.0
 40
2.185553324299998
  0
CIRCLE
  5
6204
  8
0
 10
-135.72813969129251
 20
33.84404807043768
 30
0.0
 40
2.75
  0
CIRCLE
  5
6205
  8
0
 10
-135.72813969129251
 20
33.84404807043768
 30
0.0
 40
2.486916010899999
  0
CIRCLE
  5
6206
  8
0
 10
-135.72813969129251
 20
33.844048070438127
 30
0.0
 40
2.486916010899999
  0
CIRCLE
  5
6207
  8
0
 10
-135.72813969129251
 20
33.844048070438127
 30
0.0
 40
2.75
  0
LINE
  5
6208
  8
0
 10
-155.7769396912922
 20
34.644911535209019
 30
0.0
 11
-155.77693969129211
 21
29.115311535208949
 31
0.0
  0
LINE
  5
6209
  8
0
 10
-155.77693969129271
 20
34.644911535208848
 30
0.0
 11
-155.77693969129271
 21
29.115311535208779
 31
0.0
  0
LINE
  5
620A
  8
µę˝u
 10
-157.22813969129251
 20
35.699837173518631
 30
0.0
 11
-156.37813969129249
 21
34.644911535209019
 31
0.0
  0
LINE
  5
620B
  8
µę˝u
 10
-157.2281396912924
 20
35.644911535208848
 30
0.0
 11
-156.3781396912924
 21
34.644911535208848
 31
0.0
  0
CIRCLE
  5
620C
  8
0
 10
-135.7281396912926
 20
33.844048070437971
 30
0.0
 40
0.7185553324000003
  0
CIRCLE
  5
620D
  8
0
 10
-135.7281396912926
 20
33.84404807043839
 30
0.0
 40
0.7185553324000003
  0
LINE
  5
620E
  8
¤¤¤ß˝u
 10
-135.72813969129251
 20
29.002610838894441
 30
0.0
 11
-135.7281396912926
 21
38.685485301981487
 31
0.0
  0
LINE
  5
620F
  8
¤¤¤ß˝u
 10
-135.7281396912926
 20
29.00261083889416
 30
0.0
 11
-135.7281396912926
 21
38.685485301981203
 31
0.0
  0
CIRCLE
  5
6210
  8
0
 10
-135.72813969129251
 20
33.84404807043768
 30
0.0
 40
0.7185553324000003
  0
CIRCLE
  5
6211
  8
0
 10
-135.72813969129251
 20
33.844048070438127
 30
0.0
 40
0.7185553324000003
  0
LINE
  5
6212
  8
0
 10
-131.2281396912926
 20
43.644048070437968
 30
0.0
 11
-141.7281396912926
 21
43.644048070437918
 31
0.0
  0
LINE
  5
6213
  8
0
 10
-131.2281396912926
 20
43.644048070438373
 30
0.0
 11
-141.7281396912926
 21
43.644048070438323
 31
0.0
  0
LINE
  5
6214
  8
0
 10
-141.72813969129251
 20
41.644048070437861
 30
0.0
 11
-131.2281396912926
 21
41.644048070437918
 31
0.0
  0
LINE
  5
6215
  8
0
 10
-131.22813969129251
 20
43.644048070437691
 30
0.0
 11
-141.7281396912924
 21
43.644048070437691
 31
0.0
  0
LINE
  5
6216
  8
0
 10
-131.22813969129251
 20
43.644048070438089
 30
0.0
 11
-141.7281396912924
 21
43.644048070438089
 31
0.0
  0
LINE
  5
6217
  8
0
 10
-131.22813969129251
 20
41.644048070437677
 30
0.0
 11
-141.7281396912924
 21
41.644048070437677
 31
0.0
  0
LINE
  5
6218
  8
µę˝u
 10
-157.22813969129251
 20
43.844911535209
 30
0.0
 11
-156.54813969129259
 21
44.644911535209019
 31
0.0
  0
LINE
  5
6219
  8
µę˝u
 10
-157.2281396912924
 20
43.84491153520878
 30
0.0
 11
-156.54813969129219
 21
44.644911535208841
 31
0.0
  0
LINE
  5
621A
  8
0
 10
-168.61254130009871
 20
28.644911535209051
 30
0.0
 11
-207.84374527585101
 21
28.64491153520882
 31
0.0
  0
LINE
  5
621B
  8
0
 10
-232.11254130009891
 20
28.644911535208621
 30
0.0
 11
-234.72813969129251
 21
28.644911535208621
 31
0.0
  0
LINE
  5
621C
  8
0
 10
-207.84374527585089
 20
28.644911535208848
 30
0.0
 11
-180.11254130009871
 21
28.644911535208848
 31
0.0
  0
LINE
  5
621D
  8
0
 10
-234.7281396912928
 20
44.644048070437691
 30
0.0
 11
-141.72813969129231
 21
44.644048070437691
 31
0.0
  0
LINE
  5
621E
  8
0
 10
-246.9279432306852
 20
155.05188628134749
 30
0.0
 11
-234.7279432306855
 21
155.05180363172749
 31
0.0
  0
LINE
  5
621F
  8
0
 10
-234.7279432306855
 20
97.051803630396662
 30
0.0
 11
-246.92794323068529
 21
97.051886280016575
 31
0.0
  0
LINE
  5
6220
  8
¤¤¤ß˝u
 10
-248.71179302705639
 20
149.85204042389211
 30
0.0
 11
-242.96015605267539
 21
149.85204042389211
 31
0.0
  0
LINE
  5
6221
  8
¤¤¤ß˝u
 10
-248.71179302705639
 20
102.2520404249845
 30
0.0
 11
-242.96015605267539
 21
102.2520404249845
 31
0.0
  0
LINE
  5
6222
  8
AM7
 10
-125.2267442941166
 20
126.0520404244382
 30
0.0
 11
-248.5871587038562
 21
126.0520404244382
 31
0.0
  0
LINE
  5
6223
  8
¤¤¤ß˝u
 10
-276.5064617123881
 20
114.2055841292031
 30
0.0
 11
-276.5064617123881
 21
138.06717313869649
 31
0.0
  0
LINE
  5
6224
  8
0
 10
-245.2279432306855
 20
155.0518747645971
 30
0.0
 11
-245.2279432306855
 21
97.051874763266369
 31
0.0
  0
LINE
  5
6225
  8
0
 10
-246.9279432306852
 20
155.05188628134749
 30
0.0
 11
-246.92794323068529
 21
97.051886280016575
 31
0.0
  0
LINE
  5
6226
  8
0
 10
-296.50646171238799
 20
140.05204042443819
 30
0.0
 11
-296.50646171238799
 21
112.0520404244383
 31
0.0
  0
LINE
  5
6227
  8
0
  6
CONTINUOUS
 10
-257.07195725241758
 20
114.21592014945961
 30
0.0
 11
-254.9280123468844
 21
116.3598650549928
 31
0.0
  0
LINE
  5
6228
  8
0
  6
CONTINUOUS
 10
-260.69043723068529
 20
115.7147436316336
 30
0.0
 11
-257.07195725241758
 21
114.21592014945961
 31
0.0
  0
LINE
  5
6229
  8
0
 10
-296.50646171238799
 20
112.0520404244383
 30
0.0
 11
-246.92794323068529
 21
112.0520404244381
 31
0.0
  0
ARC
  5
622A
  8
0
 10
-246.5924194111912
 20
103.2322887869674
 30
0.0
 40
1.220011576012179
 50
105.9630221688287
 51
179.0723572120024
  0
LINE
  5
622B
  8
0
 10
-247.81227109004379
 20
103.2520404249844
 30
0.0
 11
-247.81227109004379
 21
101.2520404249845
 31
0.0
  0
LINE
  5
622C
  8
0
 10
-247.81227109004379
 20
103.2520404249845
 30
0.0
 11
-247.81227109004379
 21
101.2520404249845
 31
0.0
  0
ARC
  5
622D
  8
0
 10
-246.5924194111916
 20
101.2717920630016
 30
0.0
 40
1.220011576012179
 50
180.9276427879976
 51
254.03697783117121
  0
ARC
  5
622E
  8
0
 10
-246.5924194111912
 20
101.2717920630016
 30
0.0
 40
1.220011576012179
 50
180.9276427879976
 51
254.03697783117121
  0
LINE
  5
622F
  8
0
 10
-296.50646171238799
 20
140.05204042443819
 30
0.0
 11
-246.9279432306852
 21
140.0520404244381
 31
0.0
  0
LINE
  5
6230
  8
¤¤¤ß˝u
 10
-265.8547983969421
 20
126.0520404244382
 30
0.0
 11
-287.25896732131008
 21
126.0520404244382
 31
0.0
  0
CIRCLE
  5
6231
  8
0
 10
-276.5064617123881
 20
126.0520404244382
 30
0.0
 40
4.5000000000003668
  0
CIRCLE
  5
6232
  8
0
 10
-276.5064617123881
 20
126.0520404244382
 30
0.0
 40
7.000000000000381
  0
ARC
  5
6233
  8
0
  6
CONTINUOUS
 10
-254.28899605317031
 20
126.0518862806821
 30
0.0
 40
4.0
 50
90.0
 51
210.83520489408579
  0
ARC
  5
6234
  8
0
  6
CONTINUOUS
 10
-242.72300325105209
 20
126.0518862806821
 30
0.0
 40
7.9674339796336771
 50
163.2213499979126
 51
196.7786500020874
  0
LINE
  5
6235
  8
0
  6
CONTINUOUS
 10
-250.69043723068549
 20
122.601886181089
 30
0.0
 11
-250.69043723068549
 21
129.50188638027481
 31
0.0
  0
LINE
  5
6236
  8
0
  6
CONTINUOUS
 10
-258.30582435680873
 20
124.2427790404729
 30
0.0
 11
-252.7279015182512
 21
121.93232775087171
 31
0.0
  0
ARC
  5
6237
  8
0
  6
CONTINUOUS
 10
-258.18474229718981
 20
116.6467228628061
 30
0.0
 40
6.9715047321794721
 50
50.721349997912249
 51
84.278650002089492
  0
LINE
  5
6238
  8
0
  6
CONTINUOUS
 10
-259.13051250559403
 20
120.3736212372195
 30
0.0
 11
-254.88066665604211
 21
118.6132774483401
 31
0.0
  0
LINE
  5
6239
  8
0
  6
CONTINUOUS
 10
-259.10509769801712
 20
122.3131625000845
 30
0.0
 11
-253.52717485945951
 21
120.0027112104832
 31
0.0
  0
ARC
  5
623A
  8
0
  6
CONTINUOUS
 10
-253.64825691907851
 20
127.59876738815009
 30
0.0
 40
6.9715047321794721
 50
230.7213499979122
 51
264.27865000208948
  0
LINE
  5
623B
  8
0
  6
CONTINUOUS
 10
-260.69043723068529
 20
118.7467395940196
 30
0.0
 11
-254.9280123468844
 21
116.3598650549928
 31
0.0
  0
ARC
  5
623C
  8
0
  6
CONTINUOUS
 10
-261.19466335682893
 20
121.2928946536921
 30
0.0
 40
2.0596736098176041
 50
335.84790116505968
 51
45.847901165061721
  0
LINE
  5
623D
  8
0
  6
CONTINUOUS
 10
-260.69043723068529
 20
115.7147436316336
 30
0.0
 11
-260.69043723068529
 21
118.7467395940196
 31
0.0
  0
ARC
  5
623E
  8
0
  6
CONTINUOUS
 10
-257.94665500444489
 20
117.9384972947966
 30
0.0
 40
2.860349020536761
 50
118.5864858262624
 51
163.5864858262625
  0
ARC
  5
623F
  8
0
  6
CONTINUOUS
 10
-259.01537061663669
 20
122.52978283686549
 30
0.0
 40
1.8541337299152461
 50
34.632779998937359
 51
100.3672200010636
  0
LINE
  5
6240
  8
0
  6
CONTINUOUS
 10
-259.92115336074983
 20
122.9724875905596
 30
0.0
 11
-259.34907609223421
 21
124.35360429093549
 31
0.0
  0
ARC
  5
6241
  8
0
  6
CONTINUOUS
 10
-258.39555143818927
 20
124.026158703692
 30
0.0
 40
1.8541337299152461
 50
214.63277999893731
 51
280.36722000106357
  0
LINE
  5
6242
  8
0
  6
CONTINUOUS
 10
-258.0618456405503
 20
122.20233711622809
 30
0.0
 11
-257.48976837203458
 21
123.58345381660379
 31
0.0
  0
ARC
  5
6243
  8
0
  6
CONTINUOUS
 10
-253.43744777807891
 20
120.2193315472644
 30
0.0
 40
1.8541337299152461
 50
34.632779998937359
 51
100.3672200010636
  0
LINE
  5
6244
  8
0
  6
CONTINUOUS
 10
-254.3432308442338
 20
120.6620364343525
 30
0.0
 11
-253.77115357571819
 21
122.0431531347282
 31
0.0
  0
ARC
  5
6245
  8
0
  6
CONTINUOUS
 10
-252.7710671251898
 20
117.8037268505923
 30
0.0
 40
2.0596736098176041
 50
89.152098834939196
 51
159.15209883493981
  0
ARC
  5
6246
  8
0
  6
CONTINUOUS
 10
-257.43967297578013
 20
117.7284984626444
 30
0.0
 40
2.860349020536761
 50
331.41351417373647
 51
16.413514173737429
  0
ARC
  5
6247
  8
0
  6
CONTINUOUS
 10
-252.8176285996316
 20
121.7157074140907
 30
0.0
 40
1.8541337299152461
 50
214.63277999893731
 51
280.36722000106357
  0
LINE
  5
6248
  8
0
  6
CONTINUOUS
 10
-252.4839653760805
 20
119.8918431807502
 30
0.0
 11
-251.9118454827146
 21
121.2730627866174
 31
0.0
  0
LINE
  5
6249
  8
0
  6
CONTINUOUS
 10
-253.15539275252971
 20
122.0518862806821
 30
0.0
 11
-250.61781514267031
 21
122.0518862806821
 31
0.0
  0
LINE
  5
624A
  8
0
  6
CONTINUOUS
 10
-250.35118468857581
 20
121.451886280682
 30
0.0
 11
-246.92794323068529
 21
121.451886280682
 31
0.0
  0
LINE
  5
624B
  8
0
  6
CONTINUOUS
 10
-250.35118468857581
 20
123.75188647986791
 30
0.0
 11
-246.92794323068529
 21
123.75188647986791
 31
0.0
  0
ARC
  5
624C
  8
0
  6
CONTINUOUS
 10
-248.5714272536394
 20
122.601886181089
 30
0.0
 40
2.119009977045994
 50
147.132779998937
 51
212.867220001063
  0
LINE
  5
624D
  8
0
  6
CONTINUOUS
 10
-254.28899605317031
 20
130.05188628068211
 30
0.0
 11
-250.61781514267031
 21
130.05188628068211
 31
0.0
  0
ARC
  5
624E
  8
0
  6
CONTINUOUS
 10
-248.5714272536394
 20
129.50188638027481
 30
0.0
 40
2.119009977045994
 50
147.132779998937
 51
212.867220001063
  0
LINE
  5
624F
  8
0
  6
CONTINUOUS
 10
-250.35118468857581
 20
128.35188608149619
 30
0.0
 11
-246.92794323068529
 21
128.35188608149619
 31
0.0
  0
LINE
  5
6250
  8
0
  6
CONTINUOUS
 10
-250.35118468857581
 20
130.65188628068199
 30
0.0
 11
-246.92794323068529
 21
130.65188628068199
 31
0.0
  0
LINE
  5
6251
  8
0
 10
-247.81227109004379
 20
150.85204042389199
 30
0.0
 11
-247.81227109004379
 21
148.85204042389199
 31
0.0
  0
LINE
  5
6252
  8
0
 10
-247.81227109004379
 20
150.85204042389219
 30
0.0
 11
-247.81227109004379
 21
148.85204042389219
 31
0.0
  0
ARC
  5
6253
  8
0
 10
-246.5924194111916
 20
148.8717920619091
 30
0.0
 40
1.220011576012179
 50
180.9276427879976
 51
254.03697783117121
  0
ARC
  5
6254
  8
0
 10
-246.5924194111912
 20
148.8717920619093
 30
0.0
 40
1.220011576012179
 50
180.9276427879976
 51
254.03697783117121
  0
ARC
  5
6255
  8
0
 10
-246.5924194111912
 20
150.83228878587499
 30
0.0
 40
1.220011576012179
 50
105.9630221688287
 51
179.0723572120024
  0
LINE
  5
6256
  8
0
 10
-96.506461712388159
 20
140.0520404244387
 30
0.0
 11
-96.506461712388159
 21
112.0520404244388
 31
0.0
  0
LINE
  5
6257
  8
¤¤¤ß˝u
 10
-116.5064617123881
 20
114.1658201406198
 30
0.0
 11
-116.5064617123881
 21
138.0274091501135
 31
0.0
  0
LINE
  5
6258
  8
0
 10
-131.22794323068541
 20
155.0518747645971
 30
0.0
 11
-131.22794323068541
 21
97.051874763266369
 31
0.0
  0
LINE
  5
6259
  8
0
 10
-129.52794323068539
 20
155.05188628134749
 30
0.0
 11
-129.52794323068491
 21
97.051886280016575
 31
0.0
  0
LINE
  5
625A
  8
0
 10
-141.72813969129251
 20
171.05204042443859
 30
0.0
 11
-141.72813969129251
 21
81.052040424438346
 31
0.0
  0
LINE
  5
625B
  8
¤¤¤ß˝u
 10
-188.22813969129251
 20
79.852040424438542
 30
0.0
 11
-188.22813969129251
 21
172.05204042443879
 31
0.0
  0
LINE
  5
625C
  8
0
 10
-234.72813969129251
 20
171.05204042443879
 30
0.0
 11
-234.72813969129251
 21
81.052040424438346
 31
0.0
  0
INSERT
  5
625D
  8
0
  2
A$C2DEF36D5
 10
-188.22813969129251
 20
125.95204042443839
 30
0.0
 50
270.0
  0
LINE
  5
625E
  8
0
 10
-141.72813969129251
 20
81.052040424438346
 30
0.0
 11
-234.72813969129251
 21
81.052040424438346
 31
0.0
  0
LINE
  5
625F
  8
0
 10
-234.72813969129251
 20
82.552040424438815
 30
0.0
 11
-141.72813969129251
 21
82.552040424438815
 31
0.0
  0
LINE
  5
6260
  8
0
 10
-234.72813969129251
 20
99.552040424438374
 30
0.0
 11
-141.72813969129251
 21
99.552040424438374
 31
0.0
  0
LINE
  5
6261
  8
0
 10
-234.72813969129251
 20
99.05204042443836
 30
0.0
 11
-141.72813969129251
 21
99.05204042443836
 31
0.0
  0
LINE
  5
6262
  8
¤¤¤ß˝u
 10
-214.22813969129251
 20
96.052040424438374
 30
0.0
 11
-214.22813969129251
 21
84.05204042443836
 31
0.0
  0
LINE
  5
6263
  8
¤¤¤ß˝u
 10
-220.01115750724151
 20
90.052040424438346
 30
0.0
 11
-208.22813969129251
 21
90.052040424438346
 31
0.0
  0
LINE
  5
6264
  8
¤¤¤ß˝u
 10
-162.22813969129251
 20
96.052040424438374
 30
0.0
 11
-162.22813969129251
 21
84.05204042443836
 31
0.0
  0
LINE
  5
6265
  8
¤¤¤ß˝u
 10
-156.3366307833183
 20
90.052040424438346
 30
0.0
 11
-168.1196485992669
 21
90.052040424438346
 31
0.0
  0
LINE
  5
6266
  8
0
 10
-96.506461712388159
 20
112.0520404244386
 30
0.0
 11
-129.52794323068491
 21
112.0520404244386
 31
0.0
  0
ARC
  5
6267
  8
0
 10
-129.863467050179
 20
101.2717920630016
 30
0.0
 40
1.220011576012179
 50
285.96302216882867
 51
359.07235721200237
  0
ARC
  5
6268
  8
0
 10
-129.86346705017939
 20
101.2717920630016
 30
0.0
 40
1.220011576012179
 50
285.96302216882867
 51
359.07235721200237
  0
ARC
  5
6269
  8
0
 10
-129.86346705017939
 20
103.2322887869674
 30
0.0
 40
1.220011576012179
 50
0.9276427879975912
 51
74.036977831171257
  0
LINE
  5
626A
  8
¤¤¤ß˝u
 10
-127.744093434314
 20
102.2520404249845
 30
0.0
 11
-133.4957304086949
 21
102.2520404249845
 31
0.0
  0
LINE
  5
626B
  8
0
 10
-141.72794323068541
 20
97.051803630396662
 30
0.0
 11
-129.52794323068491
 21
97.051886280016575
 31
0.0
  0
LINE
  5
626C
  8
0
 10
-128.6436153713268
 20
103.2520404249844
 30
0.0
 11
-128.6436153713268
 21
101.2520404249845
 31
0.0
  0
LINE
  5
626D
  8
0
 10
-128.6436153713268
 20
103.2520404249845
 30
0.0
 11
-128.6436153713268
 21
101.2520404249845
 31
0.0
  0
LINE
  5
626E
  8
0
 10
-234.72813969129251
 20
119.0520404244382
 30
0.0
 11
-141.72813969129251
 21
119.0520404244382
 31
0.0
  0
LINE
  5
626F
  8
0
 10
-234.72813969129251
 20
118.5520404244383
 30
0.0
 11
-141.72813969129251
 21
118.5520404244383
 31
0.0
  0
LINE
  5
6270
  8
0
 10
-141.72813969129251
 20
171.05204042443859
 30
0.0
 11
-234.72813969129251
 21
171.05204042443879
 31
0.0
  0
LINE
  5
6271
  8
0
 10
-234.72813969129251
 20
169.5520404244389
 30
0.0
 11
-141.72813969129251
 21
169.55204042443859
 31
0.0
  0
LINE
  5
6272
  8
0
 10
-234.72813969129251
 20
153.05204042443879
 30
0.0
 11
-141.72813969129251
 21
153.05204042443879
 31
0.0
  0
LINE
  5
6273
  8
0
 10
-234.72813969129251
 20
152.5520404244383
 30
0.0
 11
-141.72813969129251
 21
152.5520404244383
 31
0.0
  0
LINE
  5
6274
  8
0
 10
-234.72813969129251
 20
133.0520404244383
 30
0.0
 11
-141.72813969129251
 21
133.0520404244383
 31
0.0
  0
LINE
  5
6275
  8
0
 10
-234.72813969129251
 20
133.55204042443819
 30
0.0
 11
-141.72813969129251
 21
133.55204042443819
 31
0.0
  0
LINE
  5
6276
  8
¤¤¤ß˝u
 10
-162.22813969129251
 20
167.9320404244385
 30
0.0
 11
-162.22813969129251
 21
156.17204042443871
 31
0.0
  0
LINE
  5
6277
  8
¤¤¤ß˝u
 10
-214.22813969129251
 20
167.9320404244385
 30
0.0
 11
-214.22813969129251
 21
156.17204042443871
 31
0.0
  0
LINE
  5
6278
  8
¤¤¤ß˝u
 10
-220.10813969129251
 20
162.05204042443839
 30
0.0
 11
-208.348139691293
 21
162.05204042443839
 31
0.0
  0
LINE
  5
6279
  8
¤¤¤ß˝u
 10
-156.34813969129269
 20
162.05204042443839
 30
0.0
 11
-168.10813969129251
 21
162.05204042443839
 31
0.0
  0
LINE
  5
627A
  8
0
 10
-96.506461712388159
 20
140.0520404244387
 30
0.0
 11
-129.52794323068539
 21
140.05204042443859
 31
0.0
  0
CIRCLE
  5
627B
  8
0
 10
-116.5064617123881
 20
126.0966146453667
 30
0.0
 40
7.000000000000381
  0
CIRCLE
  5
627C
  8
0
 10
-116.5064617123881
 20
126.0966146453667
 30
0.0
 40
4.5000000000003668
  0
LINE
  5
627D
  8
¤¤¤ß˝u
 10
-105.8547983969423
 20
126.0520404244382
 30
0.0
 11
-127.25896732131019
 21
126.0520404244382
 31
0.0
  0
ARC
  5
627E
  8
0
 10
-129.86346705017939
 20
150.83228878587499
 30
0.0
 40
1.220011576012179
 50
0.9276427879975912
 51
74.036977831171257
  0
ARC
  5
627F
  8
0
 10
-129.863467050179
 20
148.8717920619091
 30
0.0
 40
1.220011576012179
 50
285.96302216882867
 51
359.07235721200237
  0
ARC
  5
6280
  8
0
 10
-129.86346705017939
 20
148.8717920619093
 30
0.0
 40
1.220011576012179
 50
285.96302216882867
 51
359.07235721200237
  0
LINE
  5
6281
  8
¤¤¤ß˝u
 10
-127.744093434314
 20
149.85204042389211
 30
0.0
 11
-133.4957304086949
 21
149.85204042389211
 31
0.0
  0
LINE
  5
6282
  8
0
 10
-129.52794323068539
 20
155.05188628134749
 30
0.0
 11
-141.72794323068541
 21
155.05180363172749
 31
0.0
  0
LINE
  5
6283
  8
0
 10
-128.6436153713268
 20
150.85204042389199
 30
0.0
 11
-128.6436153713268
 21
148.85204042389199
 31
0.0
  0
LINE
  5
6284
  8
0
 10
-128.6436153713268
 20
150.85204042389219
 30
0.0
 11
-128.6436153713268
 21
148.85204042389219
 31
0.0
  0
ENDSEC
  0
EOF
