  0
SECTION
  2
HEADER
  9
$ACADVER
  1
AC1015
  9
$ACADMAINTVER
 70
    11
  9
$DWGCODEPAGE
  3
ANSI_950
  9
$INSBASE
 10
0.0
 20
0.0
 30
0.0
  9
$EXTMIN
 10
-133.4128829491789
 20
195.4751733778192
 30
0.0
  9
$EXTMAX
 10
357.7382936436124
 20
519.5964587295867
 30
3.0
  9
$LIMMIN
 10
-10.0
 20
-15.0
  9
$LIMMAX
 10
120.0
 20
90.0
  9
$ORTHOMODE
 70
     1
  9
$REGENMODE
 70
     0
  9
$FILLMODE
 70
     1
  9
$QTEXTMODE
 70
     0
  9
$MIRRTEXT
 70
     0
  9
$LTSCALE
 40
3.0
  9
$ATTMODE
 70
     1
  9
$TEXTSIZE
 40
3.0
  9
$TRACEWID
 40
1.0
  9
$TEXTSTYLE
  7
STANDARD
  9
$CLAYER
  8
0
  9
$CELTYPE
  6
ByLayer
  9
$CECOLOR
 62
   256
  9
$CELTSCALE
 40
1.0
  9
$DISPSILH
 70
     0
  9
$DIMSCALE
 40
1.0
  9
$DIMASZ
 40
3.0
  9
$DIMEXO
 40
1.0
  9
$DIMDLI
 40
6.0
  9
$DIMRND
 40
0.0
  9
$DIMDLE
 40
0.0
  9
$DIMEXE
 40
1.0
  9
$DIMTP
 40
0.0
  9
$DIMTM
 40
0.0
  9
$DIMTXT
 40
3.0
  9
$DIMCEN
 40
1.5
  9
$DIMTSZ
 40
0.0
  9
$DIMTOL
 70
     0
  9
$DIMLIM
 70
     0
  9
$DIMTIH
 70
     1
  9
$DIMTOH
 70
     1
  9
$DIMSE1
 70
     0
  9
$DIMSE2
 70
     0
  9
$DIMTAD
 70
     0
  9
$DIMZIN
 70
     0
  9
$DIMBLK
  1

  9
$DIMASO
 70
     1
  9
$DIMSHO
 70
     0
  9
$DIMPOST
  1

  9
$DIMAPOST
  1

  9
$DIMALT
 70
     0
  9
$DIMALTD
 70
     2
  9
$DIMALTF
 40
25.4
  9
$DIMLFAC
 40
1.0
  9
$DIMTOFL
 70
     1
  9
$DIMTVP
 40
0.0
  9
$DIMTIX
 70
     0
  9
$DIMSOXD
 70
     0
  9
$DIMSAH
 70
     0
  9
$DIMBLK1
  1

  9
$DIMBLK2
  1

  9
$DIMSTYLE
  2
Standard
  9
$DIMCLRD
 70
     0
  9
$DIMCLRE
 70
     0
  9
$DIMCLRT
 70
     0
  9
$DIMTFAC
 40
1.0
  9
$DIMGAP
 40
0.09
  9
$DIMJUST
 70
     0
  9
$DIMSD1
 70
     0
  9
$DIMSD2
 70
     0
  9
$DIMTOLJ
 70
     1
  9
$DIMTZIN
 70
     0
  9
$DIMALTZ
 70
     0
  9
$DIMALTTZ
 70
     0
  9
$DIMUPT
 70
     0
  9
$DIMDEC
 70
     4
  9
$DIMTDEC
 70
     8
  9
$DIMALTU
 70
     2
  9
$DIMALTTD
 70
     2
  9
$DIMTXSTY
  7
STANDARD
  9
$DIMAUNIT
 70
     0
  9
$DIMADEC
 70
     0
  9
$DIMALTRND
 40
0.0
  9
$DIMAZIN
 70
     0
  9
$DIMDSEP
 70
    46
  9
$DIMATFIT
 70
     3
  9
$DIMFRAC
 70
     0
  9
$DIMLDRBLK
  1

  9
$DIMLUNIT
 70
     2
  9
$DIMLWD
 70
    -2
  9
$DIMLWE
 70
    -2
  9
$DIMTMOVE
 70
     2
  9
$LUNITS
 70
     2
  9
$LUPREC
 70
     4
  9
$SKETCHINC
 40
0.5
  9
$FILLETRAD
 40
0.0
  9
$AUNITS
 70
     0
  9
$AUPREC
 70
     0
  9
$MENU
  1
ACAD
  9
$ELEVATION
 40
0.0
  9
$PELEVATION
 40
0.0
  9
$THICKNESS
 40
0.0
  9
$LIMCHECK
 70
     0
  9
$CHAMFERA
 40
0.0
  9
$CHAMFERB
 40
0.0
  9
$CHAMFERC
 40
0.0
  9
$CHAMFERD
 40
0.0
  9
$SKPOLY
 70
     0
  9
$TDCREATE
 40
2444975.333333333
  9
$TDUCREATE
 40
2444974.999999999
  9
$TDUPDATE
 40
2453022.600136898
  9
$TDUUPDATE
 40
2453022.266803565
  9
$TDINDWG
 40
0.0466753588
  9
$TDUSRTIMER
 40
0.0000000000
  9
$USRTIMER
 70
     0
  9
$ANGBASE
 50
0.0
  9
$ANGDIR
 70
     0
  9
$PDMODE
 70
   171
  9
$PDSIZE
 40
0.001
  9
$PLINEWID
 40
0.0
  9
$SPLFRAME
 70
     0
  9
$SPLINETYPE
 70
     6
  9
$SPLINESEGS
 70
     8
  9
$HANDSEED
  5
6A03
  9
$SURFTAB1
 70
     6
  9
$SURFTAB2
 70
     6
  9
$SURFTYPE
 70
     6
  9
$SURFU
 70
     6
  9
$SURFV
 70
     6
  9
$UCSBASE
  2

  9
$UCSNAME
  2

  9
$UCSORG
 10
0.0
 20
0.0
 30
0.0
  9
$UCSXDIR
 10
1.0
 20
0.0
 30
0.0
  9
$UCSYDIR
 10
0.0
 20
1.0
 30
0.0
  9
$UCSORTHOREF
  2

  9
$UCSORTHOVIEW
 70
     0
  9
$UCSORGTOP
 10
0.0
 20
0.0
 30
0.0
  9
$UCSORGBOTTOM
 10
0.0
 20
0.0
 30
0.0
  9
$UCSORGLEFT
 10
0.0
 20
0.0
 30
0.0
  9
$UCSORGRIGHT
 10
0.0
 20
0.0
 30
0.0
  9
$UCSORGFRONT
 10
0.0
 20
0.0
 30
0.0
  9
$UCSORGBACK
 10
0.0
 20
0.0
 30
0.0
  9
$PUCSBASE
  2

  9
$PUCSNAME
  2

  9
$PUCSORG
 10
0.0
 20
0.0
 30
0.0
  9
$PUCSXDIR
 10
1.0
 20
0.0
 30
0.0
  9
$PUCSYDIR
 10
0.0
 20
1.0
 30
0.0
  9
$PUCSORTHOREF
  2

  9
$PUCSORTHOVIEW
 70
     0
  9
$PUCSORGTOP
 10
0.0
 20
0.0
 30
0.0
  9
$PUCSORGBOTTOM
 10
0.0
 20
0.0
 30
0.0
  9
$PUCSORGLEFT
 10
0.0
 20
0.0
 30
0.0
  9
$PUCSORGRIGHT
 10
0.0
 20
0.0
 30
0.0
  9
$PUCSORGFRONT
 10
0.0
 20
0.0
 30
0.0
  9
$PUCSORGBACK
 10
0.0
 20
0.0
 30
0.0
  9
$USERI1
 70
     0
  9
$USERI2
 70
     0
  9
$USERI3
 70
     0
  9
$USERI4
 70
     0
  9
$USERI5
 70
     0
  9
$USERR1
 40
0.0
  9
$USERR2
 40
0.0
  9
$USERR3
 40
0.0
  9
$USERR4
 40
0.0
  9
$USERR5
 40
0.0
  9
$WORLDVIEW
 70
     1
  9
$SHADEDGE
 70
     3
  9
$SHADEDIF
 70
    70
  9
$TILEMODE
 70
     1
  9
$MAXACTVP
 70
    48
  9
$PINSBASE
 10
0.0
 20
0.0
 30
0.0
  9
$PLIMCHECK
 70
     0
  9
$PEXTMIN
 10
1.000000000000000E+20
 20
1.000000000000000E+20
 30
1.000000000000000E+20
  9
$PEXTMAX
 10
-1.000000000000000E+20
 20
-1.000000000000000E+20
 30
-1.000000000000000E+20
  9
$PLIMMIN
 10
0.0
 20
0.0
  9
$PLIMMAX
 10
12.0
 20
9.0
  9
$UNITMODE
 70
     0
  9
$VISRETAIN
 70
     1
  9
$PLINEGEN
 70
     0
  9
$PSLTSCALE
 70
     0
  9
$TREEDEPTH
 70
  3020
  9
$CMLSTYLE
  2
Standard
  9
$CMLJUST
 70
     0
  9
$CMLSCALE
 40
1.0
  9
$PROXYGRAPHICS
 70
     1
  9
$MEASUREMENT
 70
     0
  9
$CELWEIGHT
370
    -1
  9
$ENDCAPS
280
     0
  9
$JOINSTYLE
280
     0
  9
$LWDISPLAY
290
     0
  9
$INSUNITS
 70
     0
  9
$HYPERLINKBASE
  1

  9
$STYLESHEET
  1

  9
$XEDIT
290
     1
  9
$CEPSNTYPE
380
     0
  9
$PSTYLEMODE
290
     1
  9
$FINGERPRINTGUID
  2
{77095E5F-9CE7-11D7-970D-0040F4541FA8}
  9
$VERSIONGUID
  2
{5E5D261E-2119-473E-B8B9-C1191D9B33F1}
  9
$EXTNAMES
290
     1
  9
$PSVPSCALE
 40
0.0
  9
$OLESTARTUP
290
     0
  0
ENDSEC
  0
SECTION
  2
CLASSES
  0
CLASS
  1
ACDBDICTIONARYWDFLT
  2
AcDbDictionaryWithDefault
  3
AutoCAD 2000
 90
        0
280
     0
281
     0
  0
CLASS
  1
ACDBPLACEHOLDER
  2
AcDbPlaceHolder
  3
AutoCAD 2000
 90
        0
280
     0
281
     0
  0
CLASS
  1
LAYOUT
  2
AcDbLayout
  3
AutoCAD 2000
 90
        0
280
     0
281
     0
  0
CLASS
  1
LONG_TRANSACTION
  2
AcDbLongTransaction
  3
AutoCAD 2000
 90
    32768
280
     0
281
     0
  0
CLASS
  1
LWPOLYLINE
  2
AcDbPolyline
  3
AutoCAD 2000
 90
    32768
280
     0
281
     1
  0
CLASS
  1
HATCH
  2
AcDbHatch
  3
AutoCAD 2000
 90
    32768
280
     0
281
     1
  0
CLASS
  1
XRECORD
  2
AcDbXrecord
  3
AutoCAD 2000
 90
    32768
280
     0
281
     0
  0
CLASS
  1
LONG_TRANSACTION
  2
AcDbLongTransaction
  3
AutoCAD 2000
 90
    32768
280
     0
281
     0
  0
CLASS
  1
LWPOLYLINE
  2
AcDbPolyline
  3
AutoCAD 2000
 90
    32768
280
     0
281
     1
  0
CLASS
  1
HATCH
  2
AcDbHatch
  3
AutoCAD 2000
 90
    32768
280
     0
281
     1
  0
CLASS
  1
XRECORD
  2
AcDbXrecord
  3
AutoCAD 2000
 90
    32768
280
     0
281
     0
  0
CLASS
  1
DICTIONARYVAR
  2
AcDbDictionaryVar
  3
AutoCAD 2000
 90
        0
280
     0
281
     0
  0
CLASS
  1
PLOTSETTINGS
  2
AcDbPlotSettings
  3
AutoCAD 2000
 90
        0
280
     0
281
     0
  0
ENDSEC
  0
SECTION
  2
TABLES
  0
TABLE
  2
VPORT
  5
8
330
0
100
AcDbSymbolTable
 70
     2
  0
VPORT
  5
69E1
330
8
100
AcDbSymbolTableRecord
100
AcDbViewportTableRecord
  2
*Active
 70
     0
 10
0.0
 20
0.0
 11
1.0
 21
1.0
 12
112.1738729857848
 22
357.5311045179582
 13
457.9999999999997
 23
1082.0
 14
10.0
 24
10.0
 15
10.0
 25
10.0
 16
0.0
 26
0.0
 36
1.0
 17
0.0
 27
0.0
 37
0.0
 40
328.267868761028
 41
1.936974789915966
 42
1.0
 43
0.0
 44
0.0
 50
0.0
 51
0.0
 71
     0
 72
   100
 73
     1
 74
     1
 75
     0
 76
     0
 77
     0
 78
     0
281
     0
 65
     1
110
0.0
120
0.0
130
0.0
111
1.0
121
0.0
131
0.0
112
0.0
122
1.0
132
0.0
 79
     0
146
0.0
  0
ENDTAB
  0
TABLE
  2
LTYPE
  5
5
330
0
100
AcDbSymbolTable
 70
     5
  0
LTYPE
  5
13
330
5
100
AcDbSymbolTableRecord
100
AcDbLinetypeTableRecord
  2
ByBlock
 70
     0
  3

 72
    65
 73
     0
 40
0.0
  0
LTYPE
  5
14
330
5
100
AcDbSymbolTableRecord
100
AcDbLinetypeTableRecord
  2
ByLayer
 70
     0
  3

 72
    65
 73
     0
 40
0.0
  0
LTYPE
  5
15
330
5
100
AcDbSymbolTableRecord
100
AcDbLinetypeTableRecord
  2
CONTINUOUS
 70
     0
  3
連續線 ________________________
 72
    65
 73
     2
 40
200000.0
 49
200000.0
 74
     0
 49
0.0
 74
     0
  0
LTYPE
  5
225
330
5
100
AcDbSymbolTableRecord
100
AcDbLinetypeTableRecord
  2
BYBLOCK
 70
     0
  3
Solid line
 72
    65
 73
     0
 40
0.0
  0
LTYPE
  5
226
330
5
100
AcDbSymbolTableRecord
100
AcDbLinetypeTableRecord
  2
BYLAYER
 70
     0
  3
Solid line
 72
    65
 73
     0
 40
0.0
  0
LTYPE
  5
413C
330
5
100
AcDbSymbolTableRecord
100
AcDbLinetypeTableRecord
  2
CENTER2
 70
     0
  3
Center (.5x) ___ _ ___ _ ___ _ ___ _ ___ _ ___
 72
    65
 73
     4
 40
28.57499999999999
 49
19.05
 74
     0
 49
-3.174999999999999
 74
     0
 49
3.174999999999999
 74
     0
 49
-3.174999999999999
 74
     0
  0
LTYPE
  5
413D
330
5
100
AcDbSymbolTableRecord
100
AcDbLinetypeTableRecord
  2
DASHED2
 70
     0
  3
Dashed (.5x) _ _ _ _ _ _ _ _ _ _ _ _ _ _ _ _ _
 72
    65
 73
     2
 40
9.524999999999998
 49
6.349999999999999
 74
     0
 49
-3.174999999999999
 74
     0
  0
ENDTAB
  0
TABLE
  2
LAYER
  5
2
102
{ACAD_XDICTIONARY
360
43C2
102
}
330
0
100
AcDbSymbolTable
 70
     7
  0
LAYER
  5
10
330
2
100
AcDbSymbolTableRecord
100
AcDbLayerTableRecord
  2
0
 70
     0
 62
     7
  6
CONTINUOUS
370
    -3
390
F
  0
LAYER
  5
413E
330
2
100
AcDbSymbolTableRecord
100
AcDbLayerTableRecord
  2
指線
 70
     0
 62
     3
  6
CONTINUOUS
370
    15
390
F
  0
LAYER
  5
413F
330
2
100
AcDbSymbolTableRecord
100
AcDbLayerTableRecord
  2
中心線
 70
     0
 62
     4
  6
CENTER2
370
    20
390
F
  0
LAYER
  5
4140
330
2
100
AcDbSymbolTableRecord
100
AcDbLayerTableRecord
  2
虛線
 70
     0
 62
     6
  6
DASHED2
290
     0
370
    -3
390
F
  0
LAYER
  5
43B4
330
2
100
AcDbSymbolTableRecord
100
AcDbLayerTableRecord
  2
建構線
 70
     0
 62
     1
  6
CONTINUOUS
370
    -3
390
F
  0
LAYER
  5
6293
330
2
100
AcDbSymbolTableRecord
100
AcDbLayerTableRecord
  2
AM4
 70
     0
 62
     3
  6
CONTINUOUS
370
    15
390
F
  0
LAYER
  5
6294
330
2
100
AcDbSymbolTableRecord
100
AcDbLayerTableRecord
  2
AM7
 70
     0
 62
     4
  6
CENTER2
370
    20
390
F
  0
ENDTAB
  0
TABLE
  2
STYLE
  5
3
330
0
100
AcDbSymbolTable
 70
     1
  0
STYLE
  5
11
330
3
100
AcDbSymbolTableRecord
100
AcDbTextStyleTableRecord
  2
STANDARD
 70
     0
 40
0.0
 41
1.0
 50
0.0
 71
     0
 42
3.0
  3

  4

  0
ENDTAB
  0
TABLE
  2
VIEW
  5
6
330
0
100
AcDbSymbolTable
 70
     0
  0
ENDTAB
  0
TABLE
  2
UCS
  5
7
330
0
100
AcDbSymbolTable
 70
     0
  0
ENDTAB
  0
TABLE
  2
APPID
  5
9
330
0
100
AcDbSymbolTable
 70
     5
  0
APPID
  5
12
330
9
100
AcDbSymbolTableRecord
100
AcDbRegAppTableRecord
  2
ACAD
 70
     0
  0
APPID
  5
230
330
9
100
AcDbSymbolTableRecord
100
AcDbRegAppTableRecord
  2
TCAD
 70
     0
  0
APPID
  5
4142
330
9
100
AcDbSymbolTableRecord
100
AcDbRegAppTableRecord
  2
CONTENTBLOCKICON
 70
     0
  0
APPID
  5
5A4E
330
9
100
AcDbSymbolTableRecord
100
AcDbRegAppTableRecord
  2
pntflag
 70
     0
  0
APPID
  5
5E9C
330
9
100
AcDbSymbolTableRecord
100
AcDbRegAppTableRecord
  2
CONTENTBLOCKDESCRIPTION
 70
     0
  0
ENDTAB
  0
TABLE
  2
DIMSTYLE
  5
A
330
0
100
AcDbSymbolTable
 70
     1
100
AcDbDimStyleTable
 71
     0
  0
DIMSTYLE
105
3C9D
330
A
100
AcDbSymbolTableRecord
100
AcDbDimStyleTableRecord
  2
Standard
 70
     0
340
11
  0
ENDTAB
  0
TABLE
  2
BLOCK_RECORD
  5
1
330
0
100
AcDbSymbolTable
 70
     1
  0
BLOCK_RECORD
  5
1E
102
{ACAD_XDICTIONARY
360
3D1E
102
}
330
1
100
AcDbSymbolTableRecord
100
AcDbBlockTableRecord
  2
*Model_Space
340
21
  0
BLOCK_RECORD
  5
1A
102
{ACAD_XDICTIONARY
360
3D20
102
}
330
1
100
AcDbSymbolTableRecord
100
AcDbBlockTableRecord
  2
*Paper_Space
340
1D
  0
BLOCK_RECORD
  5
6169
330
1
100
AcDbSymbolTableRecord
100
AcDbBlockTableRecord
  2
HGW55CC_F
340
0
  0
ENDTAB
  0
ENDSEC
  0
SECTION
  2
BLOCKS
  0
BLOCK
  5
254
330
1E
100
AcDbEntity
  8
0
100
AcDbBlockBegin
  2
*Model_Space
 70
     0
 10
0.0
 20
0.0
 30
0.0
  3
*Model_Space
  1

  0
ENDBLK
  5
255
330
1E
100
AcDbEntity
  8
0
100
AcDbBlockEnd
  0
BLOCK
  5
252
330
1A
100
AcDbEntity
 67
     1
  8
0
100
AcDbBlockBegin
  2
*Paper_Space
 70
     0
 10
0.0
 20
0.0
 30
0.0
  3
*Paper_Space
  1

  0
ENDBLK
  5
253
330
1A
100
AcDbEntity
 67
     1
  8
0
100
AcDbBlockEnd
  0
BLOCK
  5
61A5
330
6169
100
AcDbEntity
  8
0
100
AcDbBlockBegin
  2
HGW55CC_F
 70
     0
 10
0.0
 20
0.0
 30
0.0
  3
HGW55CC_F
  1

  0
LWPOLYLINE
  5
616A
330
6169
100
AcDbEntity
  8
0
 48
0.27
100
AcDbPolyline
 90
       73
 70
     0
 43
0.0
 38
3.0
 10
56.78972799999991
 20
31.96805602201607
 10
56.78005052229195
 20
31.85061124182002
 10
56.75209053496036
 20
31.67339708578177
 10
56.73928017544756
 20
31.60220804438413
 10
56.68715151086337
 20
31.32624367206395
 10
56.6395236885295
 20
31.07198563395144
 10
56.55732589345166
 20
30.58852748158554
 10
56.48079612062872
 20
30.02128554754034
 10
56.459681676353
 20
29.81962766929089
 10
56.4306616496612
 20
29.46989632641416
 10
56.40411592742447
 20
29.13053551786396
 10
56.34597089126725
 20
28.42837498494964
 10
56.21938190157357
 20
27.0548532770897
 10
55.96978327340605
 20
24.77325129628033
 10
55.65843533108807
 20
22.43453123065427
 10
55.54139882581143
 20
21.65669494133553
 10
55.15812753731541
 20
19.38892563691095
 10
54.815998399553
 20
17.64889484173304
 10
54.51834380008619
 20
16.30169919252878
 10
54.13827061790261
 20
14.76221189553334
 10
53.81043603029957
 20
13.57270689412698
 10
53.36308111342771
 20
12.12300535019898
 10
52.97523652612103
 20
11.00772852868695
 10
52.45583968234638
 20
9.691519500451789
 10
52.32073617055681
 20
9.379495645265734
 10
52.25111772290199
 20
9.225277414186763
 10
52.14938802321729
 20
9.038104133140137
 10
51.90361290133427
 20
8.706614111223672
 10
51.67782457262052
 20
8.483176275681017
 10
51.3472969039293
 20
8.234467431374639
 10
50.90440661905393
 20
7.991670185107381
 10
50.53683161264086
 20
7.841589668331181
 10
50.0014607685954
 20
7.679134673158017
 10
49.23615732674557
 20
7.528322108563315
 10
48.4419628018399
 20
7.441422626209572
 10
47.81600192750363
 20
7.411706371784561
 10
46.96258777914557
 20
7.418557259751196
 10
46.30304328950546
 20
7.463004097404876
 10
45.48459078585494
 20
7.574176680189793
 10
44.86801893852685
 20
7.713826482675443
 10
44.31621765227248
 20
7.896815844523871
 10
43.91450147059237
 20
8.081237195603847
 10
43.62105106205899
 20
8.255518647328557
 10
43.27981298549514
 20
8.521010270666607
 10
43.04600439886587
 20
8.765078761135924
 10
42.82251410555619
 20
9.08562997792751
 10
42.74099158058544
 20
9.241837262970676
 10
42.6718137077919
 20
9.396392587534279
 10
42.15623363901005
 20
10.65626435293975
 10
41.64201091339828
 20
12.10749289900431
 10
41.28441793670299
 20
13.24954834773584
 10
40.83436798237005
 20
14.86525883507482
 10
40.35739119581563
 20
16.84590313529332
 10
40.0318463346191
 20
18.3961118973705
 10
39.62871618135613
 20
20.60154101493754
 10
39.27791080060512
 20
22.878307516039
 10
39.17394643406811
 20
23.63900823076841
 10
38.91403252223119
 20
25.77800636339787
 10
38.69333147970718
 20
27.98125244951734
 10
38.62963765937718
 20
28.71653919408931
 10
38.57734920151824
 20
29.36612088949954
 10
38.55292739687195
 20
29.67995016218214
 10
38.52364199494422
 20
29.98181299140182
 10
38.45956691886897
 20
30.47767222684038
 10
38.38515453516976
 20
30.93478742364155
 10
38.36026807137869
 20
31.07312252590478
 10
38.29968599275059
 20
31.39612569186275
 10
38.25424850027264
 20
31.63901386289134
 10
38.22237902734878
 20
31.83220625310517
 10
38.21596984338771
 20
31.88299247679054
 10
38.21094977103427
 20
31.98874635061628
 10
38.22138047293805
 20
32.03001282976131
 10
38.23222395527932
 20
32.03677791735813
  0
LINE
  5
616B
330
6169
100
AcDbEntity
  8
0
 48
0.27
100
AcDbLine
 10
58.5
 20
57.00000000000009
 30
0.0
 11
58.5
 21
-0.0000000000000142
 31
0.0
  0
LINE
  5
616C
330
6169
100
AcDbEntity
  8
0
 48
0.27
100
AcDbLine
 10
77.5
 20
55.5
 30
0.0
 11
77.5
 21
0.0
 31
0.0
  0
LINE
  5
616D
330
6169
100
AcDbEntity
  8
中心線
 48
0.27
100
AcDbLine
 10
47.50000000000006
 20
28.95809790268344
 30
3.0
 11
47.50000000000006
 21
59.0
 31
0.0
  0
LWPOLYLINE
  5
616E
330
6169
100
AcDbEntity
  8
0
 48
0.27
100
AcDbPolyline
 90
       73
 70
     0
 43
0.0
 38
3.0
 10
-56.78972799999991
 20
31.96805602201607
 10
-56.78005052229195
 20
31.85061124182002
 10
-56.75209053496036
 20
31.67339708578177
 10
-56.73928017544756
 20
31.60220804438413
 10
-56.68715151086337
 20
31.32624367206395
 10
-56.6395236885295
 20
31.07198563395144
 10
-56.55732589345166
 20
30.58852748158554
 10
-56.48079612062872
 20
30.02128554754034
 10
-56.459681676353
 20
29.81962766929089
 10
-56.4306616496612
 20
29.46989632641416
 10
-56.40411592742447
 20
29.13053551786396
 10
-56.34597089126725
 20
28.42837498494964
 10
-56.21938190157357
 20
27.0548532770897
 10
-55.96978327340605
 20
24.77325129628033
 10
-55.65843533108807
 20
22.43453123065427
 10
-55.54139882581143
 20
21.65669494133553
 10
-55.15812753731541
 20
19.38892563691095
 10
-54.815998399553
 20
17.64889484173304
 10
-54.51834380008619
 20
16.30169919252878
 10
-54.13827061790261
 20
14.76221189553334
 10
-53.81043603029957
 20
13.57270689412698
 10
-53.36308111342771
 20
12.12300535019898
 10
-52.97523652612103
 20
11.00772852868695
 10
-52.45583968234638
 20
9.691519500451789
 10
-52.32073617055681
 20
9.379495645265734
 10
-52.25111772290199
 20
9.225277414186763
 10
-52.14938802321729
 20
9.038104133140137
 10
-51.90361290133427
 20
8.706614111223672
 10
-51.67782457262052
 20
8.483176275681017
 10
-51.3472969039293
 20
8.234467431374639
 10
-50.90440661905393
 20
7.991670185107381
 10
-50.53683161264086
 20
7.841589668331181
 10
-50.0014607685954
 20
7.679134673158017
 10
-49.23615732674557
 20
7.528322108563315
 10
-48.4419628018399
 20
7.441422626209572
 10
-47.81600192750363
 20
7.411706371784561
 10
-46.96258777914557
 20
7.418557259751196
 10
-46.30304328950546
 20
7.463004097404876
 10
-45.48459078585494
 20
7.574176680189793
 10
-44.86801893852685
 20
7.713826482675443
 10
-44.31621765227248
 20
7.896815844523871
 10
-43.91450147059237
 20
8.081237195603847
 10
-43.62105106205899
 20
8.255518647328557
 10
-43.27981298549514
 20
8.521010270666607
 10
-43.04600439886587
 20
8.765078761135924
 10
-42.82251410555619
 20
9.08562997792751
 10
-42.74099158058544
 20
9.241837262970676
 10
-42.6718137077919
 20
9.396392587534279
 10
-42.15623363901005
 20
10.65626435293975
 10
-41.64201091339828
 20
12.10749289900431
 10
-41.28441793670299
 20
13.24954834773584
 10
-40.83436798237005
 20
14.86525883507482
 10
-40.35739119581563
 20
16.84590313529332
 10
-40.0318463346191
 20
18.3961118973705
 10
-39.62871618135613
 20
20.60154101493754
 10
-39.27791080060512
 20
22.878307516039
 10
-39.17394643406811
 20
23.63900823076841
 10
-38.91403252223119
 20
25.77800636339787
 10
-38.69333147970718
 20
27.98125244951734
 10
-38.62963765937718
 20
28.71653919408931
 10
-38.57734920151824
 20
29.36612088949954
 10
-38.55292739687195
 20
29.67995016218214
 10
-38.52364199494422
 20
29.98181299140182
 10
-38.45956691886897
 20
30.47767222684038
 10
-38.38515453516976
 20
30.93478742364155
 10
-38.36026807137869
 20
31.07312252590478
 10
-38.29968599275059
 20
31.39612569186275
 10
-38.25424850027264
 20
31.63901386289134
 10
-38.22237902734878
 20
31.83220625310517
 10
-38.21596984338771
 20
31.88299247679054
 10
-38.21094977103427
 20
31.98874635061628
 10
-38.22138047293805
 20
32.03001282976131
 10
-38.23222395527932
 20
32.03677791735813
  0
LINE
  5
616F
330
6169
100
AcDbEntity
  8
0
 48
0.27
100
AcDbLine
 10
-58.5
 20
57.00000000000009
 30
0.0
 11
-58.5
 21
-0.0000000000000142
 31
0.0
  0
LINE
  5
6170
330
6169
100
AcDbEntity
  8
0
 48
0.27
100
AcDbLine
 10
-77.5
 20
0.0
 30
0.0
 11
-77.5
 21
55.5
 31
0.0
  0
LINE
  5
6171
330
6169
100
AcDbEntity
  8
中心線
 48
0.27
100
AcDbLine
 10
-47.5
 20
28.95809790268344
 30
3.0
 11
-47.5
 21
59.0
 31
0.0
  0
LINE
  5
6172
330
6169
100
AcDbEntity
  8
0
 48
0.27
100
AcDbLine
 10
-58.5
 20
-0.0000000000000142
 30
0.0
 11
58.5
 21
0.0
 31
0.0
  0
LINE
  5
6173
330
6169
100
AcDbEntity
  8
0
 48
0.27
100
AcDbLine
 10
77.5
 20
3.000000000000013
 30
0.0
 11
-77.5
 21
3.0
 31
0.0
  0
LINE
  5
6174
330
6169
100
AcDbEntity
  8
0
 48
0.27
100
AcDbLine
 10
-38.4553899718137
 20
30.50333120832013
 30
0.0
 11
38.4553899718137
 21
30.50333120832013
 31
0.0
  0
LINE
  5
6175
330
6169
100
AcDbEntity
  8
0
 48
0.27
100
AcDbLine
 10
-58.5
 20
0.0
 30
0.0
 11
-77.5
 21
0.0
 31
0.0
  0
LINE
  5
6176
330
6169
100
AcDbEntity
  8
0
 48
0.27
100
AcDbLine
 10
-58.50000000000005
 20
30.50333120832013
 30
0.0
 11
-56.5458315890869
 21
30.50333120832013
 31
0.0
  0
LINE
  5
6177
330
6169
100
AcDbEntity
  8
0
 48
0.27
100
AcDbLine
 10
58.5
 20
0.0
 30
0.0
 11
77.5
 21
0.0
 31
0.0
  0
LINE
  5
6178
330
6169
100
AcDbEntity
  8
0
 48
0.27
100
AcDbLine
 10
56.5458315890869
 20
30.50333120832013
 30
0.0
 11
58.5
 21
30.50333120832013
 31
0.0
  0
LINE
  5
6179
330
6169
100
AcDbEntity
  8
0
 48
0.27
100
AcDbLine
 10
-58.5
 20
57.00000000000006
 30
0.0
 11
58.5
 21
57.00000000000006
 31
0.0
  0
LINE
  5
617A
330
6169
100
AcDbEntity
  8
0
 48
0.27
100
AcDbLine
 10
-58.5
 20
55.05337945734737
 30
0.0
 11
58.50000000000005
 21
55.05337945734737
 31
0.0
  0
LINE
  5
617B
330
6169
100
AcDbEntity
  8
中心線
 48
0.27
100
AcDbLine
 10
-74.36465942818142
 20
38.0
 30
0.0
 11
-64.63534057181857
 21
38.0
 31
0.0
  0
LINE
  5
617C
330
6169
100
AcDbEntity
  8
0
 48
0.27
100
AcDbLine
 10
-58.5
 20
55.5
 30
0.0
 11
-77.5
 21
55.5
 31
0.0
  0
LINE
  5
617D
330
6169
100
AcDbEntity
  8
0
 48
0.27
100
AcDbLine
 10
-58.5
 20
52.5
 30
0.0
 11
-77.5
 21
52.5
 31
0.0
  0
CIRCLE
  5
617E
330
6169
100
AcDbEntity
  8
0
 48
0.27
100
AcDbCircle
 10
-69.5
 20
38.0
 30
0.0
 40
3.9375
  0
CIRCLE
  5
617F
330
6169
100
AcDbEntity
  8
0
 48
0.27
100
AcDbCircle
 10
-69.5
 20
38.0
 30
0.0
 40
4.25
  0
CIRCLE
  5
6180
330
6169
100
AcDbEntity
  8
0
 48
0.27
100
AcDbCircle
 10
-69.5
 20
38.0
 30
0.0
 40
4.549999999999999
  0
LINE
  5
6181
330
6169
100
AcDbEntity
  8
中心線
 48
0.27
100
AcDbLine
 10
-69.5
 20
33.13534057181857
 30
0.0
 11
-69.5
 21
42.86465942818142
 31
0.0
  0
CIRCLE
  5
6182
330
6169
100
AcDbEntity
  8
0
 48
0.27
100
AcDbCircle
 10
-69.5
 20
38.0
 30
0.0
 40
0.75
  0
LINE
  5
6183
330
6169
100
AcDbEntity
  8
中心線
 48
0.27
100
AcDbLine
 10
64.63534057181857
 20
38.0
 30
0.0
 11
74.36465942818142
 21
38.0
 31
0.0
  0
LINE
  5
6184
330
6169
100
AcDbEntity
  8
0
 48
0.27
100
AcDbLine
 10
58.5
 20
52.5
 30
0.0
 11
77.5
 21
52.5
 31
0.0
  0
LINE
  5
6185
330
6169
100
AcDbEntity
  8
0
 48
0.27
100
AcDbLine
 10
58.5
 20
55.5
 30
0.0
 11
77.5
 21
55.5
 31
0.0
  0
CIRCLE
  5
6186
330
6169
100
AcDbEntity
  8
0
 48
0.27
100
AcDbCircle
 10
69.5
 20
38.0
 30
0.0
 40
3.9375
  0
CIRCLE
  5
6187
330
6169
100
AcDbEntity
  8
0
 48
0.27
100
AcDbCircle
 10
69.5
 20
38.0
 30
0.0
 40
4.25
  0
CIRCLE
  5
6188
330
6169
100
AcDbEntity
  8
0
 48
0.27
100
AcDbCircle
 10
69.5
 20
38.0
 30
0.0
 40
0.75
  0
CIRCLE
  5
6189
330
6169
100
AcDbEntity
  8
0
 48
0.27
100
AcDbCircle
 10
69.5
 20
38.0
 30
0.0
 40
4.549999999999999
  0
LINE
  5
618A
330
6169
100
AcDbEntity
  8
中心線
 48
0.27
100
AcDbLine
 10
69.5
 20
33.13534057181857
 30
0.0
 11
69.5
 21
42.86465942818142
 31
0.0
  0
LINE
  5
618B
330
6169
100
AcDbEntity
  8
虛線
 48
0.27
100
AcDbLine
 10
-54.5
 20
55.5
 30
3.0
 11
-56.0
 21
57.00000000000006
 31
3.0
  0
LINE
  5
618C
330
6169
100
AcDbEntity
  8
虛線
 48
0.27
100
AcDbLine
 10
-54.5
 20
41.70000000000004
 30
3.0
 11
-56.19999999999982
 21
40.0
 31
3.0
  0
LINE
  5
618D
330
6169
100
AcDbEntity
  8
0
 48
0.27
100
AcDbLine
 10
-56.78972799999991
 20
40.0
 30
3.0
 11
-38.21027199999963
 21
40.0
 31
3.0
  0
LINE
  5
618E
330
6169
100
AcDbEntity
  8
0
 48
0.27
100
AcDbLine
 10
-56.78972799999991
 20
40.0
 30
3.0
 11
-56.78972799999991
 21
32.03737599999982
 31
3.0
  0
LINE
  5
618F
330
6169
100
AcDbEntity
  8
虛線
 48
0.27
100
AcDbLine
 10
-40.49999999999999
 20
55.5
 30
3.0
 11
-38.99999999999977
 21
57.00000000000006
 31
3.0
  0
LINE
  5
6190
330
6169
100
AcDbEntity
  8
虛線
 48
0.27
100
AcDbLine
 10
-40.49999999999999
 20
41.70000000000004
 30
3.0
 11
-40.49999999999999
 21
55.5
 31
3.0
  0
LINE
  5
6191
330
6169
100
AcDbEntity
  8
虛線
 48
0.27
100
AcDbLine
 10
-41.5
 20
41.70000000000004
 30
3.0
 11
-41.5
 21
55.5
 31
3.0
  0
LINE
  5
6192
330
6169
100
AcDbEntity
  8
虛線
 48
0.27
100
AcDbLine
 10
-53.5
 20
41.70000000000004
 30
3.0
 11
-53.5
 21
55.5
 31
3.0
  0
LINE
  5
6193
330
6169
100
AcDbEntity
  8
虛線
 48
0.27
100
AcDbLine
 10
-54.5
 20
41.70000000000004
 30
3.0
 11
-54.5
 21
55.5
 31
3.0
  0
LINE
  5
6194
330
6169
100
AcDbEntity
  8
虛線
 48
0.27
100
AcDbLine
 10
-40.49999999999999
 20
41.70000000000004
 30
3.0
 11
-54.5
 21
41.70000000000004
 31
3.0
  0
LINE
  5
6195
330
6169
100
AcDbEntity
  8
0
 48
0.27
100
AcDbLine
 10
-38.21027199999963
 20
40.0
 30
3.0
 11
-38.21027199999963
 21
32.03737599999982
 31
3.0
  0
LINE
  5
6196
330
6169
100
AcDbEntity
  8
虛線
 48
0.27
100
AcDbLine
 10
-40.49999999999999
 20
41.70000000000004
 30
3.0
 11
-38.79999999999972
 21
40.0
 31
3.0
  0
LINE
  5
6197
330
6169
100
AcDbEntity
  8
虛線
 48
0.27
100
AcDbLine
 10
-40.49999999999999
 20
55.5
 30
3.0
 11
-54.5
 21
55.5
 31
3.0
  0
LINE
  5
6198
330
6169
100
AcDbEntity
  8
虛線
 48
0.27
100
AcDbLine
 10
54.50000000000006
 20
41.70000000000004
 30
3.0
 11
40.50000000000006
 21
41.70000000000004
 31
3.0
  0
LINE
  5
6199
330
6169
100
AcDbEntity
  8
虛線
 48
0.27
100
AcDbLine
 10
54.50000000000006
 20
55.5
 30
3.0
 11
40.50000000000006
 21
55.5
 31
3.0
  0
LINE
  5
619A
330
6169
100
AcDbEntity
  8
0
 48
0.27
100
AcDbLine
 10
56.78972799999991
 20
40.0
 30
3.0
 11
38.21027199999963
 21
40.0
 31
3.0
  0
LINE
  5
619B
330
6169
100
AcDbEntity
  8
虛線
 48
0.27
100
AcDbLine
 10
40.50000000000006
 20
55.5
 30
3.0
 11
39.00000000000005
 21
57.00000000000006
 31
3.0
  0
LINE
  5
619C
330
6169
100
AcDbEntity
  8
虛線
 48
0.27
100
AcDbLine
 10
40.50000000000006
 20
41.70000000000004
 30
3.0
 11
40.50000000000006
 21
55.5
 31
3.0
  0
LINE
  5
619D
330
6169
100
AcDbEntity
  8
虛線
 48
0.27
100
AcDbLine
 10
41.50000000000005
 20
41.70000000000004
 30
3.0
 11
41.50000000000005
 21
55.5
 31
3.0
  0
LINE
  5
619E
330
6169
100
AcDbEntity
  8
0
 48
0.27
100
AcDbLine
 10
38.21027199999963
 20
40.0
 30
3.0
 11
38.21027199999963
 21
32.03737599999982
 31
3.0
  0
LINE
  5
619F
330
6169
100
AcDbEntity
  8
虛線
 48
0.27
100
AcDbLine
 10
40.50000000000006
 20
41.70000000000004
 30
3.0
 11
38.80000000000023
 21
40.0
 31
3.0
  0
LINE
  5
61A0
330
6169
100
AcDbEntity
  8
虛線
 48
0.27
100
AcDbLine
 10
54.50000000000006
 20
55.5
 30
3.0
 11
56.00000000000028
 21
57.00000000000006
 31
3.0
  0
LINE
  5
61A1
330
6169
100
AcDbEntity
  8
虛線
 48
0.27
100
AcDbLine
 10
53.50000000000005
 20
41.70000000000004
 30
3.0
 11
53.50000000000005
 21
55.5
 31
3.0
  0
LINE
  5
61A2
330
6169
100
AcDbEntity
  8
虛線
 48
0.27
100
AcDbLine
 10
54.50000000000006
 20
41.70000000000004
 30
3.0
 11
54.50000000000006
 21
55.5
 31
3.0
  0
LINE
  5
61A3
330
6169
100
AcDbEntity
  8
0
 48
0.27
100
AcDbLine
 10
56.78972799999991
 20
40.0
 30
3.0
 11
56.78972799999991
 21
32.03737599999982
 31
3.0
  0
LINE
  5
61A4
330
6169
100
AcDbEntity
  8
虛線
 48
0.27
100
AcDbLine
 10
54.50000000000006
 20
41.70000000000004
 30
3.0
 11
56.20000000000032
 21
40.0
 31
3.0
  0
ENDBLK
  5
61A6
330
6169
100
AcDbEntity
  8
0
100
AcDbBlockEnd
  0
ENDSEC
  0
SECTION
  2
ENTITIES
  0
LINE
  5
58EF
330
1E
100
AcDbEntity
  8
虛線
 48
0.27
100
AcDbLine
 10
-74.91450962600113
 20
295.3380042353874
 30
0.0
 11
-51.91450962600113
 21
295.3380042353874
 31
0.0
  0
LINE
  5
58F0
330
1E
100
AcDbEntity
  8
虛線
 48
0.27
100
AcDbLine
 10
-74.91450962600119
 20
275.7380042353874
 30
0.0
 11
-51.91450962600119
 21
275.7380042353874
 31
0.0
  0
LINE
  5
58F1
330
1E
100
AcDbEntity
  8
0
 48
0.27
100
AcDbLine
 10
-74.21450962600132
 20
252.7380040553874
 30
0.0
 11
-73.21450875244121
 21
251.7380042353873
 31
0.0
  0
LINE
  5
58F2
330
1E
100
AcDbEntity
  8
0
 48
0.27
100
AcDbLine
 10
-43.92639775431582
 20
295.7036474588022
 30
0.0
 11
-82.89931455981589
 21
295.7036474588022
 31
0.0
  0
SPLINE
  5
58F3
330
1E
100
AcDbEntity
  8
0
 48
0.27
100
AcDbSpline
210
0.0
220
0.0
230
1.0
 70
     8
 71
     3
 72
    14
 73
    10
 74
     8
 42
0.0000000001
 43
0.0000000001
 44
0.0000000001
 40
0.0
 40
0.0
 40
0.0
 40
0.0
 40
1.00337480073276
 40
2.010676408934169
 40
3.010409172923154
 40
4.019215736320203
 40
5.018979127688075
 40
6.025582519230534
 40
7.028797203493663
 40
7.028797203493663
 40
7.028797203493663
 40
7.028797203493663
 10
-88.09630581921592
 20
283.4673976675022
 30
0.0
 10
-87.76327870475668
 20
283.4256513164575
 30
0.0
 10
-87.09592114097338
 20
283.341995235855
 30
0.0
 10
-86.1558698745067
 20
282.9609677311811
 30
0.0
 10
-85.30895586251574
 20
282.4095841126169
 30
0.0
 10
-84.59407592465662
 20
281.6945827809751
 30
0.0
 10
-84.04296051563763
 20
280.8477587306919
 30
0.0
 10
-83.66214690104531
 20
279.9079375574507
 30
0.0
 10
-83.57853414518798
 20
279.240864343167
 30
0.0
 10
-83.53679825601593
 20
278.9078901043022
 30
0.0
 11
-88.09630581921592
 21
283.4673976675022
 31
0.0
 11
-87.10705839971582
 21
283.2996164595023
 31
0.0
 11
-86.16940344881586
 21
282.9315679261022
 31
0.0
 11
-85.33299379251584
 21
282.3839508279021
 31
0.0
 11
-84.61972054421575
 21
281.6705561576021
 31
0.0
 11
-84.07223169001589
 21
280.8340259470022
 31
0.0
 11
-83.70453640381596
 21
279.8969824238022
 31
0.0
 11
-83.53679825601593
 21
278.9078901043022
 31
0.0
  0
SPLINE
  5
58F4
330
1E
100
AcDbEntity
  8
0
 48
0.27
100
AcDbSpline
210
0.0
220
0.0
230
1.0
 70
     8
 71
     3
 72
    14
 73
    10
 74
     8
 42
0.0000000001
 43
0.0000000001
 44
0.0000000001
 40
0.0
 40
0.0
 40
0.0
 40
0.0
 40
1.00337480073276
 40
2.010676408934169
 40
3.01040917306153
 40
4.019215736458418
 40
5.018979127771629
 40
6.025582519221103
 40
7.028797203484325
 40
7.028797203484325
 40
7.028797203484325
 40
7.028797203484325
 10
-83.53679825601593
 20
295.0647894287022
 30
0.0
 10
-83.57854460706127
 20
294.7317623142436
 30
0.0
 10
-83.66220068766509
 20
294.0644047504613
 30
0.0
 10
-84.04322819234693
 20
293.1243534839434
 30
0.0
 10
-84.59461181098445
 20
292.2774394719504
 30
0.0
 10
-85.30961314260833
 20
291.5625595340245
 30
0.0
 10
-86.15643719293803
 20
291.0114441251695
 30
0.0
 10
-87.0962583660888
 20
290.6306305105076
 30
0.0
 10
-87.76333158034798
 20
290.5470177546676
 30
0.0
 10
-88.09630581921592
 20
290.5052818655022
 30
0.0
 11
-83.53679825601593
 21
295.0647894287022
 31
0.0
 11
-83.70457946401588
 21
294.0755420092021
 31
0.0
 11
-84.07262799741593
 21
293.1378870583022
 31
0.0
 11
-84.62024509571588
 21
292.3014774019021
 31
0.0
 11
-85.33363976601584
 21
291.5882041536022
 31
0.0
 11
-86.17016997661576
 21
291.0407152995022
 31
0.0
 11
-87.10721349971585
 21
290.6730200133022
 31
0.0
 11
-88.09630581921592
 21
290.5052818655022
 31
0.0
  0
LINE
  5
58F5
330
1E
100
AcDbEntity
  8
0
 48
0.27
100
AcDbLine
 10
-82.38016384941593
 20
271.7227981693022
 30
0.0
 11
-89.91450962600142
 21
264.188452392609
 31
0.0
  0
LINE
  5
58F6
330
1E
100
AcDbEntity
  8
0
 48
0.27
100
AcDbLine
 10
-89.91450962600136
 20
253.7380128353507
 30
0.0
 11
-89.91450962600142
 21
264.188452392609
 31
0.0
  0
LINE
  5
58F7
330
1E
100
AcDbEntity
  8
0
 48
0.27
100
AcDbLine
 10
-89.91450962600136
 20
253.7380128353507
 30
0.0
 11
-87.91449433293015
 21
251.7380042353874
 31
0.0
  0
LINE
  5
58F8
330
1E
100
AcDbEntity
  8
0
 48
0.27
100
AcDbLine
 10
-74.21450980600146
 20
252.7380042353875
 30
0.0
 11
-81.41450962600124
 21
252.7380042353875
 31
0.0
  0
LINE
  5
58F9
330
1E
100
AcDbEntity
  8
0
 48
0.27
100
AcDbLine
 10
-81.41450962600124
 20
252.7380038753874
 30
0.0
 11
-82.41450783673618
 21
251.7380042353874
 31
0.0
  0
LINE
  5
58FA
330
1E
100
AcDbEntity
  8
0
 48
0.27
100
AcDbLine
 10
-82.41450783673618
 20
251.7380042353874
 30
0.0
 11
-87.91449433293015
 21
251.7380042353874
 31
0.0
  0
LINE
  5
58FB
330
1E
100
AcDbEntity
  8
虛線
 48
0.27
100
AcDbLine
 10
-74.91450962600119
 20
275.7380042353874
 30
0.0
 11
-74.91450962600113
 21
295.3380042353874
 31
0.0
  0
LINE
  5
58FC
330
1E
100
AcDbEntity
  8
0
 48
0.27
100
AcDbLine
 10
-82.38016384941593
 20
271.7227981693022
 30
0.0
 11
-82.38016384941593
 21
277.7498813637022
 31
0.0
  0
LINE
  5
58FD
330
1E
100
AcDbEntity
  8
0
 48
0.27
100
AcDbLine
 10
-82.38016384941593
 20
277.7498813637022
 30
0.0
 11
-83.53777495381576
 21
278.9074924682022
 31
0.0
  0
LINE
  5
58FE
330
1E
100
AcDbEntity
  8
0
 48
0.27
100
AcDbLine
 10
-89.88016384941593
 20
285.2498813637022
 30
0.0
 11
-88.09670345541588
 21
283.4664209697022
 31
0.0
  0
LINE
  5
58FF
330
1E
100
AcDbEntity
  8
0
 48
0.27
100
AcDbLine
 10
-88.09670345541588
 20
290.5062585633021
 30
0.0
 11
-89.88016384941593
 21
288.7227981693022
 31
0.0
  0
LINE
  5
5900
330
1E
100
AcDbEntity
  8
0
 48
0.27
100
AcDbLine
 10
-89.88016384941593
 20
288.7227981693022
 30
0.0
 11
-89.88016384941593
 21
285.2498813637022
 31
0.0
  0
LINE
  5
5901
330
1E
100
AcDbEntity
  8
0
 48
0.27
100
AcDbLine
 10
-82.89931455981589
 20
295.7036474588022
 30
0.0
 11
-83.53777495381576
 21
295.0651870648022
 31
0.0
  0
LINE
  5
5902
330
1E
100
AcDbEntity
  8
虛線
 48
0.27
100
AcDbLine
 10
-74.91450962600113
 20
295.3380042353874
 30
0.0
 11
-75.12561383946702
 21
295.7036474588022
 31
0.0
  0
SPLINE
  5
5903
330
1E
100
AcDbEntity
  8
0
 48
0.27
100
AcDbSpline
210
0.0
220
0.0
230
1.0
 70
     8
 71
     3
 72
    14
 73
    10
 74
     8
 42
0.0000000001
 43
0.0000000001
 44
0.0000000001
 40
0.0
 40
0.0
 40
0.0
 40
0.0
 40
1.003374800732536
 40
2.010676408934134
 40
3.010409173061276
 40
4.019215736458486
 40
5.018979127771697
 40
6.025582519220917
 40
7.028797203484383
 40
7.028797203484383
 40
7.028797203484383
 40
7.028797203484383
 10
-43.28891405811591
 20
278.9078901043022
 30
0.0
 10
-43.24716770707058
 20
279.2409172187609
 30
0.0
 10
-43.16351162646676
 20
279.9082747825431
 30
0.0
 10
-42.78248412178463
 20
280.8483260490607
 30
0.0
 10
-42.23110050314734
 20
281.6952400610541
 30
0.0
 10
-41.51609917152334
 20
282.4101199989798
 30
0.0
 10
-40.66927512119366
 20
282.9612354078351
 30
0.0
 10
-39.72945394804285
 20
283.3420490224967
 30
0.0
 10
-39.0623807337837
 20
283.4256617783368
 30
0.0
 10
-38.72940649491569
 20
283.4673976675022
 30
0.0
 11
-43.28891405811591
 21
278.9078901043022
 31
0.0
 11
-43.12113285011595
 21
279.8971375238021
 31
0.0
 11
-42.75308431671568
 21
280.8347924747022
 31
0.0
 11
-42.20546721841595
 21
281.6712021311021
 31
0.0
 11
-41.49207254811575
 21
282.3844753794022
 31
0.0
 11
-40.65554233751585
 21
282.9319642335022
 31
0.0
 11
-39.71849881441598
 21
283.2996595197022
 31
0.0
 11
-38.72940649491569
 21
283.4673976675022
 31
0.0
  0
SPLINE
  5
5904
330
1E
100
AcDbEntity
  8
0
 48
0.27
100
AcDbSpline
210
0.0
220
0.0
230
1.0
 70
     8
 71
     3
 72
    14
 73
    10
 74
     8
 42
0.0000000001
 43
0.0000000001
 44
0.0000000001
 40
0.0
 40
0.0
 40
0.0
 40
0.0
 40
1.003374800732984
 40
2.010676408934182
 40
3.010409172977842
 40
4.019215736304143
 40
5.018979127672206
 40
6.025582519214641
 40
7.028797203477883
 40
7.028797203477883
 40
7.028797203477883
 40
7.028797203477883
 10
-38.72940649491569
 20
290.5052818655022
 30
0.0
 10
-39.06243360937326
 20
290.5470282165493
 30
0.0
 10
-39.72979117315311
 20
290.6306842971567
 30
0.0
 10
-40.6698424396628
 20
291.0117118018011
 30
0.0
 10
-41.51675645154829
 20
291.5630954205052
 30
0.0
 10
-42.23163638951201
 20
292.2780967520228
 30
0.0
 10
-42.78275179848741
 20
293.1249208023197
 30
0.0
 10
-43.16356541308823
 20
294.0647419755519
 30
0.0
 10
-43.24717816894444
 20
294.7318151898368
 30
0.0
 10
-43.28891405811591
 20
295.0647894287022
 30
0.0
 11
-38.72940649491569
 21
290.5052818655022
 31
0.0
 11
-39.71865391441601
 21
290.6730630735022
 31
0.0
 11
-40.65630886531574
 21
291.0411116069023
 31
0.0
 11
-41.49271852161577
 21
291.5887287052022
 31
0.0
 11
-42.20599176991585
 21
292.3021233754021
 31
0.0
 11
-42.75348062411571
 21
293.1386535860023
 31
0.0
 11
-43.12117591031586
 21
294.0756971092022
 31
0.0
 11
-43.28891405811591
 21
295.0647894287022
 31
0.0
  0
LINE
  5
5905
330
1E
100
AcDbEntity
  8
中心線
 48
0.27
100
AcDbLine
 10
-63.41450962600118
 20
297.7036474588022
 30
0.0
 11
-63.41450962600124
 21
249.7380042353875
 31
0.0
  0
LINE
  5
5906
330
1E
100
AcDbEntity
  8
虛線
 48
0.27
100
AcDbLine
 10
-71.41450962600124
 20
252.2380042353874
 30
0.0
 11
-71.41450962600119
 21
275.2380042353874
 31
0.0
  0
LINE
  5
5907
330
1E
100
AcDbEntity
  8
虛線
 48
0.27
100
AcDbLine
 10
-55.41450962600125
 20
252.2380042353874
 30
0.0
 11
-55.41450962600119
 21
275.2380042353873
 31
0.0
  0
LINE
  5
5908
330
1E
100
AcDbEntity
  8
0
 48
0.27
100
AcDbLine
 10
-44.44554846471568
 20
271.7227981693022
 30
0.0
 11
-36.91450962600119
 21
264.1917593304797
 31
0.0
  0
LINE
  5
5909
330
1E
100
AcDbEntity
  8
0
 48
0.27
100
AcDbLine
 10
-38.91452491907246
 20
251.7380042353873
 30
0.0
 11
-44.41451141526655
 21
251.7380042353873
 31
0.0
  0
LINE
  5
590A
330
1E
100
AcDbEntity
  8
虛線
 48
0.27
100
AcDbLine
 10
-55.41450962600125
 20
252.2380042353874
 30
0.0
 11
-71.41450962600124
 21
252.2380042353874
 31
0.0
  0
LINE
  5
590B
330
1E
100
AcDbEntity
  8
0
 48
0.27
100
AcDbLine
 10
-53.61451049956095
 20
251.7380042353873
 30
0.0
 11
-73.21450875244121
 21
251.7380042353873
 31
0.0
  0
LINE
  5
590C
330
1E
100
AcDbEntity
  8
虛線
 48
0.27
100
AcDbLine
 10
-71.91450962600125
 20
251.7380042353873
 30
0.0
 11
-71.41450962600124
 21
252.2380042353874
 31
0.0
  0
LINE
  5
590D
330
1E
100
AcDbEntity
  8
0
 48
0.27
100
AcDbLine
 10
-45.41450962600125
 20
252.7380042353875
 30
0.0
 11
-52.61450944600115
 21
252.7380042353875
 31
0.0
  0
LINE
  5
590E
330
1E
100
AcDbEntity
  8
虛線
 48
0.27
100
AcDbLine
 10
-54.91450962600113
 20
251.7380042353873
 30
0.0
 11
-55.41450962600125
 21
252.2380042353874
 31
0.0
  0
LINE
  5
590F
330
1E
100
AcDbEntity
  8
0
 48
0.27
100
AcDbLine
 10
-52.61450962600129
 20
252.7380040553874
 30
0.0
 11
-53.61451049956095
 21
251.7380042353873
 31
0.0
  0
LINE
  5
5910
330
1E
100
AcDbEntity
  8
0
 48
0.27
100
AcDbLine
 10
-45.41450962600125
 20
252.7380038753874
 30
0.0
 11
-44.41451141526655
 21
251.7380042353873
 31
0.0
  0
LINE
  5
5911
330
1E
100
AcDbEntity
  8
0
 48
0.27
100
AcDbLine
 10
-36.91450962600119
 20
264.1917593304797
 30
0.0
 11
-36.91450962600125
 21
253.7380128353503
 31
0.0
  0
LINE
  5
5912
330
1E
100
AcDbEntity
  8
0
 48
0.27
100
AcDbLine
 10
-36.91450962600125
 20
253.7380128353503
 30
0.0
 11
-38.91452491907246
 21
251.7380042353873
 31
0.0
  0
LINE
  5
5913
330
1E
100
AcDbEntity
  8
虛線
 48
0.27
100
AcDbLine
 10
-51.91450962600119
 20
275.7380042353874
 30
0.0
 11
-51.91450962600113
 21
295.3380042353874
 31
0.0
  0
LINE
  5
5914
330
1E
100
AcDbEntity
  8
0
 48
0.27
100
AcDbLine
 10
-44.44554846471568
 20
277.7498813637022
 30
0.0
 11
-43.28793736031584
 21
278.9074924682022
 31
0.0
  0
LINE
  5
5915
330
1E
100
AcDbEntity
  8
虛線
 48
0.27
100
AcDbLine
 10
-71.41450962600119
 20
275.2380042353874
 30
0.0
 11
-55.41450962600119
 21
275.2380042353873
 31
0.0
  0
LINE
  5
5916
330
1E
100
AcDbEntity
  8
虛線
 48
0.27
100
AcDbLine
 10
-71.41450962600119
 20
275.2380042353874
 30
0.0
 11
-71.91450962600119
 21
275.7380042353874
 31
0.0
  0
LINE
  5
5917
330
1E
100
AcDbEntity
  8
0
 48
0.27
100
AcDbLine
 10
-44.44554846471568
 20
277.7498813637022
 30
0.0
 11
-44.44554846471568
 21
271.7227981693022
 31
0.0
  0
LINE
  5
5918
330
1E
100
AcDbEntity
  8
虛線
 48
0.27
100
AcDbLine
 10
-54.91450962600119
 20
275.7380042353874
 30
0.0
 11
-55.41450962600119
 21
275.2380042353873
 31
0.0
  0
LINE
  5
5919
330
1E
100
AcDbEntity
  8
0
 48
0.27
100
AcDbLine
 10
-36.94554846471568
 20
288.7227981693021
 30
0.0
 11
-38.72900885871571
 21
290.5062585633021
 31
0.0
  0
LINE
  5
591A
330
1E
100
AcDbEntity
  8
0
 48
0.27
100
AcDbLine
 10
-36.94554846471568
 20
285.2498813637021
 30
0.0
 11
-36.94554846471568
 21
288.7227981693021
 31
0.0
  0
LINE
  5
591B
330
1E
100
AcDbEntity
  8
0
 48
0.27
100
AcDbLine
 10
-38.72900885871571
 20
283.4664209697022
 30
0.0
 11
-36.94554846471568
 21
285.2498813637021
 31
0.0
  0
LINE
  5
591C
330
1E
100
AcDbEntity
  8
0
 48
0.27
100
AcDbLine
 10
-43.28793736031584
 20
295.0651870648022
 30
0.0
 11
-43.92639775431582
 21
295.7036474588022
 31
0.0
  0
LINE
  5
591D
330
1E
100
AcDbEntity
  8
虛線
 48
0.27
100
AcDbLine
 10
-51.7034054125353
 20
295.7036474588022
 30
0.0
 11
-51.91450962600113
 21
295.3380042353874
 31
0.0
  0
LINE
  5
591F
330
1E
100
AcDbEntity
  8
0
 48
0.27
100
AcDbLine
 10
-84.11407548791574
 20
298.6363397665021
 30
0.0
 11
-42.71163682621575
 21
298.6363397665021
 31
0.0
  0
LINE
  5
5920
330
1E
100
AcDbEntity
  8
0
 48
0.27
100
AcDbLine
 10
-43.92639775431582
 20
295.7036474588022
 30
0.0
 11
-82.89931455981589
 21
295.7036474588022
 31
0.0
  0
LINE
  5
5921
330
1E
100
AcDbEntity
  8
0
 48
0.27
100
AcDbLine
 10
-83.59630853501569
 20
297.3863397665021
 30
0.0
 11
-43.2294037791158
 21
297.3863397665021
 31
0.0
  0
SPLINE
  5
5923
330
1E
100
AcDbEntity
  8
0
 48
0.27
100
AcDbSpline
210
0.0
220
0.0
230
1.0
 70
     8
 71
     3
 72
    14
 73
    10
 74
     8
 42
0.0000000001
 43
0.0000000001
 44
0.0000000001
 40
0.0
 40
0.0
 40
0.0
 40
0.0
 40
1.00337480073276
 40
2.010676408934169
 40
3.010409172923154
 40
4.019215736320203
 40
5.018979127688075
 40
6.025582519230534
 40
7.028797203493663
 40
7.028797203493663
 40
7.028797203493663
 40
7.028797203493663
 10
-88.09630581921592
 20
283.4673976675022
 30
0.0
 10
-87.76327870475668
 20
283.4256513164575
 30
0.0
 10
-87.09592114097338
 20
283.341995235855
 30
0.0
 10
-86.1558698745067
 20
282.9609677311811
 30
0.0
 10
-85.30895586251574
 20
282.4095841126169
 30
0.0
 10
-84.59407592465662
 20
281.6945827809751
 30
0.0
 10
-84.04296051563763
 20
280.8477587306919
 30
0.0
 10
-83.66214690104531
 20
279.9079375574507
 30
0.0
 10
-83.57853414518798
 20
279.240864343167
 30
0.0
 10
-83.53679825601593
 20
278.9078901043022
 30
0.0
 11
-88.09630581921592
 21
283.4673976675022
 31
0.0
 11
-87.10705839971582
 21
283.2996164595023
 31
0.0
 11
-86.16940344881586
 21
282.9315679261022
 31
0.0
 11
-85.33299379251584
 21
282.3839508279021
 31
0.0
 11
-84.61972054421575
 21
281.6705561576021
 31
0.0
 11
-84.07223169001589
 21
280.8340259470022
 31
0.0
 11
-83.70453640381596
 21
279.8969824238022
 31
0.0
 11
-83.53679825601593
 21
278.9078901043022
 31
0.0
  0
SPLINE
  5
5924
330
1E
100
AcDbEntity
  8
0
 48
0.27
100
AcDbSpline
210
0.0
220
0.0
230
1.0
 70
     8
 71
     3
 72
    14
 73
    10
 74
     8
 42
0.0000000001
 43
0.0000000001
 44
0.0000000001
 40
0.0
 40
0.0
 40
0.0
 40
0.0
 40
1.00337480073276
 40
2.010676408934169
 40
3.01040917306153
 40
4.019215736458418
 40
5.018979127771629
 40
6.025582519221103
 40
7.028797203484325
 40
7.028797203484325
 40
7.028797203484325
 40
7.028797203484325
 10
-83.53679825601593
 20
295.0647894287022
 30
0.0
 10
-83.57854460706127
 20
294.7317623142436
 30
0.0
 10
-83.66220068766509
 20
294.0644047504613
 30
0.0
 10
-84.04322819234693
 20
293.1243534839434
 30
0.0
 10
-84.59461181098445
 20
292.2774394719504
 30
0.0
 10
-85.30961314260833
 20
291.5625595340245
 30
0.0
 10
-86.15643719293803
 20
291.0114441251695
 30
0.0
 10
-87.0962583660888
 20
290.6306305105076
 30
0.0
 10
-87.76333158034798
 20
290.5470177546676
 30
0.0
 10
-88.09630581921592
 20
290.5052818655022
 30
0.0
 11
-83.53679825601593
 21
295.0647894287022
 31
0.0
 11
-83.70457946401588
 21
294.0755420092021
 31
0.0
 11
-84.07262799741593
 21
293.1378870583022
 31
0.0
 11
-84.62024509571588
 21
292.3014774019021
 31
0.0
 11
-85.33363976601584
 21
291.5882041536022
 31
0.0
 11
-86.17016997661576
 21
291.0407152995022
 31
0.0
 11
-87.10721349971585
 21
290.6730200133022
 31
0.0
 11
-88.09630581921592
 21
290.5052818655022
 31
0.0
  0
LINE
  5
592E
330
1E
100
AcDbEntity
  8
0
 48
0.27
100
AcDbLine
 10
-82.38016384941593
 20
271.7227981693022
 30
0.0
 11
-89.36662225211593
 21
264.7363397665023
 31
0.0
  0
LINE
  5
592F
330
1E
100
AcDbEntity
  8
0
 48
0.27
100
AcDbLine
 10
-91.74630853501584
 20
264.7363397665023
 30
0.0
 11
-84.06285615711579
 21
272.4197921444022
 31
0.0
  0
LINE
  5
5930
330
1E
100
AcDbEntity
  8
0
 48
0.27
100
AcDbLine
 10
-93.51407548791589
 20
264.7363397665023
 30
0.0
 11
-85.31285615711579
 21
272.9375590974021
 31
0.0
  0
ARC
  5
5936
330
1E
100
AcDbEntity
  8
0
 48
0.27
100
AcDbCircle
 10
-88.41785615711577
 20
295.3863397665021
 30
0.0
 40
3.209999999999999
100
AcDbArc
 50
263.4284998715998
 51
6.571500128400106
  0
ARC
  5
5937
330
1E
100
AcDbEntity
  8
0
 48
0.27
100
AcDbCircle
 10
-88.41785615711577
 20
295.3863397665021
 30
0.0
 40
1.959999999999999
100
AcDbArc
 50
255.4078960957309
 51
14.59210390236058
  0
LINE
  5
593B
330
1E
100
AcDbEntity
  8
0
 48
0.27
100
AcDbLine
 10
-88.09670345541588
 20
283.4664209697022
 30
0.0
 11
-88.78521823901577
 21
281.7752494706022
 31
0.0
  0
LINE
  5
593C
330
1E
100
AcDbEntity
  8
0
 48
0.27
100
AcDbLine
 10
-89.39117209066912
 20
280.6134363691554
 30
0.0
 11
-92.81285615711579
 21
284.0351204356021
 31
0.0
  0
LINE
  5
593D
330
1E
100
AcDbEntity
  8
0
 48
0.27
100
AcDbLine
 10
-88.78521823901577
 20
281.7752494706022
 30
0.0
 11
-91.56285615711579
 21
284.5528873886022
 31
0.0
  0
ARC
  5
593E
330
1E
100
AcDbEntity
  8
0
 48
0.27
100
AcDbCircle
 10
-88.41785615711582
 20
278.5863397665021
 30
0.0
 40
3.209999999999999
100
AcDbArc
 50
353.4284998715999
 51
96.57150012840013
  0
ARC
  5
593F
330
1E
100
AcDbEntity
  8
0
 48
0.27
100
AcDbCircle
 10
-88.41785615711582
 20
278.5863397665021
 30
0.0
 40
1.959999999999999
100
AcDbArc
 50
345.4078960973163
 51
104.5921039042721
  0
LINE
  5
5940
330
1E
100
AcDbEntity
  8
0
 48
0.27
100
AcDbLine
 10
-88.78521823901577
 20
281.7752494706022
 30
0.0
 11
-89.14910807999673
 21
280.479578108098
 31
0.0
  0
ARC
  5
5941
330
1E
100
AcDbEntity
  8
0
 48
0.27
100
AcDbCircle
 10
-89.0376187000759
 20
280.9669897597487
 30
0.0
 40
0.5
100
AcDbArc
 50
224.9999999999999
 51
284.5921039042721
  0
LINE
  5
5942
330
1E
100
AcDbEntity
  8
0
 48
0.27
100
AcDbLine
 10
-82.38016384941593
 20
277.7498813637022
 30
0.0
 11
-85.31285615711579
 21
276.5351204356021
 31
0.0
  0
LINE
  5
5943
330
1E
100
AcDbEntity
  8
0
 48
0.27
100
AcDbLine
 10
-82.38016384941593
 20
271.7227981693022
 30
0.0
 11
-82.38016384941593
 21
277.7498813637022
 31
0.0
  0
LINE
  5
5944
330
1E
100
AcDbEntity
  8
0
 48
0.27
100
AcDbLine
 10
-84.06285615711579
 20
277.0528873886022
 30
0.0
 11
-85.22894645301574
 21
278.2189776845021
 31
0.0
  0
LINE
  5
5945
330
1E
100
AcDbEntity
  8
0
 48
0.27
100
AcDbLine
 10
-85.31285615711579
 20
276.5351204356021
 30
0.0
 11
-86.39075955445914
 21
277.6130238330285
 31
0.0
  0
LINE
  5
5946
330
1E
100
AcDbEntity
  8
0
 48
0.27
100
AcDbLine
 10
-82.38016384941593
 20
271.7227981693022
 30
0.0
 11
-85.31285615711579
 21
272.9375590974021
 31
0.0
  0
LINE
  5
5947
330
1E
100
AcDbEntity
  8
0
 48
0.27
100
AcDbLine
 10
-84.06285615711579
 20
272.4197921444022
 30
0.0
 11
-84.06285615711579
 21
277.0528873886022
 31
0.0
  0
LINE
  5
5948
330
1E
100
AcDbEntity
  8
0
 48
0.27
100
AcDbLine
 10
-85.31285615711579
 20
272.9375590974021
 30
0.0
 11
-85.31285615711579
 21
276.5351204356021
 31
0.0
  0
LINE
  5
5949
330
1E
100
AcDbEntity
  8
0
 48
0.27
100
AcDbLine
 10
-83.53777495381576
 20
278.9074924682022
 30
0.0
 11
-85.22894645301574
 21
278.2189776845021
 31
0.0
  0
LINE
  5
594A
330
1E
100
AcDbEntity
  8
0
 48
0.27
100
AcDbLine
 10
-82.38016384941593
 20
277.7498813637022
 30
0.0
 11
-83.53777495381576
 21
278.9074924682022
 31
0.0
  0
ARC
  5
594B
330
1E
100
AcDbEntity
  8
0
 48
0.27
100
AcDbCircle
 10
-86.03720616385215
 20
277.9665772236081
 30
0.0
 40
0.5
100
AcDbArc
 50
165.4078960973163
 51
224.9999999977937
  0
LINE
  5
594C
330
1E
100
AcDbEntity
  8
0
 48
0.27
100
AcDbLine
 10
-85.22894645301574
 20
278.2189776845021
 30
0.0
 11
-86.52461781548279
 21
277.8550878435994
 31
0.0
  0
LINE
  5
594D
330
1E
100
AcDbEntity
  8
0
 48
0.27
100
AcDbLine
 10
-88.09670345541588
 20
290.5062585633021
 30
0.0
 11
-88.78521823901577
 21
292.1974300624023
 31
0.0
  0
LINE
  5
594E
330
1E
100
AcDbEntity
  8
0
 48
0.27
100
AcDbLine
 10
-89.88016384941593
 20
285.2498813637022
 30
0.0
 11
-88.09670345541588
 21
283.4664209697022
 31
0.0
  0
LINE
  5
594F
330
1E
100
AcDbEntity
  8
0
 48
0.27
100
AcDbLine
 10
-88.09670345541588
 20
290.5062585633021
 30
0.0
 11
-89.88016384941593
 21
288.7227981693022
 31
0.0
  0
LINE
  5
5950
330
1E
100
AcDbEntity
  8
0
 48
0.27
100
AcDbLine
 10
-89.88016384941593
 20
288.7227981693022
 30
0.0
 11
-92.81285615711579
 21
289.9375590974021
 31
0.0
  0
LINE
  5
5951
330
1E
100
AcDbEntity
  8
0
 48
0.27
100
AcDbLine
 10
-91.56285615711579
 20
284.5528873886022
 30
0.0
 11
-91.56285615711579
 21
289.4197921444022
 31
0.0
  0
LINE
  5
5952
330
1E
100
AcDbEntity
  8
0
 48
0.27
100
AcDbLine
 10
-92.81285615711579
 20
284.0351204356021
 30
0.0
 11
-92.81285615711579
 21
289.9375590974021
 31
0.0
  0
LINE
  5
5953
330
1E
100
AcDbEntity
  8
0
 48
0.27
100
AcDbLine
 10
-89.88016384941593
 20
285.2498813637022
 30
0.0
 11
-92.81285615711579
 21
284.0351204356021
 31
0.0
  0
LINE
  5
5954
330
1E
100
AcDbEntity
  8
0
 48
0.27
100
AcDbLine
 10
-89.88016384941593
 20
288.7227981693022
 30
0.0
 11
-89.88016384941593
 21
285.2498813637022
 31
0.0
  0
LINE
  5
5955
330
1E
100
AcDbEntity
  8
0
 48
0.27
100
AcDbLine
 10
-92.81285615711579
 20
289.9375590974021
 30
0.0
 11
-89.391172090669
 21
293.3592431638491
 31
0.0
  0
LINE
  5
5956
330
1E
100
AcDbEntity
  8
0
 48
0.27
100
AcDbLine
 10
-88.78521823901577
 20
292.1974300624023
 30
0.0
 11
-89.14910807999673
 21
293.4931014249065
 31
0.0
  0
ARC
  5
5957
330
1E
100
AcDbEntity
  8
0
 48
0.27
100
AcDbCircle
 10
-89.03761870007578
 20
293.0056897732558
 30
0.0
 40
0.5
100
AcDbArc
 50
75.40789609573103
 51
135.0
  0
LINE
  5
5958
330
1E
100
AcDbEntity
  8
0
 48
0.27
100
AcDbLine
 10
-91.56285615711579
 20
289.4197921444022
 30
0.0
 11
-88.78521823901577
 21
292.1974300624023
 31
0.0
  0
LINE
  5
595E
330
1E
100
AcDbEntity
  8
0
 48
0.27
100
AcDbLine
 10
-85.22894645301569
 20
295.7537018485021
 30
0.0
 11
-83.59630853501569
 21
297.3863397665021
 31
0.0
  0
LINE
  5
595F
330
1E
100
AcDbEntity
  8
0
 48
0.27
100
AcDbLine
 10
-83.53777495381576
 20
295.0651870648022
 30
0.0
 11
-85.22894645301569
 21
295.7537018485021
 31
0.0
  0
LINE
  5
5960
330
1E
100
AcDbEntity
  8
0
 48
0.27
100
AcDbLine
 10
-82.89931455981589
 20
295.7036474588022
 30
0.0
 11
-84.11407548791574
 21
298.6363397665021
 31
0.0
  0
LINE
  5
5961
330
1E
100
AcDbEntity
  8
0
 48
0.27
100
AcDbLine
 10
-82.89931455981589
 20
295.7036474588022
 30
0.0
 11
-83.53777495381576
 21
295.0651870648022
 31
0.0
  0
ARC
  5
5962
330
1E
100
AcDbEntity
  8
0
 48
0.27
100
AcDbCircle
 10
-86.03720616384881
 20
296.0061023093827
 30
0.0
 40
0.5
100
AcDbArc
 50
134.9999999999965
 51
194.5921039023605
  0
LINE
  5
5963
330
1E
100
AcDbEntity
  8
0
 48
0.27
100
AcDbLine
 10
-86.39075955444203
 20
296.3596556999759
 30
0.0
 11
-84.11407548791574
 21
298.6363397665021
 31
0.0
  0
LINE
  5
5964
330
1E
100
AcDbEntity
  8
0
 48
0.27
100
AcDbLine
 10
-85.22894645301569
 20
295.7537018485021
 30
0.0
 11
-86.52461781547669
 21
296.1175916894033
 31
0.0
  0
SPLINE
  5
596C
330
1E
100
AcDbEntity
  8
0
 48
0.27
100
AcDbSpline
210
0.0
220
0.0
230
1.0
 70
     8
 71
     3
 72
    14
 73
    10
 74
     8
 42
0.0000000001
 43
0.0000000001
 44
0.0000000001
 40
0.0
 40
0.0
 40
0.0
 40
0.0
 40
1.003374800732536
 40
2.010676408934134
 40
3.010409173061276
 40
4.019215736458486
 40
5.018979127771697
 40
6.025582519220917
 40
7.028797203484383
 40
7.028797203484383
 40
7.028797203484383
 40
7.028797203484383
 10
-43.28891405811591
 20
278.9078901043022
 30
0.0
 10
-43.24716770707058
 20
279.2409172187609
 30
0.0
 10
-43.16351162646676
 20
279.9082747825431
 30
0.0
 10
-42.78248412178463
 20
280.8483260490607
 30
0.0
 10
-42.23110050314734
 20
281.6952400610541
 30
0.0
 10
-41.51609917152334
 20
282.4101199989798
 30
0.0
 10
-40.66927512119366
 20
282.9612354078351
 30
0.0
 10
-39.72945394804285
 20
283.3420490224967
 30
0.0
 10
-39.0623807337837
 20
283.4256617783368
 30
0.0
 10
-38.72940649491569
 20
283.4673976675022
 30
0.0
 11
-43.28891405811591
 21
278.9078901043022
 31
0.0
 11
-43.12113285011595
 21
279.8971375238021
 31
0.0
 11
-42.75308431671568
 21
280.8347924747022
 31
0.0
 11
-42.20546721841595
 21
281.6712021311021
 31
0.0
 11
-41.49207254811575
 21
282.3844753794022
 31
0.0
 11
-40.65554233751585
 21
282.9319642335022
 31
0.0
 11
-39.71849881441598
 21
283.2996595197022
 31
0.0
 11
-38.72940649491569
 21
283.4673976675022
 31
0.0
  0
SPLINE
  5
596D
330
1E
100
AcDbEntity
  8
0
 48
0.27
100
AcDbSpline
210
0.0
220
0.0
230
1.0
 70
     8
 71
     3
 72
    14
 73
    10
 74
     8
 42
0.0000000001
 43
0.0000000001
 44
0.0000000001
 40
0.0
 40
0.0
 40
0.0
 40
0.0
 40
1.003374800732984
 40
2.010676408934182
 40
3.010409172977842
 40
4.019215736304143
 40
5.018979127672206
 40
6.025582519214641
 40
7.028797203477883
 40
7.028797203477883
 40
7.028797203477883
 40
7.028797203477883
 10
-38.72940649491569
 20
290.5052818655022
 30
0.0
 10
-39.06243360937326
 20
290.5470282165493
 30
0.0
 10
-39.72979117315311
 20
290.6306842971567
 30
0.0
 10
-40.6698424396628
 20
291.0117118018011
 30
0.0
 10
-41.51675645154829
 20
291.5630954205052
 30
0.0
 10
-42.23163638951201
 20
292.2780967520228
 30
0.0
 10
-42.78275179848741
 20
293.1249208023197
 30
0.0
 10
-43.16356541308823
 20
294.0647419755519
 30
0.0
 10
-43.24717816894444
 20
294.7318151898368
 30
0.0
 10
-43.28891405811591
 20
295.0647894287022
 30
0.0
 11
-38.72940649491569
 21
290.5052818655022
 31
0.0
 11
-39.71865391441601
 21
290.6730630735022
 31
0.0
 11
-40.65630886531574
 21
291.0411116069023
 31
0.0
 11
-41.49271852161577
 21
291.5887287052022
 31
0.0
 11
-42.20599176991585
 21
292.3021233754021
 31
0.0
 11
-42.75348062411571
 21
293.1386535860023
 31
0.0
 11
-43.12117591031586
 21
294.0756971092022
 31
0.0
 11
-43.28891405811591
 21
295.0647894287022
 31
0.0
  0
LINE
  5
5975
330
1E
100
AcDbEntity
  8
中心線
 48
0.27
100
AcDbLine
 10
-63.41450962600113
 20
336.9025854964733
 30
0.0
 11
-63.41450962600119
 21
293.7036474588022
 31
0.0
  0
LINE
  5
5976
330
1E
100
AcDbEntity
  8
0
 48
0.27
100
AcDbLine
 10
-44.44554846471568
 20
271.7227981693022
 30
0.0
 11
-37.4590900620159
 21
264.7363397665022
 31
0.0
  0
LINE
  5
5977
330
1E
100
AcDbEntity
  8
0
 48
0.27
100
AcDbLine
 10
-35.07940377911576
 20
264.7363397665022
 30
0.0
 11
-42.76285615711585
 21
272.4197921444022
 31
0.0
  0
LINE
  5
5978
330
1E
100
AcDbEntity
  8
0
 48
0.27
100
AcDbLine
 10
-41.51285615711585
 20
272.9375590974021
 30
0.0
 11
-33.31163682621594
 21
264.7363397665022
 31
0.0
  0
ARC
  5
5981
330
1E
100
AcDbEntity
  8
0
 48
0.27
100
AcDbCircle
 10
-38.40785615711577
 20
295.3863397665021
 30
0.0
 40
3.209999999999999
100
AcDbArc
 50
173.4284998715998
 51
276.5715001284001
  0
ARC
  5
5982
330
1E
100
AcDbEntity
  8
0
 48
0.27
100
AcDbCircle
 10
-38.40785615711577
 20
295.3863397665021
 30
0.0
 40
1.959999999999999
100
AcDbArc
 50
165.4078960957311
 51
284.5921039060625
  0
LINE
  5
5983
330
1E
100
AcDbEntity
  8
0
 48
0.27
100
AcDbLine
 10
-44.44554846471568
 20
277.7498813637022
 30
0.0
 11
-43.28793736031584
 21
278.9074924682022
 31
0.0
  0
LINE
  5
5984
330
1E
100
AcDbEntity
  8
0
 48
0.27
100
AcDbLine
 10
-44.44554846471568
 20
271.7227981693022
 30
0.0
 11
-41.51285615711585
 21
272.9375590974021
 31
0.0
  0
LINE
  5
5985
330
1E
100
AcDbEntity
  8
0
 48
0.27
100
AcDbLine
 10
-44.44554846471568
 20
277.7498813637022
 30
0.0
 11
-41.51285615711585
 21
276.5351204356021
 31
0.0
  0
LINE
  5
5986
330
1E
100
AcDbEntity
  8
0
 48
0.27
100
AcDbLine
 10
-44.44554846471568
 20
277.7498813637022
 30
0.0
 11
-44.44554846471568
 21
271.7227981693022
 31
0.0
  0
LINE
  5
5987
330
1E
100
AcDbEntity
  8
0
 48
0.27
100
AcDbLine
 10
-38.72900885871571
 20
283.4664209697022
 30
0.0
 11
-38.04049407511583
 21
281.7752494706022
 31
0.0
  0
LINE
  5
5988
330
1E
100
AcDbEntity
  8
0
 48
0.27
100
AcDbLine
 10
-34.01285615711584
 20
284.0351204356021
 30
0.0
 11
-37.43454022348341
 21
280.6134363691406
 31
0.0
  0
LINE
  5
5989
330
1E
100
AcDbEntity
  8
0
 48
0.27
100
AcDbLine
 10
-35.26285615711584
 20
284.5528873886022
 30
0.0
 11
-38.04049407511583
 21
281.7752494706022
 31
0.0
  0
LINE
  5
598B
330
1E
100
AcDbEntity
  8
0
 48
0.27
100
AcDbLine
 10
-40.43495275976887
 20
277.6130238329491
 30
0.0
 11
-41.51285615711585
 21
276.5351204356021
 31
0.0
  0
LINE
  5
598C
330
1E
100
AcDbEntity
  8
0
 48
0.27
100
AcDbLine
 10
-41.59676586111586
 20
278.2189776845021
 30
0.0
 11
-42.76285615711585
 21
277.0528873886022
 31
0.0
  0
LINE
  5
598D
330
1E
100
AcDbEntity
  8
0
 48
0.27
100
AcDbLine
 10
-41.51285615711585
 20
276.5351204356021
 30
0.0
 11
-41.51285615711585
 21
272.9375590974021
 31
0.0
  0
LINE
  5
598E
330
1E
100
AcDbEntity
  8
0
 48
0.27
100
AcDbLine
 10
-42.76285615711585
 20
277.0528873886022
 30
0.0
 11
-42.76285615711585
 21
272.4197921444022
 31
0.0
  0
LINE
  5
598F
330
1E
100
AcDbEntity
  8
0
 48
0.27
100
AcDbLine
 10
-41.59676586111586
 20
278.2189776845021
 30
0.0
 11
-40.30109449871237
 21
277.8550878436173
 31
0.0
  0
ARC
  5
5990
330
1E
100
AcDbEntity
  8
0
 48
0.27
100
AcDbCircle
 10
-38.40785615711583
 20
278.5863397665021
 30
0.0
 40
1.959999999999999
100
AcDbArc
 50
75.40789609393745
 51
194.5921039042687
  0
ARC
  5
5991
330
1E
100
AcDbEntity
  8
0
 48
0.27
100
AcDbCircle
 10
-40.78850615036221
 20
277.9665772235423
 30
0.0
 40
0.5
100
AcDbArc
 50
314.9999999999954
 51
14.59210390426881
  0
LINE
  5
5992
330
1E
100
AcDbEntity
  8
0
 48
0.27
100
AcDbLine
 10
-38.04049407511583
 20
281.7752494706022
 30
0.0
 11
-37.67660423413146
 21
280.479578108085
 31
0.0
  0
ARC
  5
5993
330
1E
100
AcDbEntity
  8
0
 48
0.27
100
AcDbCircle
 10
-37.78809361408152
 20
280.9669897597292
 30
0.0
 40
0.5
100
AcDbArc
 50
255.4078960939374
 51
315.0000000007876
  0
ARC
  5
5994
330
1E
100
AcDbEntity
  8
0
 48
0.27
100
AcDbCircle
 10
-38.40785615711583
 20
278.5863397665021
 30
0.0
 40
3.209999999999999
100
AcDbArc
 50
83.42849987159985
 51
186.5715001284
  0
LINE
  5
5995
330
1E
100
AcDbEntity
  8
0
 48
0.27
100
AcDbLine
 10
-43.28793736031584
 20
278.9074924682022
 30
0.0
 11
-41.59676586111586
 21
278.2189776845021
 31
0.0
  0
LINE
  5
5997
330
1E
100
AcDbEntity
  8
0
 48
0.27
100
AcDbLine
 10
-34.01285615711584
 20
289.9375590974021
 30
0.0
 11
-34.01285615711584
 21
284.0351204356021
 31
0.0
  0
LINE
  5
5998
330
1E
100
AcDbEntity
  8
0
 48
0.27
100
AcDbLine
 10
-35.26285615711584
 20
289.4197921444021
 30
0.0
 11
-35.26285615711584
 21
284.5528873886022
 31
0.0
  0
LINE
  5
5999
330
1E
100
AcDbEntity
  8
0
 48
0.27
100
AcDbLine
 10
-36.94554846471568
 20
288.7227981693021
 30
0.0
 11
-38.72900885871571
 21
290.5062585633021
 31
0.0
  0
LINE
  5
599A
330
1E
100
AcDbEntity
  8
0
 48
0.27
100
AcDbLine
 10
-36.94554846471568
 20
288.7227981693021
 30
0.0
 11
-34.01285615711584
 21
289.9375590974021
 31
0.0
  0
LINE
  5
599B
330
1E
100
AcDbEntity
  8
0
 48
0.27
100
AcDbLine
 10
-36.94554846471568
 20
285.2498813637021
 30
0.0
 11
-34.01285615711584
 21
284.0351204356021
 31
0.0
  0
LINE
  5
599C
330
1E
100
AcDbEntity
  8
0
 48
0.27
100
AcDbLine
 10
-36.94554846471568
 20
285.2498813637021
 30
0.0
 11
-36.94554846471568
 21
288.7227981693021
 31
0.0
  0
LINE
  5
599D
330
1E
100
AcDbEntity
  8
0
 48
0.27
100
AcDbLine
 10
-38.72900885871571
 20
283.4664209697022
 30
0.0
 11
-36.94554846471568
 21
285.2498813637021
 31
0.0
  0
LINE
  5
599E
330
1E
100
AcDbEntity
  8
0
 48
0.27
100
AcDbLine
 10
-38.04049407511583
 20
292.1974300624023
 30
0.0
 11
-35.26285615711584
 21
289.4197921444021
 31
0.0
  0
LINE
  5
599F
330
1E
100
AcDbEntity
  8
0
 48
0.27
100
AcDbLine
 10
-37.43454022348329
 20
293.3592431638635
 30
0.0
 11
-34.01285615711584
 21
289.9375590974021
 31
0.0
  0
LINE
  5
59A0
330
1E
100
AcDbEntity
  8
0
 48
0.27
100
AcDbLine
 10
-38.04049407511583
 20
292.1974300624023
 30
0.0
 11
-37.67660423413146
 21
293.4931014249191
 31
0.0
  0
LINE
  5
59A1
330
1E
100
AcDbEntity
  8
0
 48
0.27
100
AcDbLine
 10
-38.72900885871571
 20
290.5062585633021
 30
0.0
 11
-38.04049407511583
 21
292.1974300624023
 31
0.0
  0
ARC
  5
59A2
330
1E
100
AcDbEntity
  8
0
 48
0.27
100
AcDbCircle
 10
-37.78809361408152
 20
293.0056897732752
 30
0.0
 40
0.5
100
AcDbArc
 50
44.99999999921232
 51
104.5921039060625
  0
LINE
  5
59A4
330
1E
100
AcDbEntity
  8
0
 48
0.27
100
AcDbLine
 10
-43.92639775431582
 20
295.7036474588022
 30
0.0
 11
-42.71163682621575
 21
298.6363397665021
 31
0.0
  0
LINE
  5
59A5
330
1E
100
AcDbEntity
  8
0
 48
0.27
100
AcDbLine
 10
-43.28793736031584
 20
295.0651870648022
 30
0.0
 11
-43.92639775431582
 21
295.7036474588022
 31
0.0
  0
LINE
  5
59AA
330
1E
100
AcDbEntity
  8
0
 48
0.27
100
AcDbLine
 10
-41.59676586111579
 20
295.7537018485021
 30
0.0
 11
-40.30109449871232
 21
296.1175916893871
 31
0.0
  0
ARC
  5
59AB
330
1E
100
AcDbEntity
  8
0
 48
0.27
100
AcDbCircle
 10
-40.78850615036215
 20
296.006102309462
 30
0.0
 40
0.5
100
AcDbArc
 50
345.4078960957307
 51
44.99999999999994
  0
LINE
  5
59AC
330
1E
100
AcDbEntity
  8
0
 48
0.27
100
AcDbLine
 10
-42.71163682621575
 20
298.6363397665021
 30
0.0
 11
-40.43495275976882
 21
296.3596557000554
 31
0.0
  0
LINE
  5
59AD
330
1E
100
AcDbEntity
  8
0
 48
0.27
100
AcDbLine
 10
-43.2294037791158
 20
297.3863397665021
 30
0.0
 11
-41.59676586111579
 21
295.7537018485021
 31
0.0
  0
LINE
  5
59AE
330
1E
100
AcDbEntity
  8
0
 48
0.27
100
AcDbLine
 10
-43.28793736031584
 20
295.0651870648022
 30
0.0
 11
-41.59676586111579
 21
295.7537018485021
 31
0.0
  0
ARC
  5
5BCC
330
1E
100
AcDbEntity
  8
0
 48
0.27
100
AcDbCircle
 10
-63.41285615711588
 20
309.7363397665022
 30
0.0
 40
6.562501095937681
100
AcDbArc
 50
30.24329777399993
 51
329.7566907592998
  0
LWPOLYLINE
  5
5BCD
330
1E
100
AcDbEntity
  8
0
 48
0.27
100
AcDbPolyline
 90
       17
 70
     0
 43
0.0
 10
-52.22324462932576
 20
309.7363397665022
 10
-52.18130924557251
 20
309.4650431680707
 10
-52.14019550220654
 20
309.3864128624395
 10
-52.09448257732251
 20
309.3494858103976
 10
-52.05201112347976
 20
309.3498699104618
 10
-52.00639505861186
 20
309.3876252827669
 10
-51.96721517581881
 20
309.4623377671189
 10
-51.93048184380934
 20
309.6249290201466
 10
-51.92427278177243
 20
309.7363397665022
 10
-51.96620649552537
 20
310.0076346949335
 10
-52.00732190889169
 20
310.0862650005648
 10
-52.05303483377571
 20
310.1231920526066
 10
-52.09550461761815
 20
310.1228079524174
 10
-52.14112235248633
 20
310.0850525801122
 10
-52.18030056527911
 20
310.0103400957603
 10
-52.21703556728885
 20
309.8477488428575
 10
-52.22324462932576
 20
309.7363397665022
  0
ARC
  5
5BCE
330
1E
100
AcDbEntity
  8
0
 48
0.27
100
AcDbCircle
 10
-63.41285615711588
 20
309.7363397665022
 30
0.0
 40
5.0
100
AcDbArc
 50
48.59037799889986
 51
311.4096220031998
  0
LINE
  5
5BCF
330
1E
100
AcDbEntity
  8
0
 48
0.27
100
AcDbLine
 10
-59.80441584075636
 20
313.4863393490022
 30
0.0
 11
-60.52610490602842
 21
314.7363397665023
 31
0.0
  0
LINE
  5
5BD0
330
1E
100
AcDbEntity
  8
0
 48
0.27
100
AcDbLine
 10
-66.29960740820334
 20
314.7363397665023
 30
0.0
 11
-60.52610490602842
 21
314.7363397665023
 31
0.0
  0
LINE
  5
5BD1
330
1E
100
AcDbEntity
  8
0
 48
0.27
100
AcDbLine
 10
-66.29960740820334
 20
314.7363397665023
 30
0.0
 11
-69.1863586592908
 21
309.7363397665022
 31
0.0
  0
LINE
  5
5BD2
330
1E
100
AcDbEntity
  8
0
 48
0.27
100
AcDbLine
 10
-69.1863586592908
 20
309.7363397665022
 30
0.0
 11
-66.29960740820334
 21
304.7363380965019
 31
0.0
  0
LINE
  5
5BD3
330
1E
100
AcDbEntity
  8
0
 48
0.27
100
AcDbLine
 10
-60.52610323602815
 20
304.7363380965019
 30
0.0
 11
-66.29960740820334
 21
304.7363380965019
 31
0.0
  0
LINE
  5
5BD4
330
1E
100
AcDbEntity
  8
0
 48
0.27
100
AcDbLine
 10
-59.80441584075636
 20
305.986338514002
 30
0.0
 11
-60.52610323602815
 21
304.7363380965019
 31
0.0
  0
LINE
  5
5BD5
330
1E
100
AcDbEntity
  8
0
 48
0.27
100
AcDbLine
 10
-61.78597335667645
 20
305.986338514002
 30
0.0
 11
-58.01838699848955
 21
305.986338514002
 31
0.0
  0
LINE
  5
5BD6
330
1E
100
AcDbEntity
  8
0
 48
0.27
100
AcDbLine
 10
-57.93976337285939
 20
313.1304806029488
 30
0.0
 11
-58.01838699848955
 21
313.4863393490022
 31
0.0
  0
LINE
  5
5BD7
330
1E
100
AcDbEntity
  8
0
 48
0.27
100
AcDbLine
 10
-58.01838699848955
 20
305.986338514002
 30
0.0
 11
-57.93976337285939
 21
306.3421972600554
 31
0.0
  0
LINE
  5
5BD8
330
1E
100
AcDbEntity
  8
0
 48
0.27
100
AcDbLine
 10
-61.78597335667645
 20
313.4863393490022
 30
0.0
 11
-58.01838699848955
 21
313.4863393490022
 31
0.0
  0
LINE
  5
5BD9
330
1E
100
AcDbEntity
  8
0
 48
0.27
100
AcDbLine
 10
-58.56695378735018
 20
306.0583940275353
 30
0.0
 11
-56.064695111598
 21
307.1906627466241
 31
0.0
  0
LINE
  5
5BDA
330
1E
100
AcDbEntity
  8
0
 48
0.27
100
AcDbLine
 10
-51.23317645648441
 20
309.2994191940365
 30
0.0
 11
-51.21670858110924
 21
309.7363397665022
 31
0.0
  0
LINE
  5
5BDB
330
1E
100
AcDbEntity
  8
0
 48
0.27
100
AcDbLine
 10
-51.28194715237906
 20
308.8792888071247
 30
0.0
 11
-51.23317645648441
 21
309.2994191940365
 31
0.0
  0
LINE
  5
5BDC
330
1E
100
AcDbEntity
  8
0
 48
0.27
100
AcDbLine
 10
-51.21670858110924
 20
309.7363397665022
 30
0.0
 11
-51.23317645648441
 21
310.173260338968
 31
0.0
  0
LINE
  5
5BDD
330
1E
100
AcDbEntity
  8
0
 48
0.27
100
AcDbLine
 10
-58.84692102860472
 20
305.986338514002
 30
0.0
 11
-58.56695378735018
 21
306.0583940275353
 31
0.0
  0
LINE
  5
5BDE
330
1E
100
AcDbEntity
  8
0
 48
0.27
100
AcDbLine
 10
-58.84692102860472
 20
313.4863393490022
 30
0.0
 11
-58.56695378735018
 21
313.4142838354689
 31
0.0
  0
LINE
  5
5BDF
330
1E
100
AcDbEntity
  8
0
 48
0.27
100
AcDbLine
 10
-58.56695378735018
 20
313.4142838354689
 30
0.0
 11
-56.064695111598
 21
312.28201511638
 31
0.0
  0
LINE
  5
5BE0
330
1E
100
AcDbEntity
  8
0
 48
0.27
100
AcDbLine
 10
-51.36114692823044
 20
308.4920958408385
 30
0.0
 11
-51.28194715237906
 21
308.8792888071247
 31
0.0
  0
LINE
  5
5BE1
330
1E
100
AcDbEntity
  8
0
 48
0.27
100
AcDbLine
 10
-51.23317645648441
 20
310.173260338968
 30
0.0
 11
-51.28194715237906
 21
310.5933890558794
 31
0.0
  0
LINE
  5
5BE2
330
1E
100
AcDbEntity
  8
0
 48
0.27
100
AcDbLine
 10
-51.46773304303033
 20
308.1527166602871
 30
0.0
 11
-51.36114692823044
 21
308.4920958408385
 31
0.0
  0
LINE
  5
5BE3
330
1E
100
AcDbEntity
  8
0
 48
0.27
100
AcDbLine
 10
-52.41692628242063
 20
307.6884531688802
 30
0.0
 11
-52.41455321164931
 21
307.689613819199
 31
0.0
  0
LINE
  5
5BE4
330
1E
100
AcDbEntity
  8
0
 48
0.27
100
AcDbLine
 10
-51.28194715237906
 20
310.5933890558794
 30
0.0
 11
-51.36114692823044
 21
310.980583692166
 31
0.0
  0
LINE
  5
5BE5
330
1E
100
AcDbEntity
  8
0
 48
0.27
100
AcDbLine
 10
-59.12688826985925
 20
306.0583940275353
 30
0.0
 11
-58.84692102860472
 21
305.986338514002
 31
0.0
  0
LINE
  5
5BE6
330
1E
100
AcDbEntity
  8
0
 48
0.27
100
AcDbLine
 10
-59.12688826985925
 20
313.4142838354689
 30
0.0
 11
-58.84692102860472
 21
313.4863393490022
 31
0.0
  0
LINE
  5
5BE7
330
1E
100
AcDbEntity
  8
0
 48
0.27
100
AcDbLine
 10
-51.59760731534432
 20
307.8741956393991
 30
0.0
 11
-51.46773304303033
 21
308.1527166602871
 31
0.0
  0
LINE
  5
5BE8
330
1E
100
AcDbEntity
  8
0
 48
0.27
100
AcDbLine
 10
-51.36114692823044
 20
310.980583692166
 30
0.0
 11
-51.46773304303033
 21
311.319961202717
 31
0.0
  0
LINE
  5
5BE9
330
1E
100
AcDbEntity
  8
0
 48
0.27
100
AcDbLine
 10
-56.064695111598
 20
307.1906627466241
 30
0.0
 11
-55.76329174338866
 21
307.3136666366658
 31
0.0
  0
LINE
  5
5BEA
330
1E
100
AcDbEntity
  8
0
 48
0.27
100
AcDbLine
 10
-56.064695111598
 20
312.28201511638
 30
0.0
 11
-55.76329174338866
 21
312.1590128963386
 31
0.0
  0
LINE
  5
5BEB
330
1E
100
AcDbEntity
  8
0
 48
0.27
100
AcDbLine
 10
-51.74577978358913
 20
307.6672374819622
 30
0.0
 11
-51.59760731534432
 21
307.8741956393991
 31
0.0
  0
LINE
  5
5BEC
330
1E
100
AcDbEntity
  8
0
 48
0.27
100
AcDbLine
 10
-51.46773304303033
 20
311.319961202717
 30
0.0
 11
-51.59760731534432
 21
311.598482223605
 31
0.0
  0
LINE
  5
5BED
330
1E
100
AcDbEntity
  8
0
 48
0.27
100
AcDbLine
 10
-59.39609569769189
 20
306.2717900370474
 30
0.0
 11
-59.12688826985925
 21
306.0583940275353
 31
0.0
  0
LINE
  5
5BEE
330
1E
100
AcDbEntity
  8
0
 48
0.27
100
AcDbLine
 10
-59.39609569769189
 20
313.2008878259568
 30
0.0
 11
-59.12688826985925
 21
313.4142838354689
 31
0.0
  0
LINE
  5
5BEF
330
1E
100
AcDbEntity
  8
0
 48
0.27
100
AcDbLine
 10
-55.76329174338866
 20
307.3136666366658
 30
0.0
 11
-55.49463708577331
 21
307.3022571930104
 31
0.0
  0
LINE
  5
5BF0
330
1E
100
AcDbEntity
  8
0
 48
0.27
100
AcDbLine
 10
-55.76329174338866
 20
312.1590128963386
 30
0.0
 11
-55.49463708577331
 21
312.1704206699937
 31
0.0
  0
LINE
  5
5BF1
330
1E
100
AcDbEntity
  8
0
 48
0.27
100
AcDbLine
 10
-53.46964953560036
 20
306.6059287559736
 30
0.0
 11
-51.90655574606373
 21
307.5397913904287
 31
0.0
  0
LINE
  5
5BF2
330
1E
100
AcDbEntity
  8
0
 48
0.27
100
AcDbLine
 10
-51.90655574606373
 20
307.5397913904287
 30
0.0
 11
-51.74577978358913
 21
307.6672374819622
 31
0.0
  0
LINE
  5
5BF3
330
1E
100
AcDbEntity
  8
0
 48
0.27
100
AcDbLine
 10
-51.59760731534432
 20
311.598482223605
 30
0.0
 11
-51.74577978358913
 21
311.805440381042
 31
0.0
  0
LINE
  5
5BF4
330
1E
100
AcDbEntity
  8
0
 48
0.27
100
AcDbLine
 10
-62.61450738679164
 20
309.7363397665022
 30
0.0
 11
-61.78597335667645
 21
313.4863393490022
 31
0.0
  0
LINE
  5
5BF5
330
1E
100
AcDbEntity
  8
0
 48
0.27
100
AcDbLine
 10
-62.61450738679164
 20
309.7363397665022
 30
0.0
 11
-60.50398908883508
 21
309.7363397665022
 31
0.0
  0
LINE
  5
5BF6
330
1E
100
AcDbEntity
  8
0
 48
0.27
100
AcDbLine
 10
-61.78597335667645
 20
305.986338514002
 30
0.0
 11
-62.61450738679164
 21
309.7363397665022
 31
0.0
  0
LINE
  5
5BF7
330
1E
100
AcDbEntity
  8
0
 48
0.27
100
AcDbLine
 10
-59.39609569769189
 20
306.2717900370474
 30
0.0
 11
-59.64419932850019
 21
306.6183268400441
 31
0.0
  0
LINE
  5
5BF8
330
1E
100
AcDbEntity
  8
0
 48
0.27
100
AcDbLine
 10
-59.64419932850019
 20
312.8543510229601
 30
0.0
 11
-59.39609569769189
 21
313.2008878259568
 31
0.0
  0
LINE
  5
5BF9
330
1E
100
AcDbEntity
  8
0
 48
0.27
100
AcDbLine
 10
-53.70793690326938
 20
306.5445996559816
 30
0.0
 11
-53.46964953560036
 21
306.6059287559736
 31
0.0
  0
LINE
  5
5BFA
330
1E
100
AcDbEntity
  8
0
 48
0.27
100
AcDbLine
 10
-54.15897733034315
 20
306.5794542373024
 30
0.0
 11
-53.70793690326938
 21
306.5445996559816
 31
0.0
  0
LINE
  5
5BFB
330
1E
100
AcDbEntity
  8
0
 48
0.27
100
AcDbLine
 10
-55.49463708577331
 20
307.3022571930104
 30
0.0
 11
-54.80220309001182
 21
306.8457358241464
 31
0.0
  0
LINE
  5
5BFC
330
1E
100
AcDbEntity
  8
0
 48
0.27
100
AcDbLine
 10
-52.07375787061147
 20
307.4967588163672
 30
0.0
 11
-51.90655574606373
 21
307.5397913904287
 31
0.0
  0
LINE
  5
5BFD
330
1E
100
AcDbEntity
  8
0
 48
0.27
100
AcDbLine
 10
-53.46964953560036
 20
312.8667507770309
 30
0.0
 11
-51.90655574606373
 21
311.9328864725756
 31
0.0
  0
LINE
  5
5BFE
330
1E
100
AcDbEntity
  8
0
 48
0.27
100
AcDbLine
 10
-51.90655574606373
 20
311.9328864725756
 30
0.0
 11
-51.74577978358913
 21
311.805440381042
 31
0.0
  0
LINE
  5
5BFF
330
1E
100
AcDbEntity
  8
0
 48
0.27
100
AcDbLine
 10
-53.70793690326938
 20
312.9280782070226
 30
0.0
 11
-53.46964953560036
 21
312.8667507770309
 31
0.0
  0
LINE
  5
5C00
330
1E
100
AcDbEntity
  8
0
 48
0.27
100
AcDbLine
 10
-54.15897733034315
 20
312.8932252955771
 30
0.0
 11
-53.70793690326938
 21
312.9280782070226
 31
0.0
  0
LINE
  5
5C01
330
1E
100
AcDbEntity
  8
0
 48
0.27
100
AcDbLine
 10
-55.73318163348525
 20
307.4828861219255
 30
0.0
 11
-55.55808040649335
 21
307.3440856966208
 31
0.0
  0
LINE
  5
5C02
330
1E
100
AcDbEntity
  8
0
 48
0.27
100
AcDbLine
 10
-54.80220309001182
 20
306.8457358241464
 30
0.0
 11
-54.39466283720261
 21
306.6401119971822
 31
0.0
  0
LINE
  5
5C03
330
1E
100
AcDbEntity
  8
0
 48
0.27
100
AcDbLine
 10
-54.39466283720261
 20
306.6401119971822
 30
0.0
 11
-54.15897733034315
 21
306.5794542373024
 31
0.0
  0
LINE
  5
5C04
330
1E
100
AcDbEntity
  8
0
 48
0.27
100
AcDbLine
 10
-55.49463708577331
 20
312.1704206699937
 30
0.0
 11
-54.80220309001182
 21
312.6269420388578
 31
0.0
  0
LINE
  5
5C05
330
1E
100
AcDbEntity
  8
0
 48
0.27
100
AcDbLine
 10
-55.73318163348525
 20
311.9897917410787
 30
0.0
 11
-55.55808040649335
 21
312.1285921663834
 31
0.0
  0
LINE
  5
5C06
330
1E
100
AcDbEntity
  8
0
 48
0.27
100
AcDbLine
 10
-59.64419932850019
 20
306.6183268400441
 30
0.0
 11
-59.86166345944171
 21
307.0846878520514
 31
0.0
  0
LINE
  5
5C07
330
1E
100
AcDbEntity
  8
0
 48
0.27
100
AcDbLine
 10
-59.86166345944171
 20
312.3879900109528
 30
0.0
 11
-59.64419932850019
 21
312.8543510229601
 31
0.0
  0
LINE
  5
5C08
330
1E
100
AcDbEntity
  8
0
 48
0.27
100
AcDbLine
 10
-53.94622594093867
 20
306.6059287559736
 30
0.0
 11
-53.70793690326938
 21
306.5445996559816
 31
0.0
  0
LINE
  5
5C09
330
1E
100
AcDbEntity
  8
0
 48
0.27
100
AcDbLine
 10
-54.39466283720261
 20
312.832565865822
 30
0.0
 11
-54.15897733034315
 21
312.8932252955771
 31
0.0
  0
LINE
  5
5C0A
330
1E
100
AcDbEntity
  8
0
 48
0.27
100
AcDbLine
 10
-54.80220309001182
 20
312.6269420388578
 30
0.0
 11
-54.39466283720261
 21
312.832565865822
 31
0.0
  0
LINE
  5
5C0B
330
1E
100
AcDbEntity
  8
0
 48
0.27
100
AcDbLine
 10
-59.67545505871989
 20
305.986338514002
 30
0.0
 11
-60.50398908883508
 21
309.7363397665022
 31
0.0
  0
LINE
  5
5C0C
330
1E
100
AcDbEntity
  8
0
 48
0.27
100
AcDbLine
 10
-60.50398908883508
 20
309.7363397665022
 30
0.0
 11
-59.67545505871989
 21
313.4863393490022
 31
0.0
  0
LINE
  5
5C0D
330
1E
100
AcDbEntity
  8
0
 48
0.27
100
AcDbLine
 10
-55.73318163348525
 20
307.4828861219255
 30
0.0
 11
-55.89455712618494
 21
307.708284425317
 31
0.0
  0
LINE
  5
5C0E
330
1E
100
AcDbEntity
  8
0
 48
0.27
100
AcDbLine
 10
-52.24095999503425
 20
307.5397913904287
 30
0.0
 11
-52.07375787061147
 21
307.4967588163672
 31
0.0
  0
LINE
  5
5C0F
330
1E
100
AcDbEntity
  8
0
 48
0.27
100
AcDbLine
 10
-52.07375787061147
 20
311.9759190466369
 30
0.0
 11
-51.90655574606373
 21
311.9328864725756
 31
0.0
  0
LINE
  5
5C10
330
1E
100
AcDbEntity
  8
0
 48
0.27
100
AcDbLine
 10
-53.94622594093867
 20
312.8667507770309
 30
0.0
 11
-53.70793690326938
 21
312.9280782070226
 31
0.0
  0
LINE
  5
5C11
330
1E
100
AcDbEntity
  8
0
 48
0.27
100
AcDbLine
 10
-55.01378213897052
 20
312.4592272240994
 30
0.0
 11
-54.80220309001182
 21
312.6269420388578
 31
0.0
  0
LINE
  5
5C12
330
1E
100
AcDbEntity
  8
0
 48
0.27
100
AcDbLine
 10
-55.89455712618494
 20
311.7643934376872
 30
0.0
 11
-55.73318163348525
 21
311.9897917410787
 31
0.0
  0
LINE
  5
5C13
330
1E
100
AcDbEntity
  8
0
 48
0.27
100
AcDbLine
 10
-59.86166345944171
 20
307.0846878520514
 30
0.0
 11
-60.04013307762113
 21
307.6529506273262
 31
0.0
  0
LINE
  5
5C14
330
1E
100
AcDbEntity
  8
0
 48
0.27
100
AcDbLine
 10
-60.04013307762113
 20
311.819727235678
 30
0.0
 11
-59.86166345944171
 21
312.3879900109528
 31
0.0
  0
LINE
  5
5C15
330
1E
100
AcDbEntity
  8
0
 48
0.27
100
AcDbLine
 10
-55.89455712618494
 20
307.708284425317
 30
0.0
 11
-56.03600283218138
 21
308.011619984224
 31
0.0
  0
LINE
  5
5C16
330
1E
100
AcDbEntity
  8
0
 48
0.27
100
AcDbLine
 10
-54.17535669570347
 20
306.7875563451804
 30
0.0
 11
-53.94622594093867
 21
306.6059287559736
 31
0.0
  0
LINE
  5
5C17
330
1E
100
AcDbEntity
  8
0
 48
0.27
100
AcDbLine
 10
-56.03600283218138
 20
311.4610578787802
 30
0.0
 11
-55.89455712618494
 21
311.7643934376872
 31
0.0
  0
LINE
  5
5C18
330
1E
100
AcDbEntity
  8
0
 48
0.27
100
AcDbLine
 10
-52.40173762750911
 20
307.6672374819622
 30
0.0
 11
-52.24095999503425
 21
307.5397913904287
 31
0.0
  0
LINE
  5
5C19
330
1E
100
AcDbEntity
  8
0
 48
0.27
100
AcDbLine
 10
-54.17535669570347
 20
312.6851215178238
 30
0.0
 11
-53.94622594093867
 21
312.8667507770309
 31
0.0
  0
LINE
  5
5C1A
330
1E
100
AcDbEntity
  8
0
 48
0.27
100
AcDbLine
 10
-52.24095999503425
 20
311.9328864725756
 30
0.0
 11
-52.07375787061147
 21
311.9759190466369
 31
0.0
  0
LINE
  5
5C1B
330
1E
100
AcDbEntity
  8
0
 48
0.27
100
AcDbLine
 10
-56.03600283218138
 20
308.011619984224
 30
0.0
 11
-56.15208457006703
 21
308.3812361946999
 31
0.0
  0
LINE
  5
5C1C
330
1E
100
AcDbEntity
  8
0
 48
0.27
100
AcDbLine
 10
-60.04013307762113
 20
307.6529506273262
 30
0.0
 11
-60.17274615076751
 21
308.3012765687217
 31
0.0
  0
LINE
  5
5C1D
330
1E
100
AcDbEntity
  8
0
 48
0.27
100
AcDbLine
 10
-60.17274615076751
 20
311.1714029642828
 30
0.0
 11
-60.04013307762113
 21
311.819727235678
 31
0.0
  0
LINE
  5
5C1E
330
1E
100
AcDbEntity
  8
0
 48
0.27
100
AcDbLine
 10
-56.15208457006703
 20
311.0914416683042
 30
0.0
 11
-56.03600283218138
 21
311.4610578787802
 31
0.0
  0
LINE
  5
5C1F
330
1E
100
AcDbEntity
  8
0
 48
0.27
100
AcDbLine
 10
-54.17535669570347
 20
306.7875563451804
 30
0.0
 11
-54.38652492446859
 21
307.0825051613119
 31
0.0
  0
LINE
  5
5C20
330
1E
100
AcDbEntity
  8
0
 48
0.27
100
AcDbLine
 10
-56.15208457006703
 20
308.3812361946999
 30
0.0
 11
-56.23834009822171
 21
308.8029280322475
 31
0.0
  0
LINE
  5
5C21
330
1E
100
AcDbEntity
  8
0
 48
0.27
100
AcDbLine
 10
-60.17274615076751
 20
308.3012765687217
 30
0.0
 11
-60.25440917740525
 21
309.0047509379519
 31
0.0
  0
LINE
  5
5C22
330
1E
100
AcDbEntity
  8
0
 48
0.27
100
AcDbLine
 10
-60.25440917740525
 20
310.4679285949276
 30
0.0
 11
-60.17274615076751
 21
311.1714029642828
 31
0.0
  0
LINE
  5
5C23
330
1E
100
AcDbEntity
  8
0
 48
0.27
100
AcDbLine
 10
-52.40173762750911
 20
311.805440381042
 30
0.0
 11
-52.24095999503425
 21
311.9328864725756
 31
0.0
  0
LINE
  5
5C24
330
1E
100
AcDbEntity
  8
0
 48
0.27
100
AcDbLine
 10
-52.40173762750911
 20
307.6672374819622
 30
0.0
 11
-52.54991009575388
 21
307.8741956393991
 31
0.0
  0
LINE
  5
5C25
330
1E
100
AcDbEntity
  8
0
 48
0.27
100
AcDbLine
 10
-54.38652492446859
 20
312.3901727016923
 30
0.0
 11
-54.17535669570347
 21
312.6851215178238
 31
0.0
  0
LINE
  5
5C26
330
1E
100
AcDbEntity
  8
0
 48
0.27
100
AcDbLine
 10
-56.23834009822171
 20
310.6697498307567
 30
0.0
 11
-56.15208457006703
 21
311.0914416683042
 31
0.0
  0
LINE
  5
5C27
330
1E
100
AcDbEntity
  8
0
 48
0.27
100
AcDbLine
 10
-56.23834009822171
 20
308.8029280322475
 30
0.0
 11
-56.29145780546735
 21
309.2604898114103
 31
0.0
  0
LINE
  5
5C28
330
1E
100
AcDbEntity
  8
0
 48
0.27
100
AcDbLine
 10
-60.25440917740525
 20
309.0047509379519
 30
0.0
 11
-60.28198422638527
 21
309.7363397665022
 31
0.0
  0
LINE
  5
5C29
330
1E
100
AcDbEntity
  8
0
 48
0.27
100
AcDbLine
 10
-60.28198422638527
 20
309.7363397665022
 30
0.0
 11
-60.25440917740525
 21
310.4679285949276
 31
0.0
  0
LINE
  5
5C2A
330
1E
100
AcDbEntity
  8
0
 48
0.27
100
AcDbLine
 10
-56.29145780546735
 20
310.2121880515939
 30
0.0
 11
-56.23834009822171
 21
310.6697498307567
 31
0.0
  0
LINE
  5
5C2B
330
1E
100
AcDbEntity
  8
0
 48
0.27
100
AcDbLine
 10
-56.29145780546735
 20
309.2604898114103
 30
0.0
 11
-56.30939194133736
 21
309.7363397665022
 31
0.0
  0
LINE
  5
5C2C
330
1E
100
AcDbEntity
  8
0
 48
0.27
100
AcDbLine
 10
-56.30939194133736
 20
309.7363397665022
 30
0.0
 11
-56.29145780546735
 21
310.2121880515939
 31
0.0
  0
LINE
  5
5C2D
330
1E
100
AcDbEntity
  8
0
 48
0.27
100
AcDbLine
 10
-54.38652492446859
 20
307.0825051613119
 30
0.0
 11
-54.57161609487879
 21
307.4794392407249
 31
0.0
  0
LINE
  5
5C2E
330
1E
100
AcDbEntity
  8
0
 48
0.27
100
AcDbLine
 10
-52.54991009575388
 20
311.598482223605
 30
0.0
 11
-52.40173762750911
 21
311.805440381042
 31
0.0
  0
LINE
  5
5C2F
330
1E
100
AcDbEntity
  8
0
 48
0.27
100
AcDbLine
 10
-52.54991009575388
 20
307.8741956393991
 30
0.0
 11
-52.67978436806792
 21
308.1527166602871
 31
0.0
  0
LINE
  5
5C30
330
1E
100
AcDbEntity
  8
0
 48
0.27
100
AcDbLine
 10
-54.57161609487879
 20
311.9932402922796
 30
0.0
 11
-54.38652492446859
 21
312.3901727016923
 31
0.0
  0
LINE
  5
5C31
330
1E
100
AcDbEntity
  8
0
 48
0.27
100
AcDbLine
 10
-52.67978436806792
 20
311.319961202717
 30
0.0
 11
-52.54991009575388
 21
311.598482223605
 31
0.0
  0
LINE
  5
5C32
330
1E
100
AcDbEntity
  8
0
 48
0.27
100
AcDbLine
 10
-54.57161609487879
 20
307.4794392407249
 30
0.0
 11
-54.72351600437107
 21
307.9631031283717
 31
0.0
  0
LINE
  5
5C33
330
1E
100
AcDbEntity
  8
0
 48
0.27
100
AcDbLine
 10
-52.67978436806792
 20
308.1527166602871
 30
0.0
 11
-52.78636881286753
 21
308.4920958408385
 31
0.0
  0
LINE
  5
5C34
330
1E
100
AcDbEntity
  8
0
 48
0.27
100
AcDbLine
 10
-54.72351600437107
 20
311.5095747345075
 30
0.0
 11
-54.57161609487879
 21
311.9932402922796
 31
0.0
  0
LINE
  5
5C35
330
1E
100
AcDbEntity
  8
0
 48
0.27
100
AcDbLine
 10
-52.78636881286753
 20
310.980583692166
 30
0.0
 11
-52.67978436806792
 21
311.319961202717
 31
0.0
  0
LINE
  5
5C36
330
1E
100
AcDbEntity
  8
0
 48
0.27
100
AcDbLine
 10
-54.72351600437107
 20
307.9631031283717
 30
0.0
 11
-54.83638800122069
 21
308.514913058274
 31
0.0
  0
LINE
  5
5C37
330
1E
100
AcDbEntity
  8
0
 48
0.27
100
AcDbLine
 10
-52.78636881286753
 20
308.4920958408385
 30
0.0
 11
-52.86556858871886
 21
308.8792888071247
 31
0.0
  0
LINE
  5
5C38
330
1E
100
AcDbEntity
  8
0
 48
0.27
100
AcDbLine
 10
-54.83638800122069
 20
310.9577648047302
 30
0.0
 11
-54.72351600437107
 21
311.5095747345075
 31
0.0
  0
LINE
  5
5C39
330
1E
100
AcDbEntity
  8
0
 48
0.27
100
AcDbLine
 10
-52.86556858871886
 20
310.5933890558794
 30
0.0
 11
-52.78636881286753
 21
310.980583692166
 31
0.0
  0
LINE
  5
5C3A
330
1E
100
AcDbEntity
  8
0
 48
0.27
100
AcDbLine
 10
-54.83638800122069
 20
308.514913058274
 30
0.0
 11
-54.90589342382812
 21
309.113661693515
 31
0.0
  0
LINE
  5
5C3B
330
1E
100
AcDbEntity
  8
0
 48
0.27
100
AcDbLine
 10
-52.86556858871886
 20
308.8792888071247
 30
0.0
 11
-52.91434095461387
 21
309.2994191940365
 31
0.0
  0
LINE
  5
5C3C
330
1E
100
AcDbEntity
  8
0
 48
0.27
100
AcDbLine
 10
-54.90589342382812
 20
310.3590161694892
 30
0.0
 11
-54.83638800122069
 21
310.9577648047302
 31
0.0
  0
LINE
  5
5C3D
330
1E
100
AcDbEntity
  8
0
 48
0.27
100
AcDbLine
 10
-52.91434095461387
 20
310.173260338968
 30
0.0
 11
-52.86556858871886
 21
310.5933890558794
 31
0.0
  0
LINE
  5
5C3E
330
1E
100
AcDbEntity
  8
0
 48
0.27
100
AcDbLine
 10
-54.90589342382812
 20
309.113661693515
 30
0.0
 11
-54.92936361149766
 21
309.7363397665022
 31
0.0
  0
LINE
  5
5C3F
330
1E
100
AcDbEntity
  8
0
 48
0.27
100
AcDbLine
 10
-52.91434095461387
 20
309.2994191940365
 30
0.0
 11
-52.93080882998897
 21
309.7363397665022
 31
0.0
  0
LINE
  5
5C40
330
1E
100
AcDbEntity
  8
0
 48
0.27
100
AcDbLine
 10
-52.93080882998897
 20
309.7363397665022
 30
0.0
 11
-52.91434095461387
 21
310.173260338968
 31
0.0
  0
LINE
  5
5C41
330
1E
100
AcDbEntity
  8
0
 48
0.27
100
AcDbLine
 10
-54.92936361149766
 20
309.7363397665022
 30
0.0
 11
-54.90589342382812
 21
310.3590161694892
 31
0.0
  0
LINE
  5
5C42
330
1E
100
AcDbEntity
  8
0
 48
0.27
100
AcDbLine
 10
-55.55808040649335
 20
307.3440856966208
 30
0.0
 11
-55.49463708577331
 21
307.3022571930104
 31
0.0
  0
LINE
  5
5C43
330
1E
100
AcDbEntity
  8
0
 48
0.27
100
AcDbLine
 10
-55.8237340729825
 20
307.3162334275945
 30
0.0
 11
-55.76329174338866
 21
307.3136666366658
 31
0.0
  0
LINE
  5
5C44
330
1E
100
AcDbEntity
  8
0
 48
0.27
100
AcDbLine
 10
-55.55808040649335
 20
312.1285921663834
 30
0.0
 11
-55.49463708577331
 21
312.1704206699937
 31
0.0
  0
LINE
  5
5C46
330
1E
100
AcDbEntity
  8
中心線
 48
0.27
100
AcDbLine
 10
-49.71670858110924
 20
309.7363397665022
 30
0.0
 11
-71.47535725305356
 21
309.7363397665022
 31
0.0
  0
POINT
  5
5C47
330
1E
100
AcDbEntity
  8
0
100
AcDbPoint
 10
-51.21670858110924
 20
309.7363397665022
 30
0.0
1001
pntflag
1000
endpoint
  0
LINE
  5
5DE6
330
1E
100
AcDbEntity
  8
0
 48
0.27
100
AcDbLine
 10
-89.36444972821144
 20
264.7350868324489
 30
0.0
 11
-108.9106836104329
 21
264.7341431864664
 31
0.0
  0
LINE
  5
5DE7
330
1E
100
AcDbEntity
  8
0
 48
0.27
100
AcDbLine
 10
-111.1137504954122
 20
264.7335871188196
 30
0.0
 11
-102.3535985605542
 21
264.734010038254
 31
0.0
  0
LINE
  5
5DE8
330
1E
100
AcDbEntity
  8
0
 48
0.27
100
AcDbLine
 10
-108.9106836104329
 20
264.7341431864664
 30
0.0
 11
-111.9108284398474
 21
267.7339983500597
 31
0.0
  0
LINE
  5
5DE9
330
1E
100
AcDbEntity
  8
0
 48
0.27
100
AcDbLine
 10
-111.1137504954122
 20
264.7335871188196
 30
0.0
 11
-114.0047007535209
 21
266.9516695362515
 31
0.0
  0
LINE
  5
5E15
330
1E
100
AcDbEntity
  8
0
 48
0.27
100
AcDbLine
 10
-17.91068371648094
 20
264.7385364514209
 30
0.0
 11
-37.45691759860264
 21
264.7375928054384
 31
0.0
  0
LINE
  5
5E17
330
1E
100
AcDbEntity
  8
0
 48
0.27
100
AcDbLine
 10
-24.46684730537261
 20
264.7377702265519
 30
0.0
 11
-15.70669537051458
 21
264.7381931459864
 31
0.0
  0
LINE
  5
5E18
330
1E
100
AcDbEntity
  8
0
 48
0.27
100
AcDbLine
 10
-24.46684730537261
 20
264.7377702265519
 30
0.0
 11
-24.46710696657018
 21
264.7382199227997
 31
0.0
  0
LINE
  5
5E19
330
1E
100
AcDbEntity
  8
0
 48
0.27
100
AcDbLine
 10
-12.8159592934369
 20
266.9565546895721
 30
0.0
 11
-15.70669537051458
 21
264.7381931459864
 31
0.0
  0
LINE
  5
5E1A
330
1E
100
AcDbEntity
  8
0
 48
0.27
100
AcDbLine
 10
-14.91082855288763
 20
267.7386812808354
 30
0.0
 11
-17.91068371648094
 21
264.7385364514209
 31
0.0
  0
LINE
  5
5E45
330
1E
100
AcDbEntity
  8
0
 48
0.27
100
AcDbLine
 10
-111.4102338597663
 20
264.9610640654359
 30
3.0
 11
-111.410343570587
 21
267.23356180292
 31
3.0
  0
LINE
  5
5E47
330
1E
100
AcDbEntity
  8
0
 48
0.27
100
AcDbLine
 10
-15.41023397164161
 20
264.9656987185748
 30
3.0
 11
-15.41034372694615
 21
267.2391178736239
 31
3.0
  0
LINE
  5
5E4B
330
1E
100
AcDbEntity
  8
0
 48
0.27
100
AcDbLine
 10
-44.91297477982384
 20
321.7367832022591
 30
0.0
 11
-81.91297473670534
 21
321.7349969296952
 31
0.0
  0
LINE
  5
5E55
330
1E
100
AcDbEntity
  8
0
 48
0.27
100
AcDbLine
 10
-81.91297473670534
 20
321.7349969296952
 30
0.0
 11
-82.91292645790333
 21
320.7349486532237
 31
0.0
  0
LINE
  5
5E59
330
1E
100
AcDbEntity
  8
0
 48
0.27
100
AcDbLine
 10
-44.91297477982384
 20
321.7367832022591
 30
0.0
 11
-43.91292650335258
 21
320.7368314810614
 31
0.0
  0
LINE
  5
5FCB
330
1E
100
AcDbEntity
  8
0
 48
0.27
100
AcDbLine
 10
-111.9108284398474
 20
267.7339983500597
 30
0.0
 11
-111.9113389534223
 21
278.3085336325825
 31
0.0
  0
LINE
  5
5FD2
330
1E
100
AcDbEntity
  8
0
 48
0.27
100
AcDbLine
 10
-111.9112387997607
 20
276.2339983401541
 30
0.0
 11
-108.4112388038395
 21
276.2341673118831
 31
0.0
  0
LINE
  5
5FD3
330
1E
100
AcDbEntity
  8
0
 48
0.27
100
AcDbLine
 10
-111.9116250208556
 20
284.2339983308312
 30
0.0
 11
-108.4116250249344
 21
284.2341673025602
 31
0.0
  0
ARC
  5
5FD4
330
1E
100
AcDbEntity
  8
0
 48
0.27
100
AcDbCircle
 10
-108.411431914387
 20
280.2341673072216
 30
0.0
 40
4.0
100
AcDbArc
 50
270.0027661048382
 51
90.00276610483828
  0
LINE
  5
5FFB
330
1E
100
AcDbEntity
  8
0
 48
0.27
100
AcDbLine
 10
-14.91134028813844
 20
278.3385217757392
 30
0.0
 11
-14.91082855288763
 21
267.7386812808354
 31
0.0
  0
ARC
  5
6026
330
1E
100
AcDbEntity
  8
0
 48
0.27
100
AcDbCircle
 10
-18.41143201926963
 20
280.2385122945393
 30
0.0
 40
4.0
100
AcDbArc
 50
90.00276610483828
 51
270.0027661048382
  0
LINE
  5
6027
330
1E
100
AcDbEntity
  8
0
 48
0.27
100
AcDbLine
 10
-14.91123891280096
 20
276.2386812709298
 30
0.0
 11
-18.41123890872218
 21
276.2385122992008
 31
0.0
  0
LINE
  5
6028
330
1E
100
AcDbEntity
  8
0
 48
0.27
100
AcDbLine
 10
-14.91162513389586
 20
284.2386812616069
 30
0.0
 11
-18.41162512981708
 21
284.2385122898779
 31
0.0
  0
CIRCLE
  5
6061
330
1E
100
AcDbEntity
  8
指線
 48
0.27
100
AcDbCircle
 10
-18.41143201926963
 20
280.2385122945393
 30
0.0
 40
4.0
  0
ARC
  5
6062
330
1E
100
AcDbEntity
  8
指線
 48
0.27
100
AcDbCircle
 10
-18.41143201926963
 20
280.2385122945393
 30
0.0
 40
2.397105012956728
100
AcDbArc
 50
109.4792672645163
 51
160.5367380190104
  0
ARC
  5
6063
330
1E
100
AcDbEntity
  8
指線
 48
0.27
100
AcDbCircle
 10
-18.41143201926963
 20
280.2385122945393
 30
0.0
 40
2.397105012956728
100
AcDbArc
 50
199.4791870960456
 51
250.5376787567906
  0
LINE
  5
6064
330
1E
100
AcDbEntity
  8
指線
 48
0.27
100
AcDbLine
 10
-19.21078441225628
 20
282.4984123354634
 30
0.0
 11
-19.21058916151758
 21
281.0374237706463
 31
0.0
  0
LINE
  5
6065
330
1E
100
AcDbEntity
  8
指線
 48
0.27
100
AcDbLine
 10
-19.21034196808123
 20
279.4393534727268
 30
0.0
 11
-19.21011598052889
 21
277.9783759329077
 31
0.0
  0
LINE
  5
6066
330
1E
100
AcDbEntity
  8
指線
 48
0.27
100
AcDbLine
 10
-19.21034196808123
 20
279.4393534727268
 30
0.0
 11
-22.32895968988729
 21
279.4389470272747
 31
0.0
  0
LINE
  5
6067
330
1E
100
AcDbEntity
  8
指線
 48
0.27
100
AcDbLine
 10
-19.21058916151758
 20
281.0374237706463
 30
0.0
 11
-22.32920688332364
 21
281.0370173251947
 31
0.0
  0
ARC
  5
6068
330
1E
100
AcDbEntity
  8
指線
 48
0.27
100
AcDbCircle
 10
-18.41143201926963
 20
280.2385122945393
 30
0.0
 40
2.397105012956728
100
AcDbArc
 50
19.48100010832717
 51
70.53767875679125
  0
ARC
  5
6069
330
1E
100
AcDbEntity
  8
指線
 48
0.27
100
AcDbCircle
 10
-18.41143201926963
 20
280.2385122945393
 30
0.0
 40
2.397105012956728
100
AcDbArc
 50
289.4796124658259
 51
340.5385510315206
  0
LINE
  5
606A
330
1E
100
AcDbEntity
  8
指線
 48
0.27
100
AcDbLine
 10
-17.61227487702172
 20
279.4396008184323
 30
0.0
 11
-17.61206601062701
 21
277.978617069674
 31
0.0
  0
LINE
  5
606B
330
1E
100
AcDbEntity
  8
指線
 48
0.27
100
AcDbLine
 10
-17.61274805801041
 20
282.498648656171
 30
0.0
 11
-17.61252207045842
 21
281.0376711163523
 31
0.0
  0
LINE
  5
606C
330
1E
100
AcDbEntity
  8
指線
 48
0.27
100
AcDbLine
 10
-17.61227487702172
 20
279.4396008184323
 30
0.0
 11
-14.50006179376128
 21
279.4401587693288
 31
0.0
  0
LINE
  5
606D
330
1E
100
AcDbEntity
  8
指線
 48
0.27
100
AcDbLine
 10
-17.61252207045842
 20
281.0376711163523
 30
0.0
 11
-14.50030898719798
 21
281.0382290672488
 31
0.0
  0
CIRCLE
  5
606E
330
1E
100
AcDbEntity
  8
指線
 48
0.27
100
AcDbCircle
 10
-108.411431914387
 20
280.2341673072216
 30
0.0
 40
4.0
  0
ARC
  5
606F
330
1E
100
AcDbEntity
  8
指線
 48
0.27
100
AcDbCircle
 10
-108.411431914387
 20
280.2341673072216
 30
0.0
 40
2.397105012956728
100
AcDbArc
 50
109.4792672645163
 51
160.5367380190104
  0
ARC
  5
6070
330
1E
100
AcDbEntity
  8
指線
 48
0.27
100
AcDbCircle
 10
-108.411431914387
 20
280.2341673072216
 30
0.0
 40
2.397105012956728
100
AcDbArc
 50
199.4791870960456
 51
250.5376787567906
  0
LINE
  5
6071
330
1E
100
AcDbEntity
  8
指線
 48
0.27
100
AcDbLine
 10
-109.2107843073736
 20
282.4940673481457
 30
0.0
 11
-109.2105890566349
 21
281.0330787833287
 31
0.0
  0
LINE
  5
6072
330
1E
100
AcDbEntity
  8
指線
 48
0.27
100
AcDbLine
 10
-109.2103418631986
 20
279.4350084854091
 30
0.0
 11
-109.2101158756462
 21
277.9740309455901
 31
0.0
  0
LINE
  5
6073
330
1E
100
AcDbEntity
  8
指線
 48
0.27
100
AcDbLine
 10
-109.2103418631986
 20
279.4350084854091
 30
0.0
 11
-112.3289595850046
 21
279.434602039957
 31
0.0
  0
LINE
  5
6074
330
1E
100
AcDbEntity
  8
指線
 48
0.27
100
AcDbLine
 10
-109.2105890566349
 20
281.0330787833287
 30
0.0
 11
-112.329206778441
 21
281.032672337877
 31
0.0
  0
ARC
  5
6075
330
1E
100
AcDbEntity
  8
指線
 48
0.27
100
AcDbCircle
 10
-108.411431914387
 20
280.2341673072216
 30
0.0
 40
2.397105012956728
100
AcDbArc
 50
19.48100010832717
 51
70.53767875679125
  0
ARC
  5
6076
330
1E
100
AcDbEntity
  8
指線
 48
0.27
100
AcDbCircle
 10
-108.411431914387
 20
280.2341673072216
 30
0.0
 40
2.397105012956728
100
AcDbArc
 50
289.4796124658259
 51
340.5385510315206
  0
LINE
  5
6077
330
1E
100
AcDbEntity
  8
指線
 48
0.27
100
AcDbLine
 10
-107.6122747721391
 20
279.4352558311147
 30
0.0
 11
-107.6120659057443
 21
277.9742720823563
 31
0.0
  0
LINE
  5
6078
330
1E
100
AcDbEntity
  8
指線
 48
0.27
100
AcDbLine
 10
-107.6127479531277
 20
282.4943036688533
 30
0.0
 11
-107.6125219655758
 21
281.0333261290346
 31
0.0
  0
LINE
  5
6079
330
1E
100
AcDbEntity
  8
指線
 48
0.27
100
AcDbLine
 10
-107.6122747721391
 20
279.4352558311147
 30
0.0
 11
-104.5000616888786
 21
279.4358137820112
 31
0.0
  0
LINE
  5
607A
330
1E
100
AcDbEntity
  8
指線
 48
0.27
100
AcDbLine
 10
-107.6125219655758
 20
281.0333261290346
 30
0.0
 11
-104.5003088823153
 21
281.0338840799311
 31
0.0
  0
LINE
  5
61A8
330
1E
100
AcDbEntity
  8
0
 48
0.27
100
AcDbLine
 10
6.588256239899607
 20
296.2392695302744
 30
0.0
 11
6.587119301551496
 21
319.7892695028301
 31
0.0
  0
LINE
  5
61AC
330
1E
100
AcDbEntity
  8
0
 48
0.27
100
AcDbLine
 10
-14.91321829591233
 20
317.2386812231498
 30
0.0
 11
-14.9115237616678
 21
282.1389051641335
 31
0.0
  0
LINE
  5
61B1
330
1E
100
AcDbEntity
  8
0
 48
0.27
100
AcDbLine
 10
-130.7116953224588
 20
295.2326410118985
 30
0.0
 11
-132.2205718586634
 21
296.7413718651494
 31
0.0
  0
LINE
  5
61B2
330
1E
100
AcDbEntity
  8
0
 48
0.27
100
AcDbLine
 10
-111.91152429041
 20
282.1475158090624
 30
0.0
 11
-111.9132181828721
 21
317.2339982923741
 31
0.0
  0
LINE
  5
61B3
330
1E
100
AcDbEntity
  8
中心線
 48
0.27
100
AcDbLine
 10
-121.411620893907
 20
293.6911878984016
 30
3.0
 11
-121.4130712459471
 21
323.7330899607083
 31
0.0
  0
LINE
  5
61B4
330
1E
100
AcDbEntity
  8
中心線
 48
0.27
100
AcDbLine
 10
-5.411599832254054
 20
293.2577269383597
 30
3.0
 11
-5.413071381129725
 21
323.7386901665844
 31
0.0
  0
LINE
  5
61B6
330
1E
100
AcDbEntity
  8
0
 48
0.27
100
AcDbLine
 10
-114.0047007535209
 20
266.9516695362515
 30
0.0
 11
-121.0875591508859
 21
293.3801532530472
 31
0.0
  0
LINE
  5
61B7
330
1E
100
AcDbEntity
  8
0
 48
0.27
100
AcDbLine
 10
-130.7116953224588
 20
295.2326410118985
 30
0.0
 11
-123.5024631699568
 21
295.2329890565909
 31
0.0
  0
ARC
  5
61B8
330
1E
100
AcDbEntity
  8
0
 48
0.27
100
AcDbCircle
 10
-123.5023424758646
 20
292.7329890595042
 30
0.0
 40
2.5
100
AcDbArc
 50
15.00276610484049
 51
90.00276610483828
  0
LINE
  5
61EA
330
1E
100
AcDbEntity
  8
0
 48
0.27
100
AcDbLine
 10
-12.8159592934369
 20
266.9565546895721
 30
0.0
 11
-5.735652738564994
 21
293.3857221705029
 31
0.0
  0
LINE
  5
621D
330
1E
100
AcDbEntity
  8
0
 48
0.27
100
AcDbLine
 10
5.588304518701846
 20
295.2392212538029
 30
0.0
 11
-3.320927631818875
 21
295.2387911371279
 31
0.0
  0
ARC
  5
621E
330
1E
100
AcDbEntity
  8
0
 48
0.27
100
AcDbCircle
 10
-3.320806937726729
 20
292.7387911400413
 30
0.0
 40
2.5
100
AcDbArc
 50
90.00276610483828
 51
165.0027661048372
  0
LINE
  5
621F
330
1E
100
AcDbEntity
  8
0
 48
0.27
100
AcDbLine
 10
5.588304518701846
 20
295.2392212538029
 30
0.0
 11
6.588256239899607
 21
296.2392695302744
 31
0.0
  0
LINE
  5
6223
330
1E
100
AcDbEntity
  8
0
 48
0.27
100
AcDbLine
 10
-108.9133630192788
 20
320.2341431217886
 30
0.0
 11
-17.91336312532682
 21
320.2385363867431
 31
0.0
  0
LINE
  5
6226
330
1E
100
AcDbEntity
  8
0
 48
0.27
100
AcDbLine
 10
-100.9129747145636
 20
321.7340796545948
 30
0.0
 11
-131.5129746789033
 21
321.7326023589068
 31
0.0
  0
LINE
  5
6227
330
1E
100
AcDbEntity
  8
0
 48
0.27
100
AcDbLine
 10
-131.5129746789033
 20
321.7326023589068
 30
0.0
 11
-133.4128829491789
 21
319.8325106336112
 31
0.0
  0
LINE
  5
6228
330
1E
100
AcDbEntity
  8
0
 48
0.27
100
AcDbLine
 10
-133.4128829491789
 20
319.832510633611
 30
0.0
 11
-133.4121310605141
 21
304.2582465830487
 31
0.0
  0
ARC
  5
6229
330
1E
100
AcDbEntity
  8
0
 48
0.27
100
AcDbCircle
 10
-133.2729414284702
 20
302.7049250974209
 30
0.0
 40
1.0
100
AcDbArc
 50
0.5027661048428233
 51
45.00276610484596
  0
LINE
  5
622A
330
1E
100
AcDbEntity
  8
0
 48
0.27
100
AcDbLine
 10
-132.2205718586634
 20
296.7413718651494
 30
0.0
 11
-132.2729799278676
 21
302.7136999087077
 31
0.0
  0
LINE
  5
622B
330
1E
100
AcDbEntity
  8
0
 48
0.27
100
AcDbLine
 10
-132.5658687855519
 20
303.4120660152278
 30
0.0
 11
-133.4121310605141
 21
304.2582465830487
 31
0.0
  0
LINE
  5
622C
330
1E
100
AcDbEntity
  8
0
 48
0.27
100
AcDbLine
 10
-82.91292645790333
 20
320.7349486532237
 30
0.0
 11
-99.91292643809213
 21
320.7341279333971
 31
0.0
  0
LINE
  5
622D
330
1E
100
AcDbEntity
  8
0
 48
0.27
100
AcDbLine
 10
-99.91292643809213
 20
320.7341279333971
 30
0.0
 11
-100.9129747145636
 21
321.7340796545948
 31
0.0
  0
ARC
  5
622E
330
1E
100
AcDbEntity
  8
0
 48
0.27
100
AcDbCircle
 10
-108.9132181863682
 20
317.2341431252847
 30
0.0
 40
3.0
100
AcDbArc
 50
90.00276610483828
 51
180.0027661048382
  0
LINE
  5
6232
330
1E
100
AcDbEntity
  8
0
 48
0.27
100
AcDbLine
 10
4.637025162432024
 20
321.7391753591657
 30
0.0
 11
-25.91297480196578
 21
321.7377004773595
 31
0.0
  0
LINE
  5
6233
330
1E
100
AcDbEntity
  8
0
 48
0.27
100
AcDbLine
 10
-25.91297480196578
 20
321.7377004773595
 30
0.0
 11
-26.91292652316379
 21
320.7376522008881
 31
0.0
  0
LINE
  5
6235
330
1E
100
AcDbEntity
  8
0
 48
0.27
100
AcDbLine
 10
-26.91292652316379
 20
320.7376522008881
 30
0.0
 11
-43.91292650335258
 21
320.7368314810614
 31
0.0
  0
CIRCLE
  5
6236
330
1E
100
AcDbEntity
  8
指線
 48
0.27
100
AcDbCircle
 10
-22.41302517662487
 20
313.2383191455348
 30
0.0
 40
4.0
  0
ARC
  5
6237
330
1E
100
AcDbEntity
  8
0
 48
0.27
100
AcDbCircle
 10
-17.91321829241623
 20
317.2385363902392
 30
0.0
 40
3.0
100
AcDbArc
 50
0.0027661048382591
 51
90.00276610483828
  0
LINE
  5
6238
330
1E
100
AcDbEntity
  8
0
 48
0.27
100
AcDbLine
 10
6.587119301551496
 20
319.7892695028301
 30
0.0
 11
4.637025162432024
 21
321.7391753591657
 31
0.0
  0
LINE
  5
6239
330
1E
100
AcDbEntity
  8
虛線
 48
0.27
100
AcDbLine
 10
-128.4129022660605
 20
320.2327520213291
 30
3.0
 11
-114.4129022823756
 21
320.2334279082452
 31
3.0
  0
LINE
  5
623A
330
1E
100
AcDbEntity
  8
0
 48
0.27
100
AcDbLine
 10
-111.9126146907004
 20
304.7335485981585
 30
3.0
 11
-133.4121539568625
 21
304.732510651208
 31
3.0
  0
LINE
  5
623B
330
1E
100
AcDbEntity
  8
虛線
 48
0.27
100
AcDbLine
 10
-128.4122360346718
 20
306.4327520374112
 30
3.0
 11
-114.4122360509869
 21
306.4334279243273
 31
3.0
  0
LINE
  5
623C
330
1E
100
AcDbEntity
  8
虛線
 48
0.27
100
AcDbLine
 10
-128.4129022660605
 20
320.2327520213291
 30
3.0
 11
-129.912974680768
 21
321.7326796031258
 31
3.0
  0
LINE
  5
623D
330
1E
100
AcDbEntity
  8
虛線
 48
0.27
100
AcDbLine
 10
-128.4122360346718
 20
306.4327520374112
 30
3.0
 11
-128.4129022660605
 21
320.2327520213291
 31
3.0
  0
LINE
  5
623E
330
1E
100
AcDbEntity
  8
虛線
 48
0.27
100
AcDbLine
 10
-127.4122360358372
 20
306.432800315048
 30
3.0
 11
-127.4129022672259
 21
320.232800298966
 31
3.0
  0
LINE
  5
623F
330
1E
100
AcDbEntity
  8
虛線
 48
0.27
100
AcDbLine
 10
-128.4122360346718
 20
306.4327520374112
 30
3.0
 11
-130.1121539607083
 21
304.7326699674096
 31
3.0
  0
LINE
  5
6240
330
1E
100
AcDbEntity
  8
虛線
 48
0.27
100
AcDbLine
 10
-114.4129022823756
 20
320.2334279082452
 30
3.0
 11
-112.912974700579
 21
321.7335003229525
 31
3.0
  0
LINE
  5
6241
330
1E
100
AcDbEntity
  8
虛線
 48
0.27
100
AcDbLine
 10
-115.4122360498216
 20
306.4333796466904
 30
3.0
 11
-115.4129022812103
 21
320.2333796306084
 31
3.0
  0
LINE
  5
6242
330
1E
100
AcDbEntity
  8
虛線
 48
0.27
100
AcDbLine
 10
-114.4122360509869
 20
306.4334279243273
 30
3.0
 11
-114.4129022823756
 21
320.2334279082452
 31
3.0
  0
LINE
  5
6243
330
1E
100
AcDbEntity
  8
虛線
 48
0.27
100
AcDbLine
 10
-114.4122360509869
 20
306.4334279243273
 30
3.0
 11
-112.7121539809856
 21
304.733509998291
 31
3.0
  0
LINE
  5
6244
330
1E
100
AcDbEntity
  8
虛線
 48
0.27
100
AcDbLine
 10
-12.41290240124314
 20
320.2383522272052
 30
3.0
 11
-13.91297481595062
 21
321.7382798090019
 31
3.0
  0
LINE
  5
6245
330
1E
100
AcDbEntity
  8
虛線
 48
0.27
100
AcDbLine
 10
-12.41223616985445
 20
306.4383522432873
 30
3.0
 11
-14.1121540958907
 21
304.7382701732857
 31
3.0
  0
LINE
  5
6246
330
1E
100
AcDbEntity
  8
0
 48
0.27
100
AcDbLine
 10
-14.91261480374066
 20
304.7382315289342
 30
3.0
 11
6.587845879986275
 21
304.7392695203687
 31
3.0
  0
LINE
  5
6247
330
1E
100
AcDbEntity
  8
虛線
 48
0.27
100
AcDbLine
 10
1.587097582441742
 20
320.2390281141213
 30
3.0
 11
3.087025164238625
 21
321.7391005288285
 31
3.0
  0
LINE
  5
6248
330
1E
100
AcDbEntity
  8
虛線
 48
0.27
100
AcDbLine
 10
1.587763813830434
 20
306.4390281302034
 30
3.0
 11
1.587097582441742
 21
320.2390281141213
 31
3.0
  0
LINE
  5
6249
330
1E
100
AcDbEntity
  8
虛線
 48
0.27
100
AcDbLine
 10
0.5877638149958102
 20
306.4389798525664
 30
3.0
 11
0.587097583607104
 21
320.2389798364844
 31
3.0
  0
LINE
  5
624A
330
1E
100
AcDbEntity
  8
虛線
 48
0.27
100
AcDbLine
 10
-12.41223616985445
 20
306.4383522432873
 30
3.0
 11
-12.41290240124314
 21
320.2383522272052
 31
3.0
  0
LINE
  5
624B
330
1E
100
AcDbEntity
  8
虛線
 48
0.27
100
AcDbLine
 10
-11.41223617101981
 20
306.4384005209241
 30
3.0
 11
-11.41290240240852
 21
320.238400504842
 31
3.0
  0
LINE
  5
624C
330
1E
100
AcDbEntity
  8
虛線
 48
0.27
100
AcDbLine
 10
1.587763813830434
 20
306.4390281302034
 30
3.0
 11
-12.41223616985445
 21
306.4383522432873
 31
3.0
  0
LINE
  5
624D
330
1E
100
AcDbEntity
  8
虛線
 48
0.27
100
AcDbLine
 10
1.587763813830434
 20
306.4390281302034
 30
3.0
 11
3.287845883832034
 21
304.7391102041671
 31
3.0
  0
LINE
  5
624E
330
1E
100
AcDbEntity
  8
虛線
 48
0.27
100
AcDbLine
 10
1.587097582441742
 20
320.2390281141213
 30
3.0
 11
-12.41290240124314
 21
320.2383522272052
 31
3.0
  0
LINE
  5
624F
330
1E
100
AcDbEntity
  8
指線
 48
0.27
100
AcDbLine
 10
-21.61411522781365
 20
314.0374779673478
 30
0.0
 11
-18.50190214455321
 21
314.0380359182443
 31
0.0
  0
LINE
  5
6250
330
1E
100
AcDbEntity
  8
指線
 48
0.27
100
AcDbLine
 10
-21.61386803437695
 20
312.4394076694278
 30
0.0
 11
-18.50165495111651
 21
312.4399656203243
 31
0.0
  0
LINE
  5
6251
330
1E
100
AcDbEntity
  8
指線
 48
0.27
100
AcDbLine
 10
-23.21218231887281
 20
314.0372306216418
 30
0.0
 11
-26.33080004067887
 21
314.0368241761901
 31
0.0
  0
LINE
  5
6252
330
1E
100
AcDbEntity
  8
指線
 48
0.27
100
AcDbLine
 10
-23.21193512543647
 20
312.4391603237222
 30
0.0
 11
-26.33055284724253
 21
312.4387538782702
 31
0.0
  0
LINE
  5
6253
330
1E
100
AcDbEntity
  8
指線
 48
0.27
100
AcDbLine
 10
-21.61386803437695
 20
312.4394076694278
 30
0.0
 11
-21.61364204650521
 21
310.9784301296019
 31
0.0
  0
LINE
  5
6254
330
1E
100
AcDbEntity
  8
指線
 48
0.27
100
AcDbLine
 10
-23.21193512543647
 20
312.4391603237222
 30
0.0
 11
-23.21170913788412
 21
310.9781827839032
 31
0.0
  0
LINE
  5
6255
330
1E
100
AcDbEntity
  8
指線
 48
0.27
100
AcDbLine
 10
-21.61434121536564
 20
315.4984555071664
 30
0.0
 11
-21.61411522781365
 21
314.0374779673478
 31
0.0
  0
LINE
  5
6256
330
1E
100
AcDbEntity
  8
指線
 48
0.27
100
AcDbLine
 10
-23.21240830674454
 20
315.4982081614681
 30
0.0
 11
-23.21218231887281
 21
314.0372306216418
 31
0.0
  0
ARC
  5
6257
330
1E
100
AcDbEntity
  8
指線
 48
0.27
100
AcDbCircle
 10
-22.41302517662487
 20
313.2383191455348
 30
0.0
 40
2.397104869014718
100
AcDbArc
 50
109.4800477691859
 51
160.5367368026387
  0
ARC
  5
6258
330
1E
100
AcDbEntity
  8
指線
 48
0.27
100
AcDbCircle
 10
-22.41302517662487
 20
313.2383191455348
 30
0.0
 40
2.397104869014718
100
AcDbArc
 50
199.4791883124834
 51
250.5376775403883
  0
ARC
  5
6259
330
1E
100
AcDbEntity
  8
指線
 48
0.27
100
AcDbCircle
 10
-22.41302517662487
 20
313.2383191455348
 30
0.0
 40
2.397104869014718
100
AcDbArc
 50
289.4800477691855
 51
340.5385498150814
  0
ARC
  5
625A
330
1E
100
AcDbEntity
  8
指線
 48
0.27
100
AcDbCircle
 10
-22.41302517662487
 20
313.2383191455348
 30
0.0
 40
2.397104869014718
100
AcDbArc
 50
19.48100132469906
 51
70.53767754038912
  0
CIRCLE
  5
6275
330
1E
100
AcDbEntity
  8
指線
 48
0.27
100
AcDbCircle
 10
-104.4130250810649
 20
313.234360379312
 30
0.0
 40
4.0
  0
ARC
  5
6276
330
1E
100
AcDbEntity
  8
指線
 48
0.27
100
AcDbCircle
 10
-104.4130250810649
 20
313.234360379312
 30
0.0
 40
2.397104869014718
100
AcDbArc
 50
109.4800477691859
 51
160.5367368026387
  0
LINE
  5
6277
330
1E
100
AcDbEntity
  8
指線
 48
0.27
100
AcDbLine
 10
-105.2124082111846
 20
315.4942493952454
 30
0.0
 11
-105.2121822233128
 21
314.0332718554191
 31
0.0
  0
ARC
  5
6278
330
1E
100
AcDbEntity
  8
指線
 48
0.27
100
AcDbCircle
 10
-104.4130250810649
 20
313.234360379312
 30
0.0
 40
2.397104869014718
100
AcDbArc
 50
199.4791883124834
 51
250.5376775403883
  0
LINE
  5
6279
330
1E
100
AcDbEntity
  8
指線
 48
0.27
100
AcDbLine
 10
-105.2119350298765
 20
312.4352015574995
 30
0.0
 11
-105.2117090423241
 21
310.9742240176805
 31
0.0
  0
LINE
  5
627A
330
1E
100
AcDbEntity
  8
指線
 48
0.27
100
AcDbLine
 10
-105.2119350298765
 20
312.4352015574995
 30
0.0
 11
-108.3305527516825
 21
312.4347951120475
 31
0.0
  0
LINE
  5
627B
330
1E
100
AcDbEntity
  8
指線
 48
0.27
100
AcDbLine
 10
-105.2121822233128
 20
314.0332718554191
 30
0.0
 11
-108.3307999451189
 21
314.0328654099675
 31
0.0
  0
ARC
  5
627C
330
1E
100
AcDbEntity
  8
指線
 48
0.27
100
AcDbCircle
 10
-104.4130250810649
 20
313.234360379312
 30
0.0
 40
2.397104869014718
100
AcDbArc
 50
19.48100132469906
 51
70.53767754038912
  0
LINE
  5
627D
330
1E
100
AcDbEntity
  8
指線
 48
0.27
100
AcDbLine
 10
-103.6143411198056
 20
315.4944967409437
 30
0.0
 11
-103.6141151322537
 21
314.0335192011251
 31
0.0
  0
ARC
  5
627E
330
1E
100
AcDbEntity
  8
指線
 48
0.27
100
AcDbCircle
 10
-104.4130250810649
 20
313.234360379312
 30
0.0
 40
2.397104869014718
100
AcDbArc
 50
289.4800477691855
 51
340.5385498150814
  0
LINE
  5
627F
330
1E
100
AcDbEntity
  8
指線
 48
0.27
100
AcDbLine
 10
-103.613867938817
 20
312.4354489032051
 30
0.0
 11
-103.6136419509452
 21
310.9744713633791
 31
0.0
  0
LINE
  5
6280
330
1E
100
AcDbEntity
  8
指線
 48
0.27
100
AcDbLine
 10
-103.613867938817
 20
312.4354489032051
 30
0.0
 11
-100.5016548555565
 21
312.4360068541016
 31
0.0
  0
LINE
  5
6281
330
1E
100
AcDbEntity
  8
指線
 48
0.27
100
AcDbLine
 10
-103.6141151322537
 20
314.0335192011251
 30
0.0
 11
-100.5019020489932
 21
314.0340771520216
 31
0.0
  0
MTEXT
  5
628D
330
1E
100
AcDbEntity
  8
0
100
AcDbMText
 10
-99.76690045231496
 20
233.8690135887609
 30
0.0
 40
7.800000159341863
 41
100.6094999999999
 71
     1
 72
     5
  1
\A1;{\fTimes New Roman|b0|i0|c0|p18;HGW55CC\PC : 11670 kgf\PC\fProxy 1|b0|i0|c0|p0;\H0.7x;\S^ 0;\fTimes New Roman|b0|i0|c0|p18;\H1.429x;: 23230 kgf}
 73
     1
 44
1.0
  0
LINE
  5
6604
330
1E
100
AcDbEntity
  8
0
 48
0.27
100
AcDbLine
 10
279.7850829506391
 20
395.1606778135308
 30
0.0
 11
300.9850829506388
 21
395.1606778135309
 31
0.0
  0
LINE
  5
6605
330
1E
100
AcDbEntity
  8
中心線
100
AcDbLine
 10
304.2866618706758
 20
398.6606778135312
 30
0.0
 11
293.6414363427468
 21
398.6606778135312
 31
0.0
  0
LINE
  5
6606
330
1E
100
AcDbEntity
  8
0
100
AcDbLine
 10
302.6218116846377
 20
400.5114944723963
 30
0.0
 11
302.6218116846377
 21
396.8098611546661
 31
0.0
  0
ARC
  5
6607
330
1E
100
AcDbEntity
  8
0
100
AcDbCircle
 10
300.3640898760727
 20
396.846417815348
 30
0.0
 40
2.258017748891657
100
AcDbArc
 50
285.9630221688289
 51
359.072357212004
  0
LINE
  5
6608
330
1E
100
AcDbEntity
  8
中心線
100
AcDbLine
 10
304.2866618706758
 20
402.6606778135309
 30
0.0
 11
293.6414363427468
 21
402.6606778135309
 31
0.0
  0
LINE
  5
6609
330
1E
100
AcDbEntity
  8
0
100
AcDbLine
 10
302.6218116846377
 20
404.5114944723961
 30
0.0
 11
302.6218116846377
 21
400.8098611546658
 31
0.0
  0
ARC
  5
660A
330
1E
100
AcDbEntity
  8
0
100
AcDbCircle
 10
300.3640898760727
 20
404.4749378117142
 30
0.0
 40
2.258017748891657
100
AcDbArc
 50
0.9276427879959484
 51
74.0369778311711
  0
ARC
  5
660B
330
1E
100
AcDbEntity
  8
0
100
AcDbCircle
 10
300.3640898760727
 20
400.8464178153476
 30
0.0
 40
2.258017748891657
100
AcDbArc
 50
285.9630221688289
 51
359.072357212004
  0
LINE
  5
660C
330
1E
100
AcDbEntity
  8
中心線
100
AcDbLine
 10
304.2866618706758
 20
484.6606778135311
 30
0.0
 11
293.6414363427468
 21
484.6606778135311
 31
0.0
  0
ARC
  5
660D
330
1E
100
AcDbEntity
  8
0
100
AcDbCircle
 10
300.3640898760727
 20
482.8464178153478
 30
0.0
 40
2.258017748891657
100
AcDbArc
 50
285.9630221688289
 51
359.072357212004
  0
LINE
  5
660E
330
1E
100
AcDbEntity
  8
0
 48
0.27
100
AcDbLine
 10
298.7850829506389
 20
395.1606778135308
 30
0.0
 11
298.7850829506389
 21
492.1606778135309
 31
0.0
  0
LINE
  5
660F
330
1E
100
AcDbEntity
  8
0
100
AcDbLine
 10
300.9850829506388
 20
395.1606778135308
 30
0.0
 11
300.9850829506388
 21
492.160677813531
 31
0.0
  0
LINE
  5
6610
330
1E
100
AcDbEntity
  8
0
 48
0.27
100
AcDbLine
 10
300.9850829506388
 20
492.160677813531
 30
0.0
 11
279.7850829506391
 21
492.1606778135309
 31
0.0
  0
LINE
  5
6611
330
1E
100
AcDbEntity
  8
中心線
100
AcDbLine
 10
304.2866618706758
 20
488.6606778135311
 30
0.0
 11
293.6414363427468
 21
488.6606778135311
 31
0.0
  0
LINE
  5
6612
330
1E
100
AcDbEntity
  8
0
100
AcDbLine
 10
302.6218116846377
 20
490.5114944723963
 30
0.0
 11
302.6218116846377
 21
486.809861154666
 31
0.0
  0
ARC
  5
6613
330
1E
100
AcDbEntity
  8
0
100
AcDbCircle
 10
300.3640898760727
 20
490.4749378117145
 30
0.0
 40
2.258017748891657
100
AcDbArc
 50
0.9276427879959484
 51
74.0369778311711
  0
LINE
  5
6614
330
1E
100
AcDbEntity
  8
0
100
AcDbLine
 10
302.6218116846377
 20
486.5114944723963
 30
0.0
 11
302.6218116846377
 21
482.809861154666
 31
0.0
  0
ARC
  5
6615
330
1E
100
AcDbEntity
  8
0
100
AcDbCircle
 10
300.3640898760727
 20
486.4749378117143
 30
0.0
 40
2.258017748891657
100
AcDbArc
 50
0.9276427879959484
 51
74.0369778311711
  0
LINE
  5
6616
330
1E
100
AcDbEntity
  8
0
100
AcDbLine
 10
279.7850829506391
 20
373.6606778135308
 30
0.0
 11
279.7850829506391
 21
513.6606778135309
 31
0.0
  0
LINE
  5
6617
330
1E
100
AcDbEntity
  8
中心線
 48
0.27
100
AcDbLine
 10
327.7382936436124
 20
427.5926078100174
 30
0.0
 11
327.7382936436124
 21
459.7287478170442
 31
0.0
  0
CIRCLE
  5
6618
330
1E
100
AcDbEntity
  8
0
100
AcDbCircle
 10
327.7382936436124
 20
443.6606778135308
 30
0.0
 40
11.50000000000022
  0
CIRCLE
  5
6619
330
1E
100
AcDbEntity
  8
0
100
AcDbCircle
 10
327.7382936436124
 20
443.6606778135308
 30
0.0
 40
8.000000000000227
  0
LINE
  5
661A
330
1E
100
AcDbEntity
  8
中心線
 48
0.27
100
AcDbLine
 10
313.0702236400991
 20
443.6606778135308
 30
0.0
 11
343.8063636471258
 21
443.6606778135308
 31
0.0
  0
LINE
  5
661B
330
1E
100
AcDbEntity
  8
0
100
AcDbLine
 10
357.7382936436123
 20
470.1606778135309
 30
0.0
 11
300.9850829506388
 21
470.1606778135309
 31
0.0
  0
LINE
  5
661C
330
1E
100
AcDbEntity
  8
0
100
AcDbLine
 10
357.7382936436123
 20
417.1606778135307
 30
0.0
 11
300.9850829506388
 21
417.1606778135307
 31
0.0
  0
LINE
  5
661D
330
1E
100
AcDbEntity
  8
0
 48
0.27
100
AcDbLine
 10
357.7382936436123
 20
417.1606778135307
 30
0.0
 11
357.7382936436123
 21
470.1606778135309
 31
0.0
  0
CIRCLE
  5
661E
330
1E
100
AcDbEntity
  8
0
100
AcDbCircle
 10
87.73829364361242
 20
443.6606778135309
 30
0.0
 40
8.000000000000227
  0
CIRCLE
  5
661F
330
1E
100
AcDbEntity
  8
0
100
AcDbCircle
 10
87.73829364361242
 20
443.6606778135309
 30
0.0
 40
11.50000000000022
  0
LINE
  5
6620
330
1E
100
AcDbEntity
  8
中心線
 48
0.27
100
AcDbLine
 10
71.67022364009901
 20
443.6606778135309
 30
0.0
 11
103.8063636471258
 21
443.6606778135309
 31
0.0
  0
LINE
  5
6621
330
1E
100
AcDbEntity
  8
中心線
 48
0.27
100
AcDbLine
 10
87.73829364361242
 20
427.5926078100175
 30
0.0
 11
87.73829364361242
 21
459.7287478170443
 31
0.0
  0
LINE
  5
6622
330
1E
100
AcDbEntity
  8
0
 48
0.27
100
AcDbLine
 10
57.73829364361242
 20
417.1606778135307
 30
0.0
 11
57.73829364361242
 21
470.160677813531
 31
0.0
  0
ARC
  5
6623
330
1E
100
AcDbEntity
  8
0
100
AcDbCircle
 10
141.506076025205
 20
482.8464178153478
 30
0.0
 40
2.258017748891657
100
AcDbArc
 50
180.9276427879959
 51
254.0369778311711
  0
ARC
  5
6624
330
1E
100
AcDbEntity
  8
0
100
AcDbCircle
 10
141.506076025205
 20
486.4749378117143
 30
0.0
 40
2.258017748891657
100
AcDbArc
 50
105.9630221688288
 51
179.072357212004
  0
LINE
  5
6625
330
1E
100
AcDbEntity
  8
0
100
AcDbLine
 10
139.24835421664
 20
486.5114944723962
 30
0.0
 11
139.24835421664
 21
482.8098611546659
 31
0.0
  0
LINE
  5
6626
330
1E
100
AcDbEntity
  8
中心線
100
AcDbLine
 10
137.5835040306019
 20
484.660677813531
 30
0.0
 11
148.2287295585309
 21
484.660677813531
 31
0.0
  0
ARC
  5
6627
330
1E
100
AcDbEntity
  8
0
100
AcDbCircle
 10
141.506076025205
 20
490.4749378117144
 30
0.0
 40
2.258017748891657
100
AcDbArc
 50
105.9630221688288
 51
179.072357212004
  0
LINE
  5
6628
330
1E
100
AcDbEntity
  8
0
100
AcDbLine
 10
139.24835421664
 20
490.5114944723963
 30
0.0
 11
139.24835421664
 21
486.809861154666
 31
0.0
  0
LINE
  5
6629
330
1E
100
AcDbEntity
  8
中心線
100
AcDbLine
 10
137.5835040306019
 20
488.6606778135311
 30
0.0
 11
148.2287295585309
 21
488.6606778135311
 31
0.0
  0
ARC
  5
662A
330
1E
100
AcDbEntity
  8
0
100
AcDbCircle
 10
141.506076025205
 20
400.8464178153475
 30
0.0
 40
2.258017748891657
100
AcDbArc
 50
180.9276427879959
 51
254.0369778311711
  0
ARC
  5
662B
330
1E
100
AcDbEntity
  8
0
100
AcDbCircle
 10
141.506076025205
 20
404.474937811714
 30
0.0
 40
2.258017748891657
100
AcDbArc
 50
105.9630221688288
 51
179.072357212004
  0
LINE
  5
662C
330
1E
100
AcDbEntity
  8
0
100
AcDbLine
 10
139.24835421664
 20
404.5114944723959
 30
0.0
 11
139.24835421664
 21
400.8098611546656
 31
0.0
  0
LINE
  5
662D
330
1E
100
AcDbEntity
  8
中心線
100
AcDbLine
 10
137.5835040306019
 20
402.6606778135308
 30
0.0
 11
148.2287295585309
 21
402.6606778135308
 31
0.0
  0
ARC
  5
662E
330
1E
100
AcDbEntity
  8
0
100
AcDbCircle
 10
141.506076025205
 20
396.8464178153478
 30
0.0
 40
2.258017748891657
100
AcDbArc
 50
180.9276427879959
 51
254.0369778311711
  0
LINE
  5
662F
330
1E
100
AcDbEntity
  8
0
100
AcDbLine
 10
139.24835421664
 20
400.5114944723962
 30
0.0
 11
139.24835421664
 21
396.809861154666
 31
0.0
  0
LINE
  5
6630
330
1E
100
AcDbEntity
  8
中心線
100
AcDbLine
 10
137.5835040306019
 20
398.6606778135311
 30
0.0
 11
148.2287295585309
 21
398.6606778135311
 31
0.0
  0
LINE
  5
6631
330
1E
100
AcDbEntity
  8
0
100
AcDbLine
 10
57.73829364361247
 20
470.160677813531
 30
0.0
 11
140.885082950639
 21
470.1606778135309
 31
0.0
  0
LINE
  5
6632
330
1E
100
AcDbEntity
  8
0
100
AcDbLine
 10
57.73829364361247
 20
417.1606778135307
 30
0.0
 11
140.885082950639
 21
417.1606778135307
 31
0.0
  0
LINE
  5
6633
330
1E
100
AcDbEntity
  8
0
 48
0.27
100
AcDbLine
 10
140.885082950639
 20
492.1606778135309
 30
0.0
 11
162.0850829506388
 21
492.1606778135309
 31
0.0
  0
LINE
  5
6634
330
1E
100
AcDbEntity
  8
0
 48
0.27
100
AcDbLine
 10
162.0850829506388
 20
395.1606778135307
 30
0.0
 11
140.885082950639
 21
395.1606778135308
 31
0.0
  0
LINE
  5
6635
330
1E
100
AcDbEntity
  8
0
100
AcDbLine
 10
140.885082950639
 20
395.1606778135308
 30
0.0
 11
140.885082950639
 21
492.1606778135309
 31
0.0
  0
LINE
  5
6636
330
1E
100
AcDbEntity
  8
0
 48
0.27
100
AcDbLine
 10
143.085082950639
 20
395.1606778135308
 30
0.0
 11
143.085082950639
 21
492.1606778135309
 31
0.0
  0
LINE
  5
6637
330
1E
100
AcDbEntity
  8
0
  6
Continuous
100
AcDbLine
 10
130.7396608543301
 20
427.8793896385677
 30
0.0
 11
133.5982540617079
 21
430.7379828459454
 31
0.0
  0
LINE
  5
6638
330
1E
100
AcDbEntity
  8
0
  6
Continuous
100
AcDbLine
 10
125.9150208833066
 20
429.8778209481329
 30
0.0
 11
130.7396608543301
 21
427.8793896385677
 31
0.0
  0
LINE
  5
6639
330
1E
100
AcDbEntity
  8
0
  6
Continuous
100
AcDbLine
 10
139.7006909394524
 20
449.7940111468643
 30
0.0
 11
140.8850829506389
 21
449.7940111468643
 31
0.0
  0
LINE
  5
663A
330
1E
100
AcDbEntity
  8
0
  6
Continuous
100
AcDbLine
 10
139.7006909394524
 20
446.7273442146164
 30
0.0
 11
140.8850829506389
 21
446.7273442146164
 31
0.0
  0
ARC
  5
663B
330
1E
100
AcDbEntity
  8
0
  6
Continuous
100
AcDbCircle
 10
142.0737008527013
 20
448.2606779463215
 30
0.0
 40
2.825346636061327
100
AcDbArc
 50
147.1327799989379
 51
212.867220001062
  0
LINE
  5
663C
330
1E
100
AcDbEntity
  8
0
  6
Continuous
100
AcDbLine
 10
134.4502757866598
 20
448.9940111468643
 30
0.0
 11
139.3451836673266
 21
448.9940111468643
 31
0.0
  0
LINE
  5
663D
330
1E
100
AcDbEntity
  8
0
  6
Continuous
100
AcDbLine
 10
139.7006909394524
 20
440.5940114124454
 30
0.0
 11
140.8850829506389
 21
440.5940114124454
 31
0.0
  0
LINE
  5
663E
330
1E
100
AcDbEntity
  8
0
  6
Continuous
100
AcDbLine
 10
139.7006909394524
 20
437.5273444801974
 30
0.0
 11
140.8850829506389
 21
437.5273444801975
 31
0.0
  0
ARC
  5
663F
330
1E
100
AcDbEntity
  8
0
  6
Continuous
100
AcDbCircle
 10
142.0737008527013
 20
439.0606776807405
 30
0.0
 40
2.825346636061327
100
AcDbArc
 50
147.1327799989379
 51
212.867220001062
  0
LINE
  5
6640
330
1E
100
AcDbEntity
  8
0
  6
Continuous
100
AcDbLine
 10
136.856983356113
 20
435.4472870136218
 30
0.0
 11
137.6198098806008
 21
437.288913154778
 31
0.0
  0
LINE
  5
6641
330
1E
100
AcDbEntity
  8
0
  6
Continuous
100
AcDbLine
 10
134.3779627319087
 20
436.474211351758
 30
0.0
 11
135.1407324232628
 21
438.3157002855925
 31
0.0
  0
ARC
  5
6642
330
1E
100
AcDbEntity
  8
0
  6
Continuous
100
AcDbCircle
 10
135.3045946321158
 20
445.7231859568215
 30
0.0
 40
9.295339642905963
100
AcDbArc
 50
230.7213499979127
 51
264.2786500020894
  0
LINE
  5
6643
330
1E
100
AcDbEntity
  8
0
  6
Continuous
100
AcDbLine
 10
129.4198096701534
 20
438.5279455942587
 30
0.0
 11
130.1825793615077
 21
440.3694345280932
 31
0.0
  0
ARC
  5
6644
330
1E
100
AcDbEntity
  8
0
  6
Continuous
100
AcDbCircle
 10
129.2559474613006
 20
431.1204599230298
 30
0.0
 40
9.295339642905963
100
AcDbArc
 50
50.72134999791112
 51
84.27865000208941
  0
LINE
  5
6645
330
1E
100
AcDbEntity
  8
0
  6
Continuous
100
AcDbLine
 10
126.9407327098871
 20
439.5548128933678
 30
0.0
 11
127.7035024012414
 21
441.3963018272022
 31
0.0
  0
ARC
  5
6646
330
1E
100
AcDbEntity
  8
0
  6
Continuous
100
AcDbCircle
 10
128.9748686066346
 20
440.9597077108775
 30
0.0
 40
2.472178306553662
100
AcDbArc
 50
214.6327799989369
 51
280.3672200010637
  0
ARC
  5
6647
330
1E
100
AcDbEntity
  8
0
  6
Continuous
100
AcDbCircle
 10
125.2427193817817
 20
437.3153556442111
 30
0.0
 40
2.746231479756806
100
AcDbArc
 50
335.8479011650615
 51
45.84790116506062
  0
ARC
  5
6648
330
1E
100
AcDbEntity
  8
0
  6
Continuous
100
AcDbCircle
 10
130.2493732231799
 20
432.5628273894807
 30
0.0
 40
3.813798694049015
100
AcDbArc
 50
331.4135141737373
 51
16.41351417373954
  0
LINE
  5
6649
330
1E
100
AcDbEntity
  8
0
  6
Continuous
100
AcDbLine
 10
125.9150208833066
 20
429.8778209481329
 30
0.0
 11
125.9150208833066
 21
433.9204822313141
 31
0.0
  0
LINE
  5
664A
330
1E
100
AcDbEntity
  8
0
  6
Continuous
100
AcDbLine
 10
125.9150208833066
 20
433.9204822313141
 30
0.0
 11
133.5982540617079
 21
430.7379828459454
 31
0.0
  0
ARC
  5
664B
330
1E
100
AcDbEntity
  8
0
  6
Continuous
100
AcDbCircle
 10
129.5733971849605
 20
432.8428258323505
 30
0.0
 40
3.813798694049016
100
AcDbArc
 50
118.5864858262623
 51
163.5864858262638
  0
LINE
  5
664C
330
1E
100
AcDbEntity
  8
0
  6
Continuous
100
AcDbLine
 10
127.9949205167616
 20
436.089657755581
 30
0.0
 11
133.6613816494974
 21
433.7425327037419
 31
0.0
  0
LINE
  5
664D
330
1E
100
AcDbEntity
  8
0
  6
Continuous
100
AcDbLine
 10
128.0288069268641
 20
438.675712772734
 30
0.0
 11
135.4660373782743
 21
435.5951110532658
 31
0.0
  0
LINE
  5
664E
330
1E
100
AcDbEntity
  8
0
  6
Continuous
100
AcDbLine
 10
129.0945047151419
 20
441.2485348265855
 30
0.0
 11
136.5317351665523
 21
438.1679331071171
 31
0.0
  0
ARC
  5
664F
330
1E
100
AcDbEntity
  8
0
  6
Continuous
100
AcDbCircle
 10
136.4120990580447
 20
437.8791059914091
 30
0.0
 40
2.472178306553662
100
AcDbArc
 50
214.6327799989369
 51
280.3672200010637
  0
ARC
  5
6650
330
1E
100
AcDbEntity
  8
0
  6
Continuous
100
AcDbCircle
 10
136.4741810239673
 20
432.6631319067445
 30
0.0
 40
2.746231479756806
100
AcDbArc
 50
89.1520988349392
 51
159.1520988349398
  0
ARC
  5
6651
330
1E
100
AcDbEntity
  8
0
  6
Continuous
100
AcDbCircle
 10
135.5856734867817
 20
435.8839381689739
 30
0.0
 40
2.472178306553662
100
AcDbArc
 50
34.63277999893691
 51
100.3672200010636
  0
LINE
  5
6652
330
1E
100
AcDbEntity
  8
0
  6
Continuous
100
AcDbLine
 10
135.9617468541808
 20
438.3273444801976
 30
0.0
 11
139.3451836673266
 21
438.3273444801976
 31
0.0
  0
ARC
  5
6653
330
1E
100
AcDbEntity
  8
0
  6
Continuous
100
AcDbCircle
 10
134.4502757866598
 20
443.6606778135309
 30
0.0
 40
5.333333333333332
100
AcDbArc
 50
90.0
 51
210.8352048940846
  0
ARC
  5
6654
330
1E
100
AcDbEntity
  8
0
  6
Continuous
100
AcDbCircle
 10
128.1484430353715
 20
438.9645398884422
 30
0.0
 40
2.472178306553662
100
AcDbArc
 50
34.63277999893691
 51
100.3672200010636
  0
ARC
  5
6655
330
1E
100
AcDbEntity
  8
0
  6
Continuous
100
AcDbCircle
 10
149.8715995228182
 20
443.6606778135309
 30
0.0
 40
10.62324530617823
100
AcDbArc
 50
163.2213499979121
 51
196.7786500020878
  0
LINE
  5
6656
330
1E
100
AcDbEntity
  8
0
  6
Continuous
100
AcDbLine
 10
139.24835421664
 20
439.0606776807405
 30
0.0
 11
139.24835421664
 21
448.2606779463215
 31
0.0
  0
LINE
  5
6657
330
1E
100
AcDbEntity
  8
AM7
100
AcDbLine
 10
259.3107305153938
 20
385.6606778135308
 30
0.0
 11
277.1113111043852
 21
385.6606778135308
 31
0.0
  0
LINE
  5
6658
330
1E
100
AcDbEntity
  8
AM7
100
AcDbLine
 10
268.4350829506391
 20
377.0316708611285
 30
0.0
 11
268.435082950639
 21
394.9146418542418
 31
0.0
  0
CIRCLE
  5
6659
330
1E
100
AcDbEntity
  8
0
100
AcDbCircle
 10
268.435082950639
 20
385.6606778135308
 30
0.0
 40
6.0
  0
ARC
  5
665A
330
1E
100
AcDbEntity
  8
AM4
100
AcDbCircle
 10
268.435082950639
 20
385.6606778135308
 30
0.0
 40
7.0
100
AcDbArc
 50
180.0
 51
90.0
  0
LINE
  5
665B
330
1E
100
AcDbEntity
  8
AM7
100
AcDbLine
 10
173.435082950639
 20
377.0316708611286
 30
0.0
 11
173.435082950639
 21
394.9146418542419
 31
0.0
  0
LINE
  5
665C
330
1E
100
AcDbEntity
  8
AM7
100
AcDbLine
 10
182.5594353858842
 20
385.6606778135309
 30
0.0
 11
164.7588547968929
 21
385.6606778135309
 31
0.0
  0
CIRCLE
  5
665D
330
1E
100
AcDbEntity
  8
0
100
AcDbCircle
 10
173.435082950639
 20
385.6606778135309
 30
0.0
 40
6.0
  0
ARC
  5
665E
330
1E
100
AcDbEntity
  8
AM4
100
AcDbCircle
 10
173.435082950639
 20
385.6606778135309
 30
0.0
 40
7.0
100
AcDbArc
 50
180.0
 51
90.0
  0
LINE
  5
665F
330
1E
100
AcDbEntity
  8
0
100
AcDbLine
 10
162.0850829506388
 20
373.6606778135306
 30
0.0
 11
279.7850829506391
 21
373.6606778135308
 31
0.0
  0
LINE
  5
6660
330
1E
100
AcDbEntity
  8
0
100
AcDbLine
 10
162.0850829506388
 20
407.1606778135309
 30
0.0
 11
279.7850829506391
 21
407.1606778135308
 31
0.0
  0
LINE
  5
6661
330
1E
100
AcDbEntity
  8
0
100
AcDbLine
 10
162.0850829506388
 20
406.1606778135309
 30
0.0
 11
279.7850829506391
 21
406.1606778135308
 31
0.0
  0
LINE
  5
6662
330
1E
100
AcDbEntity
  8
0
100
AcDbLine
 10
162.0850829506388
 20
375.760677813531
 30
0.0
 11
279.7850829506391
 21
375.7606778135309
 31
0.0
  0
LINE
  5
6663
330
1E
100
AcDbEntity
  8
AM7
100
AcDbLine
 10
259.3107305153938
 20
501.6606778135309
 30
0.0
 11
277.1113111043852
 21
501.6606778135309
 31
0.0
  0
CIRCLE
  5
6664
330
1E
100
AcDbEntity
  8
0
100
AcDbCircle
 10
268.4350829506391
 20
501.6606778135308
 30
0.0
 40
6.0
  0
ARC
  5
6665
330
1E
100
AcDbEntity
  8
AM4
100
AcDbCircle
 10
268.4350829506391
 20
501.6606778135308
 30
0.0
 40
7.0
100
AcDbArc
 50
180.0
 51
90.0
  0
LINE
  5
6666
330
1E
100
AcDbEntity
  8
AM7
100
AcDbLine
 10
268.4350829506391
 20
510.2896847659332
 30
0.0
 11
268.435082950639
 21
492.4067137728199
 31
0.0
  0
LINE
  5
6667
330
1E
100
AcDbEntity
  8
AM7
100
AcDbLine
 10
182.5594353858843
 20
501.6606778135309
 30
0.0
 11
164.7588547968929
 21
501.6606778135309
 31
0.0
  0
LINE
  5
6668
330
1E
100
AcDbEntity
  8
AM7
100
AcDbLine
 10
173.435082950639
 20
510.2896847659332
 30
0.0
 11
173.435082950639
 21
492.4067137728199
 31
0.0
  0
CIRCLE
  5
6669
330
1E
100
AcDbEntity
  8
0
100
AcDbCircle
 10
173.435082950639
 20
501.6606778135309
 30
0.0
 40
6.0
  0
ARC
  5
666A
330
1E
100
AcDbEntity
  8
AM4
100
AcDbCircle
 10
173.435082950639
 20
501.6606778135309
 30
0.0
 40
7.0
100
AcDbArc
 50
180.0
 51
90.0
  0
LINE
  5
666B
330
1E
100
AcDbEntity
  8
0
100
AcDbLine
 10
162.0850829506388
 20
425.1606778135311
 30
0.0
 11
279.7850829506391
 21
425.160677813531
 31
0.0
  0
LINE
  5
666C
330
1E
100
AcDbEntity
  8
0
100
AcDbLine
 10
162.0850829506388
 20
424.1606778135307
 30
0.0
 11
279.7850829506391
 21
424.1606778135308
 31
0.0
  0
LINE
  5
666D
330
1E
100
AcDbEntity
  8
AM7
100
AcDbLine
 10
151.5993069740211
 20
443.6606778135309
 30
0.0
 11
286.9329006121374
 21
443.6606778135308
 31
0.0
  0
LINE
  5
666E
330
1E
100
AcDbEntity
  8
0
100
AcDbLine
 10
162.0850829506388
 20
513.6606778135311
 30
0.0
 11
279.7850829506391
 21
513.6606778135308
 31
0.0
  0
LINE
  5
666F
330
1E
100
AcDbEntity
  8
0
100
AcDbLine
 10
162.0850829506388
 20
511.7106778135308
 30
0.0
 11
279.7850829506391
 21
511.7106778135308
 31
0.0
  0
LINE
  5
6670
330
1E
100
AcDbEntity
  8
0
100
AcDbLine
 10
162.0850829506388
 20
481.1606778135312
 30
0.0
 11
279.7850829506391
 21
481.1606778135312
 31
0.0
  0
LINE
  5
6671
330
1E
100
AcDbEntity
  8
0
100
AcDbLine
 10
162.0850829506388
 20
480.1606778135309
 30
0.0
 11
279.7850829506391
 21
480.1606778135306
 31
0.0
  0
LINE
  5
6672
330
1E
100
AcDbEntity
  8
0
100
AcDbLine
 10
162.0850829506388
 20
463.1606778135309
 30
0.0
 11
279.7850829506391
 21
463.1606778135309
 31
0.0
  0
LINE
  5
6673
330
1E
100
AcDbEntity
  8
0
100
AcDbLine
 10
162.0850829506388
 20
462.1606778135311
 30
0.0
 11
279.7850829506391
 21
462.160677813531
 31
0.0
  0
LINE
  5
6674
330
1E
100
AcDbEntity
  8
0
100
AcDbLine
 10
162.0850829506388
 20
513.6606778135311
 30
0.0
 11
162.0850829506388
 21
373.6606778135306
 31
0.0
  0
LINE
  5
6675
330
1E
100
AcDbEntity
  8
AM7
100
AcDbLine
 10
220.9350829506389
 20
519.5964587295867
 30
0.0
 11
220.9350829506389
 21
366.4478075301067
 31
0.0
  0
LINE
  5
667E
330
1E
100
AcDbEntity
  8
中心線
 48
0.27
100
AcDbLine
 10
290.785082950639
 20
297.8712306295376
 30
0.0
 11
290.785082950639
 21
307.6005494859005
 31
0.0
  0
LINE
  5
667F
330
1E
100
AcDbEntity
  8
中心線
 48
0.27
100
AcDbLine
 10
285.9204235224576
 20
302.7358900577191
 30
0.0
 11
295.6497423788205
 21
302.7358900577191
 31
0.0
  0
LINE
  5
6680
330
1E
100
AcDbEntity
  8
0
 48
0.27
100
AcDbLine
 10
279.7850829506391
 20
317.235890057719
 30
0.0
 11
298.785082950639
 21
317.235890057719
 31
0.0
  0
LINE
  5
6681
330
1E
100
AcDbEntity
  8
0
 48
0.27
100
AcDbLine
 10
279.7850829506391
 20
320.235890057719
 30
0.0
 11
298.785082950639
 21
320.235890057719
 31
0.0
  0
CIRCLE
  5
6682
330
1E
100
AcDbEntity
  8
0
 48
0.27
100
AcDbCircle
 10
290.785082950639
 20
302.7358900577191
 30
0.0
 40
3.9375
  0
CIRCLE
  5
6683
330
1E
100
AcDbEntity
  8
0
 48
0.27
100
AcDbCircle
 10
290.785082950639
 20
302.7358900577191
 30
0.0
 40
4.25
  0
CIRCLE
  5
6684
330
1E
100
AcDbEntity
  8
0
 48
0.27
100
AcDbCircle
 10
290.785082950639
 20
302.7358900577191
 30
0.0
 40
0.75
  0
CIRCLE
  5
6685
330
1E
100
AcDbEntity
  8
0
 48
0.27
100
AcDbCircle
 10
290.785082950639
 20
302.7358900577191
 30
0.0
 40
4.549999999999999
  0
LINE
  5
6686
330
1E
100
AcDbEntity
  8
中心線
 48
0.27
100
AcDbLine
 10
151.085082950639
 20
297.8712306295376
 30
0.0
 11
151.085082950639
 21
307.6005494859005
 31
0.0
  0
CIRCLE
  5
6687
330
1E
100
AcDbEntity
  8
0
 48
0.27
100
AcDbCircle
 10
151.085082950639
 20
302.7358900577191
 30
0.0
 40
0.75
  0
LINE
  5
6688
330
1E
100
AcDbEntity
  8
中心線
 48
0.27
100
AcDbLine
 10
146.2204235224576
 20
302.7358900577191
 30
0.0
 11
155.9497423788204
 21
302.7358900577191
 31
0.0
  0
LINE
  5
6689
330
1E
100
AcDbEntity
  8
0
 48
0.27
100
AcDbLine
 10
162.085082950639
 20
320.235890057719
 30
0.0
 11
143.085082950639
 21
320.235890057719
 31
0.0
  0
LINE
  5
668A
330
1E
100
AcDbEntity
  8
0
 48
0.27
100
AcDbLine
 10
162.085082950639
 20
317.235890057719
 30
0.0
 11
143.085082950639
 21
317.235890057719
 31
0.0
  0
CIRCLE
  5
668B
330
1E
100
AcDbEntity
  8
0
 48
0.27
100
AcDbCircle
 10
151.085082950639
 20
302.7358900577191
 30
0.0
 40
3.9375
  0
CIRCLE
  5
668C
330
1E
100
AcDbEntity
  8
0
 48
0.27
100
AcDbCircle
 10
151.085082950639
 20
302.7358900577191
 30
0.0
 40
4.25
  0
CIRCLE
  5
668D
330
1E
100
AcDbEntity
  8
0
 48
0.27
100
AcDbCircle
 10
151.085082950639
 20
302.7358900577191
 30
0.0
 40
4.549999999999999
  0
LINE
  5
668E
330
1E
100
AcDbEntity
  8
0
 48
0.27
100
AcDbLine
 10
162.085082950639
 20
321.7358900577191
 30
0.0
 11
279.7850829506391
 21
321.735890057719
 31
0.0
  0
LINE
  5
668F
330
1E
100
AcDbEntity
  8
0
 48
0.27
100
AcDbLine
 10
162.085082950639
 20
319.7892695150664
 30
0.0
 11
279.7850829506391
 21
319.7892695150664
 31
0.0
  0
LINE
  5
66A9
330
1E
100
AcDbEntity
  8
0
 48
0.27
100
AcDbLine
 10
279.7850829506391
 20
264.735890057719
 30
0.0
 11
298.785082950639
 21
264.735890057719
 31
0.0
  0
LINE
  5
66F7
330
1E
100
AcDbEntity
  8
0
 48
0.27
100
AcDbLine
 10
162.085082950639
 20
264.735890057719
 30
0.0
 11
143.085082950639
 21
264.735890057719
 31
0.0
  0
LINE
  5
66FA
330
1E
100
AcDbEntity
  8
0
 48
0.27
100
AcDbLine
 10
162.085082950639
 20
264.735890057719
 30
0.0
 11
279.7850829506391
 21
264.735890057719
 31
0.0
  0
LINE
  5
66FB
330
1E
100
AcDbEntity
  8
0
 48
0.27
100
AcDbLine
 10
298.7850829506388
 20
267.735890057719
 30
0.0
 11
143.085082950639
 21
267.735890057719
 31
0.0
  0
LINE
  5
66FD
330
1E
100
AcDbEntity
  8
0
 48
0.27
100
AcDbLine
 10
279.7850829506391
 20
321.7358900577191
 30
0.0
 11
279.7850829506391
 21
264.735890057719
 31
0.0
  0
LINE
  5
66FE
330
1E
100
AcDbEntity
  8
0
 48
0.27
100
AcDbLine
 10
298.785082950639
 20
320.235890057719
 30
0.0
 11
298.785082950639
 21
264.735890057719
 31
0.0
  0
LINE
  5
6700
330
1E
100
AcDbEntity
  8
0
 48
0.27
100
AcDbLine
 10
162.085082950639
 20
321.7358900577191
 30
0.0
 11
162.085082950639
 21
264.735890057719
 31
0.0
  0
LINE
  5
6701
330
1E
100
AcDbEntity
  8
0
 48
0.27
100
AcDbLine
 10
143.085082950639
 20
264.735890057719
 30
0.0
 11
143.085082950639
 21
320.235890057719
 31
0.0
  0
ARC
  5
6800
330
1E
100
AcDbEntity
  8
0
 48
0.27
100
AcDbCircle
 10
143.1777217006389
 20
307.2363639303773
 30
0.0
 40
3.69263874999997
100
AcDbArc
 50
141.6920247901388
 51
222.6114069976
  0
POINT
  5
6801
330
1E
100
AcDbEntity
  8
0
100
AcDbPoint
 10
127.313200450639
 20
309.7363639303772
 30
0.0
1001
pntflag
1000
endpoint
  0
LINE
  5
6802
330
1E
100
AcDbEntity
  8
0
 48
0.27
100
AcDbLine
 10
131.654185450639
 20
309.7363639303772
 30
0.0
 11
131.614427950639
 21
309.2994439303772
 31
0.0
  0
LINE
  5
6803
330
1E
100
AcDbEntity
  8
0
 48
0.27
100
AcDbLine
 10
131.614427950639
 20
309.2994439303772
 30
0.0
 11
131.496684200639
 21
308.8793139303772
 31
0.0
  0
LINE
  5
6804
330
1E
100
AcDbEntity
  8
0
 48
0.27
100
AcDbLine
 10
131.614427950639
 20
310.1732839303772
 30
0.0
 11
131.654185450639
 21
309.7363639303772
 31
0.0
  0
LINE
  5
6805
330
1E
100
AcDbEntity
  8
0
 48
0.27
100
AcDbLine
 10
131.496684200639
 20
308.8793139303772
 30
0.0
 11
131.305479200639
 21
308.4921201803773
 31
0.0
  0
LINE
  5
6806
330
1E
100
AcDbEntity
  8
0
 48
0.27
100
AcDbLine
 10
131.496684200639
 20
310.5934139303773
 30
0.0
 11
131.614427950639
 21
310.1732839303772
 31
0.0
  0
LINE
  5
6807
330
1E
100
AcDbEntity
  8
0
 48
0.27
100
AcDbLine
 10
131.305479200639
 20
308.4921201803773
 30
0.0
 11
131.048159200639
 21
308.1527414303773
 31
0.0
  0
LINE
  5
6808
330
1E
100
AcDbEntity
  8
0
 48
0.27
100
AcDbLine
 10
131.305479200639
 20
310.9806076803772
 30
0.0
 11
131.496684200639
 21
310.5934139303773
 31
0.0
  0
LINE
  5
6809
330
1E
100
AcDbEntity
  8
0
 48
0.27
100
AcDbLine
 10
130.734615450639
 20
307.8742214303773
 30
0.0
 11
131.048159200639
 21
308.1527414303773
 31
0.0
  0
LINE
  5
680A
330
1E
100
AcDbEntity
  8
0
 48
0.27
100
AcDbLine
 10
131.048159200639
 20
311.3199851803772
 30
0.0
 11
131.305479200639
 21
310.9806076803772
 31
0.0
  0
LINE
  5
680B
330
1E
100
AcDbEntity
  8
0
 48
0.27
100
AcDbLine
 10
133.210765450639
 20
309.7363639303772
 30
0.0
 11
133.154105450639
 21
309.1136864303772
 31
0.0
  0
LINE
  5
680C
330
1E
100
AcDbEntity
  8
0
 48
0.27
100
AcDbLine
 10
133.154105450639
 20
309.1136864303772
 30
0.0
 11
132.986301700639
 21
308.5149376803772
 31
0.0
  0
LINE
  5
680D
330
1E
100
AcDbEntity
  8
0
 48
0.27
100
AcDbLine
 10
133.154105450639
 20
310.3590414303772
 30
0.0
 11
133.210765450639
 21
309.7363639303772
 31
0.0
  0
LINE
  5
680E
330
1E
100
AcDbEntity
  8
0
 48
0.27
100
AcDbLine
 10
130.376894200639
 20
307.6672614303772
 30
0.0
 11
130.734615450639
 21
307.8742214303773
 31
0.0
  0
LINE
  5
680F
330
1E
100
AcDbEntity
  8
0
 48
0.27
100
AcDbLine
 10
130.734615450639
 20
311.5985064303772
 30
0.0
 11
131.048159200639
 21
311.3199851803772
 31
0.0
  0
LINE
  5
6810
330
1E
100
AcDbEntity
  8
0
 48
0.27
100
AcDbLine
 10
132.986301700639
 20
308.5149376803772
 30
0.0
 11
132.713805450639
 21
307.9631289303772
 31
0.0
  0
LINE
  5
6811
330
1E
100
AcDbEntity
  8
0
 48
0.27
100
AcDbLine
 10
132.986301700639
 20
310.9577889303772
 30
0.0
 11
133.154105450639
 21
310.3590414303772
 31
0.0
  0
LINE
  5
6812
330
1E
100
AcDbEntity
  8
0
 48
0.27
100
AcDbLine
 10
132.713805450639
 20
307.9631289303772
 30
0.0
 11
132.347086700639
 21
307.4794639303772
 31
0.0
  0
LINE
  5
6813
330
1E
100
AcDbEntity
  8
0
 48
0.27
100
AcDbLine
 10
132.713805450639
 20
311.5095989303772
 30
0.0
 11
132.986301700639
 21
310.9577889303772
 31
0.0
  0
LINE
  5
6814
330
1E
100
AcDbEntity
  8
0
 48
0.27
100
AcDbLine
 10
129.988745450639
 20
307.5398164303773
 30
0.0
 11
130.376894200639
 21
307.6672614303772
 31
0.0
  0
LINE
  5
6815
330
1E
100
AcDbEntity
  8
0
 48
0.27
100
AcDbLine
 10
130.376894200639
 20
311.8054651803771
 30
0.0
 11
130.734615450639
 21
311.5985064303772
 31
0.0
  0
LINE
  5
6816
330
1E
100
AcDbEntity
  8
0
 48
0.27
100
AcDbLine
 10
131.900237950639
 20
307.0825301803772
 30
0.0
 11
132.347086700639
 21
307.4794639303772
 31
0.0
  0
LINE
  5
6817
330
1E
100
AcDbEntity
  8
0
 48
0.27
100
AcDbLine
 10
132.347086700639
 20
311.9932639303773
 30
0.0
 11
132.713805450639
 21
311.5095989303772
 31
0.0
  0
LINE
  5
6818
330
1E
100
AcDbEntity
  8
0
 48
0.27
100
AcDbLine
 10
133.365390450639
 20
309.7363639303772
 30
0.0
 11
133.309349200639
 21
309.1204864303772
 31
0.0
  0
LINE
  5
6819
330
1E
100
AcDbEntity
  8
0
 48
0.27
100
AcDbLine
 10
129.585084200639
 20
307.4967839303773
 30
0.0
 11
129.988745450639
 21
307.5398164303773
 31
0.0
  0
LINE
  5
681A
330
1E
100
AcDbEntity
  8
0
 48
0.27
100
AcDbLine
 10
129.988745450639
 20
311.9329101803772
 30
0.0
 11
130.376894200639
 21
311.8054651803771
 31
0.0
  0
LINE
  5
681B
330
1E
100
AcDbEntity
  8
0
 48
0.27
100
AcDbLine
 10
133.309349200639
 20
309.1204864303772
 30
0.0
 11
133.143379200639
 21
308.5282764303773
 31
0.0
  0
LINE
  5
681C
330
1E
100
AcDbEntity
  8
0
 48
0.27
100
AcDbLine
 10
133.309349200639
 20
310.3522414303772
 30
0.0
 11
133.365390450639
 21
309.7363639303772
 31
0.0
  0
LINE
  5
681D
330
1E
100
AcDbEntity
  8
0
 48
0.27
100
AcDbLine
 10
131.390432950639
 20
306.7875814303772
 30
0.0
 11
131.900237950639
 21
307.0825301803772
 31
0.0
  0
LINE
  5
681E
330
1E
100
AcDbEntity
  8
0
 48
0.27
100
AcDbLine
 10
131.900237950639
 20
312.3901976803772
 30
0.0
 11
132.347086700639
 21
311.9932639303773
 31
0.0
  0
LINE
  5
681F
330
1E
100
AcDbEntity
  8
0
 48
0.27
100
AcDbLine
 10
133.143379200639
 20
308.5282764303773
 30
0.0
 11
132.873857950639
 21
307.9824926803772
 31
0.0
  0
LINE
  5
6820
330
1E
100
AcDbEntity
  8
0
 48
0.27
100
AcDbLine
 10
133.143379200639
 20
310.9444514303772
 30
0.0
 11
133.309349200639
 21
310.3522414303772
 31
0.0
  0
LINE
  5
6821
330
1E
100
AcDbEntity
  8
0
 48
0.27
100
AcDbLine
 10
132.873857950639
 20
307.9824926803772
 30
0.0
 11
132.511144200639
 21
307.5041089303772
 31
0.0
  0
LINE
  5
6822
330
1E
100
AcDbEntity
  8
0
 48
0.27
100
AcDbLine
 10
132.873857950639
 20
311.4902351803772
 30
0.0
 11
133.143379200639
 21
310.9444514303772
 31
0.0
  0
LINE
  5
6823
330
1E
100
AcDbEntity
  8
0
 48
0.27
100
AcDbLine
 10
130.837261700639
 20
306.6059526803773
 30
0.0
 11
131.390432950639
 21
306.7875814303772
 31
0.0
  0
LINE
  5
6824
330
1E
100
AcDbEntity
  8
0
 48
0.27
100
AcDbLine
 10
131.390432950639
 20
312.6851464303772
 30
0.0
 11
131.900237950639
 21
312.3901976803772
 31
0.0
  0
LINE
  5
6825
330
1E
100
AcDbEntity
  8
0
 48
0.27
100
AcDbLine
 10
129.181421700639
 20
307.5398164303773
 30
0.0
 11
129.585084200639
 21
307.4967839303773
 31
0.0
  0
LINE
  5
6826
330
1E
100
AcDbEntity
  8
0
 48
0.27
100
AcDbLine
 10
129.585084200639
 20
311.9759426803772
 30
0.0
 11
129.988745450639
 21
311.9329101803772
 31
0.0
  0
LINE
  5
6827
330
1E
100
AcDbEntity
  8
0
 48
0.27
100
AcDbLine
 10
132.069175450639
 20
307.1115101803773
 30
0.0
 11
132.511144200639
 21
307.5041089303772
 31
0.0
  0
LINE
  5
6828
330
1E
100
AcDbEntity
  8
0
 48
0.27
100
AcDbLine
 10
132.511144200639
 20
311.9686189303772
 30
0.0
 11
132.873857950639
 21
311.4902351803772
 31
0.0
  0
LINE
  5
6829
330
1E
100
AcDbEntity
  8
0
 48
0.27
100
AcDbLine
 10
130.261982950639
 20
306.5446251803773
 30
0.0
 11
130.837261700639
 21
306.6059526803773
 31
0.0
  0
LINE
  5
682A
330
1E
100
AcDbEntity
  8
0
 48
0.27
100
AcDbLine
 10
130.837261700639
 20
306.6059526803773
 30
0.0
 11
131.017806700639
 21
306.6401376803773
 31
0.0
  0
LINE
  5
682B
330
1E
100
AcDbEntity
  8
0
 48
0.27
100
AcDbLine
 10
130.837261700639
 20
312.8667739303772
 30
0.0
 11
131.390432950639
 21
312.6851464303772
 31
0.0
  0
LINE
  5
682C
330
1E
100
AcDbEntity
  8
0
 48
0.27
100
AcDbLine
 10
128.793272950639
 20
307.6672614303772
 30
0.0
 11
129.181421700639
 21
307.5398164303773
 31
0.0
  0
LINE
  5
682D
330
1E
100
AcDbEntity
  8
0
 48
0.27
100
AcDbLine
 10
129.181421700639
 20
311.9329101803772
 30
0.0
 11
129.585084200639
 21
311.9759426803772
 31
0.0
  0
LINE
  5
682E
330
1E
100
AcDbEntity
  8
0
 48
0.27
100
AcDbLine
 10
131.564936700639
 20
306.8197826803773
 30
0.0
 11
132.069175450639
 21
307.1115101803773
 31
0.0
  0
LINE
  5
682F
330
1E
100
AcDbEntity
  8
0
 48
0.27
100
AcDbLine
 10
132.069175450639
 20
312.3612176803772
 30
0.0
 11
132.511144200639
 21
311.9686189303772
 31
0.0
  0
LINE
  5
6830
330
1E
100
AcDbEntity
  8
0
 48
0.27
100
AcDbLine
 10
131.017806700639
 20
306.6401376803773
 30
0.0
 11
131.564936700639
 21
306.8197826803773
 31
0.0
  0
LINE
  5
6831
330
1E
100
AcDbEntity
  8
0
 48
0.27
100
AcDbLine
 10
131.564936700639
 20
312.6529451803771
 30
0.0
 11
132.069175450639
 21
312.3612176803772
 31
0.0
  0
LINE
  5
6832
330
1E
100
AcDbEntity
  8
0
 48
0.27
100
AcDbLine
 10
129.6867042006391
 20
306.6059526803773
 30
0.0
 11
130.261982950639
 21
306.5446251803773
 31
0.0
  0
LINE
  5
6833
330
1E
100
AcDbEntity
  8
0
 48
0.27
100
AcDbLine
 10
130.261982950639
 20
312.9281026803772
 30
0.0
 11
130.837261700639
 21
312.8667739303772
 31
0.0
  0
LINE
  5
6834
330
1E
100
AcDbEntity
  8
0
 48
0.27
100
AcDbLine
 10
130.837261700639
 20
312.8667739303772
 30
0.0
 11
131.017806700639
 21
312.8325901803772
 31
0.0
  0
LINE
  5
6835
330
1E
100
AcDbEntity
  8
0
 48
0.27
100
AcDbLine
 10
128.4355517006391
 20
307.8742214303773
 30
0.0
 11
128.793272950639
 21
307.6672614303772
 31
0.0
  0
LINE
  5
6836
330
1E
100
AcDbEntity
  8
0
 48
0.27
100
AcDbLine
 10
128.793272950639
 20
311.8054651803771
 30
0.0
 11
129.181421700639
 21
311.9329101803772
 31
0.0
  0
LINE
  5
6837
330
1E
100
AcDbEntity
  8
0
 48
0.27
100
AcDbLine
 10
131.017806700639
 20
312.8325901803772
 30
0.0
 11
131.564936700639
 21
312.6529451803771
 31
0.0
  0
LINE
  5
6838
330
1E
100
AcDbEntity
  8
0
 48
0.27
100
AcDbLine
 10
128.1220079506391
 20
308.1527414303773
 30
0.0
 11
128.4355517006391
 21
307.8742214303773
 31
0.0
  0
LINE
  5
6839
330
1E
100
AcDbEntity
  8
0
 48
0.27
100
AcDbLine
 10
128.4355517006391
 20
311.5985064303772
 30
0.0
 11
128.793272950639
 21
311.8054651803771
 31
0.0
  0
LINE
  5
683A
330
1E
100
AcDbEntity
  8
0
 48
0.27
100
AcDbLine
 10
129.133532950639
 20
306.7875814303772
 30
0.0
 11
129.6867042006391
 21
306.6059526803773
 31
0.0
  0
LINE
  5
683B
330
1E
100
AcDbEntity
  8
0
 48
0.27
100
AcDbLine
 10
129.6867042006391
 20
312.8667739303772
 30
0.0
 11
130.261982950639
 21
312.9281026803772
 31
0.0
  0
LINE
  5
683C
330
1E
100
AcDbEntity
  8
0
 48
0.27
100
AcDbLine
 10
127.864687950639
 20
308.4921201803773
 30
0.0
 11
128.1220079506391
 21
308.1527414303773
 31
0.0
  0
LINE
  5
683D
330
1E
100
AcDbEntity
  8
0
 48
0.27
100
AcDbLine
 10
128.1220079506391
 20
311.3199851803772
 30
0.0
 11
128.4355517006391
 21
311.5985064303772
 31
0.0
  0
LINE
  5
683E
330
1E
100
AcDbEntity
  8
0
 48
0.27
100
AcDbLine
 10
128.623726700639
 20
307.0825301803772
 30
0.0
 11
129.133532950639
 21
306.7875814303772
 31
0.0
  0
LINE
  5
683F
330
1E
100
AcDbEntity
  8
0
 48
0.27
100
AcDbLine
 10
129.133532950639
 20
312.6851464303772
 30
0.0
 11
129.6867042006391
 21
312.8667739303772
 31
0.0
  0
LINE
  5
6840
330
1E
100
AcDbEntity
  8
0
 48
0.27
100
AcDbLine
 10
127.673482950639
 20
308.8793139303772
 30
0.0
 11
127.864687950639
 21
308.4921201803773
 31
0.0
  0
LINE
  5
6841
330
1E
100
AcDbEntity
  8
0
 48
0.27
100
AcDbLine
 10
128.1220079506391
 20
311.3199851803772
 30
0.0
 11
127.864687950639
 21
310.9806076803772
 31
0.0
  0
LINE
  5
6842
330
1E
100
AcDbEntity
  8
0
 48
0.27
100
AcDbLine
 10
128.176879200639
 20
307.4794639303772
 30
0.0
 11
128.623726700639
 21
307.0825301803772
 31
0.0
  0
LINE
  5
6843
330
1E
100
AcDbEntity
  8
0
 48
0.27
100
AcDbLine
 10
128.623726700639
 20
312.3901976803772
 30
0.0
 11
129.133532950639
 21
312.6851464303772
 31
0.0
  0
LINE
  5
6844
330
1E
100
AcDbEntity
  8
0
 48
0.27
100
AcDbLine
 10
127.555739200639
 20
309.2994439303772
 30
0.0
 11
127.673482950639
 21
308.8793139303772
 31
0.0
  0
LINE
  5
6845
330
1E
100
AcDbEntity
  8
0
 48
0.27
100
AcDbLine
 10
127.864687950639
 20
310.9806076803772
 30
0.0
 11
127.673482950639
 21
310.5934139303773
 31
0.0
  0
LINE
  5
6846
330
1E
100
AcDbEntity
  8
0
 48
0.27
100
AcDbLine
 10
127.515981700639
 20
309.7363639303772
 30
0.0
 11
127.555739200639
 21
309.2994439303772
 31
0.0
  0
LINE
  5
6847
330
1E
100
AcDbEntity
  8
0
 48
0.27
100
AcDbLine
 10
127.673482950639
 20
310.5934139303773
 30
0.0
 11
127.555739200639
 21
310.1732839303772
 31
0.0
  0
LINE
  5
6848
330
1E
100
AcDbEntity
  8
0
 48
0.27
100
AcDbLine
 10
127.555739200639
 20
310.1732839303772
 30
0.0
 11
127.515981700639
 21
309.7363639303772
 31
0.0
  0
LINE
  5
6849
330
1E
100
AcDbEntity
  8
0
 48
0.27
100
AcDbLine
 10
127.810159200639
 20
307.9631289303772
 30
0.0
 11
128.176879200639
 21
307.4794639303772
 31
0.0
  0
LINE
  5
684A
330
1E
100
AcDbEntity
  8
0
 48
0.27
100
AcDbLine
 10
128.176879200639
 20
311.9932639303773
 30
0.0
 11
128.623726700639
 21
312.3901976803772
 31
0.0
  0
LINE
  5
684B
330
1E
100
AcDbEntity
  8
0
 48
0.27
100
AcDbLine
 10
127.537662950639
 20
308.5149376803772
 30
0.0
 11
127.810159200639
 21
307.9631289303772
 31
0.0
  0
LINE
  5
684C
330
1E
100
AcDbEntity
  8
0
 48
0.27
100
AcDbLine
 10
128.176879200639
 20
311.9932639303773
 30
0.0
 11
127.810159200639
 21
311.5095989303772
 31
0.0
  0
LINE
  5
684D
330
1E
100
AcDbEntity
  8
0
 48
0.27
100
AcDbLine
 10
127.369860450639
 20
309.1136864303772
 30
0.0
 11
127.537662950639
 21
308.5149376803772
 31
0.0
  0
LINE
  5
684E
330
1E
100
AcDbEntity
  8
0
 48
0.27
100
AcDbLine
 10
127.810159200639
 20
311.5095989303772
 30
0.0
 11
127.537662950639
 21
310.9577889303772
 31
0.0
  0
LINE
  5
684F
330
1E
100
AcDbEntity
  8
0
 48
0.27
100
AcDbLine
 10
127.313200450639
 20
309.7363639303772
 30
0.0
 11
127.369860450639
 21
309.1136864303772
 31
0.0
  0
LINE
  5
6850
330
1E
100
AcDbEntity
  8
0
 48
0.27
100
AcDbLine
 10
127.537662950639
 20
310.9577889303772
 30
0.0
 11
127.369860450639
 21
310.3590414303772
 31
0.0
  0
LINE
  5
6851
330
1E
100
AcDbEntity
  8
0
 48
0.27
100
AcDbLine
 10
127.369860450639
 20
310.3590414303772
 30
0.0
 11
127.313200450639
 21
309.7363639303772
 31
0.0
  0
LINE
  5
6852
330
1E
100
AcDbEntity
  8
0
 48
0.27
100
AcDbLine
 10
128.760747950639
 20
307.6860789303773
 30
0.0
 11
128.764461700639
 21
307.6880989303772
 31
0.0
  0
LINE
  5
6853
330
1E
100
AcDbEntity
  8
0
 48
0.27
100
AcDbLine
 10
128.760747950639
 20
311.7866476803772
 30
0.0
 11
128.764461700639
 21
311.7846289303772
 31
0.0
  0
LINE
  5
6854
330
1E
100
AcDbEntity
  8
0
 48
0.27
100
AcDbLine
 10
135.855166700639
 20
309.7363639303772
 30
0.0
 11
135.788596700639
 21
309.0047751803772
 31
0.0
  0
LINE
  5
6855
330
1E
100
AcDbEntity
  8
0
 48
0.27
100
AcDbLine
 10
135.788596700639
 20
310.4679526803772
 30
0.0
 11
135.855166700639
 21
309.7363639303772
 31
0.0
  0
LINE
  5
6856
330
1E
100
AcDbEntity
  8
0
 48
0.27
100
AcDbLine
 10
135.788596700639
 20
309.0047751803772
 30
0.0
 11
135.591444200639
 21
308.3013001803773
 31
0.0
  0
LINE
  5
6857
330
1E
100
AcDbEntity
  8
0
 48
0.27
100
AcDbLine
 10
135.591444200639
 20
311.1714264303772
 30
0.0
 11
135.788596700639
 21
310.4679526803772
 31
0.0
  0
LINE
  5
6858
330
1E
100
AcDbEntity
  8
0
 48
0.27
100
AcDbLine
 10
135.591444200639
 20
308.3013001803773
 30
0.0
 11
135.271285450639
 21
307.6529751803771
 31
0.0
  0
LINE
  5
6859
330
1E
100
AcDbEntity
  8
0
 48
0.27
100
AcDbLine
 10
135.271285450639
 20
311.8197514303772
 30
0.0
 11
135.591444200639
 21
311.1714264303772
 31
0.0
  0
LINE
  5
685A
330
1E
100
AcDbEntity
  8
0
 48
0.27
100
AcDbLine
 10
135.271285450639
 20
307.6529751803771
 30
0.0
 11
134.840424200639
 21
307.0847126803772
 31
0.0
  0
LINE
  5
685B
330
1E
100
AcDbEntity
  8
0
 48
0.27
100
AcDbLine
 10
134.840424200639
 20
312.3880139303772
 30
0.0
 11
135.271285450639
 21
311.8197514303772
 31
0.0
  0
LINE
  5
685C
330
1E
100
AcDbEntity
  8
0
 48
0.27
100
AcDbLine
 10
136.391134200639
 20
309.7363639303772
 30
0.0
 11
134.390876700639
 21
305.9863639303772
 31
0.0
  0
LINE
  5
685D
330
1E
100
AcDbEntity
  8
0
 48
0.27
100
AcDbLine
 10
134.390876700639
 20
313.4863639303772
 30
0.0
 11
136.391134200639
 21
309.7363639303772
 31
0.0
  0
LINE
  5
685E
330
1E
100
AcDbEntity
  8
0
 48
0.27
100
AcDbLine
 10
134.315419200639
 20
306.6183526803772
 30
0.0
 11
134.840424200639
 21
307.0847126803772
 31
0.0
  0
LINE
  5
685F
330
1E
100
AcDbEntity
  8
0
 48
0.27
100
AcDbLine
 10
134.315419200639
 20
312.8543751803772
 30
0.0
 11
134.840424200639
 21
312.3880139303772
 31
0.0
  0
LINE
  5
6860
330
1E
100
AcDbEntity
  8
0
 48
0.27
100
AcDbLine
 10
133.716444200639
 20
306.2718151803772
 30
0.0
 11
134.315419200639
 21
306.6183526803772
 31
0.0
  0
LINE
  5
6861
330
1E
100
AcDbEntity
  8
0
 48
0.27
100
AcDbLine
 10
133.716444200639
 20
313.2009114303772
 30
0.0
 11
134.315419200639
 21
312.8543751803772
 31
0.0
  0
LINE
  5
6862
330
1E
100
AcDbEntity
  8
0
 48
0.27
100
AcDbLine
 10
133.066519200639
 20
306.0584189303773
 30
0.0
 11
133.716444200639
 21
306.2718151803772
 31
0.0
  0
LINE
  5
6863
330
1E
100
AcDbEntity
  8
0
 48
0.27
100
AcDbLine
 10
133.066519200639
 20
313.4143089303771
 30
0.0
 11
133.716444200639
 21
313.2009114303772
 31
0.0
  0
LINE
  5
6864
330
1E
100
AcDbEntity
  8
0
 48
0.27
100
AcDbLine
 10
132.390619200639
 20
305.9863639303772
 30
0.0
 11
133.066519200639
 21
306.0584189303773
 31
0.0
  0
LINE
  5
6865
330
1E
100
AcDbEntity
  8
0
 48
0.27
100
AcDbLine
 10
132.390619200639
 20
313.4863639303772
 30
0.0
 11
133.066519200639
 21
313.4143089303771
 31
0.0
  0
LINE
  5
6866
330
1E
100
AcDbEntity
  8
0
 48
0.27
100
AcDbLine
 10
131.714719200639
 20
306.0584189303773
 30
0.0
 11
132.390619200639
 21
305.9863639303772
 31
0.0
  0
LINE
  5
6867
330
1E
100
AcDbEntity
  8
0
 48
0.27
100
AcDbLine
 10
131.714719200639
 20
313.4143089303771
 30
0.0
 11
132.390619200639
 21
313.4863639303772
 31
0.0
  0
LINE
  5
6868
330
1E
100
AcDbEntity
  8
0
 48
0.27
100
AcDbLine
 10
131.064794200639
 20
306.2718151803772
 30
0.0
 11
131.714719200639
 21
306.0584189303773
 31
0.0
  0
LINE
  5
6869
330
1E
100
AcDbEntity
  8
0
 48
0.27
100
AcDbLine
 10
131.064794200639
 20
313.2009114303772
 30
0.0
 11
131.714719200639
 21
313.4143089303771
 31
0.0
  0
LINE
  5
686A
330
1E
100
AcDbEntity
  8
0
 48
0.27
100
AcDbLine
 10
130.541710450639
 20
306.5744451803773
 30
0.0
 11
131.064794200639
 21
306.2718151803772
 31
0.0
  0
LINE
  5
686B
330
1E
100
AcDbEntity
  8
0
 48
0.27
100
AcDbLine
 10
130.541710450639
 20
312.8982814303772
 30
0.0
 11
131.064794200639
 21
313.2009114303772
 31
0.0
  0
LINE
  5
686C
330
1E
100
AcDbEntity
  8
0
 48
0.27
100
AcDbLine
 10
137.265339200639
 20
309.7363639303772
 30
0.0
 11
135.265081700639
 21
305.9863639303772
 31
0.0
  0
LINE
  5
686D
330
1E
100
AcDbEntity
  8
0
 48
0.27
100
AcDbLine
 10
135.265081700639
 20
305.9863639303772
 30
0.0
 11
130.390361700639
 21
305.9863639303772
 31
0.0
  0
LINE
  5
686E
330
1E
100
AcDbEntity
  8
0
 48
0.27
100
AcDbLine
 10
135.265081700639
 20
313.4863639303772
 30
0.0
 11
137.265339200639
 21
309.7363639303772
 31
0.0
  0
LINE
  5
686F
330
1E
100
AcDbEntity
  8
0
 48
0.27
100
AcDbLine
 10
136.391134200639
 20
309.7363639303772
 30
0.0
 11
137.265339200639
 21
309.7363639303772
 31
0.0
  0
LINE
  5
6870
330
1E
100
AcDbEntity
  8
0
 48
0.27
100
AcDbLine
 10
130.390361700639
 20
313.4863639303772
 30
0.0
 11
130.082370450639
 21
312.9089551803772
 31
0.0
  0
LINE
  5
6871
330
1E
100
AcDbEntity
  8
0
 48
0.27
100
AcDbLine
 10
130.082370450639
 20
306.5637726803772
 30
0.0
 11
130.390361700639
 21
305.9863639303772
 31
0.0
  0
LINE
  5
6872
330
1E
100
AcDbEntity
  8
0
 48
0.27
100
AcDbLine
 10
130.390361700639
 20
313.4863639303772
 30
0.0
 11
135.265081700639
 21
313.4863639303772
 31
0.0
  0
LINE
  5
6873
330
1E
100
AcDbEntity
  8
0
 48
0.27
100
AcDbLine
 10
139.4850829506389
 20
310.4145396232463
 30
0.0
 11
139.4850829506389
 21
304.7363639303772
 31
0.0
  0
LINE
  5
6874
330
1E
100
AcDbEntity
  8
0
 48
0.27
100
AcDbLine
 10
134.799657950639
 20
304.7363639303772
 30
0.0
 11
140.8850829506389
 21
304.7363639303772
 31
0.0
  0
LINE
  5
6875
330
1E
100
AcDbEntity
  8
0
 48
0.27
100
AcDbLine
 10
139.24835421664
 20
314.7363639303772
 30
0.0
 11
134.799657950639
 21
314.7363639303772
 31
0.0
  0
ARC
  5
6876
330
1E
100
AcDbEntity
  8
0
 48
0.27
100
AcDbCircle
 10
134.799657950639
 20
309.7363639303772
 30
0.0
 40
4.99999999999996
100
AcDbArc
 50
228.5903779973007
 51
270.0
  0
ARC
  5
6877
330
1E
100
AcDbEntity
  8
0
 48
0.27
100
AcDbCircle
 10
134.799657950639
 20
309.7363639303772
 30
0.0
 40
4.99999999999996
100
AcDbArc
 50
90.0
 51
131.4096219996002
  0
LWPOLYLINE
  5
6878
330
1E
100
AcDbEntity
  8
0
 48
0.27
100
AcDbPolyline
 90
       31
 70
     0
 43
0.0
 10
130.324186700639
 20
309.7363639303772
 10
130.283164200639
 20
309.9991826803772
 10
130.227980450639
 20
310.1310414303771
 10
130.149189200639
 20
310.2532651803771
 10
130.049844200639
 20
310.3584064303772
 10
129.935480450639
 20
310.4407476803773
 10
129.813080450639
 20
310.4973489303771
 10
129.647285450639
 20
310.5335251803771
 10
129.493524200639
 20
310.5302014303772
 10
129.359869200639
 20
310.4983189303772
 10
129.214612950639
 20
310.4286089303772
 10
129.076400450639
 20
310.3167476803772
 10
128.966112950639
 20
310.1735601803771
 10
128.895320450639
 20
310.0237614303772
 10
128.860506700639
 20
309.8941914303772
 10
128.845980450639
 20
309.7363639303772
 10
128.887002950639
 20
309.4735451803773
 10
128.942187950639
 20
309.3416851803772
 10
129.020977950639
 20
309.2194626803772
 10
129.120322950639
 20
309.1143214303772
 10
129.234686700639
 20
309.0319801803772
 10
129.357086700639
 20
308.9753789303772
 10
129.5228817006391
 20
308.9392014303772
 10
129.676642950639
 20
308.9425264303772
 10
129.810297950639
 20
308.9744076803772
 10
129.955554200639
 20
309.0441176803772
 10
130.0937667006391
 20
309.1559801803772
 10
130.204054200639
 20
309.2991664303772
 10
130.274846700639
 20
309.4489651803773
 10
130.309661700639
 20
309.5785364303773
 10
130.324186700639
 20
309.7363639303772
  0
LINE
  5
6879
330
1E
100
AcDbEntity
  8
中心線
 48
0.27
100
AcDbLine
 10
125.8132004506391
 20
309.7363639303772
 30
0.0
 11
141.8832790614372
 21
309.7363397665022
 31
0.0
  0
ARC
  5
687A
330
1E
100
AcDbEntity
  8
0
100
AcDbCircle
 10
300.3640898760727
 20
315.0501500559024
 30
0.0
 40
2.258017748891657
100
AcDbArc
 50
0.9276427879959484
 51
74.0369778311711
  0
ARC
  5
687B
330
1E
100
AcDbEntity
  8
0
100
AcDbCircle
 10
300.3640898760727
 20
311.4216300595359
 30
0.0
 40
2.258017748891657
100
AcDbArc
 50
285.9630221688289
 51
359.072357212004
  0
LINE
  5
687C
330
1E
100
AcDbEntity
  8
0
100
AcDbLine
 10
302.6218116846377
 20
315.0867067165843
 30
0.0
 11
302.6218116846377
 21
311.385073398854
 31
0.0
  0
LINE
  5
687D
330
1E
100
AcDbEntity
  8
中心線
100
AcDbLine
 10
301.6980599480075
 20
313.2358900577191
 30
0.0
 11
297.9642016915745
 21
313.2358900577191
 31
0.0
  0
LINE
  5
687E
330
1E
100
AcDbEntity
  8
中心線
100
AcDbLine
 10
301.9850829506387
 20
313.2358900577191
 30
0.0
 11
297.7850829506387
 21
313.2358900577191
 31
0.0
  0
LINE
  5
687F
330
1E
100
AcDbEntity
  8
中心線
100
AcDbLine
 10
304.2866618706758
 20
313.2358900577191
 30
0.0
 11
293.6414363427468
 21
313.2358900577191
 31
0.0
  0
LINE
  5
6880
330
1E
100
AcDbEntity
  8
0
100
AcDbLine
 10
298.7850829506387
 20
320.2358900577191
 30
0.0
 11
300.9850829506388
 21
320.2358900577191
 31
0.0
  0
LINE
  5
6881
330
1E
100
AcDbEntity
  8
0
100
AcDbLine
 10
303.7850829506387
 20
297.385890057719
 30
0.0
 11
300.9850829506388
 21
298.635890057719
 31
0.0
  0
ARC
  5
6882
330
1E
100
AcDbEntity
  8
0
100
AcDbCircle
 10
300.3640898760727
 20
282.0501500559024
 30
0.0
 40
2.258017748891657
100
AcDbArc
 50
0.9276427879959484
 51
74.0369778311711
  0
ARC
  5
6883
330
1E
100
AcDbEntity
  8
0
100
AcDbCircle
 10
300.3640898760727
 20
278.4216300595359
 30
0.0
 40
2.258017748891657
100
AcDbArc
 50
285.9630221688289
 51
359.072357212004
  0
LINE
  5
6884
330
1E
100
AcDbEntity
  8
0
100
AcDbLine
 10
302.6218116846377
 20
282.0867067165843
 30
0.0
 11
302.6218116846377
 21
278.385073398854
 31
0.0
  0
LINE
  5
6885
330
1E
100
AcDbEntity
  8
中心線
100
AcDbLine
 10
304.8460069150223
 20
280.2358900577191
 30
0.0
 11
297.6655103774078
 21
280.2358900577191
 31
0.0
  0
LINE
  5
6886
330
1E
100
AcDbEntity
  8
中心線
100
AcDbLine
 10
301.9850829506387
 20
280.2358900577191
 30
0.0
 11
297.7850829506387
 21
280.2358900577191
 31
0.0
  0
LINE
  5
6887
330
1E
100
AcDbEntity
  8
中心線
100
AcDbLine
 10
304.2866618706758
 20
280.2358900577191
 30
0.0
 11
293.6414363427468
 21
280.2358900577191
 31
0.0
  0
LINE
  5
6888
330
1E
100
AcDbEntity
  8
0
100
AcDbLine
 10
303.7850829506387
 20
292.2481579652191
 30
0.0
 11
303.7850829506387
 21
297.385890057719
 31
0.0
  0
LINE
  5
6889
330
1E
100
AcDbEntity
  8
0
100
AcDbLine
 10
303.7850829506387
 20
264.735890057719
 30
0.0
 11
298.7850829506387
 21
264.735890057719
 31
0.0
  0
LINE
  5
688A
330
1E
100
AcDbEntity
  8
0
100
AcDbLine
 10
298.7850829506387
 20
267.7358900577191
 30
0.0
 11
300.9850829506388
 21
267.7358900577191
 31
0.0
  0
LINE
  5
688B
330
1E
100
AcDbEntity
  8
0
100
AcDbLine
 10
300.9850829506388
 20
264.735890057719
 30
0.0
 11
300.9850829506388
 21
320.2358900577191
 31
0.0
  0
LINE
  5
688C
330
1E
100
AcDbEntity
  8
0
100
AcDbLine
 10
303.7850829506387
 20
264.735890057719
 30
0.0
 11
303.7850829506387
 21
292.1969803536192
 31
0.0
  0
ARC
  5
688D
330
1E
100
AcDbEntity
  8
0
100
AcDbCircle
 10
141.506076025205
 20
315.0501500559024
 30
0.0
 40
2.258017748891657
100
AcDbArc
 50
105.9630221688288
 51
179.072357212004
  0
ARC
  5
688E
330
1E
100
AcDbEntity
  8
0
100
AcDbCircle
 10
141.506076025205
 20
311.4216300595359
 30
0.0
 40
2.258017748891657
100
AcDbArc
 50
180.9276427879959
 51
254.0369778311711
  0
LINE
  5
688F
330
1E
100
AcDbEntity
  8
0
100
AcDbLine
 10
139.2483542166399
 20
315.0867067165843
 30
0.0
 11
139.2483542166399
 21
311.385073398854
 31
0.0
  0
LINE
  5
6890
330
1E
100
AcDbEntity
  8
中心線
100
AcDbLine
 10
140.1721059532702
 20
313.2358900577191
 30
0.0
 11
143.9059642097032
 21
313.2358900577191
 31
0.0
  0
LINE
  5
6891
330
1E
100
AcDbEntity
  8
中心線
100
AcDbLine
 10
139.8850829506389
 20
313.2358900577191
 30
0.0
 11
144.085082950639
 21
313.2358900577191
 31
0.0
  0
LINE
  5
6892
330
1E
100
AcDbEntity
  8
中心線
100
AcDbLine
 10
137.5835040306019
 20
313.2358900577191
 30
0.0
 11
148.2287295585309
 21
313.2358900577191
 31
0.0
  0
LINE
  5
6893
330
1E
100
AcDbEntity
  8
0
100
AcDbLine
 10
143.085082950639
 20
320.2358900577191
 30
0.0
 11
140.8850829506389
 21
320.2358900577191
 31
0.0
  0
LINE
  5
6894
330
1E
100
AcDbEntity
  8
0
100
AcDbLine
 10
138.085082950639
 20
297.385890057719
 30
0.0
 11
140.8850829506389
 21
298.635890057719
 31
0.0
  0
ARC
  5
6895
330
1E
100
AcDbEntity
  8
0
100
AcDbCircle
 10
141.506076025205
 20
282.0501500559024
 30
0.0
 40
2.258017748891657
100
AcDbArc
 50
105.9630221688288
 51
179.072357212004
  0
ARC
  5
6896
330
1E
100
AcDbEntity
  8
0
100
AcDbCircle
 10
141.506076025205
 20
278.4216300595359
 30
0.0
 40
2.258017748891657
100
AcDbArc
 50
180.9276427879959
 51
254.0369778311711
  0
LINE
  5
6897
330
1E
100
AcDbEntity
  8
0
100
AcDbLine
 10
139.2483542166399
 20
282.0867067165843
 30
0.0
 11
139.2483542166399
 21
278.385073398854
 31
0.0
  0
LINE
  5
6898
330
1E
100
AcDbEntity
  8
中心線
100
AcDbLine
 10
137.0241589862554
 20
280.2358900577191
 30
0.0
 11
144.2046555238699
 21
280.2358900577191
 31
0.0
  0
LINE
  5
6899
330
1E
100
AcDbEntity
  8
中心線
100
AcDbLine
 10
139.8850829506389
 20
280.2358900577191
 30
0.0
 11
144.085082950639
 21
280.2358900577191
 31
0.0
  0
LINE
  5
689A
330
1E
100
AcDbEntity
  8
中心線
100
AcDbLine
 10
137.5835040306019
 20
280.2358900577191
 30
0.0
 11
148.2287295585309
 21
280.2358900577191
 31
0.0
  0
LINE
  5
689B
330
1E
100
AcDbEntity
  8
0
100
AcDbLine
 10
138.085082950639
 20
292.2481579652191
 30
0.0
 11
138.085082950639
 21
297.385890057719
 31
0.0
  0
LINE
  5
689C
330
1E
100
AcDbEntity
  8
0
100
AcDbLine
 10
138.085082950639
 20
264.735890057719
 30
0.0
 11
143.085082950639
 21
264.735890057719
 31
0.0
  0
LINE
  5
689D
330
1E
100
AcDbEntity
  8
0
100
AcDbLine
 10
143.085082950639
 20
267.7358900577191
 30
0.0
 11
140.8850829506389
 21
267.7358900577191
 31
0.0
  0
LINE
  5
689E
330
1E
100
AcDbEntity
  8
0
100
AcDbLine
 10
140.8850829506389
 20
264.735890057719
 30
0.0
 11
140.8850829506389
 21
320.2358900577191
 31
0.0
  0
LINE
  5
689F
330
1E
100
AcDbEntity
  8
0
100
AcDbLine
 10
138.085082950639
 20
264.735890057719
 30
0.0
 11
138.085082950639
 21
292.1969803536192
 31
0.0
  0
LINE
  5
68A0
330
1E
100
AcDbEntity
  8
0
 48
0.27
100
AcDbLine
 10
298.7850829506389
 20
320.235890057719
 30
0.0
 11
298.7850829506389
 21
264.735890057719
 31
0.0
  0
LINE
  5
68A1
330
1E
100
AcDbEntity
  8
0
 48
0.27
100
AcDbLine
 10
143.085082950639
 20
264.735890057719
 30
0.0
 11
143.085082950639
 21
320.235890057719
 31
0.0
  0
LINE
  5
692D
330
1E
100
AcDbEntity
  8
0
 48
0.27
100
AcDbLine
 10
138.085082950639
 20
271.7380042353874
 30
0.0
 11
128.6652673366656
 21
271.7380042353874
 31
0.0
  0
LINE
  5
692E
330
1E
100
AcDbEntity
  8
0
 48
0.27
100
AcDbLine
 10
138.085082950639
 20
277.7380042353875
 30
0.0
 11
127.1854990673659
 21
277.7380042353875
 31
0.0
  0
LINE
  5
692F
330
1E
100
AcDbEntity
  8
0
 48
0.27
100
AcDbLine
 10
138.085082950639
 20
279.226133084585
 30
0.0
 11
127.5520834579447
 21
279.226133084585
 31
0.0
  0
LINE
  5
6930
330
1E
100
AcDbEntity
  8
0
 48
0.27
100
AcDbLine
 10
138.085082950639
 20
283.1038489299403
 30
0.0
 11
128.5073166696213
 21
283.1038489299403
 31
0.0
  0
LINE
  5
6931
330
1E
100
AcDbEntity
  8
0
 48
0.27
100
AcDbLine
 10
138.085082950639
 20
285.5380097851179
 30
0.0
 11
129.1069457771058
 21
285.5380097851179
 31
0.0
  0
LINE
  5
6932
330
1E
100
AcDbEntity
  8
0
 48
0.27
100
AcDbLine
 10
138.085082950639
 20
288.4379832353875
 30
0.0
 11
128.5309918628212
 21
288.4379832353875
 31
0.0
  0
LINE
  5
6933
330
1E
100
AcDbEntity
  8
0
 48
0.27
100
AcDbLine
 10
138.085082950639
 20
290.8709550725737
 30
0.0
 11
127.4417379180718
 21
290.8709550725737
 31
0.0
  0
LINE
  5
6934
330
1E
100
AcDbEntity
  8
0
 48
0.27
100
AcDbLine
 10
138.085082950639
 20
295.7380042353872
 30
0.0
 11
57.73829364361245
 21
295.7380042353872
 31
0.0
  0
LINE
  5
6935
330
1E
100
AcDbEntity
  8
0
 48
0.27
100
AcDbLine
 10
138.085082950639
 20
294.7500395238487
 30
0.0
 11
127.4180607344401
 21
294.7500395238487
 31
0.0
  0
LINE
  5
6936
330
1E
100
AcDbEntity
  8
虛線
 48
0.27
100
AcDbLine
 10
319.2382936436125
 20
251.7380042353874
 30
0.0
 11
319.7382936436125
 21
252.2380042353875
 31
0.0
  0
LINE
  5
6937
330
1E
100
AcDbEntity
  8
虛線
 48
0.27
100
AcDbLine
 10
336.2382936436125
 20
251.7380042353874
 30
0.0
 11
335.7382936436125
 21
252.2380042353875
 31
0.0
  0
LINE
  5
6938
330
1E
100
AcDbEntity
  8
虛線
 48
0.27
100
AcDbLine
 10
319.7382936436125
 20
252.2380042353875
 30
0.0
 11
335.7382936436125
 21
252.2380042353875
 31
0.0
  0
LINE
  5
6939
330
1E
100
AcDbEntity
  8
虛線
 48
0.27
100
AcDbLine
 10
316.0073535359368
 20
295.7380042353872
 30
0.0
 11
316.2382936436125
 21
295.3380042353874
 31
0.0
  0
LINE
  5
693A
330
1E
100
AcDbEntity
  8
虛線
 48
0.27
100
AcDbLine
 10
339.2382936436125
 20
295.3380042353874
 30
0.0
 11
339.4692337512882
 21
295.7380042353872
 31
0.0
  0
LINE
  5
693B
330
1E
100
AcDbEntity
  8
虛線
 48
0.27
100
AcDbLine
 10
339.2382936436125
 20
295.3380042353874
 30
0.0
 11
316.2382936436125
 21
295.3380042353874
 31
0.0
  0
LINE
  5
693C
330
1E
100
AcDbEntity
  8
虛線
 48
0.27
100
AcDbLine
 10
335.7382936436125
 20
275.2380042353875
 30
0.0
 11
336.2382936436125
 21
275.7380042353875
 31
0.0
  0
LINE
  5
693D
330
1E
100
AcDbEntity
  8
虛線
 48
0.27
100
AcDbLine
 10
319.2382936436125
 20
275.7380042353875
 30
0.0
 11
319.7382936436125
 21
275.2380042353875
 31
0.0
  0
LINE
  5
693E
330
1E
100
AcDbEntity
  8
虛線
 48
0.27
100
AcDbLine
 10
335.7382936436125
 20
275.2380042353875
 30
0.0
 11
319.7382936436125
 21
275.2380042353875
 31
0.0
  0
LINE
  5
693F
330
1E
100
AcDbEntity
  8
虛線
 48
0.27
100
AcDbLine
 10
339.2382936436125
 20
275.7380042353875
 30
0.0
 11
316.2382936436125
 21
275.7380042353875
 31
0.0
  0
LINE
  5
6940
330
1E
100
AcDbEntity
  8
虛線
 48
0.27
100
AcDbLine
 10
339.2382936436125
 20
275.7380042353875
 30
0.0
 11
339.2382936436125
 21
295.3380042353874
 31
0.0
  0
LINE
  5
6941
330
1E
100
AcDbEntity
  8
虛線
 48
0.27
100
AcDbLine
 10
316.2382936436125
 20
275.7380042353875
 30
0.0
 11
316.2382936436125
 21
295.3380042353874
 31
0.0
  0
LINE
  5
6942
330
1E
100
AcDbEntity
  8
虛線
 48
0.27
100
AcDbLine
 10
319.7382936436125
 20
252.2380042353875
 30
0.0
 11
319.7382936436125
 21
275.2380042353875
 31
0.0
  0
LINE
  5
6943
330
1E
100
AcDbEntity
  8
虛線
 48
0.27
100
AcDbLine
 10
335.7382936436125
 20
252.2380042353875
 30
0.0
 11
335.7382936436125
 21
275.2380042353875
 31
0.0
  0
LINE
  5
6944
330
1E
100
AcDbEntity
  8
虛線
 48
0.27
100
AcDbLine
 10
199.2382936436124
 20
251.7380042353874
 30
0.0
 11
199.7382936436126
 21
252.2380042353875
 31
0.0
  0
LINE
  5
6945
330
1E
100
AcDbEntity
  8
虛線
 48
0.27
100
AcDbLine
 10
216.2382936436126
 20
251.7380042353874
 30
0.0
 11
215.7382936436126
 21
252.2380042353875
 31
0.0
  0
LINE
  5
6946
330
1E
100
AcDbEntity
  8
虛線
 48
0.27
100
AcDbLine
 10
199.7382936436126
 20
252.2380042353875
 30
0.0
 11
215.7382936436126
 21
252.2380042353875
 31
0.0
  0
LINE
  5
6947
330
1E
100
AcDbEntity
  8
虛線
 48
0.27
100
AcDbLine
 10
199.7382936436126
 20
252.2380042353875
 30
0.0
 11
199.7382936436126
 21
264.735890057719
 31
0.0
  0
LINE
  5
6948
330
1E
100
AcDbEntity
  8
虛線
 48
0.27
100
AcDbLine
 10
215.7382936436126
 20
252.2380042353875
 30
0.0
 11
215.7382936436126
 21
264.735890057719
 31
0.0
  0
LINE
  5
6949
330
1E
100
AcDbEntity
  8
建構線
 48
0.27
100
AcDbLine
 10
127.1207824360902
 20
260.0084894446934
 30
0.0
 11
128.2892592724367
 21
251.7380042353874
 31
0.0
  0
LINE
  5
694A
330
1E
100
AcDbEntity
  8
建構線
 48
0.27
100
AcDbLine
 10
130.164256372539
 20
268.1716676567128
 30
0.0
 11
127.1207824360902
 21
260.0084894446934
 31
0.0
  0
LINE
  5
694B
330
1E
100
AcDbEntity
  8
建構線
 48
0.27
100
AcDbLine
 10
126.8004168028702
 20
276.1747843006667
 30
0.0
 11
130.164256372539
 21
268.1716676567128
 31
0.0
  0
LINE
  5
694C
330
1E
100
AcDbEntity
  8
建構線
 48
0.27
100
AcDbLine
 10
129.3633418686299
 20
286.5788353915114
 30
0.0
 11
126.8004168028702
 21
276.1747843006667
 31
0.0
  0
LINE
  5
694D
330
1E
100
AcDbEntity
  8
建構線
 48
0.27
100
AcDbLine
 10
126.6402344071195
 20
292.6612037826677
 30
0.0
 11
129.3633418686299
 21
286.5788353915114
 31
0.0
  0
LINE
  5
694E
330
1E
100
AcDbEntity
  8
建構線
 48
0.27
100
AcDbLine
 10
127.7859522579087
 20
295.7380042353872
 30
0.0
 11
126.6402344071195
 21
292.6612037826677
 31
0.0
  0
LINE
  5
694F
330
1E
100
AcDbEntity
  8
0
 48
0.27
100
AcDbLine
 10
79.23829364361245
 20
251.7380042353874
 30
0.0
 11
79.73829364361268
 21
252.2380042353875
 31
0.0
  0
LINE
  5
6950
330
1E
100
AcDbEntity
  8
0
 48
0.27
100
AcDbLine
 10
96.23829364361268
 20
251.7380042353874
 30
0.0
 11
95.73829364361268
 21
252.2380042353875
 31
0.0
  0
LINE
  5
6951
330
1E
100
AcDbEntity
  8
0
 48
0.27
100
AcDbLine
 10
79.73829364361268
 20
252.2380042353875
 30
0.0
 11
95.73829364361268
 21
252.2380042353875
 31
0.0
  0
LINE
  5
6952
330
1E
100
AcDbEntity
  8
0
 48
0.27
100
AcDbLine
 10
76.007353535937
 20
295.7380042353872
 30
0.0
 11
76.23829364361268
 21
295.3380042353874
 31
0.0
  0
LINE
  5
6953
330
1E
100
AcDbEntity
  8
0
 48
0.27
100
AcDbLine
 10
99.23829364361267
 20
295.3380042353874
 30
0.0
 11
99.46923375128836
 21
295.7380042353872
 31
0.0
  0
LINE
  5
6954
330
1E
100
AcDbEntity
  8
0
 48
0.27
100
AcDbLine
 10
99.23829364361267
 20
295.3380042353874
 30
0.0
 11
76.23829364361268
 21
295.3380042353874
 31
0.0
  0
LINE
  5
6955
330
1E
100
AcDbEntity
  8
0
 48
0.27
100
AcDbLine
 10
95.73829364361268
 20
275.2380042353875
 30
0.0
 11
96.23829364361268
 21
275.7380042353875
 31
0.0
  0
LINE
  5
6956
330
1E
100
AcDbEntity
  8
0
 48
0.27
100
AcDbLine
 10
95.73829364361268
 20
252.2380042353875
 30
0.0
 11
95.73829364361268
 21
275.2380042353875
 31
0.0
  0
LINE
  5
6957
330
1E
100
AcDbEntity
  8
0
 48
0.27
100
AcDbLine
 10
79.23829364361267
 20
275.7380042353875
 30
0.0
 11
79.73829364361268
 21
275.2380042353875
 31
0.0
  0
LINE
  5
6958
330
1E
100
AcDbEntity
  8
0
 48
0.27
100
AcDbLine
 10
79.73829364361268
 20
252.2380042353875
 30
0.0
 11
79.73829364361268
 21
275.2380042353875
 31
0.0
  0
LINE
  5
6959
330
1E
100
AcDbEntity
  8
0
 48
0.27
100
AcDbLine
 10
99.23829364361267
 20
275.7380042353875
 30
0.0
 11
76.23829364361268
 21
275.7380042353875
 31
0.0
  0
LINE
  5
695A
330
1E
100
AcDbEntity
  8
0
 48
0.27
100
AcDbLine
 10
95.73829364361268
 20
275.2380042353875
 30
0.0
 11
79.73829364361268
 21
275.2380042353875
 31
0.0
  0
LINE
  5
695B
330
1E
100
AcDbEntity
  8
0
 48
0.27
100
AcDbLine
 10
76.23829364361268
 20
275.7380042353875
 30
0.0
 11
76.23829364361268
 21
295.3380042353874
 31
0.0
  0
LINE
  5
695C
330
1E
100
AcDbEntity
  8
0
 48
0.27
100
AcDbLine
 10
99.23829364361267
 20
275.7380042353875
 30
0.0
 11
99.23829364361267
 21
295.3380042353874
 31
0.0
  0
LINE
  5
695D
330
1E
100
AcDbEntity
  8
0
 48
0.27
100
AcDbLine
 10
57.73829364361245
 20
251.7380042353874
 30
0.0
 11
57.73829364361245
 21
295.7380042353872
 31
0.0
  0
LINE
  5
695E
330
1E
100
AcDbEntity
  8
0
 48
0.27
100
AcDbLine
 10
357.7382936436124
 20
251.7380042353874
 30
0.0
 11
357.7382936436123
 21
295.7380042353875
 31
0.0
  0
LINE
  5
695F
330
1E
100
AcDbEntity
  8
中心線
 48
0.27
100
AcDbLine
 10
87.73829364361246
 20
249.8866746615532
 30
0.0
 11
87.73829364361246
 21
298.1985462986422
 31
0.0
  0
LINE
  5
6960
330
1E
100
AcDbEntity
  8
中心線
 48
0.27
100
AcDbLine
 10
327.7382936436124
 20
249.8866746615532
 30
0.0
 11
327.7382936436124
 21
298.1985462986422
 31
0.0
  0
LINE
  5
6961
330
1E
100
AcDbEntity
  8
中心線
 48
0.27
100
AcDbLine
 10
207.7382936436124
 20
249.8866746615532
 30
0.0
 11
207.7382936436124
 21
266.1414314484038
 31
0.0
  0
LINE
  5
6962
330
1E
100
AcDbEntity
  8
0
 48
0.27
100
AcDbLine
 10
357.7382936436123
 20
295.7380042353875
 30
0.0
 11
303.7850829506387
 21
295.7380042353873
 31
0.0
  0
LINE
  5
6963
330
1E
100
AcDbEntity
  8
0
 48
0.27
100
AcDbLine
 10
357.3882936436124
 20
263.9380031953872
 30
0.0
 11
128.5858212203159
 21
263.9380031953874
 31
0.0
  0
LINE
  5
6964
330
1E
100
AcDbEntity
  8
0
 48
0.27
100
AcDbLine
 10
357.3882936436124
 20
254.0380118313921
 30
0.0
 11
127.9643078903426
 21
254.0380118313921
 31
0.0
  0
LINE
  5
6965
330
1E
100
AcDbEntity
  8
0
 48
0.27
100
AcDbLine
 10
357.7382936436123
 20
294.7500395238488
 30
0.0
 11
303.7850829506387
 21
294.7500395238488
 31
0.0
  0
LINE
  5
6966
330
1E
100
AcDbEntity
  8
0
 48
0.27
100
AcDbLine
 10
357.7382936436123
 20
290.8709550725737
 30
0.0
 11
303.7850829506387
 21
290.8709550725737
 31
0.0
  0
LINE
  5
6967
330
1E
100
AcDbEntity
  8
0
 48
0.27
100
AcDbLine
 10
357.7382936436123
 20
288.4379832353875
 30
0.0
 11
303.7850829506387
 21
288.4379832353875
 31
0.0
  0
LINE
  5
6968
330
1E
100
AcDbEntity
  8
0
 48
0.27
100
AcDbLine
 10
357.7382936436123
 20
285.5380097851181
 30
0.0
 11
303.7850829506387
 21
285.5380097851181
 31
0.0
  0
LINE
  5
6969
330
1E
100
AcDbEntity
  8
0
 48
0.27
100
AcDbLine
 10
357.7382936436123
 20
283.1038489299403
 30
0.0
 11
303.7850829506387
 21
283.1038489299403
 31
0.0
  0
LINE
  5
696A
330
1E
100
AcDbEntity
  8
0
 48
0.27
100
AcDbLine
 10
357.7382936436123
 20
279.2261330845849
 30
0.0
 11
303.7850829506387
 21
279.2261330845849
 31
0.0
  0
LINE
  5
696B
330
1E
100
AcDbEntity
  8
0
 48
0.27
100
AcDbLine
 10
357.7382936436124
 20
277.7380042353874
 30
0.0
 11
303.7850829506387
 21
277.7380042353874
 31
0.0
  0
LINE
  5
696C
330
1E
100
AcDbEntity
  8
0
 48
0.27
100
AcDbLine
 10
357.7382936436124
 20
271.7380042353874
 30
0.0
 11
303.7850829506387
 21
271.7380042353874
 31
0.0
  0
LINE
  5
696D
330
1E
100
AcDbEntity
  8
0
 48
0.27
100
AcDbLine
 10
357.3882936436124
 20
251.7380042353874
 30
0.0
 11
57.73829364361247
 21
251.7380042353874
 31
0.0
  0
LINE
  5
69AA
330
1E
100
AcDbEntity
  8
0
 48
0.27
100
AcDbLine
 10
182.7248109506394
 20
304.735890057719
 30
3.0
 11
182.7248109506394
 21
296.7732660577188
 31
3.0
  0
LINE
  5
69AB
330
1E
100
AcDbEntity
  8
0
 48
0.27
100
AcDbLine
 10
182.4796929788253
 20
295.2392212660391
 30
0.0
 11
259.3904729224527
 21
295.2392212660391
 31
0.0
  0
LWPOLYLINE
  5
69AC
330
1E
100
AcDbEntity
  8
0
 48
0.27
100
AcDbPolyline
 90
       73
 70
     0
 43
0.0
 38
3.0
 10
164.1453549506391
 20
296.7039460797351
 10
164.155032428347
 20
296.586501299539
 10
164.1829924156786
 20
296.4092871435008
 10
164.1958027751914
 20
296.3380981021031
 10
164.2479314397756
 20
296.0621337297829
 10
164.2955592621095
 20
295.8078756916704
 10
164.3777570571873
 20
295.3244175393045
 10
164.4542868300103
 20
294.7571756052593
 10
164.475401274286
 20
294.5555177270099
 10
164.5044213009778
 20
294.2057863841331
 10
164.5309670232145
 20
293.866425575583
 10
164.5891120593717
 20
293.1642650426687
 10
164.7157010490654
 20
291.7907433348087
 10
164.9652996772329
 20
289.5091413539993
 10
165.2766476195509
 20
287.1704212883733
 10
165.3936841248276
 20
286.3925849990545
 10
165.7769554133236
 20
284.12481569463
 10
166.119084551086
 20
282.384784899452
 10
166.4167391505528
 20
281.0375892502478
 10
166.7968123327364
 20
279.4981019532523
 10
167.1246469203394
 20
278.3085969518459
 10
167.5720018372113
 20
276.8588954079179
 10
167.959846424518
 20
275.7436185864059
 10
168.4792432682926
 20
274.4274095581707
 10
168.6143467800822
 20
274.1153857029847
 10
168.683965227737
 20
273.9611674719057
 10
168.7856949274217
 20
273.7739941908591
 10
169.0314700493047
 20
273.4425041689427
 10
169.2572583780185
 20
273.2190663334
 10
169.5877860467097
 20
272.9703574890936
 10
170.0306763315851
 20
272.7275602428263
 10
170.3982513379981
 20
272.5774797260502
 10
170.9336221820436
 20
272.415024730877
 10
171.6989256238934
 20
272.2642121662823
 10
172.4931201487991
 20
272.1773126839285
 10
173.1190810231353
 20
272.1475964295035
 10
173.9724951714934
 20
272.1544473174702
 10
174.6320396611335
 20
272.1988941551238
 10
175.450492164784
 20
272.3100667379088
 10
176.0670640121121
 20
272.4497165403944
 10
176.6188652983665
 20
272.6327059022429
 10
177.0205814800466
 20
272.8171272533228
 10
177.31403188858
 20
272.9914087050475
 10
177.6552699651439
 20
273.2569003283856
 10
177.8890785517731
 20
273.5009688188549
 10
178.1125688450828
 20
273.8215200356465
 10
178.1940913700536
 20
273.9777273206897
 10
178.2632692428471
 20
274.1322826452533
 10
178.7788493116289
 20
275.3921544106588
 10
179.2930720372407
 20
276.8433829567233
 10
179.650665013936
 20
277.9854384054548
 10
180.1007149682689
 20
279.6011488927938
 10
180.5776917548234
 20
281.5817931930123
 10
180.9032366160199
 20
283.1320019550895
 10
181.3063667692829
 20
285.3374310726566
 10
181.6571721500339
 20
287.614197573758
 10
181.7611365165709
 20
288.3748982884874
 10
182.0210504284078
 20
290.5138964211169
 10
182.2417514709318
 20
292.7171425072364
 10
182.3054452912618
 20
293.4524292518083
 10
182.3577337491208
 20
294.1020109472185
 10
182.382155553767
 20
294.4158402199011
 10
182.4114409556948
 20
294.7177030491208
 10
182.47551603177
 20
295.2135622845594
 10
182.5499284154692
 20
295.6706774813606
 10
182.5748148792603
 20
295.8090125836238
 10
182.6353969578884
 20
296.1320157495817
 10
182.6808344503664
 20
296.3749039206103
 10
182.7127039232902
 20
296.5680963108242
 10
182.7191131072513
 20
296.6188825345095
 10
182.7241331796047
 20
296.7246364083353
 10
182.713702477701
 20
296.7659028874803
 10
182.7028589953597
 20
296.7726679750771
  0
LINE
  5
69AD
330
1E
100
AcDbEntity
  8
虛線
 48
0.27
100
AcDbLine
 10
180.435082950639
 20
306.4358900577191
 30
3.0
 11
182.1350829506393
 21
304.735890057719
 31
3.0
  0
LINE
  5
69AE
330
1E
100
AcDbEntity
  8
虛線
 48
0.27
100
AcDbLine
 10
180.435082950639
 20
306.4358900577191
 30
3.0
 11
166.435082950639
 21
306.4358900577191
 31
3.0
  0
LINE
  5
69AF
330
1E
100
AcDbEntity
  8
虛線
 48
0.27
100
AcDbLine
 10
166.435082950639
 20
306.4358900577191
 30
3.0
 11
166.435082950639
 21
320.235890057719
 31
3.0
  0
LINE
  5
69B0
330
1E
100
AcDbEntity
  8
虛線
 48
0.27
100
AcDbLine
 10
167.435082950639
 20
306.4358900577191
 30
3.0
 11
167.435082950639
 21
320.235890057719
 31
3.0
  0
LINE
  5
69B1
330
1E
100
AcDbEntity
  8
虛線
 48
0.27
100
AcDbLine
 10
179.435082950639
 20
306.4358900577191
 30
3.0
 11
179.435082950639
 21
320.235890057719
 31
3.0
  0
LINE
  5
69B2
330
1E
100
AcDbEntity
  8
虛線
 48
0.27
100
AcDbLine
 10
180.435082950639
 20
306.4358900577191
 30
3.0
 11
180.435082950639
 21
320.235890057719
 31
3.0
  0
LINE
  5
69B3
330
1E
100
AcDbEntity
  8
0
 48
0.27
100
AcDbLine
 10
164.1453549506391
 20
304.735890057719
 30
3.0
 11
164.1453549506391
 21
296.7732660577188
 31
3.0
  0
LINE
  5
69B4
330
1E
100
AcDbEntity
  8
0
 48
0.27
100
AcDbLine
 10
164.1453549506391
 20
304.735890057719
 30
3.0
 11
182.7248109506394
 21
304.735890057719
 31
3.0
  0
LINE
  5
69B5
330
1E
100
AcDbEntity
  8
虛線
 48
0.27
100
AcDbLine
 10
166.435082950639
 20
306.4358900577191
 30
3.0
 11
164.7350829506392
 21
304.735890057719
 31
3.0
  0
LINE
  5
69B6
330
1E
100
AcDbEntity
  8
0
 48
0.27
100
AcDbLine
 10
162.0850829506389
 20
295.2392212660391
 30
0.0
 11
164.3892513615521
 21
295.2392212660391
 31
0.0
  0
LINE
  5
69B7
330
1E
100
AcDbEntity
  8
中心線
 48
0.27
100
AcDbLine
 10
173.435082950639
 20
293.6939879604025
 30
3.0
 11
173.435082950639
 21
323.7358900577191
 31
0.0
  0
LINE
  5
69B8
330
1E
100
AcDbEntity
  8
虛線
 48
0.27
100
AcDbLine
 10
180.435082950639
 20
320.235890057719
 30
3.0
 11
181.9350829506392
 21
321.735890057719
 31
3.0
  0
LINE
  5
69B9
330
1E
100
AcDbEntity
  8
虛線
 48
0.27
100
AcDbLine
 10
180.435082950639
 20
320.235890057719
 30
3.0
 11
166.435082950639
 21
320.235890057719
 31
3.0
  0
LINE
  5
69BA
330
1E
100
AcDbEntity
  8
虛線
 48
0.27
100
AcDbLine
 10
166.435082950639
 20
320.235890057719
 30
3.0
 11
164.935082950639
 21
321.735890057719
 31
3.0
  0
LINE
  5
69BB
330
1E
100
AcDbEntity
  8
虛線
 48
0.27
100
AcDbLine
 10
275.435082950639
 20
306.4358900577191
 30
3.0
 11
277.1350829506393
 21
304.735890057719
 31
3.0
  0
LINE
  5
69BC
330
1E
100
AcDbEntity
  8
0
 48
0.27
100
AcDbLine
 10
277.7248109506389
 20
304.735890057719
 30
3.0
 11
277.7248109506389
 21
296.7732660577188
 31
3.0
  0
LINE
  5
69BD
330
1E
100
AcDbEntity
  8
虛線
 48
0.27
100
AcDbLine
 10
275.435082950639
 20
306.4358900577191
 30
3.0
 11
275.435082950639
 21
320.235890057719
 31
3.0
  0
LINE
  5
69BE
330
1E
100
AcDbEntity
  8
虛線
 48
0.27
100
AcDbLine
 10
274.435082950639
 20
306.4358900577191
 30
3.0
 11
274.435082950639
 21
320.235890057719
 31
3.0
  0
LINE
  5
69BF
330
1E
100
AcDbEntity
  8
虛線
 48
0.27
100
AcDbLine
 10
261.435082950639
 20
306.4358900577191
 30
3.0
 11
259.7350829506392
 21
304.735890057719
 31
3.0
  0
LINE
  5
69C0
330
1E
100
AcDbEntity
  8
0
 48
0.27
100
AcDbLine
 10
259.1453549506386
 20
304.735890057719
 30
3.0
 11
259.1453549506386
 21
296.7732660577188
 31
3.0
  0
LINE
  5
69C1
330
1E
100
AcDbEntity
  8
虛線
 48
0.27
100
AcDbLine
 10
262.435082950639
 20
306.4358900577191
 30
3.0
 11
262.435082950639
 21
320.235890057719
 31
3.0
  0
LINE
  5
69C2
330
1E
100
AcDbEntity
  8
虛線
 48
0.27
100
AcDbLine
 10
261.435082950639
 20
306.4358900577191
 30
3.0
 11
261.435082950639
 21
320.235890057719
 31
3.0
  0
LINE
  5
69C3
330
1E
100
AcDbEntity
  8
0
 48
0.27
100
AcDbLine
 10
277.7248109506389
 20
304.735890057719
 30
3.0
 11
259.1453549506386
 21
304.735890057719
 31
3.0
  0
LINE
  5
69C4
330
1E
100
AcDbEntity
  8
虛線
 48
0.27
100
AcDbLine
 10
275.435082950639
 20
306.4358900577191
 30
3.0
 11
261.435082950639
 21
306.4358900577191
 31
3.0
  0
LINE
  5
69C5
330
1E
100
AcDbEntity
  8
0
 48
0.27
100
AcDbLine
 10
277.4809145397259
 20
295.2392212660391
 30
0.0
 11
279.7850829506391
 21
295.2392212660391
 31
0.0
  0
LINE
  5
69C6
330
1E
100
AcDbEntity
  8
中心線
 48
0.27
100
AcDbLine
 10
268.435082950639
 20
293.6939879604025
 30
3.0
 11
268.435082950639
 21
323.7358900577191
 31
0.0
  0
LWPOLYLINE
  5
69C7
330
1E
100
AcDbEntity
  8
0
 48
0.27
100
AcDbPolyline
 90
       73
 70
     0
 43
0.0
 38
3.0
 10
277.7248109506389
 20
296.7039460797351
 10
277.715133472931
 20
296.586501299539
 10
277.6871734855993
 20
296.4092871435008
 10
277.6743631260866
 20
296.3380981021031
 10
277.6222344615024
 20
296.0621337297829
 10
277.5746066391685
 20
295.8078756916704
 10
277.4924088440907
 20
295.3244175393045
 10
277.4158790712677
 20
294.7571756052593
 10
277.394764626992
 20
294.5555177270099
 10
277.3657446003002
 20
294.2057863841331
 10
277.3391988780634
 20
293.866425575583
 10
277.2810538419063
 20
293.1642650426687
 10
277.1544648522126
 20
291.7907433348087
 10
276.9048662240451
 20
289.5091413539993
 10
276.5935182817271
 20
287.1704212883733
 10
276.4764817764504
 20
286.3925849990545
 10
276.0932104879544
 20
284.12481569463
 10
275.751081350192
 20
282.384784899452
 10
275.4534267507252
 20
281.0375892502478
 10
275.0733535685416
 20
279.4981019532523
 10
274.7455189809386
 20
278.3085969518459
 10
274.2981640640667
 20
276.8588954079179
 10
273.91031947676
 20
275.7436185864059
 10
273.3909226329854
 20
274.4274095581707
 10
273.2558191211958
 20
274.1153857029847
 10
273.186200673541
 20
273.9611674719057
 10
273.0844709738563
 20
273.7739941908591
 10
272.8386958519732
 20
273.4425041689427
 10
272.6129075232595
 20
273.2190663334
 10
272.2823798545683
 20
272.9703574890936
 10
271.8394895696929
 20
272.7275602428263
 10
271.4719145632799
 20
272.5774797260502
 10
270.9365437192344
 20
272.415024730877
 10
270.1712402773846
 20
272.2642121662823
 10
269.3770457524789
 20
272.1773126839285
 10
268.7510848781426
 20
272.1475964295035
 10
267.8976707297846
 20
272.1544473174702
 10
267.2381262401445
 20
272.1988941551238
 10
266.419673736494
 20
272.3100667379088
 10
265.8031018891658
 20
272.4497165403944
 10
265.2513006029115
 20
272.6327059022429
 10
264.8495844212313
 20
272.8171272533228
 10
264.556134012698
 20
272.9914087050475
 10
264.2148959361342
 20
273.2569003283856
 10
263.9810873495049
 20
273.5009688188549
 10
263.7575970561952
 20
273.8215200356465
 10
263.6760745312244
 20
273.9777273206897
 10
263.6068966584309
 20
274.1322826452533
 10
263.091316589649
 20
275.3921544106588
 10
262.5770938640373
 20
276.8433829567233
 10
262.219500887342
 20
277.9854384054548
 10
261.7694509330091
 20
279.6011488927938
 10
261.2924741464546
 20
281.5817931930123
 10
260.9669292852581
 20
283.1320019550895
 10
260.5637991319952
 20
285.3374310726566
 10
260.2129937512442
 20
287.614197573758
 10
260.1090293847071
 20
288.3748982884874
 10
259.8491154728702
 20
290.5138964211169
 10
259.6284144303461
 20
292.7171425072364
 10
259.5647206100162
 20
293.4524292518083
 10
259.5124321521573
 20
294.1020109472185
 10
259.488010347511
 20
294.4158402199011
 10
259.4587249455833
 20
294.7177030491208
 10
259.394649869508
 20
295.2135622845594
 10
259.3202374858087
 20
295.6706774813606
 10
259.2953510220177
 20
295.8090125836238
 10
259.2347689433896
 20
296.1320157495817
 10
259.1893314509117
 20
296.3749039206103
 10
259.1574619779878
 20
296.5680963108242
 10
259.1510527940267
 20
296.6188825345095
 10
259.1460327216733
 20
296.7246364083353
 10
259.156463423577
 20
296.7659028874803
 10
259.1673069059183
 20
296.7726679750771
  0
LINE
  5
69C8
330
1E
100
AcDbEntity
  8
虛線
 48
0.27
100
AcDbLine
 10
275.435082950639
 20
320.235890057719
 30
3.0
 11
276.9350829506393
 21
321.735890057719
 31
3.0
  0
LINE
  5
69C9
330
1E
100
AcDbEntity
  8
虛線
 48
0.27
100
AcDbLine
 10
275.435082950639
 20
320.235890057719
 30
3.0
 11
261.435082950639
 21
320.235890057719
 31
3.0
  0
LINE
  5
69CA
330
1E
100
AcDbEntity
  8
虛線
 48
0.27
100
AcDbLine
 10
261.435082950639
 20
320.235890057719
 30
3.0
 11
259.935082950639
 21
321.735890057719
 31
3.0
  0
ENDSEC
  0
SECTION
  2
OBJECTS
  0
DICTIONARY
  5
C
330
0
100
AcDbDictionary
281
     1
  3
ACAD_COLOR
350
3D97
  3
ACAD_GROUP
350
D
  3
ACAD_LAYOUT
350
19
  3
ACAD_MATERIAL
350
3D96
  3
ACAD_MLINESTYLE
350
16
  3
ACAD_PLOTSETTINGS
350
18
  3
ACAD_PLOTSTYLENAME
350
E
  3
ACDBHEADERROUNDTRIPXREC
350
69E2
  3
AcDbVariableDictionary
350
3E63
  0
DICTIONARY
  5
43C2
330
2
100
AcDbDictionary
280
     1
281
     1
  3
ACAD_LAYERSTATES
360
43C3
  0
DICTIONARY
  5
3D1E
330
1E
100
AcDbDictionary
280
     1
281
     1
  3
ACAD_LAYOUTSELFREF
360
3D92
  0
DICTIONARY
  5
3D20
330
1A
100
AcDbDictionary
280
     1
281
     1
  3
ACAD_LAYOUTSELFREF
360
3D91
  0
DICTIONARY
  5
3D97
102
{ACAD_REACTORS
330
C
102
}
330
C
100
AcDbDictionary
281
     1
  0
DICTIONARY
  5
D
102
{ACAD_REACTORS
330
C
102
}
330
C
100
AcDbDictionary
281
     1
  3
*A1
350
4143
  3
*A10
350
43C0
  3
*A11
350
43C1
  3
*A12
350
43B7
  3
*A13
350
4148
  3
*A14
350
414C
  3
*A15
350
414F
  3
*A16
350
437E
  3
*A17
350
4149
  3
*A18
350
414A
  3
*A19
350
414B
  3
*A2
350
43BC
  3
*A20
350
5691
  3
*A21
350
4239
  3
*A22
350
423B
  3
*A23
350
43B8
  3
*A24
350
576A
  3
*A25
350
579E
  3
*A26
350
57D9
  3
*A27
350
4235
  3
*A28
350
4240
  3
*A29
350
4373
  3
*A3
350
43BD
  3
*A30
350
4236
  3
*A31
350
4237
  3
*A32
350
4238
  3
*A33
350
423C
  3
*A34
350
4377
  3
*A35
350
4379
  3
*A36
350
423D
  3
*A37
350
423E
  3
*A38
350
423F
  3
*A39
350
4374
  3
*A4
350
437D
  3
*A40
350
437F
  3
*A41
350
4375
  3
*A42
350
4145
  3
*A43
350
4376
  3
*A44
350
437A
  3
*A45
350
43B9
  3
*A46
350
437B
  3
*A47
350
414D
  3
*A48
350
437C
  3
*A49
350
4146
  3
*A5
350
43BE
  3
*A50
350
43B5
  3
*A51
350
423A
  3
*A52
350
43B6
  3
*A53
350
414E
  3
*A54
350
43BA
  3
*A55
350
4241
  3
*A56
350
43BB
  3
*A6
350
4144
  3
*A7
350
4147
  3
*A8
350
4378
  3
*A9
350
43BF
  0
DICTIONARY
  5
19
102
{ACAD_REACTORS
330
C
102
}
330
C
100
AcDbDictionary
281
     1
  3
Model
350
21
  3
配置1
350
1D
  0
DICTIONARY
  5
3D96
102
{ACAD_REACTORS
330
C
102
}
330
C
100
AcDbDictionary
281
     1
  0
DICTIONARY
  5
16
102
{ACAD_REACTORS
330
C
102
}
330
C
100
AcDbDictionary
281
     1
  3
Standard
350
17
  0
DICTIONARY
  5
18
102
{ACAD_REACTORS
330
C
102
}
330
C
100
AcDbDictionary
281
     1
  3
LANSRO
350
4150
  0
ACDBDICTIONARYWDFLT
  5
E
102
{ACAD_REACTORS
330
C
102
}
330
C
100
AcDbDictionary
281
     1
  3
Normal
350
F
100
AcDbDictionaryWithDefault
340
F
  0
DICTIONARY
  5
69E2
102
{ACAD_REACTORS
330
C
102
}
330
C
100
AcDbDictionary
281
     1
  3
CEPSNTYPE
350
69EC
  3
DIMSTYLEDATA
350
69F0
  3
FINGERPRINTGUID
350
69ED
  3
HYPERLINKBASE
350
69E5
  3
INSUNITS
350
69EB
  3
LAYOUTDICT
350
69E7
  3
LWETCUNION
350
69EA
  3
PLOTSETDICT
350
69E8
  3
PLOTSTYLNAMDICT
350
69E9
  3
PSVPSCALE
350
69EF
  3
PUCSBASE
350
69F3
  3
PUCSORGBACK
350
69F9
  3
PUCSORGBOTTOM
350
69F5
  3
PUCSORGFRONT
350
69F8
  3
PUCSORGLEFT
350
69F6
  3
PUCSORGRIGHT
350
69F7
  3
PUCSORGTOP
350
69F4
  3
PUCSORTHOREF
350
69F1
  3
PUCSORTHOVIEW
350
69F2
  3
STYLESHEET
350
69E6
  3
TSTACKALIGN
350
69E3
  3
TSTACKSIZE
350
69E4
  3
UCSBASE
350
69FC
  3
UCSORGBACK
350
6A02
  3
UCSORGBOTTOM
350
69FE
  3
UCSORGFRONT
350
6A01
  3
UCSORGLEFT
350
69FF
  3
UCSORGRIGHT
350
6A00
  3
UCSORGTOP
350
69FD
  3
UCSORTHOREF
350
69FA
  3
UCSORTHOVIEW
350
69FB
  3
VERSIONGUID
350
69EE
  0
DICTIONARY
  5
3E63
102
{ACAD_REACTORS
330
C
102
}
330
C
100
AcDbDictionary
281
     1
  3
DIMASSOC
350
3E64
  3
PROJECTNAME
350
3E65
  0
DICTIONARY
  5
43C3
102
{ACAD_REACTORS
330
43C2
102
}
330
43C2
100
AcDbDictionary
281
     1
  0
XRECORD
  5
3D92
102
{ACAD_REACTORS
330
3D1E
102
}
330
3D1E
100
AcDbXrecord
280
     1
340
1E
  0
XRECORD
  5
3D91
102
{ACAD_REACTORS
330
3D20
102
}
330
3D20
100
AcDbXrecord
280
     1
340
1A
  0
GROUP
  5
4143
102
{ACAD_REACTORS
330
D
102
}
330
D
100
AcDbGroup
300

 70
     1
 71
     1
  0
GROUP
  5
43C0
102
{ACAD_REACTORS
330
D
102
}
330
D
100
AcDbGroup
300

 70
     1
 71
     1
  0
GROUP
  5
43C1
102
{ACAD_REACTORS
330
D
102
}
330
D
100
AcDbGroup
300

 70
     1
 71
     1
  0
GROUP
  5
43B7
102
{ACAD_REACTORS
330
D
102
}
330
D
100
AcDbGroup
300

 70
     1
 71
     1
  0
GROUP
  5
4148
102
{ACAD_REACTORS
330
D
102
}
330
D
100
AcDbGroup
300

 70
     1
 71
     1
  0
GROUP
  5
414C
102
{ACAD_REACTORS
330
D
102
}
330
D
100
AcDbGroup
300

 70
     1
 71
     1
  0
GROUP
  5
414F
102
{ACAD_REACTORS
330
D
102
}
330
D
100
AcDbGroup
300

 70
     1
 71
     1
  0
GROUP
  5
437E
102
{ACAD_REACTORS
330
D
102
}
330
D
100
AcDbGroup
300

 70
     1
 71
     1
  0
GROUP
  5
4149
102
{ACAD_REACTORS
330
D
102
}
330
D
100
AcDbGroup
300

 70
     1
 71
     1
  0
GROUP
  5
414A
102
{ACAD_REACTORS
330
D
102
}
330
D
100
AcDbGroup
300

 70
     1
 71
     1
  0
GROUP
  5
414B
102
{ACAD_REACTORS
330
D
102
}
330
D
100
AcDbGroup
300

 70
     1
 71
     1
  0
GROUP
  5
43BC
102
{ACAD_REACTORS
330
D
102
}
330
D
100
AcDbGroup
300

 70
     1
 71
     1
  0
GROUP
  5
5691
102
{ACAD_REACTORS
330
D
102
}
330
D
100
AcDbGroup
300

 70
     1
 71
     1
  0
GROUP
  5
4239
102
{ACAD_REACTORS
330
D
102
}
330
D
100
AcDbGroup
300

 70
     1
 71
     1
  0
GROUP
  5
423B
102
{ACAD_REACTORS
330
D
102
}
330
D
100
AcDbGroup
300

 70
     1
 71
     1
  0
GROUP
  5
43B8
102
{ACAD_REACTORS
330
D
102
}
330
D
100
AcDbGroup
300

 70
     1
 71
     1
  0
GROUP
  5
576A
102
{ACAD_REACTORS
330
D
102
}
330
D
100
AcDbGroup
300

 70
     1
 71
     1
  0
GROUP
  5
579E
102
{ACAD_REACTORS
330
D
102
}
330
D
100
AcDbGroup
300

 70
     1
 71
     1
  0
GROUP
  5
57D9
102
{ACAD_REACTORS
330
D
102
}
330
D
100
AcDbGroup
300

 70
     1
 71
     1
  0
GROUP
  5
4235
102
{ACAD_REACTORS
330
D
102
}
330
D
100
AcDbGroup
300

 70
     1
 71
     1
  0
GROUP
  5
4240
102
{ACAD_REACTORS
330
D
102
}
330
D
100
AcDbGroup
300

 70
     1
 71
     1
  0
GROUP
  5
4373
102
{ACAD_REACTORS
330
D
102
}
330
D
100
AcDbGroup
300

 70
     1
 71
     1
  0
GROUP
  5
43BD
102
{ACAD_REACTORS
330
D
102
}
330
D
100
AcDbGroup
300

 70
     1
 71
     1
  0
GROUP
  5
4236
102
{ACAD_REACTORS
330
D
102
}
330
D
100
AcDbGroup
300

 70
     1
 71
     1
  0
GROUP
  5
4237
102
{ACAD_REACTORS
330
D
102
}
330
D
100
AcDbGroup
300

 70
     1
 71
     1
  0
GROUP
  5
4238
102
{ACAD_REACTORS
330
D
102
}
330
D
100
AcDbGroup
300

 70
     1
 71
     1
  0
GROUP
  5
423C
102
{ACAD_REACTORS
330
D
102
}
330
D
100
AcDbGroup
300

 70
     1
 71
     1
  0
GROUP
  5
4377
102
{ACAD_REACTORS
330
D
102
}
330
D
100
AcDbGroup
300

 70
     1
 71
     1
  0
GROUP
  5
4379
102
{ACAD_REACTORS
330
D
102
}
330
D
100
AcDbGroup
300

 70
     1
 71
     1
  0
GROUP
  5
423D
102
{ACAD_REACTORS
330
D
102
}
330
D
100
AcDbGroup
300

 70
     1
 71
     1
  0
GROUP
  5
423E
102
{ACAD_REACTORS
330
D
102
}
330
D
100
AcDbGroup
300

 70
     1
 71
     1
  0
GROUP
  5
423F
102
{ACAD_REACTORS
330
D
102
}
330
D
100
AcDbGroup
300

 70
     1
 71
     1
  0
GROUP
  5
4374
102
{ACAD_REACTORS
330
D
102
}
330
D
100
AcDbGroup
300

 70
     1
 71
     1
  0
GROUP
  5
437D
102
{ACAD_REACTORS
330
D
102
}
330
D
100
AcDbGroup
300

 70
     1
 71
     1
  0
GROUP
  5
437F
102
{ACAD_REACTORS
330
D
102
}
330
D
100
AcDbGroup
300

 70
     1
 71
     1
  0
GROUP
  5
4375
102
{ACAD_REACTORS
330
D
102
}
330
D
100
AcDbGroup
300

 70
     1
 71
     1
  0
GROUP
  5
4145
102
{ACAD_REACTORS
330
D
102
}
330
D
100
AcDbGroup
300

 70
     1
 71
     1
  0
GROUP
  5
4376
102
{ACAD_REACTORS
330
D
102
}
330
D
100
AcDbGroup
300

 70
     1
 71
     1
  0
GROUP
  5
437A
102
{ACAD_REACTORS
330
D
102
}
330
D
100
AcDbGroup
300

 70
     1
 71
     1
  0
GROUP
  5
43B9
102
{ACAD_REACTORS
330
D
102
}
330
D
100
AcDbGroup
300

 70
     1
 71
     1
  0
GROUP
  5
437B
102
{ACAD_REACTORS
330
D
102
}
330
D
100
AcDbGroup
300

 70
     1
 71
     1
  0
GROUP
  5
414D
102
{ACAD_REACTORS
330
D
102
}
330
D
100
AcDbGroup
300

 70
     1
 71
     1
  0
GROUP
  5
437C
102
{ACAD_REACTORS
330
D
102
}
330
D
100
AcDbGroup
300

 70
     1
 71
     1
  0
GROUP
  5
4146
102
{ACAD_REACTORS
330
D
102
}
330
D
100
AcDbGroup
300

 70
     1
 71
     1
  0
GROUP
  5
43BE
102
{ACAD_REACTORS
330
D
102
}
330
D
100
AcDbGroup
300

 70
     1
 71
     1
  0
GROUP
  5
43B5
102
{ACAD_REACTORS
330
D
102
}
330
D
100
AcDbGroup
300

 70
     1
 71
     1
  0
GROUP
  5
423A
102
{ACAD_REACTORS
330
D
102
}
330
D
100
AcDbGroup
300

 70
     1
 71
     1
  0
GROUP
  5
43B6
102
{ACAD_REACTORS
330
D
102
}
330
D
100
AcDbGroup
300

 70
     1
 71
     1
  0
GROUP
  5
414E
102
{ACAD_REACTORS
330
D
102
}
330
D
100
AcDbGroup
300

 70
     1
 71
     1
  0
GROUP
  5
43BA
102
{ACAD_REACTORS
330
D
102
}
330
D
100
AcDbGroup
300

 70
     1
 71
     1
  0
GROUP
  5
4241
102
{ACAD_REACTORS
330
D
102
}
330
D
100
AcDbGroup
300

 70
     1
 71
     1
  0
GROUP
  5
43BB
102
{ACAD_REACTORS
330
D
102
}
330
D
100
AcDbGroup
300

 70
     1
 71
     1
  0
GROUP
  5
4144
102
{ACAD_REACTORS
330
D
102
}
330
D
100
AcDbGroup
300

 70
     1
 71
     1
  0
GROUP
  5
4147
102
{ACAD_REACTORS
330
D
102
}
330
D
100
AcDbGroup
300

 70
     1
 71
     1
  0
GROUP
  5
4378
102
{ACAD_REACTORS
330
D
102
}
330
D
100
AcDbGroup
300

 70
     1
 71
     1
  0
GROUP
  5
43BF
102
{ACAD_REACTORS
330
D
102
}
330
D
100
AcDbGroup
300

 70
     1
 71
     1
  0
LAYOUT
  5
21
102
{ACAD_XDICTIONARY
360
69D3
102
}
102
{ACAD_REACTORS
330
19
102
}
330
19
100
AcDbPlotSettings
  1

  2
HP 2200
  4

  6

 40
0.0
 41
0.0
 42
0.0
 43
0.0
 44
0.0
 45
0.0
 46
0.0
 47
0.0
 48
0.0
 49
0.0
140
0.0
141
0.0
142
1.0
143
1.0
 70
  1712
 72
     0
 73
     0
 74
     0
  7
AAA.ctb
 75
     0
147
1.0
148
0.0
149
0.0
100
AcDbLayout
  1
Model
 70
     1
 71
     0
 10
0.0
 20
0.0
 11
12.0
 21
9.0
 12
0.0
 22
0.0
 32
0.0
 14
0.0
 24
0.0
 34
0.0
 15
0.0
 25
0.0
 35
0.0
146
0.0
 13
0.0
 23
0.0
 33
0.0
 16
1.0
 26
0.0
 36
0.0
 17
0.0
 27
1.0
 37
0.0
 76
     0
330
1E
  0
LAYOUT
  5
1D
102
{ACAD_XDICTIONARY
360
69D1
102
}
102
{ACAD_REACTORS
330
19
102
}
330
19
100
AcDbPlotSettings
  1

  2
HP 2200
  4

  6

 40
0.0
 41
0.0
 42
0.0
 43
0.0
 44
0.0
 45
0.0
 46
0.0
 47
0.0
 48
0.0
 49
0.0
140
0.0
141
0.0
142
1.0
143
1.0
 70
   688
 72
     0
 73
     0
 74
     5
  7
AAA.ctb
 75
    16
147
1.0
148
0.0
149
0.0
100
AcDbLayout
  1
配置1
 70
     0
 71
     1
 10
0.0
 20
0.0
 11
12.0
 21
9.0
 12
0.0
 22
0.0
 32
0.0
 14
1.000000000000000E+20
 24
1.000000000000000E+20
 34
1.000000000000000E+20
 15
-1.000000000000000E+20
 25
-1.000000000000000E+20
 35
-1.000000000000000E+20
146
0.0
 13
0.0
 23
0.0
 33
0.0
 16
1.0
 26
0.0
 36
0.0
 17
0.0
 27
1.0
 37
0.0
 76
     0
330
1A
  0
MLINESTYLE
  5
17
102
{ACAD_REACTORS
330
16
102
}
330
16
100
AcDbMlineStyle
  2
STANDARD
 70
     0
  3

 62
   256
 51
90.0
 52
90.0
 71
     2
 49
0.5
 62
   256
  6
BYLAYER
 49
-0.5
 62
   256
  6
BYLAYER
  0
PLOTSETTINGS
  5
4150
102
{ACAD_XDICTIONARY
360
69D5
102
}
102
{ACAD_REACTORS
330
18
102
}
330
18
100
AcDbPlotSettings
  1
LANSRO
  2
\\1260\HP2200
  4
A4
  6

 40
6.043083190917968
 41
6.762742042541503
 42
7.736419677734375
 43
5.027069091796875
 44
209.9733276367187
 45
296.9683227539062
 46
5.15
 47
0.0
 48
0.0
 49
0.0
140
0.0
141
0.0
142
1.0
143
0.8829829263240881
 70
  1716
 72
     1
 73
     1
 74
     0
  7
AAA.ctb
 75
     0
147
1.132524729739748
148
-132.297014905803
149
-71.78507365635891
  0
ACDBPLACEHOLDER
  5
F
102
{ACAD_REACTORS
330
E
102
}
330
E
  0
XRECORD
  5
69EC
102
{ACAD_REACTORS
330
69E2
102
}
330
69E2
100
AcDbXrecord
280
     1
 90
        0
  0
XRECORD
  5
69F0
102
{ACAD_REACTORS
330
69E2
102
}
330
69E2
100
AcDbXrecord
280
     1
1000
DSTYLE
1002
{
1070
   279
 70
     2
1002
}
  0
XRECORD
  5
69ED
102
{ACAD_REACTORS
330
69E2
102
}
330
69E2
100
AcDbXrecord
280
     1
  1
{77095E5F-9CE7-11D7-970D-0040F4541FA8}
  0
XRECORD
  5
69E5
102
{ACAD_REACTORS
330
69E2
102
}
330
69E2
100
AcDbXrecord
280
     1
  1

  0
XRECORD
  5
69EB
102
{ACAD_REACTORS
330
69E2
102
}
330
69E2
100
AcDbXrecord
280
     1
 90
        0
  0
XRECORD
  5
69E7
102
{ACAD_REACTORS
330
69E2
102
}
330
69E2
100
AcDbXrecord
280
     1
340
19
  0
XRECORD
  5
69EA
102
{ACAD_REACTORS
330
69E2
102
}
330
69E2
100
AcDbXrecord
280
     1
 90
    14877
  0
XRECORD
  5
69E8
102
{ACAD_REACTORS
330
69E2
102
}
330
69E2
100
AcDbXrecord
280
     1
340
18
  0
XRECORD
  5
69E9
102
{ACAD_REACTORS
330
69E2
102
}
330
69E2
100
AcDbXrecord
280
     1
340
E
  0
XRECORD
  5
69EF
102
{ACAD_REACTORS
330
69E2
102
}
330
69E2
100
AcDbXrecord
280
     1
 40
0.0
  0
XRECORD
  5
69F3
102
{ACAD_REACTORS
330
69E2
102
}
330
69E2
100
AcDbXrecord
280
     1
340
0
  0
XRECORD
  5
69F9
102
{ACAD_REACTORS
330
69E2
102
}
330
69E2
100
AcDbXrecord
280
     1
 10
0.0
 20
0.0
 30
0.0
  0
XRECORD
  5
69F5
102
{ACAD_REACTORS
330
69E2
102
}
330
69E2
100
AcDbXrecord
280
     1
 10
0.0
 20
0.0
 30
0.0
  0
XRECORD
  5
69F8
102
{ACAD_REACTORS
330
69E2
102
}
330
69E2
100
AcDbXrecord
280
     1
 10
0.0
 20
0.0
 30
0.0
  0
XRECORD
  5
69F6
102
{ACAD_REACTORS
330
69E2
102
}
330
69E2
100
AcDbXrecord
280
     1
 10
0.0
 20
0.0
 30
0.0
  0
XRECORD
  5
69F7
102
{ACAD_REACTORS
330
69E2
102
}
330
69E2
100
AcDbXrecord
280
     1
 10
0.0
 20
0.0
 30
0.0
  0
XRECORD
  5
69F4
102
{ACAD_REACTORS
330
69E2
102
}
330
69E2
100
AcDbXrecord
280
     1
 10
0.0
 20
0.0
 30
0.0
  0
XRECORD
  5
69F1
102
{ACAD_REACTORS
330
69E2
102
}
330
69E2
100
AcDbXrecord
280
     1
340
0
  0
XRECORD
  5
69F2
102
{ACAD_REACTORS
330
69E2
102
}
330
69E2
100
AcDbXrecord
280
     1
 70
     0
  0
XRECORD
  5
69E6
102
{ACAD_REACTORS
330
69E2
102
}
330
69E2
100
AcDbXrecord
280
     1
  1

  0
XRECORD
  5
69E3
102
{ACAD_REACTORS
330
69E2
102
}
330
69E2
100
AcDbXrecord
280
     1
 90
        1
  0
XRECORD
  5
69E4
102
{ACAD_REACTORS
330
69E2
102
}
330
69E2
100
AcDbXrecord
280
     1
 90
       70
  0
XRECORD
  5
69FC
102
{ACAD_REACTORS
330
69E2
102
}
330
69E2
100
AcDbXrecord
280
     1
340
0
  0
XRECORD
  5
6A02
102
{ACAD_REACTORS
330
69E2
102
}
330
69E2
100
AcDbXrecord
280
     1
 10
0.0
 20
0.0
 30
0.0
  0
XRECORD
  5
69FE
102
{ACAD_REACTORS
330
69E2
102
}
330
69E2
100
AcDbXrecord
280
     1
 10
0.0
 20
0.0
 30
0.0
  0
XRECORD
  5
6A01
102
{ACAD_REACTORS
330
69E2
102
}
330
69E2
100
AcDbXrecord
280
     1
 10
0.0
 20
0.0
 30
0.0
  0
XRECORD
  5
69FF
102
{ACAD_REACTORS
330
69E2
102
}
330
69E2
100
AcDbXrecord
280
     1
 10
0.0
 20
0.0
 30
0.0
  0
XRECORD
  5
6A00
102
{ACAD_REACTORS
330
69E2
102
}
330
69E2
100
AcDbXrecord
280
     1
 10
0.0
 20
0.0
 30
0.0
  0
XRECORD
  5
69FD
102
{ACAD_REACTORS
330
69E2
102
}
330
69E2
100
AcDbXrecord
280
     1
 10
0.0
 20
0.0
 30
0.0
  0
XRECORD
  5
69FA
102
{ACAD_REACTORS
330
69E2
102
}
330
69E2
100
AcDbXrecord
280
     1
340
0
  0
XRECORD
  5
69FB
102
{ACAD_REACTORS
330
69E2
102
}
330
69E2
100
AcDbXrecord
280
     1
 70
     0
  0
XRECORD
  5
69EE
102
{ACAD_REACTORS
330
69E2
102
}
330
69E2
100
AcDbXrecord
280
     1
  1
{5E5D261E-2119-473E-B8B9-C1191D9B33F1}
  0
DICTIONARYVAR
  5
3E64
102
{ACAD_REACTORS
330
3E63
102
}
330
3E63
100
DictionaryVariables
280
     0
  1
1
  0
DICTIONARYVAR
  5
3E65
102
{ACAD_REACTORS
330
3E63
102
}
330
3E63
100
DictionaryVariables
280
     0
  1

  0
DICTIONARY
  5
69D3
330
21
100
AcDbDictionary
280
     1
281
     1
  3
ACAD_XREC_ROUNDTRIP
360
69D4
  0
DICTIONARY
  5
69D1
330
1D
100
AcDbDictionary
280
     1
281
     1
  3
ACAD_XREC_ROUNDTRIP
360
69D2
  0
DICTIONARY
  5
69D5
330
4150
100
AcDbDictionary
280
     1
281
     1
  3
ACAD_XREC_ROUNDTRIP
360
69D6
  0
XRECORD
  5
69D4
102
{ACAD_REACTORS
330
69D3
102
}
330
69D3
100
AcDbXrecord
280
     1
102
SHADEPLOT
 70
     0
102
SHADEPLOTRESLEVEL
 70
     2
102
SHADEPLOTCUSTOMDPI
 70
   300
  0
XRECORD
  5
69D2
102
{ACAD_REACTORS
330
69D1
102
}
330
69D1
100
AcDbXrecord
280
     1
102
SHADEPLOT
 70
     0
102
SHADEPLOTRESLEVEL
 70
     2
102
SHADEPLOTCUSTOMDPI
 70
   300
  0
XRECORD
  5
69D6
102
{ACAD_REACTORS
330
69D5
102
}
330
69D5
100
AcDbXrecord
280
     1
102
SHADEPLOT
 70
     0
102
SHADEPLOTRESLEVEL
 70
     2
102
SHADEPLOTCUSTOMDPI
 70
   300
  0
ENDSEC
  0
EOF
