  0
SECTION
  2
HEADER
  9
$ACADVER
  1
AC1015
  9
$ACADMAINTVER
 70
    11
  9
$DWGCODEPAGE
  3
ANSI_950
  9
$INSBASE
 10
0.0
 20
0.0
 30
0.0
  9
$EXTMIN
 10
-29.07919130260749
 20
305.2502660775005
 30
0.0
  9
$EXTMAX
 10
587.4050328760624
 20
651.8511020170689
 30
3.0
  9
$LIMMIN
 10
-10.0
 20
-15.0
  9
$LIMMAX
 10
120.0
 20
90.0
  9
$ORTHOMODE
 70
     1
  9
$REGENMODE
 70
     0
  9
$FILLMODE
 70
     1
  9
$QTEXTMODE
 70
     0
  9
$MIRRTEXT
 70
     0
  9
$LTSCALE
 40
3.0
  9
$ATTMODE
 70
     1
  9
$TEXTSIZE
 40
3.0
  9
$TRACEWID
 40
1.0
  9
$TEXTSTYLE
  7
STANDARD
  9
$CLAYER
  8
0
  9
$CELTYPE
  6
ByLayer
  9
$CECOLOR
 62
   256
  9
$CELTSCALE
 40
1.0
  9
$DISPSILH
 70
     0
  9
$DIMSCALE
 40
1.0
  9
$DIMASZ
 40
3.0
  9
$DIMEXO
 40
1.0
  9
$DIMDLI
 40
6.0
  9
$DIMRND
 40
0.0
  9
$DIMDLE
 40
0.0
  9
$DIMEXE
 40
1.0
  9
$DIMTP
 40
0.0
  9
$DIMTM
 40
0.0
  9
$DIMTXT
 40
3.0
  9
$DIMCEN
 40
1.5
  9
$DIMTSZ
 40
0.0
  9
$DIMTOL
 70
     0
  9
$DIMLIM
 70
     0
  9
$DIMTIH
 70
     1
  9
$DIMTOH
 70
     1
  9
$DIMSE1
 70
     0
  9
$DIMSE2
 70
     0
  9
$DIMTAD
 70
     0
  9
$DIMZIN
 70
     0
  9
$DIMBLK
  1

  9
$DIMASO
 70
     1
  9
$DIMSHO
 70
     0
  9
$DIMPOST
  1

  9
$DIMAPOST
  1

  9
$DIMALT
 70
     0
  9
$DIMALTD
 70
     2
  9
$DIMALTF
 40
25.4
  9
$DIMLFAC
 40
1.0
  9
$DIMTOFL
 70
     1
  9
$DIMTVP
 40
0.0
  9
$DIMTIX
 70
     0
  9
$DIMSOXD
 70
     0
  9
$DIMSAH
 70
     0
  9
$DIMBLK1
  1

  9
$DIMBLK2
  1

  9
$DIMSTYLE
  2
Standard
  9
$DIMCLRD
 70
     0
  9
$DIMCLRE
 70
     0
  9
$DIMCLRT
 70
     0
  9
$DIMTFAC
 40
1.0
  9
$DIMGAP
 40
0.09
  9
$DIMJUST
 70
     0
  9
$DIMSD1
 70
     0
  9
$DIMSD2
 70
     0
  9
$DIMTOLJ
 70
     1
  9
$DIMTZIN
 70
     0
  9
$DIMALTZ
 70
     0
  9
$DIMALTTZ
 70
     0
  9
$DIMUPT
 70
     0
  9
$DIMDEC
 70
     4
  9
$DIMTDEC
 70
     8
  9
$DIMALTU
 70
     2
  9
$DIMALTTD
 70
     2
  9
$DIMTXSTY
  7
STANDARD
  9
$DIMAUNIT
 70
     0
  9
$DIMADEC
 70
     0
  9
$DIMALTRND
 40
0.0
  9
$DIMAZIN
 70
     0
  9
$DIMDSEP
 70
    46
  9
$DIMATFIT
 70
     3
  9
$DIMFRAC
 70
     0
  9
$DIMLDRBLK
  1

  9
$DIMLUNIT
 70
     2
  9
$DIMLWD
 70
    -2
  9
$DIMLWE
 70
    -2
  9
$DIMTMOVE
 70
     2
  9
$LUNITS
 70
     2
  9
$LUPREC
 70
     4
  9
$SKETCHINC
 40
0.5
  9
$FILLETRAD
 40
0.0
  9
$AUNITS
 70
     0
  9
$AUPREC
 70
     0
  9
$MENU
  1
ACAD
  9
$ELEVATION
 40
0.0
  9
$PELEVATION
 40
0.0
  9
$THICKNESS
 40
0.0
  9
$LIMCHECK
 70
     0
  9
$CHAMFERA
 40
0.0
  9
$CHAMFERB
 40
0.0
  9
$CHAMFERC
 40
0.0
  9
$CHAMFERD
 40
0.0
  9
$SKPOLY
 70
     0
  9
$TDCREATE
 40
2444975.333333333
  9
$TDUCREATE
 40
2444974.999999999
  9
$TDUPDATE
 40
2453022.600223877
  9
$TDUUPDATE
 40
2453022.266890544
  9
$TDINDWG
 40
0.0511807639
  9
$TDUSRTIMER
 40
0.0000000000
  9
$USRTIMER
 70
     0
  9
$ANGBASE
 50
0.0
  9
$ANGDIR
 70
     0
  9
$PDMODE
 70
   171
  9
$PDSIZE
 40
0.001
  9
$PLINEWID
 40
0.0
  9
$SPLFRAME
 70
     0
  9
$SPLINETYPE
 70
     6
  9
$SPLINESEGS
 70
     8
  9
$HANDSEED
  5
69B0
  9
$SURFTAB1
 70
     6
  9
$SURFTAB2
 70
     6
  9
$SURFTYPE
 70
     6
  9
$SURFU
 70
     6
  9
$SURFV
 70
     6
  9
$UCSBASE
  2

  9
$UCSNAME
  2

  9
$UCSORG
 10
0.0
 20
0.0
 30
0.0
  9
$UCSXDIR
 10
1.0
 20
0.0
 30
0.0
  9
$UCSYDIR
 10
0.0
 20
1.0
 30
0.0
  9
$UCSORTHOREF
  2

  9
$UCSORTHOVIEW
 70
     0
  9
$UCSORGTOP
 10
0.0
 20
0.0
 30
0.0
  9
$UCSORGBOTTOM
 10
0.0
 20
0.0
 30
0.0
  9
$UCSORGLEFT
 10
0.0
 20
0.0
 30
0.0
  9
$UCSORGRIGHT
 10
0.0
 20
0.0
 30
0.0
  9
$UCSORGFRONT
 10
0.0
 20
0.0
 30
0.0
  9
$UCSORGBACK
 10
0.0
 20
0.0
 30
0.0
  9
$PUCSBASE
  2

  9
$PUCSNAME
  2

  9
$PUCSORG
 10
0.0
 20
0.0
 30
0.0
  9
$PUCSXDIR
 10
1.0
 20
0.0
 30
0.0
  9
$PUCSYDIR
 10
0.0
 20
1.0
 30
0.0
  9
$PUCSORTHOREF
  2

  9
$PUCSORTHOVIEW
 70
     0
  9
$PUCSORGTOP
 10
0.0
 20
0.0
 30
0.0
  9
$PUCSORGBOTTOM
 10
0.0
 20
0.0
 30
0.0
  9
$PUCSORGLEFT
 10
0.0
 20
0.0
 30
0.0
  9
$PUCSORGRIGHT
 10
0.0
 20
0.0
 30
0.0
  9
$PUCSORGFRONT
 10
0.0
 20
0.0
 30
0.0
  9
$PUCSORGBACK
 10
0.0
 20
0.0
 30
0.0
  9
$USERI1
 70
     0
  9
$USERI2
 70
     0
  9
$USERI3
 70
     0
  9
$USERI4
 70
     0
  9
$USERI5
 70
     0
  9
$USERR1
 40
0.0
  9
$USERR2
 40
0.0
  9
$USERR3
 40
0.0
  9
$USERR4
 40
0.0
  9
$USERR5
 40
0.0
  9
$WORLDVIEW
 70
     1
  9
$SHADEDGE
 70
     3
  9
$SHADEDIF
 70
    70
  9
$TILEMODE
 70
     1
  9
$MAXACTVP
 70
    48
  9
$PINSBASE
 10
0.0
 20
0.0
 30
0.0
  9
$PLIMCHECK
 70
     0
  9
$PEXTMIN
 10
1.000000000000000E+20
 20
1.000000000000000E+20
 30
1.000000000000000E+20
  9
$PEXTMAX
 10
-1.000000000000000E+20
 20
-1.000000000000000E+20
 30
-1.000000000000000E+20
  9
$PLIMMIN
 10
0.0
 20
0.0
  9
$PLIMMAX
 10
12.0
 20
9.0
  9
$UNITMODE
 70
     0
  9
$VISRETAIN
 70
     1
  9
$PLINEGEN
 70
     0
  9
$PSLTSCALE
 70
     0
  9
$TREEDEPTH
 70
  3020
  9
$CMLSTYLE
  2
Standard
  9
$CMLJUST
 70
     0
  9
$CMLSCALE
 40
1.0
  9
$PROXYGRAPHICS
 70
     1
  9
$MEASUREMENT
 70
     0
  9
$CELWEIGHT
370
    -1
  9
$ENDCAPS
280
     0
  9
$JOINSTYLE
280
     0
  9
$LWDISPLAY
290
     0
  9
$INSUNITS
 70
     0
  9
$HYPERLINKBASE
  1

  9
$STYLESHEET
  1

  9
$XEDIT
290
     1
  9
$CEPSNTYPE
380
     0
  9
$PSTYLEMODE
290
     1
  9
$FINGERPRINTGUID
  2
{77095E5F-9CE7-11D7-970D-0040F4541FA8}
  9
$VERSIONGUID
  2
{9BFC1488-6220-4469-AD7A-785A5F7F04D6}
  9
$EXTNAMES
290
     1
  9
$PSVPSCALE
 40
0.0
  9
$OLESTARTUP
290
     0
  0
ENDSEC
  0
SECTION
  2
CLASSES
  0
CLASS
  1
ACDBDICTIONARYWDFLT
  2
AcDbDictionaryWithDefault
  3
AutoCAD 2000
 90
        0
280
     0
281
     0
  0
CLASS
  1
ACDBPLACEHOLDER
  2
AcDbPlaceHolder
  3
AutoCAD 2000
 90
        0
280
     0
281
     0
  0
CLASS
  1
LAYOUT
  2
AcDbLayout
  3
AutoCAD 2000
 90
        0
280
     0
281
     0
  0
CLASS
  1
LONG_TRANSACTION
  2
AcDbLongTransaction
  3
AutoCAD 2000
 90
    32768
280
     0
281
     0
  0
CLASS
  1
LWPOLYLINE
  2
AcDbPolyline
  3
AutoCAD 2000
 90
    32768
280
     0
281
     1
  0
CLASS
  1
HATCH
  2
AcDbHatch
  3
AutoCAD 2000
 90
    32768
280
     0
281
     1
  0
CLASS
  1
XRECORD
  2
AcDbXrecord
  3
AutoCAD 2000
 90
    32768
280
     0
281
     0
  0
CLASS
  1
LONG_TRANSACTION
  2
AcDbLongTransaction
  3
AutoCAD 2000
 90
    32768
280
     0
281
     0
  0
CLASS
  1
LWPOLYLINE
  2
AcDbPolyline
  3
AutoCAD 2000
 90
    32768
280
     0
281
     1
  0
CLASS
  1
HATCH
  2
AcDbHatch
  3
AutoCAD 2000
 90
    32768
280
     0
281
     1
  0
CLASS
  1
XRECORD
  2
AcDbXrecord
  3
AutoCAD 2000
 90
    32768
280
     0
281
     0
  0
CLASS
  1
DICTIONARYVAR
  2
AcDbDictionaryVar
  3
AutoCAD 2000
 90
        0
280
     0
281
     0
  0
CLASS
  1
PLOTSETTINGS
  2
AcDbPlotSettings
  3
AutoCAD 2000
 90
        0
280
     0
281
     0
  0
ENDSEC
  0
SECTION
  2
TABLES
  0
TABLE
  2
VPORT
  5
8
330
0
100
AcDbSymbolTable
 70
     2
  0
VPORT
  5
698E
330
8
100
AcDbSymbolTableRecord
100
AcDbViewportTableRecord
  2
*Active
 70
     0
 10
0.0
 20
0.0
 11
1.0
 21
1.0
 12
279.1691188696678
 22
478.5608370280711
 13
457.9999999999997
 23
1082.0
 14
10.0
 24
10.0
 15
10.0
 25
10.0
 16
0.0
 26
0.0
 36
1.0
 17
0.0
 27
0.0
 37
0.0
 40
351.048570311455
 41
1.936974789915966
 42
1.0
 43
0.0
 44
0.0
 50
0.0
 51
0.0
 71
     0
 72
   100
 73
     1
 74
     1
 75
     0
 76
     0
 77
     0
 78
     0
281
     0
 65
     1
110
0.0
120
0.0
130
0.0
111
1.0
121
0.0
131
0.0
112
0.0
122
1.0
132
0.0
 79
     0
146
0.0
  0
ENDTAB
  0
TABLE
  2
LTYPE
  5
5
330
0
100
AcDbSymbolTable
 70
     5
  0
LTYPE
  5
13
330
5
100
AcDbSymbolTableRecord
100
AcDbLinetypeTableRecord
  2
ByBlock
 70
     0
  3

 72
    65
 73
     0
 40
0.0
  0
LTYPE
  5
14
330
5
100
AcDbSymbolTableRecord
100
AcDbLinetypeTableRecord
  2
ByLayer
 70
     0
  3

 72
    65
 73
     0
 40
0.0
  0
LTYPE
  5
15
330
5
100
AcDbSymbolTableRecord
100
AcDbLinetypeTableRecord
  2
CONTINUOUS
 70
     0
  3
連續線 ________________________
 72
    65
 73
     2
 40
200000.0
 49
200000.0
 74
     0
 49
0.0
 74
     0
  0
LTYPE
  5
225
330
5
100
AcDbSymbolTableRecord
100
AcDbLinetypeTableRecord
  2
BYBLOCK
 70
     0
  3
Solid line
 72
    65
 73
     0
 40
0.0
  0
LTYPE
  5
226
330
5
100
AcDbSymbolTableRecord
100
AcDbLinetypeTableRecord
  2
BYLAYER
 70
     0
  3
Solid line
 72
    65
 73
     0
 40
0.0
  0
LTYPE
  5
413C
330
5
100
AcDbSymbolTableRecord
100
AcDbLinetypeTableRecord
  2
CENTER2
 70
     0
  3
Center (.5x) ___ _ ___ _ ___ _ ___ _ ___ _ ___
 72
    65
 73
     4
 40
28.57499999999999
 49
19.05
 74
     0
 49
-3.174999999999999
 74
     0
 49
3.174999999999999
 74
     0
 49
-3.174999999999999
 74
     0
  0
LTYPE
  5
413D
330
5
100
AcDbSymbolTableRecord
100
AcDbLinetypeTableRecord
  2
DASHED2
 70
     0
  3
Dashed (.5x) _ _ _ _ _ _ _ _ _ _ _ _ _ _ _ _ _
 72
    65
 73
     2
 40
9.524999999999998
 49
6.349999999999999
 74
     0
 49
-3.174999999999999
 74
     0
  0
ENDTAB
  0
TABLE
  2
LAYER
  5
2
102
{ACAD_XDICTIONARY
360
43C2
102
}
330
0
100
AcDbSymbolTable
 70
     7
  0
LAYER
  5
10
330
2
100
AcDbSymbolTableRecord
100
AcDbLayerTableRecord
  2
0
 70
     0
 62
     7
  6
CONTINUOUS
370
    -3
390
F
  0
LAYER
  5
413E
330
2
100
AcDbSymbolTableRecord
100
AcDbLayerTableRecord
  2
指線
 70
     0
 62
     3
  6
CONTINUOUS
370
    15
390
F
  0
LAYER
  5
413F
330
2
100
AcDbSymbolTableRecord
100
AcDbLayerTableRecord
  2
中心線
 70
     0
 62
     4
  6
CENTER2
370
    20
390
F
  0
LAYER
  5
4140
330
2
100
AcDbSymbolTableRecord
100
AcDbLayerTableRecord
  2
虛線
 70
     0
 62
     6
  6
DASHED2
290
     0
370
    -3
390
F
  0
LAYER
  5
43B4
330
2
100
AcDbSymbolTableRecord
100
AcDbLayerTableRecord
  2
建構線
 70
     0
 62
     1
  6
CONTINUOUS
370
    -3
390
F
  0
LAYER
  5
6233
330
2
100
AcDbSymbolTableRecord
100
AcDbLayerTableRecord
  2
AM4
 70
     0
 62
     3
  6
CONTINUOUS
370
    15
390
F
  0
LAYER
  5
6234
330
2
100
AcDbSymbolTableRecord
100
AcDbLayerTableRecord
  2
AM7
 70
     0
 62
     4
  6
CENTER2
370
    20
390
F
  0
ENDTAB
  0
TABLE
  2
STYLE
  5
3
330
0
100
AcDbSymbolTable
 70
     1
  0
STYLE
  5
11
330
3
100
AcDbSymbolTableRecord
100
AcDbTextStyleTableRecord
  2
STANDARD
 70
     0
 40
0.0
 41
1.0
 50
0.0
 71
     0
 42
3.0
  3

  4

  0
ENDTAB
  0
TABLE
  2
VIEW
  5
6
330
0
100
AcDbSymbolTable
 70
     0
  0
ENDTAB
  0
TABLE
  2
UCS
  5
7
330
0
100
AcDbSymbolTable
 70
     0
  0
ENDTAB
  0
TABLE
  2
APPID
  5
9
330
0
100
AcDbSymbolTable
 70
     5
  0
APPID
  5
12
330
9
100
AcDbSymbolTableRecord
100
AcDbRegAppTableRecord
  2
ACAD
 70
     0
  0
APPID
  5
230
330
9
100
AcDbSymbolTableRecord
100
AcDbRegAppTableRecord
  2
TCAD
 70
     0
  0
APPID
  5
4142
330
9
100
AcDbSymbolTableRecord
100
AcDbRegAppTableRecord
  2
CONTENTBLOCKICON
 70
     0
  0
APPID
  5
5A4E
330
9
100
AcDbSymbolTableRecord
100
AcDbRegAppTableRecord
  2
pntflag
 70
     0
  0
APPID
  5
5D2B
330
9
100
AcDbSymbolTableRecord
100
AcDbRegAppTableRecord
  2
CONTENTBLOCKDESCRIPTION
 70
     0
  0
ENDTAB
  0
TABLE
  2
DIMSTYLE
  5
A
330
0
100
AcDbSymbolTable
 70
     1
100
AcDbDimStyleTable
 71
     0
  0
DIMSTYLE
105
3C9D
330
A
100
AcDbSymbolTableRecord
100
AcDbDimStyleTableRecord
  2
Standard
 70
     0
340
11
  0
ENDTAB
  0
TABLE
  2
BLOCK_RECORD
  5
1
330
0
100
AcDbSymbolTable
 70
     1
  0
BLOCK_RECORD
  5
1E
102
{ACAD_XDICTIONARY
360
3D1E
102
}
330
1
100
AcDbSymbolTableRecord
100
AcDbBlockTableRecord
  2
*Model_Space
340
21
  0
BLOCK_RECORD
  5
1A
102
{ACAD_XDICTIONARY
360
3D20
102
}
330
1
100
AcDbSymbolTableRecord
100
AcDbBlockTableRecord
  2
*Paper_Space
340
1D
  0
BLOCK_RECORD
  5
610B
330
1
100
AcDbSymbolTableRecord
100
AcDbBlockTableRecord
  2
HGW55HC_F
340
0
  0
ENDTAB
  0
ENDSEC
  0
SECTION
  2
BLOCKS
  0
BLOCK
  5
254
330
1E
100
AcDbEntity
  8
0
100
AcDbBlockBegin
  2
*Model_Space
 70
     0
 10
0.0
 20
0.0
 30
0.0
  3
*Model_Space
  1

  0
ENDBLK
  5
255
330
1E
100
AcDbEntity
  8
0
100
AcDbBlockEnd
  0
BLOCK
  5
252
330
1A
100
AcDbEntity
 67
     1
  8
0
100
AcDbBlockBegin
  2
*Paper_Space
 70
     0
 10
0.0
 20
0.0
 30
0.0
  3
*Paper_Space
  1

  0
ENDBLK
  5
253
330
1A
100
AcDbEntity
 67
     1
  8
0
100
AcDbBlockEnd
  0
BLOCK
  5
6145
330
610B
100
AcDbEntity
  8
0
100
AcDbBlockBegin
  2
HGW55HC_F
 70
     0
 10
0.0
 20
0.0
 30
0.0
  3
HGW55HC_F
  1

  0
LINE
  5
610C
330
610B
100
AcDbEntity
  8
0
 48
0.27
100
AcDbLine
 10
-96.49999999999995
 20
0.0000000000000142
 30
0.0
 11
-96.49999999999995
 21
55.50000000000001
 31
0.0
  0
LINE
  5
610D
330
610B
100
AcDbEntity
  8
0
 48
0.27
100
AcDbLine
 10
-77.49999999999994
 20
57.00000000000009
 30
0.0
 11
-77.49999999999994
 21
0.0
 31
0.0
  0
LINE
  5
610E
330
610B
100
AcDbEntity
  8
0
 48
0.27
100
AcDbLine
 10
77.50000000000006
 20
57.00000000000009
 30
0.0
 11
77.50000000000006
 21
0.0
 31
0.0
  0
LINE
  5
610F
330
610B
100
AcDbEntity
  8
0
 48
0.27
100
AcDbLine
 10
96.50000000000005
 20
55.50000000000001
 30
0.0
 11
96.50000000000005
 21
0.0000000000000142
 31
0.0
  0
LINE
  5
6110
330
610B
100
AcDbEntity
  8
中心線
 48
0.27
100
AcDbLine
 10
-47.49999999999994
 20
28.95809790268346
 30
3.0
 11
-47.49999999999994
 21
59.00000000000002
 31
0.0
  0
LWPOLYLINE
  5
6111
330
610B
100
AcDbEntity
  8
0
 48
0.27
100
AcDbPolyline
 90
       73
 70
     0
 43
0.0
 38
3.0
 10
-56.78972799999986
 20
31.96805602201608
 10
-56.7800505222919
 20
31.85061124182003
 10
-56.7520905349603
 20
31.67339708578178
 10
-56.7392801754475
 20
31.60220804438414
 10
-56.68715151086331
 20
31.32624367206396
 10
-56.63952368852943
 20
31.07198563395145
 10
-56.5573258934516
 20
30.58852748158555
 10
-56.48079612062867
 20
30.02128554754035
 10
-56.45968167635294
 20
29.81962766929091
 10
-56.43066164966114
 20
29.46989632641417
 10
-56.40411592742442
 20
29.13053551786397
 10
-56.3459708912672
 20
28.42837498494965
 10
-56.21938190157351
 20
27.05485327708972
 10
-55.96978327340599
 20
24.77325129628034
 10
-55.65843533108801
 20
22.43453123065428
 10
-55.54139882581137
 20
21.65669494133554
 10
-55.15812753731535
 20
19.38892563691096
 10
-54.81599839955293
 20
17.64889484173305
 10
-54.51834380008614
 20
16.3016991925288
 10
-54.13827061790255
 20
14.76221189553335
 10
-53.81043603029951
 20
13.57270689412699
 10
-53.36308111342765
 20
12.12300535019899
 10
-52.97523652612096
 20
11.00772852868696
 10
-52.45583968234632
 20
9.691519500451803
 10
-52.32073617055675
 20
9.379495645265748
 10
-52.25111772290194
 20
9.225277414186777
 10
-52.14938802321722
 20
9.038104133140151
 10
-51.90361290133421
 20
8.706614111223686
 10
-51.67782457262046
 20
8.483176275681032
 10
-51.34729690392925
 20
8.234467431374653
 10
-50.90440661905387
 20
7.991670185107395
 10
-50.53683161264081
 20
7.841589668331195
 10
-50.00146076859533
 20
7.679134673158031
 10
-49.23615732674551
 20
7.52832210856333
 10
-48.44196280183985
 20
7.441422626209586
 10
-47.81600192750357
 20
7.411706371784575
 10
-46.9625877791455
 20
7.41855725975121
 10
-46.30304328950541
 20
7.463004097404891
 10
-45.48459078585489
 20
7.574176680189808
 10
-44.8680189385268
 20
7.713826482675457
 10
-44.31621765227243
 20
7.896815844523885
 10
-43.91450147059231
 20
8.081237195603861
 10
-43.62105106205894
 20
8.255518647328571
 10
-43.27981298549508
 20
8.521010270666621
 10
-43.04600439886582
 20
8.765078761135939
 10
-42.82251410555613
 20
9.085629977927524
 10
-42.74099158058539
 20
9.24183726297069
 10
-42.67181370779184
 20
9.396392587534293
 10
-42.15623363900999
 20
10.65626435293977
 10
-41.64201091339822
 20
12.10749289900432
 10
-41.28441793670293
 20
13.24954834773585
 10
-40.83436798236999
 20
14.86525883507484
 10
-40.35739119581558
 20
16.84590313529334
 10
-40.03184633461905
 20
18.39611189737051
 10
-39.62871618135608
 20
20.60154101493755
 10
-39.27791080060507
 20
22.87830751603901
 10
-39.17394643406805
 20
23.63900823076842
 10
-38.91403252223113
 20
25.77800636339789
 10
-38.69333147970712
 20
27.98125244951735
 10
-38.62963765937712
 20
28.71653919408932
 10
-38.57734920151818
 20
29.36612088949955
 10
-38.55292739687189
 20
29.67995016218215
 10
-38.52364199494417
 20
29.98181299140183
 10
-38.45956691886891
 20
30.47767222684039
 10
-38.3851545351697
 20
30.93478742364156
 10
-38.36026807137864
 20
31.07312252590479
 10
-38.29968599275053
 20
31.39612569186276
 10
-38.25424850027258
 20
31.63901386289136
 10
-38.22237902734872
 20
31.83220625310518
 10
-38.21596984338765
 20
31.88299247679056
 10
-38.21094977103422
 20
31.98874635061629
 10
-38.22138047293799
 20
32.03001282976133
 10
-38.23222395527926
 20
32.03677791735815
  0
LINE
  5
6112
330
610B
100
AcDbEntity
  8
中心線
 48
0.27
100
AcDbLine
 10
47.50000000000011
 20
28.95809790268346
 30
3.0
 11
47.50000000000011
 21
59.00000000000002
 31
0.0
  0
LWPOLYLINE
  5
6113
330
610B
100
AcDbEntity
  8
0
 48
0.27
100
AcDbPolyline
 90
       73
 70
     0
 43
0.0
 38
3.0
 10
56.78972799999996
 20
31.96805602201608
 10
56.78005052229202
 20
31.85061124182003
 10
56.75209053496041
 20
31.67339708578178
 10
56.73928017544762
 20
31.60220804438414
 10
56.68715151086343
 20
31.32624367206396
 10
56.63952368852955
 20
31.07198563395145
 10
56.55732589345172
 20
30.58852748158555
 10
56.48079612062878
 20
30.02128554754035
 10
56.45968167635306
 20
29.81962766929091
 10
56.43066164966126
 20
29.46989632641417
 10
56.40411592742452
 20
29.13053551786397
 10
56.34597089126732
 20
28.42837498494965
 10
56.21938190157362
 20
27.05485327708972
 10
55.96978327340611
 20
24.77325129628034
 10
55.65843533108813
 20
22.43453123065428
 10
55.54139882581148
 20
21.65669494133554
 10
55.15812753731546
 20
19.38892563691096
 10
54.81599839955305
 20
17.64889484173305
 10
54.51834380008626
 20
16.3016991925288
 10
54.13827061790266
 20
14.76221189553335
 10
53.81043603029962
 20
13.57270689412699
 10
53.36308111342777
 20
12.12300535019899
 10
52.97523652612108
 20
11.00772852868696
 10
52.45583968234644
 20
9.691519500451803
 10
52.32073617055687
 20
9.379495645265748
 10
52.25111772290205
 20
9.225277414186777
 10
52.14938802321734
 20
9.038104133140151
 10
51.90361290133433
 20
8.706614111223686
 10
51.67782457262058
 20
8.483176275681032
 10
51.34729690392936
 20
8.234467431374653
 10
50.90440661905399
 20
7.991670185107395
 10
50.53683161264093
 20
7.841589668331195
 10
50.00146076859545
 20
7.679134673158031
 10
49.23615732674562
 20
7.52832210856333
 10
48.44196280183997
 20
7.441422626209586
 10
47.81600192750369
 20
7.411706371784575
 10
46.96258777914562
 20
7.41855725975121
 10
46.30304328950552
 20
7.463004097404891
 10
45.48459078585501
 20
7.574176680189808
 10
44.86801893852692
 20
7.713826482675457
 10
44.31621765227254
 20
7.896815844523885
 10
43.91450147059242
 20
8.081237195603861
 10
43.62105106205905
 20
8.255518647328571
 10
43.27981298549519
 20
8.521010270666621
 10
43.04600439886593
 20
8.765078761135939
 10
42.82251410555625
 20
9.085629977927524
 10
42.74099158058549
 20
9.24183726297069
 10
42.67181370779195
 20
9.396392587534293
 10
42.15623363901011
 20
10.65626435293977
 10
41.64201091339833
 20
12.10749289900432
 10
41.28441793670305
 20
13.24954834773585
 10
40.83436798237011
 20
14.86525883507484
 10
40.35739119581569
 20
16.84590313529334
 10
40.03184633461915
 20
18.39611189737051
 10
39.62871618135619
 20
20.60154101493755
 10
39.27791080060518
 20
22.87830751603901
 10
39.17394643406817
 20
23.63900823076842
 10
38.91403252223125
 20
25.77800636339789
 10
38.69333147970724
 20
27.98125244951735
 10
38.62963765937724
 20
28.71653919408932
 10
38.5773492015183
 20
29.36612088949955
 10
38.552927396872
 20
29.67995016218215
 10
38.52364199494428
 20
29.98181299140183
 10
38.45956691886902
 20
30.47767222684039
 10
38.38515453516981
 20
30.93478742364156
 10
38.36026807137875
 20
31.07312252590479
 10
38.29968599275065
 20
31.39612569186276
 10
38.25424850027269
 20
31.63901386289136
 10
38.22237902734883
 20
31.83220625310518
 10
38.21596984338777
 20
31.88299247679056
 10
38.21094977103433
 20
31.98874635061629
 10
38.2213804729381
 20
32.03001282976133
 10
38.23222395527938
 20
32.03677791735815
  0
LINE
  5
6114
330
610B
100
AcDbEntity
  8
0
 48
0.27
100
AcDbLine
 10
-96.49999999999996
 20
-0.0000000000000135
 30
0.0
 11
96.50000000000005
 21
0.0000000000000135
 31
0.0
  0
LINE
  5
6115
330
610B
100
AcDbEntity
  8
0
 48
0.27
100
AcDbLine
 10
96.50000000000005
 20
3.000000000000027
 30
0.0
 11
-96.49999999999996
 21
2.999999999999996
 31
0.0
  0
LINE
  5
6116
330
610B
100
AcDbEntity
  8
0
 48
0.27
100
AcDbLine
 10
-38.45538997181364
 20
30.50333120832014
 30
0.0
 11
38.45538997181376
 21
30.50333120832014
 31
0.0
  0
LINE
  5
6117
330
610B
100
AcDbEntity
  8
0
 48
0.27
100
AcDbLine
 10
-77.49999999999994
 20
30.50333120832014
 30
0.0
 11
-56.54583158908685
 21
30.50333120832014
 31
0.0
  0
LINE
  5
6118
330
610B
100
AcDbEntity
  8
0
 48
0.27
100
AcDbLine
 10
56.54583158908696
 20
30.50333120832014
 30
0.0
 11
77.5
 21
30.50333120832014
 31
0.0
  0
LINE
  5
6119
330
610B
100
AcDbEntity
  8
0
 48
0.27
100
AcDbLine
 10
-77.49999999999997
 20
57.00000000000007
 30
0.0
 11
77.5
 21
57.00000000000007
 31
0.0
  0
LINE
  5
611A
330
610B
100
AcDbEntity
  8
0
 48
0.27
100
AcDbLine
 10
-77.49999999999992
 20
55.05337945734739
 30
0.0
 11
77.5
 21
55.05337945734739
 31
0.0
  0
LINE
  5
611B
330
610B
100
AcDbEntity
  8
中心線
 48
0.27
100
AcDbLine
 10
-93.36465942818136
 20
38.00000000000001
 30
0.0
 11
-83.63534057181851
 21
38.00000000000001
 31
0.0
  0
LINE
  5
611C
330
610B
100
AcDbEntity
  8
0
 48
0.27
100
AcDbLine
 10
-77.49999999999994
 20
55.50000000000001
 30
0.0
 11
-96.49999999999995
 21
55.50000000000001
 31
0.0
  0
LINE
  5
611D
330
610B
100
AcDbEntity
  8
0
 48
0.27
100
AcDbLine
 10
-77.49999999999994
 20
52.50000000000001
 30
0.0
 11
-96.49999999999995
 21
52.50000000000001
 31
0.0
  0
CIRCLE
  5
611E
330
610B
100
AcDbEntity
  8
0
 48
0.27
100
AcDbCircle
 10
-88.49999999999994
 20
38.00000000000001
 30
0.0
 40
3.9375
  0
CIRCLE
  5
611F
330
610B
100
AcDbEntity
  8
0
 48
0.27
100
AcDbCircle
 10
-88.49999999999994
 20
38.00000000000001
 30
0.0
 40
4.25
  0
CIRCLE
  5
6120
330
610B
100
AcDbEntity
  8
0
 48
0.27
100
AcDbCircle
 10
-88.49999999999994
 20
38.00000000000001
 30
0.0
 40
4.549999999999999
  0
LINE
  5
6121
330
610B
100
AcDbEntity
  8
中心線
 48
0.27
100
AcDbLine
 10
-88.49999999999994
 20
33.13534057181859
 30
0.0
 11
-88.49999999999994
 21
42.86465942818144
 31
0.0
  0
CIRCLE
  5
6122
330
610B
100
AcDbEntity
  8
0
 48
0.27
100
AcDbCircle
 10
-88.49999999999994
 20
38.00000000000001
 30
0.0
 40
0.75
  0
LINE
  5
6123
330
610B
100
AcDbEntity
  8
中心線
 48
0.27
100
AcDbLine
 10
83.63534057181864
 20
38.00000000000001
 30
0.0
 11
93.36465942818149
 21
38.00000000000001
 31
0.0
  0
LINE
  5
6124
330
610B
100
AcDbEntity
  8
0
 48
0.27
100
AcDbLine
 10
77.50000000000006
 20
52.50000000000001
 30
0.0
 11
96.50000000000005
 21
52.50000000000001
 31
0.0
  0
LINE
  5
6125
330
610B
100
AcDbEntity
  8
0
 48
0.27
100
AcDbLine
 10
77.50000000000006
 20
55.50000000000001
 30
0.0
 11
96.50000000000005
 21
55.50000000000001
 31
0.0
  0
CIRCLE
  5
6126
330
610B
100
AcDbEntity
  8
0
 48
0.27
100
AcDbCircle
 10
88.50000000000006
 20
38.00000000000001
 30
0.0
 40
3.9375
  0
CIRCLE
  5
6127
330
610B
100
AcDbEntity
  8
0
 48
0.27
100
AcDbCircle
 10
88.50000000000006
 20
38.00000000000001
 30
0.0
 40
4.25
  0
CIRCLE
  5
6128
330
610B
100
AcDbEntity
  8
0
 48
0.27
100
AcDbCircle
 10
88.50000000000006
 20
38.00000000000001
 30
0.0
 40
4.549999999999999
  0
LINE
  5
6129
330
610B
100
AcDbEntity
  8
中心線
 48
0.27
100
AcDbLine
 10
88.50000000000006
 20
33.13534057181859
 30
0.0
 11
88.50000000000006
 21
42.86465942818144
 31
0.0
  0
CIRCLE
  5
612A
330
610B
100
AcDbEntity
  8
0
 48
0.27
100
AcDbCircle
 10
88.50000000000006
 20
38.00000000000001
 30
0.0
 40
0.75
  0
LINE
  5
612B
330
610B
100
AcDbEntity
  8
0
 48
0.27
100
AcDbLine
 10
-56.78972799999986
 20
40.00000000000001
 30
3.0
 11
-38.21027199999957
 21
40.00000000000001
 31
3.0
  0
LINE
  5
612C
330
610B
100
AcDbEntity
  8
虛線
 48
0.27
100
AcDbLine
 10
-54.49999999999994
 20
41.70000000000006
 30
3.0
 11
-56.19999999999976
 21
40.00000000000001
 31
3.0
  0
LINE
  5
612D
330
610B
100
AcDbEntity
  8
虛線
 48
0.27
100
AcDbLine
 10
-54.49999999999994
 20
55.50000000000001
 30
3.0
 11
-55.99999999999994
 21
57.00000000000007
 31
3.0
  0
LINE
  5
612E
330
610B
100
AcDbEntity
  8
0
 48
0.27
100
AcDbLine
 10
-56.78972799999986
 20
40.00000000000001
 30
3.0
 11
-56.78972799999986
 21
32.03737599999984
 31
3.0
  0
LINE
  5
612F
330
610B
100
AcDbEntity
  8
虛線
 48
0.27
100
AcDbLine
 10
-40.49999999999994
 20
55.50000000000001
 30
3.0
 11
-38.99999999999971
 21
57.00000000000007
 31
3.0
  0
LINE
  5
6130
330
610B
100
AcDbEntity
  8
虛線
 48
0.27
100
AcDbLine
 10
-54.49999999999994
 20
41.70000000000006
 30
3.0
 11
-54.49999999999994
 21
55.50000000000001
 31
3.0
  0
LINE
  5
6131
330
610B
100
AcDbEntity
  8
虛線
 48
0.27
100
AcDbLine
 10
-53.49999999999994
 20
41.70000000000006
 30
3.0
 11
-53.49999999999994
 21
55.50000000000001
 31
3.0
  0
LINE
  5
6132
330
610B
100
AcDbEntity
  8
虛線
 48
0.27
100
AcDbLine
 10
-41.49999999999994
 20
41.70000000000006
 30
3.0
 11
-41.49999999999994
 21
55.50000000000001
 31
3.0
  0
LINE
  5
6133
330
610B
100
AcDbEntity
  8
虛線
 48
0.27
100
AcDbLine
 10
-40.49999999999994
 20
41.70000000000006
 30
3.0
 11
-40.49999999999994
 21
55.50000000000001
 31
3.0
  0
LINE
  5
6134
330
610B
100
AcDbEntity
  8
虛線
 48
0.27
100
AcDbLine
 10
-40.49999999999994
 20
41.70000000000006
 30
3.0
 11
-54.49999999999994
 21
41.70000000000006
 31
3.0
  0
LINE
  5
6135
330
610B
100
AcDbEntity
  8
0
 48
0.27
100
AcDbLine
 10
-38.21027199999957
 20
40.00000000000001
 30
3.0
 11
-38.21027199999957
 21
32.03737599999984
 31
3.0
  0
LINE
  5
6136
330
610B
100
AcDbEntity
  8
虛線
 48
0.27
100
AcDbLine
 10
-40.49999999999994
 20
41.70000000000006
 30
3.0
 11
-38.79999999999967
 21
40.00000000000001
 31
3.0
  0
LINE
  5
6137
330
610B
100
AcDbEntity
  8
虛線
 48
0.27
100
AcDbLine
 10
-40.49999999999994
 20
55.50000000000001
 30
3.0
 11
-54.49999999999994
 21
55.50000000000001
 31
3.0
  0
LINE
  5
6138
330
610B
100
AcDbEntity
  8
0
 48
0.27
100
AcDbLine
 10
56.78972799999996
 20
40.00000000000001
 30
3.0
 11
38.21027199999969
 21
40.00000000000001
 31
3.0
  0
LINE
  5
6139
330
610B
100
AcDbEntity
  8
虛線
 48
0.27
100
AcDbLine
 10
54.50000000000011
 20
55.50000000000001
 30
3.0
 11
40.50000000000011
 21
55.50000000000001
 31
3.0
  0
LINE
  5
613A
330
610B
100
AcDbEntity
  8
虛線
 48
0.27
100
AcDbLine
 10
54.50000000000011
 20
41.70000000000006
 30
3.0
 11
40.50000000000011
 21
41.70000000000006
 31
3.0
  0
LINE
  5
613B
330
610B
100
AcDbEntity
  8
虛線
 48
0.27
100
AcDbLine
 10
40.50000000000011
 20
55.50000000000001
 30
3.0
 11
39.00000000000011
 21
57.00000000000007
 31
3.0
  0
LINE
  5
613C
330
610B
100
AcDbEntity
  8
虛線
 48
0.27
100
AcDbLine
 10
41.50000000000011
 20
41.70000000000006
 30
3.0
 11
41.50000000000011
 21
55.50000000000001
 31
3.0
  0
LINE
  5
613D
330
610B
100
AcDbEntity
  8
虛線
 48
0.27
100
AcDbLine
 10
40.50000000000011
 20
41.70000000000006
 30
3.0
 11
40.50000000000011
 21
55.50000000000001
 31
3.0
  0
LINE
  5
613E
330
610B
100
AcDbEntity
  8
0
 48
0.27
100
AcDbLine
 10
38.21027199999969
 20
40.00000000000001
 30
3.0
 11
38.21027199999969
 21
32.03737599999984
 31
3.0
  0
LINE
  5
613F
330
610B
100
AcDbEntity
  8
虛線
 48
0.27
100
AcDbLine
 10
40.50000000000011
 20
41.70000000000006
 30
3.0
 11
38.80000000000029
 21
40.00000000000001
 31
3.0
  0
LINE
  5
6140
330
610B
100
AcDbEntity
  8
虛線
 48
0.27
100
AcDbLine
 10
54.50000000000011
 20
55.50000000000001
 30
3.0
 11
56.00000000000034
 21
57.00000000000007
 31
3.0
  0
LINE
  5
6141
330
610B
100
AcDbEntity
  8
虛線
 48
0.27
100
AcDbLine
 10
54.50000000000011
 20
41.70000000000006
 30
3.0
 11
54.50000000000011
 21
55.50000000000001
 31
3.0
  0
LINE
  5
6142
330
610B
100
AcDbEntity
  8
虛線
 48
0.27
100
AcDbLine
 10
53.50000000000012
 20
41.70000000000006
 30
3.0
 11
53.50000000000012
 21
55.50000000000001
 31
3.0
  0
LINE
  5
6143
330
610B
100
AcDbEntity
  8
0
 48
0.27
100
AcDbLine
 10
56.78972799999996
 20
40.00000000000001
 30
3.0
 11
56.78972799999996
 21
32.03737599999984
 31
3.0
  0
LINE
  5
6144
330
610B
100
AcDbEntity
  8
虛線
 48
0.27
100
AcDbLine
 10
54.50000000000011
 20
41.70000000000006
 30
3.0
 11
56.20000000000039
 21
40.00000000000001
 31
3.0
  0
ENDBLK
  5
6146
330
610B
100
AcDbEntity
  8
0
100
AcDbBlockEnd
  0
ENDSEC
  0
SECTION
  2
ENTITIES
  0
LINE
  5
58EF
330
1E
100
AcDbEntity
  8
虛線
 48
0.27
100
AcDbLine
 10
29.41918202057036
 20
406.9221164376224
 30
0.0
 11
52.41918202057036
 21
406.9221164376224
 31
0.0
  0
LINE
  5
58F0
330
1E
100
AcDbEntity
  8
虛線
 48
0.27
100
AcDbLine
 10
29.4191820205703
 20
387.3221164376224
 30
0.0
 11
52.4191820205703
 21
387.3221164376224
 31
0.0
  0
LINE
  5
58F1
330
1E
100
AcDbEntity
  8
0
 48
0.27
100
AcDbLine
 10
30.11918202057017
 20
364.3221162576224
 30
0.0
 11
31.11918289413029
 21
363.3221164376223
 31
0.0
  0
LINE
  5
58F2
330
1E
100
AcDbEntity
  8
0
 48
0.27
100
AcDbLine
 10
60.40729389225567
 20
407.2877596610372
 30
0.0
 11
21.4343770867556
 21
407.2877596610372
 31
0.0
  0
SPLINE
  5
58F3
330
1E
100
AcDbEntity
  8
0
 48
0.27
100
AcDbSpline
210
0.0
220
0.0
230
1.0
 70
     8
 71
     3
 72
    14
 73
    10
 74
     8
 42
0.0000000001
 43
0.0000000001
 44
0.0000000001
 40
0.0
 40
0.0
 40
0.0
 40
0.0
 40
1.00337480073276
 40
2.010676408934169
 40
3.010409172923154
 40
4.019215736320203
 40
5.018979127688075
 40
6.025582519230534
 40
7.028797203493663
 40
7.028797203493663
 40
7.028797203493663
 40
7.028797203493663
 10
16.23738582735558
 20
395.0515098697373
 30
0.0
 10
16.57041294181479
 20
395.0097635186926
 30
0.0
 10
17.23777050559809
 20
394.9261074380899
 30
0.0
 10
18.17782177206479
 20
394.5450799334162
 30
0.0
 10
19.02473578405576
 20
393.9936963148518
 30
0.0
 10
19.73961572191487
 20
393.27869498321
 30
0.0
 10
20.29073113093389
 20
392.4318709329269
 30
0.0
 10
20.67154474552618
 20
391.4920497596857
 30
0.0
 10
20.75515750138352
 20
390.8249765454019
 30
0.0
 10
20.79689339055556
 20
390.4920023065372
 30
0.0
 11
16.23738582735558
 21
395.0515098697373
 31
0.0
 11
17.22663324685567
 21
394.8837286617373
 31
0.0
 11
18.16428819775564
 21
394.5156801283372
 31
0.0
 11
19.00069785405565
 21
393.9680630301371
 31
0.0
 11
19.71397110235574
 21
393.2546683598372
 31
0.0
 11
20.26145995655559
 21
392.4181381492372
 31
0.0
 11
20.62915524275553
 21
391.4810946260372
 31
0.0
 11
20.79689339055556
 21
390.4920023065372
 31
0.0
  0
SPLINE
  5
58F4
330
1E
100
AcDbEntity
  8
0
 48
0.27
100
AcDbSpline
210
0.0
220
0.0
230
1.0
 70
     8
 71
     3
 72
    14
 73
    10
 74
     8
 42
0.0000000001
 43
0.0000000001
 44
0.0000000001
 40
0.0
 40
0.0
 40
0.0
 40
0.0
 40
1.00337480073276
 40
2.010676408934169
 40
3.01040917306153
 40
4.019215736458418
 40
5.018979127771629
 40
6.025582519221103
 40
7.028797203484325
 40
7.028797203484325
 40
7.028797203484325
 40
7.028797203484325
 10
20.79689339055556
 20
406.6489016309373
 30
0.0
 10
20.75514703951023
 20
406.3158745164785
 30
0.0
 10
20.6714909589064
 20
405.6485169526962
 30
0.0
 10
20.29046345422455
 20
404.7084656861786
 30
0.0
 10
19.73907983558705
 20
403.8615516741854
 30
0.0
 10
19.02407850396316
 20
403.1466717362595
 30
0.0
 10
18.17725445363346
 20
402.5955563274045
 30
0.0
 10
17.23743328048268
 20
402.2147427127427
 30
0.0
 10
16.57036006622351
 20
402.1311299569026
 30
0.0
 10
16.23738582735558
 20
402.0893940677373
 30
0.0
 11
20.79689339055556
 21
406.6489016309373
 31
0.0
 11
20.62911218255561
 21
405.6596542114371
 31
0.0
 11
20.26106364915557
 21
404.7219992605372
 31
0.0
 11
19.71344655085562
 21
403.8855896041371
 31
0.0
 11
19.00005188055564
 21
403.1723163558373
 31
0.0
 11
18.16352166995574
 21
402.6248275017373
 31
0.0
 11
17.22647814685564
 21
402.2571322155372
 31
0.0
 11
16.23738582735558
 21
402.0893940677373
 31
0.0
  0
LINE
  5
58F5
330
1E
100
AcDbEntity
  8
0
 48
0.27
100
AcDbLine
 10
21.95352779715557
 20
383.3069103715372
 30
0.0
 11
14.41918202057007
 21
375.772564594844
 31
0.0
  0
LINE
  5
58F6
330
1E
100
AcDbEntity
  8
0
 48
0.27
100
AcDbLine
 10
14.41918202057013
 20
365.3221250375858
 30
0.0
 11
14.41918202057007
 21
375.772564594844
 31
0.0
  0
LINE
  5
58F7
330
1E
100
AcDbEntity
  8
0
 48
0.27
100
AcDbLine
 10
14.41918202057013
 20
365.3221250375858
 30
0.0
 11
16.41919731364134
 21
363.3221164376224
 31
0.0
  0
LINE
  5
58F8
330
1E
100
AcDbEntity
  8
0
 48
0.27
100
AcDbLine
 10
30.11918184057003
 20
364.3221164376225
 30
0.0
 11
22.91918202057024
 21
364.3221164376225
 31
0.0
  0
LINE
  5
58F9
330
1E
100
AcDbEntity
  8
0
 48
0.27
100
AcDbLine
 10
22.91918202057024
 20
364.3221160776224
 30
0.0
 11
21.91918380983531
 21
363.3221164376224
 31
0.0
  0
LINE
  5
58FA
330
1E
100
AcDbEntity
  8
0
 48
0.27
100
AcDbLine
 10
21.91918380983531
 20
363.3221164376224
 30
0.0
 11
16.41919731364134
 21
363.3221164376224
 31
0.0
  0
LINE
  5
58FB
330
1E
100
AcDbEntity
  8
虛線
 48
0.27
100
AcDbLine
 10
29.4191820205703
 20
387.3221164376224
 30
0.0
 11
29.41918202057036
 21
406.9221164376224
 31
0.0
  0
LINE
  5
58FC
330
1E
100
AcDbEntity
  8
0
 48
0.27
100
AcDbLine
 10
21.95352779715557
 20
383.3069103715372
 30
0.0
 11
21.95352779715557
 21
389.3339935659372
 31
0.0
  0
LINE
  5
58FD
330
1E
100
AcDbEntity
  8
0
 48
0.27
100
AcDbLine
 10
21.95352779715557
 20
389.3339935659372
 30
0.0
 11
20.79591669275572
 21
390.4916046704372
 31
0.0
  0
LINE
  5
58FE
330
1E
100
AcDbEntity
  8
0
 48
0.27
100
AcDbLine
 10
14.45352779715557
 20
396.8339935659372
 30
0.0
 11
16.2369881911556
 21
395.0505331719372
 31
0.0
  0
LINE
  5
58FF
330
1E
100
AcDbEntity
  8
0
 48
0.27
100
AcDbLine
 10
16.2369881911556
 20
402.0903707655371
 30
0.0
 11
14.45352779715557
 21
400.3069103715372
 31
0.0
  0
LINE
  5
5900
330
1E
100
AcDbEntity
  8
0
 48
0.27
100
AcDbLine
 10
14.45352779715557
 20
400.3069103715372
 30
0.0
 11
14.45352779715557
 21
396.8339935659372
 31
0.0
  0
LINE
  5
5901
330
1E
100
AcDbEntity
  8
0
 48
0.27
100
AcDbLine
 10
21.4343770867556
 20
407.2877596610372
 30
0.0
 11
20.79591669275572
 21
406.6492992670372
 31
0.0
  0
LINE
  5
5902
330
1E
100
AcDbEntity
  8
虛線
 48
0.27
100
AcDbLine
 10
29.41918202057036
 20
406.9221164376224
 30
0.0
 11
29.20807780710447
 21
407.2877596610372
 31
0.0
  0
SPLINE
  5
5903
330
1E
100
AcDbEntity
  8
0
 48
0.27
100
AcDbSpline
210
0.0
220
0.0
230
1.0
 70
     8
 71
     3
 72
    14
 73
    10
 74
     8
 42
0.0000000001
 43
0.0000000001
 44
0.0000000001
 40
0.0
 40
0.0
 40
0.0
 40
0.0
 40
1.003374800732536
 40
2.010676408934134
 40
3.010409173061276
 40
4.019215736458486
 40
5.018979127771697
 40
6.025582519220917
 40
7.028797203484383
 40
7.028797203484383
 40
7.028797203484383
 40
7.028797203484383
 10
61.04477758845558
 20
390.4920023065372
 30
0.0
 10
61.08652393950091
 20
390.8250294209958
 30
0.0
 10
61.17018002010473
 20
391.492386984778
 30
0.0
 10
61.55120752478686
 20
392.4324382512958
 30
0.0
 10
62.10259114342417
 20
393.279352263289
 30
0.0
 10
62.81759247504815
 20
393.9942322012148
 30
0.0
 10
63.66441652537784
 20
394.5453476100701
 30
0.0
 10
64.60423769852863
 20
394.9261612247317
 30
0.0
 10
65.27131091278779
 20
395.0097739805718
 30
0.0
 10
65.6042851516558
 20
395.0515098697373
 30
0.0
 11
61.04477758845558
 21
390.4920023065372
 31
0.0
 11
61.21255879645554
 21
391.4812497260371
 31
0.0
 11
61.58060732985581
 21
392.4189046769372
 31
0.0
 11
62.12822442815554
 21
393.2553143333372
 31
0.0
 11
62.84161909845574
 21
393.9685875816373
 31
0.0
 11
63.67814930905564
 21
394.5160764357373
 31
0.0
 11
64.61519283215551
 21
394.8837717219372
 31
0.0
 11
65.6042851516558
 21
395.0515098697373
 31
0.0
  0
SPLINE
  5
5904
330
1E
100
AcDbEntity
  8
0
 48
0.27
100
AcDbSpline
210
0.0
220
0.0
230
1.0
 70
     8
 71
     3
 72
    14
 73
    10
 74
     8
 42
0.0000000001
 43
0.0000000001
 44
0.0000000001
 40
0.0
 40
0.0
 40
0.0
 40
0.0
 40
1.003374800732984
 40
2.010676408934182
 40
3.010409172977842
 40
4.019215736304143
 40
5.018979127672206
 40
6.025582519214641
 40
7.028797203477883
 40
7.028797203477883
 40
7.028797203477883
 40
7.028797203477883
 10
65.6042851516558
 20
402.0893940677373
 30
0.0
 10
65.27125803719823
 20
402.1311404187843
 30
0.0
 10
64.60390047341838
 20
402.2147964993918
 30
0.0
 10
63.66384920690868
 20
402.5958240040361
 30
0.0
 10
62.8169351950232
 20
403.1472076227403
 30
0.0
 10
62.1020552570595
 20
403.8622089542577
 30
0.0
 10
61.55093984808404
 20
404.7090330045547
 30
0.0
 10
61.17012623348326
 20
405.648854177787
 30
0.0
 10
61.08651347762706
 20
406.3159273920718
 30
0.0
 10
61.04477758845558
 20
406.6489016309373
 30
0.0
 11
65.6042851516558
 21
402.0893940677373
 31
0.0
 11
64.61503773215548
 21
402.2571752757372
 31
0.0
 11
63.67738278125575
 21
402.6252238091372
 31
0.0
 11
62.84097312495572
 21
403.1728409074372
 31
0.0
 11
62.12769987665564
 21
403.8862355776371
 31
0.0
 11
61.58021102245578
 21
404.7227657882372
 31
0.0
 11
61.21251573625563
 21
405.6598093114372
 31
0.0
 11
61.04477758845558
 21
406.6489016309373
 31
0.0
  0
LINE
  5
5905
330
1E
100
AcDbEntity
  8
中心線
 48
0.27
100
AcDbLine
 10
40.91918202057031
 20
409.2877596610373
 30
0.0
 11
40.91918202057025
 21
361.3221164376225
 31
0.0
  0
LINE
  5
5906
330
1E
100
AcDbEntity
  8
虛線
 48
0.27
100
AcDbLine
 10
32.91918202057024
 20
363.8221164376225
 30
0.0
 11
32.9191820205703
 21
386.8221164376224
 31
0.0
  0
LINE
  5
5907
330
1E
100
AcDbEntity
  8
虛線
 48
0.27
100
AcDbLine
 10
48.91918202057024
 20
363.8221164376224
 30
0.0
 11
48.91918202057031
 21
386.8221164376224
 31
0.0
  0
LINE
  5
5908
330
1E
100
AcDbEntity
  8
0
 48
0.27
100
AcDbLine
 10
59.88814318185581
 20
383.3069103715372
 30
0.0
 11
67.4191820205703
 21
375.7758715327147
 31
0.0
  0
LINE
  5
5909
330
1E
100
AcDbEntity
  8
0
 48
0.27
100
AcDbLine
 10
65.41916672749903
 20
363.3221164376223
 30
0.0
 11
59.91918023130494
 21
363.3221164376223
 31
0.0
  0
LINE
  5
590A
330
1E
100
AcDbEntity
  8
虛線
 48
0.27
100
AcDbLine
 10
48.91918202057024
 20
363.8221164376224
 30
0.0
 11
32.91918202057024
 21
363.8221164376225
 31
0.0
  0
LINE
  5
590B
330
1E
100
AcDbEntity
  8
0
 48
0.27
100
AcDbLine
 10
50.71918114701055
 20
363.3221164376223
 30
0.0
 11
31.11918289413029
 21
363.3221164376223
 31
0.0
  0
LINE
  5
590C
330
1E
100
AcDbEntity
  8
虛線
 48
0.27
100
AcDbLine
 10
32.41918202057024
 20
363.3221164376223
 30
0.0
 11
32.91918202057024
 21
363.8221164376225
 31
0.0
  0
LINE
  5
590D
330
1E
100
AcDbEntity
  8
0
 48
0.27
100
AcDbLine
 10
58.91918202057024
 20
364.3221164376225
 30
0.0
 11
51.71918220057034
 21
364.3221164376225
 31
0.0
  0
LINE
  5
590E
330
1E
100
AcDbEntity
  8
虛線
 48
0.27
100
AcDbLine
 10
49.41918202057036
 20
363.3221164376223
 30
0.0
 11
48.91918202057024
 21
363.8221164376224
 31
0.0
  0
LINE
  5
590F
330
1E
100
AcDbEntity
  8
0
 48
0.27
100
AcDbLine
 10
51.7191820205702
 20
364.3221162576224
 30
0.0
 11
50.71918114701055
 21
363.3221164376223
 31
0.0
  0
LINE
  5
5910
330
1E
100
AcDbEntity
  8
0
 48
0.27
100
AcDbLine
 10
58.91918202057024
 20
364.3221160776224
 30
0.0
 11
59.91918023130494
 21
363.3221164376223
 31
0.0
  0
LINE
  5
5911
330
1E
100
AcDbEntity
  8
0
 48
0.27
100
AcDbLine
 10
67.4191820205703
 20
375.7758715327147
 30
0.0
 11
67.41918202057025
 21
365.3221250375853
 31
0.0
  0
LINE
  5
5912
330
1E
100
AcDbEntity
  8
0
 48
0.27
100
AcDbLine
 10
67.41918202057025
 20
365.3221250375853
 30
0.0
 11
65.41916672749903
 21
363.3221164376223
 31
0.0
  0
LINE
  5
5913
330
1E
100
AcDbEntity
  8
虛線
 48
0.27
100
AcDbLine
 10
52.4191820205703
 20
387.3221164376224
 30
0.0
 11
52.41918202057036
 21
406.9221164376224
 31
0.0
  0
LINE
  5
5914
330
1E
100
AcDbEntity
  8
0
 48
0.27
100
AcDbLine
 10
59.88814318185581
 20
389.3339935659372
 30
0.0
 11
61.04575428625565
 21
390.4916046704372
 31
0.0
  0
LINE
  5
5915
330
1E
100
AcDbEntity
  8
虛線
 48
0.27
100
AcDbLine
 10
32.9191820205703
 20
386.8221164376224
 30
0.0
 11
48.91918202057031
 21
386.8221164376224
 31
0.0
  0
LINE
  5
5916
330
1E
100
AcDbEntity
  8
虛線
 48
0.27
100
AcDbLine
 10
32.9191820205703
 20
386.8221164376224
 30
0.0
 11
32.4191820205703
 21
387.3221164376224
 31
0.0
  0
LINE
  5
5917
330
1E
100
AcDbEntity
  8
0
 48
0.27
100
AcDbLine
 10
59.88814318185581
 20
389.3339935659372
 30
0.0
 11
59.88814318185581
 21
383.3069103715372
 31
0.0
  0
LINE
  5
5918
330
1E
100
AcDbEntity
  8
虛線
 48
0.27
100
AcDbLine
 10
49.4191820205703
 20
387.3221164376224
 30
0.0
 11
48.91918202057031
 21
386.8221164376224
 31
0.0
  0
LINE
  5
5919
330
1E
100
AcDbEntity
  8
0
 48
0.27
100
AcDbLine
 10
67.38814318185581
 20
400.3069103715372
 30
0.0
 11
65.60468278785577
 21
402.0903707655371
 31
0.0
  0
LINE
  5
591A
330
1E
100
AcDbEntity
  8
0
 48
0.27
100
AcDbLine
 10
67.38814318185581
 20
396.8339935659372
 30
0.0
 11
67.38814318185581
 21
400.3069103715372
 31
0.0
  0
LINE
  5
591B
330
1E
100
AcDbEntity
  8
0
 48
0.27
100
AcDbLine
 10
65.60468278785577
 20
395.0505331719372
 30
0.0
 11
67.38814318185581
 21
396.8339935659372
 31
0.0
  0
LINE
  5
591C
330
1E
100
AcDbEntity
  8
0
 48
0.27
100
AcDbLine
 10
61.04575428625565
 20
406.6492992670372
 30
0.0
 11
60.40729389225567
 21
407.2877596610372
 31
0.0
  0
LINE
  5
591D
330
1E
100
AcDbEntity
  8
虛線
 48
0.27
100
AcDbLine
 10
52.63028623403619
 20
407.2877596610372
 30
0.0
 11
52.41918202057036
 21
406.9221164376224
 31
0.0
  0
LINE
  5
591F
330
1E
100
AcDbEntity
  8
0
 48
0.27
100
AcDbLine
 10
20.21961615865575
 20
410.2204519687371
 30
0.0
 11
61.62205482035574
 21
410.2204519687371
 31
0.0
  0
LINE
  5
5920
330
1E
100
AcDbEntity
  8
0
 48
0.27
100
AcDbLine
 10
60.40729389225567
 20
407.2877596610372
 30
0.0
 11
21.4343770867556
 21
407.2877596610372
 31
0.0
  0
LINE
  5
5921
330
1E
100
AcDbEntity
  8
0
 48
0.27
100
AcDbLine
 10
20.7373831115558
 20
408.9704519687371
 30
0.0
 11
61.10428786745569
 21
408.9704519687371
 31
0.0
  0
SPLINE
  5
5923
330
1E
100
AcDbEntity
  8
0
 48
0.27
100
AcDbSpline
210
0.0
220
0.0
230
1.0
 70
     8
 71
     3
 72
    14
 73
    10
 74
     8
 42
0.0000000001
 43
0.0000000001
 44
0.0000000001
 40
0.0
 40
0.0
 40
0.0
 40
0.0
 40
1.00337480073276
 40
2.010676408934169
 40
3.010409172923154
 40
4.019215736320203
 40
5.018979127688075
 40
6.025582519230534
 40
7.028797203493663
 40
7.028797203493663
 40
7.028797203493663
 40
7.028797203493663
 10
16.23738582735558
 20
395.0515098697373
 30
0.0
 10
16.57041294181479
 20
395.0097635186926
 30
0.0
 10
17.23777050559809
 20
394.9261074380899
 30
0.0
 10
18.17782177206479
 20
394.5450799334162
 30
0.0
 10
19.02473578405576
 20
393.9936963148518
 30
0.0
 10
19.73961572191487
 20
393.27869498321
 30
0.0
 10
20.29073113093389
 20
392.4318709329269
 30
0.0
 10
20.67154474552618
 20
391.4920497596857
 30
0.0
 10
20.75515750138352
 20
390.8249765454019
 30
0.0
 10
20.79689339055556
 20
390.4920023065372
 30
0.0
 11
16.23738582735558
 21
395.0515098697373
 31
0.0
 11
17.22663324685567
 21
394.8837286617373
 31
0.0
 11
18.16428819775564
 21
394.5156801283372
 31
0.0
 11
19.00069785405565
 21
393.9680630301371
 31
0.0
 11
19.71397110235574
 21
393.2546683598372
 31
0.0
 11
20.26145995655559
 21
392.4181381492372
 31
0.0
 11
20.62915524275553
 21
391.4810946260372
 31
0.0
 11
20.79689339055556
 21
390.4920023065372
 31
0.0
  0
SPLINE
  5
5924
330
1E
100
AcDbEntity
  8
0
 48
0.27
100
AcDbSpline
210
0.0
220
0.0
230
1.0
 70
     8
 71
     3
 72
    14
 73
    10
 74
     8
 42
0.0000000001
 43
0.0000000001
 44
0.0000000001
 40
0.0
 40
0.0
 40
0.0
 40
0.0
 40
1.00337480073276
 40
2.010676408934169
 40
3.01040917306153
 40
4.019215736458418
 40
5.018979127771629
 40
6.025582519221103
 40
7.028797203484325
 40
7.028797203484325
 40
7.028797203484325
 40
7.028797203484325
 10
20.79689339055556
 20
406.6489016309373
 30
0.0
 10
20.75514703951023
 20
406.3158745164785
 30
0.0
 10
20.6714909589064
 20
405.6485169526962
 30
0.0
 10
20.29046345422455
 20
404.7084656861786
 30
0.0
 10
19.73907983558705
 20
403.8615516741854
 30
0.0
 10
19.02407850396316
 20
403.1466717362595
 30
0.0
 10
18.17725445363346
 20
402.5955563274045
 30
0.0
 10
17.23743328048268
 20
402.2147427127427
 30
0.0
 10
16.57036006622351
 20
402.1311299569026
 30
0.0
 10
16.23738582735558
 20
402.0893940677373
 30
0.0
 11
20.79689339055556
 21
406.6489016309373
 31
0.0
 11
20.62911218255561
 21
405.6596542114371
 31
0.0
 11
20.26106364915557
 21
404.7219992605372
 31
0.0
 11
19.71344655085562
 21
403.8855896041371
 31
0.0
 11
19.00005188055564
 21
403.1723163558373
 31
0.0
 11
18.16352166995574
 21
402.6248275017373
 31
0.0
 11
17.22647814685564
 21
402.2571322155372
 31
0.0
 11
16.23738582735558
 21
402.0893940677373
 31
0.0
  0
LINE
  5
592E
330
1E
100
AcDbEntity
  8
0
 48
0.27
100
AcDbLine
 10
21.95352779715557
 20
383.3069103715372
 30
0.0
 11
14.96706939445556
 21
376.3204519687373
 31
0.0
  0
LINE
  5
592F
330
1E
100
AcDbEntity
  8
0
 48
0.27
100
AcDbLine
 10
12.58738311155565
 20
376.3204519687373
 30
0.0
 11
20.27083548945569
 21
384.0039043466372
 31
0.0
  0
LINE
  5
5930
330
1E
100
AcDbEntity
  8
0
 48
0.27
100
AcDbLine
 10
10.8196161586556
 20
376.3204519687373
 30
0.0
 11
19.02083548945569
 21
384.5216712996372
 31
0.0
  0
ARC
  5
5936
330
1E
100
AcDbEntity
  8
0
 48
0.27
100
AcDbCircle
 10
15.91583548945573
 20
406.9704519687372
 30
0.0
 40
3.209999999999999
100
AcDbArc
 50
263.4284998715998
 51
6.571500128400106
  0
ARC
  5
5937
330
1E
100
AcDbEntity
  8
0
 48
0.27
100
AcDbCircle
 10
15.91583548945573
 20
406.9704519687372
 30
0.0
 40
1.959999999999999
100
AcDbArc
 50
255.4078960957309
 51
14.59210390236058
  0
LINE
  5
593B
330
1E
100
AcDbEntity
  8
0
 48
0.27
100
AcDbLine
 10
16.2369881911556
 20
395.0505331719372
 30
0.0
 11
15.54847340755571
 21
393.3593616728373
 31
0.0
  0
LINE
  5
593C
330
1E
100
AcDbEntity
  8
0
 48
0.27
100
AcDbLine
 10
14.94251955590238
 20
392.1975485713904
 30
0.0
 11
11.52083548945569
 21
395.6192326378371
 31
0.0
  0
LINE
  5
593D
330
1E
100
AcDbEntity
  8
0
 48
0.27
100
AcDbLine
 10
15.54847340755571
 20
393.3593616728373
 30
0.0
 11
12.77083548945569
 21
396.1369995908372
 31
0.0
  0
ARC
  5
593E
330
1E
100
AcDbEntity
  8
0
 48
0.27
100
AcDbCircle
 10
15.91583548945567
 20
390.1704519687372
 30
0.0
 40
3.209999999999999
100
AcDbArc
 50
353.4284998715999
 51
96.57150012840013
  0
ARC
  5
593F
330
1E
100
AcDbEntity
  8
0
 48
0.27
100
AcDbCircle
 10
15.91583548945567
 20
390.1704519687372
 30
0.0
 40
1.959999999999999
100
AcDbArc
 50
345.4078960973163
 51
104.5921039042721
  0
LINE
  5
5940
330
1E
100
AcDbEntity
  8
0
 48
0.27
100
AcDbLine
 10
15.54847340755571
 20
393.3593616728373
 30
0.0
 11
15.18458356657475
 21
392.063690310333
 31
0.0
  0
ARC
  5
5941
330
1E
100
AcDbEntity
  8
0
 48
0.27
100
AcDbCircle
 10
15.2960729464956
 20
392.5511019619836
 30
0.0
 40
0.5
100
AcDbArc
 50
224.9999999999999
 51
284.5921039042721
  0
LINE
  5
5942
330
1E
100
AcDbEntity
  8
0
 48
0.27
100
AcDbLine
 10
21.95352779715557
 20
389.3339935659372
 30
0.0
 11
19.02083548945569
 21
388.1192326378371
 31
0.0
  0
LINE
  5
5943
330
1E
100
AcDbEntity
  8
0
 48
0.27
100
AcDbLine
 10
21.95352779715557
 20
383.3069103715372
 30
0.0
 11
21.95352779715557
 21
389.3339935659372
 31
0.0
  0
LINE
  5
5944
330
1E
100
AcDbEntity
  8
0
 48
0.27
100
AcDbLine
 10
20.27083548945569
 20
388.6369995908372
 30
0.0
 11
19.10474519355574
 21
389.8030898867372
 31
0.0
  0
LINE
  5
5945
330
1E
100
AcDbEntity
  8
0
 48
0.27
100
AcDbLine
 10
19.02083548945569
 20
388.1192326378371
 30
0.0
 11
17.94293209211235
 21
389.1971360352636
 31
0.0
  0
LINE
  5
5946
330
1E
100
AcDbEntity
  8
0
 48
0.27
100
AcDbLine
 10
21.95352779715557
 20
383.3069103715372
 30
0.0
 11
19.02083548945569
 21
384.5216712996372
 31
0.0
  0
LINE
  5
5947
330
1E
100
AcDbEntity
  8
0
 48
0.27
100
AcDbLine
 10
20.27083548945569
 20
384.0039043466372
 30
0.0
 11
20.27083548945569
 21
388.6369995908372
 31
0.0
  0
LINE
  5
5948
330
1E
100
AcDbEntity
  8
0
 48
0.27
100
AcDbLine
 10
19.02083548945569
 20
384.5216712996372
 30
0.0
 11
19.02083548945569
 21
388.1192326378371
 31
0.0
  0
LINE
  5
5949
330
1E
100
AcDbEntity
  8
0
 48
0.27
100
AcDbLine
 10
20.79591669275572
 20
390.4916046704372
 30
0.0
 11
19.10474519355574
 21
389.8030898867372
 31
0.0
  0
LINE
  5
594A
330
1E
100
AcDbEntity
  8
0
 48
0.27
100
AcDbLine
 10
21.95352779715557
 20
389.3339935659372
 30
0.0
 11
20.79591669275572
 21
390.4916046704372
 31
0.0
  0
ARC
  5
594B
330
1E
100
AcDbEntity
  8
0
 48
0.27
100
AcDbCircle
 10
18.29648548271933
 20
389.5506894258431
 30
0.0
 40
0.5
100
AcDbArc
 50
165.4078960973163
 51
224.9999999977937
  0
LINE
  5
594C
330
1E
100
AcDbEntity
  8
0
 48
0.27
100
AcDbLine
 10
19.10474519355574
 20
389.8030898867372
 30
0.0
 11
17.80907383108871
 21
389.4392000458344
 31
0.0
  0
LINE
  5
594D
330
1E
100
AcDbEntity
  8
0
 48
0.27
100
AcDbLine
 10
16.2369881911556
 20
402.0903707655371
 30
0.0
 11
15.54847340755571
 21
403.7815422646373
 31
0.0
  0
LINE
  5
594E
330
1E
100
AcDbEntity
  8
0
 48
0.27
100
AcDbLine
 10
14.45352779715557
 20
396.8339935659372
 30
0.0
 11
16.2369881911556
 21
395.0505331719372
 31
0.0
  0
LINE
  5
594F
330
1E
100
AcDbEntity
  8
0
 48
0.27
100
AcDbLine
 10
16.2369881911556
 20
402.0903707655371
 30
0.0
 11
14.45352779715557
 21
400.3069103715372
 31
0.0
  0
LINE
  5
5950
330
1E
100
AcDbEntity
  8
0
 48
0.27
100
AcDbLine
 10
14.45352779715557
 20
400.3069103715372
 30
0.0
 11
11.52083548945569
 21
401.5216712996371
 31
0.0
  0
LINE
  5
5951
330
1E
100
AcDbEntity
  8
0
 48
0.27
100
AcDbLine
 10
12.77083548945569
 20
396.1369995908372
 30
0.0
 11
12.77083548945569
 21
401.0039043466372
 31
0.0
  0
LINE
  5
5952
330
1E
100
AcDbEntity
  8
0
 48
0.27
100
AcDbLine
 10
11.52083548945569
 20
395.6192326378371
 30
0.0
 11
11.52083548945569
 21
401.5216712996371
 31
0.0
  0
LINE
  5
5953
330
1E
100
AcDbEntity
  8
0
 48
0.27
100
AcDbLine
 10
14.45352779715557
 20
396.8339935659372
 30
0.0
 11
11.52083548945569
 21
395.6192326378371
 31
0.0
  0
LINE
  5
5954
330
1E
100
AcDbEntity
  8
0
 48
0.27
100
AcDbLine
 10
14.45352779715557
 20
400.3069103715372
 30
0.0
 11
14.45352779715557
 21
396.8339935659372
 31
0.0
  0
LINE
  5
5955
330
1E
100
AcDbEntity
  8
0
 48
0.27
100
AcDbLine
 10
11.52083548945569
 20
401.5216712996371
 30
0.0
 11
14.94251955590249
 21
404.9433553660841
 31
0.0
  0
LINE
  5
5956
330
1E
100
AcDbEntity
  8
0
 48
0.27
100
AcDbLine
 10
15.54847340755571
 20
403.7815422646373
 30
0.0
 11
15.18458356657475
 21
405.0772136271415
 31
0.0
  0
ARC
  5
5957
330
1E
100
AcDbEntity
  8
0
 48
0.27
100
AcDbCircle
 10
15.29607294649571
 20
404.5898019754909
 30
0.0
 40
0.5
100
AcDbArc
 50
75.40789609573103
 51
135.0
  0
LINE
  5
5958
330
1E
100
AcDbEntity
  8
0
 48
0.27
100
AcDbLine
 10
12.77083548945569
 20
401.0039043466372
 30
0.0
 11
15.54847340755571
 21
403.7815422646373
 31
0.0
  0
LINE
  5
595E
330
1E
100
AcDbEntity
  8
0
 48
0.27
100
AcDbLine
 10
19.1047451935558
 20
407.3378140507371
 30
0.0
 11
20.7373831115558
 21
408.9704519687371
 31
0.0
  0
LINE
  5
595F
330
1E
100
AcDbEntity
  8
0
 48
0.27
100
AcDbLine
 10
20.79591669275572
 20
406.6492992670372
 30
0.0
 11
19.1047451935558
 21
407.3378140507371
 31
0.0
  0
LINE
  5
5960
330
1E
100
AcDbEntity
  8
0
 48
0.27
100
AcDbLine
 10
21.4343770867556
 20
407.2877596610372
 30
0.0
 11
20.21961615865575
 21
410.2204519687371
 31
0.0
  0
LINE
  5
5961
330
1E
100
AcDbEntity
  8
0
 48
0.27
100
AcDbLine
 10
21.4343770867556
 20
407.2877596610372
 30
0.0
 11
20.79591669275572
 21
406.6492992670372
 31
0.0
  0
ARC
  5
5962
330
1E
100
AcDbEntity
  8
0
 48
0.27
100
AcDbCircle
 10
18.29648548272268
 20
407.5902145116177
 30
0.0
 40
0.5
100
AcDbArc
 50
134.9999999999965
 51
194.5921039023605
  0
LINE
  5
5963
330
1E
100
AcDbEntity
  8
0
 48
0.27
100
AcDbLine
 10
17.94293209212946
 20
407.943767902211
 30
0.0
 11
20.21961615865575
 21
410.2204519687371
 31
0.0
  0
LINE
  5
5964
330
1E
100
AcDbEntity
  8
0
 48
0.27
100
AcDbLine
 10
19.1047451935558
 20
407.3378140507371
 30
0.0
 11
17.80907383109479
 21
407.7017038916383
 31
0.0
  0
SPLINE
  5
596C
330
1E
100
AcDbEntity
  8
0
 48
0.27
100
AcDbSpline
210
0.0
220
0.0
230
1.0
 70
     8
 71
     3
 72
    14
 73
    10
 74
     8
 42
0.0000000001
 43
0.0000000001
 44
0.0000000001
 40
0.0
 40
0.0
 40
0.0
 40
0.0
 40
1.003374800732536
 40
2.010676408934134
 40
3.010409173061276
 40
4.019215736458486
 40
5.018979127771697
 40
6.025582519220917
 40
7.028797203484383
 40
7.028797203484383
 40
7.028797203484383
 40
7.028797203484383
 10
61.04477758845558
 20
390.4920023065372
 30
0.0
 10
61.08652393950091
 20
390.8250294209958
 30
0.0
 10
61.17018002010473
 20
391.492386984778
 30
0.0
 10
61.55120752478686
 20
392.4324382512958
 30
0.0
 10
62.10259114342417
 20
393.279352263289
 30
0.0
 10
62.81759247504815
 20
393.9942322012148
 30
0.0
 10
63.66441652537784
 20
394.5453476100701
 30
0.0
 10
64.60423769852863
 20
394.9261612247317
 30
0.0
 10
65.27131091278779
 20
395.0097739805718
 30
0.0
 10
65.6042851516558
 20
395.0515098697373
 30
0.0
 11
61.04477758845558
 21
390.4920023065372
 31
0.0
 11
61.21255879645554
 21
391.4812497260371
 31
0.0
 11
61.58060732985581
 21
392.4189046769372
 31
0.0
 11
62.12822442815554
 21
393.2553143333372
 31
0.0
 11
62.84161909845574
 21
393.9685875816373
 31
0.0
 11
63.67814930905564
 21
394.5160764357373
 31
0.0
 11
64.61519283215551
 21
394.8837717219372
 31
0.0
 11
65.6042851516558
 21
395.0515098697373
 31
0.0
  0
SPLINE
  5
596D
330
1E
100
AcDbEntity
  8
0
 48
0.27
100
AcDbSpline
210
0.0
220
0.0
230
1.0
 70
     8
 71
     3
 72
    14
 73
    10
 74
     8
 42
0.0000000001
 43
0.0000000001
 44
0.0000000001
 40
0.0
 40
0.0
 40
0.0
 40
0.0
 40
1.003374800732984
 40
2.010676408934182
 40
3.010409172977842
 40
4.019215736304143
 40
5.018979127672206
 40
6.025582519214641
 40
7.028797203477883
 40
7.028797203477883
 40
7.028797203477883
 40
7.028797203477883
 10
65.6042851516558
 20
402.0893940677373
 30
0.0
 10
65.27125803719823
 20
402.1311404187843
 30
0.0
 10
64.60390047341838
 20
402.2147964993918
 30
0.0
 10
63.66384920690868
 20
402.5958240040361
 30
0.0
 10
62.8169351950232
 20
403.1472076227403
 30
0.0
 10
62.1020552570595
 20
403.8622089542577
 30
0.0
 10
61.55093984808404
 20
404.7090330045547
 30
0.0
 10
61.17012623348326
 20
405.648854177787
 30
0.0
 10
61.08651347762706
 20
406.3159273920718
 30
0.0
 10
61.04477758845558
 20
406.6489016309373
 30
0.0
 11
65.6042851516558
 21
402.0893940677373
 31
0.0
 11
64.61503773215548
 21
402.2571752757372
 31
0.0
 11
63.67738278125575
 21
402.6252238091372
 31
0.0
 11
62.84097312495572
 21
403.1728409074372
 31
0.0
 11
62.12769987665564
 21
403.8862355776371
 31
0.0
 11
61.58021102245578
 21
404.7227657882372
 31
0.0
 11
61.21251573625563
 21
405.6598093114372
 31
0.0
 11
61.04477758845558
 21
406.6489016309373
 31
0.0
  0
LINE
  5
5975
330
1E
100
AcDbEntity
  8
中心線
 48
0.27
100
AcDbLine
 10
40.91918202057036
 20
448.4866976987084
 30
0.0
 11
40.9191820205703
 21
405.2877596610373
 31
0.0
  0
LINE
  5
5976
330
1E
100
AcDbEntity
  8
0
 48
0.27
100
AcDbLine
 10
59.88814318185581
 20
383.3069103715372
 30
0.0
 11
66.87460158455559
 21
376.3204519687372
 31
0.0
  0
LINE
  5
5977
330
1E
100
AcDbEntity
  8
0
 48
0.27
100
AcDbLine
 10
69.25428786745573
 20
376.3204519687372
 30
0.0
 11
61.57083548945564
 21
384.0039043466372
 31
0.0
  0
LINE
  5
5978
330
1E
100
AcDbEntity
  8
0
 48
0.27
100
AcDbLine
 10
62.82083548945564
 20
384.5216712996372
 30
0.0
 11
71.02205482035555
 21
376.3204519687372
 31
0.0
  0
ARC
  5
5981
330
1E
100
AcDbEntity
  8
0
 48
0.27
100
AcDbCircle
 10
65.92583548945572
 20
406.9704519687372
 30
0.0
 40
3.209999999999999
100
AcDbArc
 50
173.4284998715998
 51
276.5715001284001
  0
ARC
  5
5982
330
1E
100
AcDbEntity
  8
0
 48
0.27
100
AcDbCircle
 10
65.92583548945572
 20
406.9704519687372
 30
0.0
 40
1.959999999999999
100
AcDbArc
 50
165.4078960957311
 51
284.5921039060625
  0
LINE
  5
5983
330
1E
100
AcDbEntity
  8
0
 48
0.27
100
AcDbLine
 10
59.88814318185581
 20
389.3339935659372
 30
0.0
 11
61.04575428625565
 21
390.4916046704372
 31
0.0
  0
LINE
  5
5984
330
1E
100
AcDbEntity
  8
0
 48
0.27
100
AcDbLine
 10
59.88814318185581
 20
383.3069103715372
 30
0.0
 11
62.82083548945564
 21
384.5216712996372
 31
0.0
  0
LINE
  5
5985
330
1E
100
AcDbEntity
  8
0
 48
0.27
100
AcDbLine
 10
59.88814318185581
 20
389.3339935659372
 30
0.0
 11
62.82083548945564
 21
388.1192326378371
 31
0.0
  0
LINE
  5
5986
330
1E
100
AcDbEntity
  8
0
 48
0.27
100
AcDbLine
 10
59.88814318185581
 20
389.3339935659372
 30
0.0
 11
59.88814318185581
 21
383.3069103715372
 31
0.0
  0
LINE
  5
5987
330
1E
100
AcDbEntity
  8
0
 48
0.27
100
AcDbLine
 10
65.60468278785577
 20
395.0505331719372
 30
0.0
 11
66.29319757145566
 21
393.3593616728373
 31
0.0
  0
LINE
  5
5988
330
1E
100
AcDbEntity
  8
0
 48
0.27
100
AcDbLine
 10
70.32083548945564
 20
395.6192326378371
 30
0.0
 11
66.89915142308809
 21
392.1975485713756
 31
0.0
  0
LINE
  5
5989
330
1E
100
AcDbEntity
  8
0
 48
0.27
100
AcDbLine
 10
69.07083548945564
 20
396.1369995908372
 30
0.0
 11
66.29319757145566
 21
393.3593616728373
 31
0.0
  0
LINE
  5
598B
330
1E
100
AcDbEntity
  8
0
 48
0.27
100
AcDbLine
 10
63.89873888680262
 20
389.1971360351841
 30
0.0
 11
62.82083548945564
 21
388.1192326378371
 31
0.0
  0
LINE
  5
598C
330
1E
100
AcDbEntity
  8
0
 48
0.27
100
AcDbLine
 10
62.73692578545563
 20
389.8030898867372
 30
0.0
 11
61.57083548945564
 21
388.6369995908372
 31
0.0
  0
LINE
  5
598D
330
1E
100
AcDbEntity
  8
0
 48
0.27
100
AcDbLine
 10
62.82083548945564
 20
388.1192326378371
 30
0.0
 11
62.82083548945564
 21
384.5216712996372
 31
0.0
  0
LINE
  5
598E
330
1E
100
AcDbEntity
  8
0
 48
0.27
100
AcDbLine
 10
61.57083548945564
 20
388.6369995908372
 30
0.0
 11
61.57083548945564
 21
384.0039043466372
 31
0.0
  0
LINE
  5
598F
330
1E
100
AcDbEntity
  8
0
 48
0.27
100
AcDbLine
 10
62.73692578545563
 20
389.8030898867372
 30
0.0
 11
64.03259714785912
 21
389.4392000458523
 31
0.0
  0
ARC
  5
5990
330
1E
100
AcDbEntity
  8
0
 48
0.27
100
AcDbCircle
 10
65.92583548945566
 20
390.1704519687372
 30
0.0
 40
1.959999999999999
100
AcDbArc
 50
75.40789609393745
 51
194.5921039042687
  0
ARC
  5
5991
330
1E
100
AcDbEntity
  8
0
 48
0.27
100
AcDbCircle
 10
63.54518549620928
 20
389.5506894257773
 30
0.0
 40
0.5
100
AcDbArc
 50
314.9999999999954
 51
14.59210390426881
  0
LINE
  5
5992
330
1E
100
AcDbEntity
  8
0
 48
0.27
100
AcDbLine
 10
66.29319757145566
 20
393.3593616728373
 30
0.0
 11
66.65708741244003
 21
392.06369031032
 31
0.0
  0
ARC
  5
5993
330
1E
100
AcDbEntity
  8
0
 48
0.27
100
AcDbCircle
 10
66.54559803248997
 20
392.5511019619642
 30
0.0
 40
0.5
100
AcDbArc
 50
255.4078960939374
 51
315.0000000007876
  0
ARC
  5
5994
330
1E
100
AcDbEntity
  8
0
 48
0.27
100
AcDbCircle
 10
65.92583548945566
 20
390.1704519687372
 30
0.0
 40
3.209999999999999
100
AcDbArc
 50
83.42849987159985
 51
186.5715001284
  0
LINE
  5
5995
330
1E
100
AcDbEntity
  8
0
 48
0.27
100
AcDbLine
 10
61.04575428625565
 20
390.4916046704372
 30
0.0
 11
62.73692578545563
 21
389.8030898867372
 31
0.0
  0
LINE
  5
5997
330
1E
100
AcDbEntity
  8
0
 48
0.27
100
AcDbLine
 10
70.32083548945564
 20
401.5216712996371
 30
0.0
 11
70.32083548945564
 21
395.6192326378371
 31
0.0
  0
LINE
  5
5998
330
1E
100
AcDbEntity
  8
0
 48
0.27
100
AcDbLine
 10
69.07083548945564
 20
401.0039043466371
 30
0.0
 11
69.07083548945564
 21
396.1369995908372
 31
0.0
  0
LINE
  5
5999
330
1E
100
AcDbEntity
  8
0
 48
0.27
100
AcDbLine
 10
67.38814318185581
 20
400.3069103715372
 30
0.0
 11
65.60468278785577
 21
402.0903707655371
 31
0.0
  0
LINE
  5
599A
330
1E
100
AcDbEntity
  8
0
 48
0.27
100
AcDbLine
 10
67.38814318185581
 20
400.3069103715372
 30
0.0
 11
70.32083548945564
 21
401.5216712996371
 31
0.0
  0
LINE
  5
599B
330
1E
100
AcDbEntity
  8
0
 48
0.27
100
AcDbLine
 10
67.38814318185581
 20
396.8339935659372
 30
0.0
 11
70.32083548945564
 21
395.6192326378371
 31
0.0
  0
LINE
  5
599C
330
1E
100
AcDbEntity
  8
0
 48
0.27
100
AcDbLine
 10
67.38814318185581
 20
396.8339935659372
 30
0.0
 11
67.38814318185581
 21
400.3069103715372
 31
0.0
  0
LINE
  5
599D
330
1E
100
AcDbEntity
  8
0
 48
0.27
100
AcDbLine
 10
65.60468278785577
 20
395.0505331719372
 30
0.0
 11
67.38814318185581
 21
396.8339935659372
 31
0.0
  0
LINE
  5
599E
330
1E
100
AcDbEntity
  8
0
 48
0.27
100
AcDbLine
 10
66.29319757145566
 20
403.7815422646373
 30
0.0
 11
69.07083548945564
 21
401.0039043466371
 31
0.0
  0
LINE
  5
599F
330
1E
100
AcDbEntity
  8
0
 48
0.27
100
AcDbLine
 10
66.89915142308819
 20
404.9433553660986
 30
0.0
 11
70.32083548945564
 21
401.5216712996371
 31
0.0
  0
LINE
  5
59A0
330
1E
100
AcDbEntity
  8
0
 48
0.27
100
AcDbLine
 10
66.29319757145566
 20
403.7815422646373
 30
0.0
 11
66.65708741244003
 21
405.0772136271541
 31
0.0
  0
LINE
  5
59A1
330
1E
100
AcDbEntity
  8
0
 48
0.27
100
AcDbLine
 10
65.60468278785577
 20
402.0903707655371
 30
0.0
 11
66.29319757145566
 21
403.7815422646373
 31
0.0
  0
ARC
  5
59A2
330
1E
100
AcDbEntity
  8
0
 48
0.27
100
AcDbCircle
 10
66.54559803248997
 20
404.5898019755102
 30
0.0
 40
0.5
100
AcDbArc
 50
44.99999999921232
 51
104.5921039060625
  0
LINE
  5
59A4
330
1E
100
AcDbEntity
  8
0
 48
0.27
100
AcDbLine
 10
60.40729389225567
 20
407.2877596610372
 30
0.0
 11
61.62205482035574
 21
410.2204519687371
 31
0.0
  0
LINE
  5
59A5
330
1E
100
AcDbEntity
  8
0
 48
0.27
100
AcDbLine
 10
61.04575428625565
 20
406.6492992670372
 30
0.0
 11
60.40729389225567
 21
407.2877596610372
 31
0.0
  0
LINE
  5
59AA
330
1E
100
AcDbEntity
  8
0
 48
0.27
100
AcDbLine
 10
62.7369257854557
 20
407.3378140507371
 30
0.0
 11
64.03259714785917
 21
407.7017038916221
 31
0.0
  0
ARC
  5
59AB
330
1E
100
AcDbEntity
  8
0
 48
0.27
100
AcDbCircle
 10
63.54518549620934
 20
407.5902145116971
 30
0.0
 40
0.5
100
AcDbArc
 50
345.4078960957307
 51
44.99999999999994
  0
LINE
  5
59AC
330
1E
100
AcDbEntity
  8
0
 48
0.27
100
AcDbLine
 10
61.62205482035574
 20
410.2204519687371
 30
0.0
 11
63.89873888680267
 21
407.9437679022904
 31
0.0
  0
LINE
  5
59AD
330
1E
100
AcDbEntity
  8
0
 48
0.27
100
AcDbLine
 10
61.10428786745569
 20
408.9704519687371
 30
0.0
 11
62.7369257854557
 21
407.3378140507371
 31
0.0
  0
LINE
  5
59AE
330
1E
100
AcDbEntity
  8
0
 48
0.27
100
AcDbLine
 10
61.04575428625565
 20
406.6492992670372
 30
0.0
 11
62.7369257854557
 21
407.3378140507371
 31
0.0
  0
ARC
  5
5BCC
330
1E
100
AcDbEntity
  8
0
 48
0.27
100
AcDbCircle
 10
40.92083548945561
 20
421.3204519687373
 30
0.0
 40
6.562501095937681
100
AcDbArc
 50
30.24329777399993
 51
329.7566907592998
  0
LWPOLYLINE
  5
5BCD
330
1E
100
AcDbEntity
  8
0
 48
0.27
100
AcDbPolyline
 90
       17
 70
     0
 43
0.0
 10
52.11044701724573
 20
421.3204519687373
 10
52.15238240099898
 20
421.0491553703057
 10
52.19349614436495
 20
420.9705250646745
 10
52.23920906924898
 20
420.9335980126327
 10
52.28168052309174
 20
420.9339821126969
 10
52.32729658795963
 20
420.9717374850019
 10
52.36647647075269
 20
421.0464499693539
 10
52.40320980276215
 20
421.2090412223816
 10
52.40941886479906
 20
421.3204519687373
 10
52.36748515104612
 20
421.5917468971685
 10
52.32636973767981
 20
421.6703772027998
 10
52.28065681279578
 20
421.7073042548416
 10
52.23818702895334
 20
421.7069201546524
 10
52.19256929408516
 20
421.6691647823473
 10
52.15339108129239
 20
421.5944522979953
 10
52.11665607928264
 20
421.4318610450925
 10
52.11044701724573
 20
421.3204519687373
  0
ARC
  5
5BCE
330
1E
100
AcDbEntity
  8
0
 48
0.27
100
AcDbCircle
 10
40.92083548945561
 20
421.3204519687373
 30
0.0
 40
5.0
100
AcDbArc
 50
48.59037799889986
 51
311.4096220031998
  0
LINE
  5
5BCF
330
1E
100
AcDbEntity
  8
0
 48
0.27
100
AcDbLine
 10
44.52927580581513
 20
425.0704515512372
 30
0.0
 11
43.80758674054307
 21
426.3204519687373
 31
0.0
  0
LINE
  5
5BD0
330
1E
100
AcDbEntity
  8
0
 48
0.27
100
AcDbLine
 10
38.03408423836814
 20
426.3204519687373
 30
0.0
 11
43.80758674054307
 21
426.3204519687373
 31
0.0
  0
LINE
  5
5BD1
330
1E
100
AcDbEntity
  8
0
 48
0.27
100
AcDbLine
 10
38.03408423836814
 20
426.3204519687373
 30
0.0
 11
35.14733298728069
 21
421.3204519687373
 31
0.0
  0
LINE
  5
5BD2
330
1E
100
AcDbEntity
  8
0
 48
0.27
100
AcDbLine
 10
35.14733298728069
 20
421.3204519687373
 30
0.0
 11
38.03408423836814
 21
416.320450298737
 31
0.0
  0
LINE
  5
5BD3
330
1E
100
AcDbEntity
  8
0
 48
0.27
100
AcDbLine
 10
43.80758841054334
 20
416.320450298737
 30
0.0
 11
38.03408423836814
 21
416.320450298737
 31
0.0
  0
LINE
  5
5BD4
330
1E
100
AcDbEntity
  8
0
 48
0.27
100
AcDbLine
 10
44.52927580581513
 20
417.570450716237
 30
0.0
 11
43.80758841054334
 21
416.320450298737
 31
0.0
  0
LINE
  5
5BD5
330
1E
100
AcDbEntity
  8
0
 48
0.27
100
AcDbLine
 10
42.54771828989504
 20
417.570450716237
 30
0.0
 11
46.31530464808194
 21
417.570450716237
 31
0.0
  0
LINE
  5
5BD6
330
1E
100
AcDbEntity
  8
0
 48
0.27
100
AcDbLine
 10
46.3939282737121
 20
424.7145928051838
 30
0.0
 11
46.31530464808194
 21
425.0704515512372
 31
0.0
  0
LINE
  5
5BD7
330
1E
100
AcDbEntity
  8
0
 48
0.27
100
AcDbLine
 10
46.31530464808194
 20
417.570450716237
 30
0.0
 11
46.3939282737121
 21
417.9263094622904
 31
0.0
  0
LINE
  5
5BD8
330
1E
100
AcDbEntity
  8
0
 48
0.27
100
AcDbLine
 10
42.54771828989504
 20
425.0704515512372
 30
0.0
 11
46.31530464808194
 21
425.0704515512372
 31
0.0
  0
LINE
  5
5BD9
330
1E
100
AcDbEntity
  8
0
 48
0.27
100
AcDbLine
 10
45.76673785922131
 20
417.6425062297703
 30
0.0
 11
48.26899653497349
 21
418.7747749488591
 31
0.0
  0
LINE
  5
5BDA
330
1E
100
AcDbEntity
  8
0
 48
0.27
100
AcDbLine
 10
53.10051519008709
 20
420.8835313962715
 30
0.0
 11
53.11698306546226
 21
421.3204519687373
 31
0.0
  0
LINE
  5
5BDB
330
1E
100
AcDbEntity
  8
0
 48
0.27
100
AcDbLine
 10
53.05174449419244
 20
420.4634010093597
 30
0.0
 11
53.10051519008709
 21
420.8835313962715
 31
0.0
  0
LINE
  5
5BDC
330
1E
100
AcDbEntity
  8
0
 48
0.27
100
AcDbLine
 10
53.11698306546226
 20
421.3204519687373
 30
0.0
 11
53.10051519008709
 21
421.757372541203
 31
0.0
  0
LINE
  5
5BDD
330
1E
100
AcDbEntity
  8
0
 48
0.27
100
AcDbLine
 10
45.48677061796677
 20
417.570450716237
 30
0.0
 11
45.76673785922131
 21
417.6425062297703
 31
0.0
  0
LINE
  5
5BDE
330
1E
100
AcDbEntity
  8
0
 48
0.27
100
AcDbLine
 10
45.48677061796677
 20
425.0704515512372
 30
0.0
 11
45.76673785922131
 21
424.9983960377039
 31
0.0
  0
LINE
  5
5BDF
330
1E
100
AcDbEntity
  8
0
 48
0.27
100
AcDbLine
 10
45.76673785922131
 20
424.9983960377039
 30
0.0
 11
48.26899653497349
 21
423.8661273186151
 31
0.0
  0
LINE
  5
5BE0
330
1E
100
AcDbEntity
  8
0
 48
0.27
100
AcDbLine
 10
52.97254471834105
 20
420.0762080430735
 30
0.0
 11
53.05174449419244
 21
420.4634010093597
 31
0.0
  0
LINE
  5
5BE1
330
1E
100
AcDbEntity
  8
0
 48
0.27
100
AcDbLine
 10
53.10051519008709
 20
421.757372541203
 30
0.0
 11
53.05174449419244
 21
422.1775012581145
 31
0.0
  0
LINE
  5
5BE2
330
1E
100
AcDbEntity
  8
0
 48
0.27
100
AcDbLine
 10
52.86595860354116
 20
419.7368288625222
 30
0.0
 11
52.97254471834105
 21
420.0762080430735
 31
0.0
  0
LINE
  5
5BE3
330
1E
100
AcDbEntity
  8
0
 48
0.27
100
AcDbLine
 10
51.91676536415087
 20
419.2725653711152
 30
0.0
 11
51.91913843492219
 21
419.273726021434
 31
0.0
  0
LINE
  5
5BE4
330
1E
100
AcDbEntity
  8
0
 48
0.27
100
AcDbLine
 10
53.05174449419244
 20
422.1775012581145
 30
0.0
 11
52.97254471834105
 21
422.564695894401
 31
0.0
  0
LINE
  5
5BE5
330
1E
100
AcDbEntity
  8
0
 48
0.27
100
AcDbLine
 10
45.20680337671224
 20
417.6425062297703
 30
0.0
 11
45.48677061796677
 21
417.570450716237
 31
0.0
  0
LINE
  5
5BE6
330
1E
100
AcDbEntity
  8
0
 48
0.27
100
AcDbLine
 10
45.20680337671224
 20
424.9983960377039
 30
0.0
 11
45.48677061796677
 21
425.0704515512372
 31
0.0
  0
LINE
  5
5BE7
330
1E
100
AcDbEntity
  8
0
 48
0.27
100
AcDbLine
 10
52.73608433122717
 20
419.4583078416342
 30
0.0
 11
52.86595860354116
 21
419.7368288625222
 31
0.0
  0
LINE
  5
5BE8
330
1E
100
AcDbEntity
  8
0
 48
0.27
100
AcDbLine
 10
52.97254471834105
 20
422.564695894401
 30
0.0
 11
52.86595860354116
 21
422.904073404952
 31
0.0
  0
LINE
  5
5BE9
330
1E
100
AcDbEntity
  8
0
 48
0.27
100
AcDbLine
 10
48.26899653497349
 20
418.7747749488591
 30
0.0
 11
48.57039990318284
 21
418.8977788389008
 31
0.0
  0
LINE
  5
5BEA
330
1E
100
AcDbEntity
  8
0
 48
0.27
100
AcDbLine
 10
48.26899653497349
 20
423.8661273186151
 30
0.0
 11
48.57039990318284
 21
423.7431250985737
 31
0.0
  0
LINE
  5
5BEB
330
1E
100
AcDbEntity
  8
0
 48
0.27
100
AcDbLine
 10
52.58791186298236
 20
419.2513496841972
 30
0.0
 11
52.73608433122717
 21
419.4583078416342
 31
0.0
  0
LINE
  5
5BEC
330
1E
100
AcDbEntity
  8
0
 48
0.27
100
AcDbLine
 10
52.86595860354116
 20
422.904073404952
 30
0.0
 11
52.73608433122717
 21
423.18259442584
 31
0.0
  0
LINE
  5
5BED
330
1E
100
AcDbEntity
  8
0
 48
0.27
100
AcDbLine
 10
44.9375959488796
 20
417.8559022392825
 30
0.0
 11
45.20680337671224
 21
417.6425062297703
 31
0.0
  0
LINE
  5
5BEE
330
1E
100
AcDbEntity
  8
0
 48
0.27
100
AcDbLine
 10
44.9375959488796
 20
424.7850000281918
 30
0.0
 11
45.20680337671224
 21
424.9983960377039
 31
0.0
  0
LINE
  5
5BEF
330
1E
100
AcDbEntity
  8
0
 48
0.27
100
AcDbLine
 10
48.57039990318284
 20
418.8977788389008
 30
0.0
 11
48.83905456079818
 21
418.8863693952455
 31
0.0
  0
LINE
  5
5BF0
330
1E
100
AcDbEntity
  8
0
 48
0.27
100
AcDbLine
 10
48.57039990318284
 20
423.7431250985737
 30
0.0
 11
48.83905456079818
 21
423.7545328722287
 31
0.0
  0
LINE
  5
5BF1
330
1E
100
AcDbEntity
  8
0
 48
0.27
100
AcDbLine
 10
50.86404211097113
 20
418.1900409582087
 30
0.0
 11
52.42713590050776
 21
419.1239035926637
 31
0.0
  0
LINE
  5
5BF2
330
1E
100
AcDbEntity
  8
0
 48
0.27
100
AcDbLine
 10
52.42713590050776
 20
419.1239035926637
 30
0.0
 11
52.58791186298236
 21
419.2513496841972
 31
0.0
  0
LINE
  5
5BF3
330
1E
100
AcDbEntity
  8
0
 48
0.27
100
AcDbLine
 10
52.73608433122717
 20
423.18259442584
 30
0.0
 11
52.58791186298236
 21
423.389552583277
 31
0.0
  0
LINE
  5
5BF4
330
1E
100
AcDbEntity
  8
0
 48
0.27
100
AcDbLine
 10
41.71918425977985
 20
421.3204519687373
 30
0.0
 11
42.54771828989504
 21
425.0704515512372
 31
0.0
  0
LINE
  5
5BF5
330
1E
100
AcDbEntity
  8
0
 48
0.27
100
AcDbLine
 10
41.71918425977985
 20
421.3204519687373
 30
0.0
 11
43.82970255773641
 21
421.3204519687373
 31
0.0
  0
LINE
  5
5BF6
330
1E
100
AcDbEntity
  8
0
 48
0.27
100
AcDbLine
 10
42.54771828989504
 20
417.570450716237
 30
0.0
 11
41.71918425977985
 21
421.3204519687373
 31
0.0
  0
LINE
  5
5BF7
330
1E
100
AcDbEntity
  8
0
 48
0.27
100
AcDbLine
 10
44.9375959488796
 20
417.8559022392825
 30
0.0
 11
44.6894923180713
 21
418.2024390422791
 31
0.0
  0
LINE
  5
5BF8
330
1E
100
AcDbEntity
  8
0
 48
0.27
100
AcDbLine
 10
44.6894923180713
 20
424.4384632251951
 30
0.0
 11
44.9375959488796
 21
424.7850000281918
 31
0.0
  0
LINE
  5
5BF9
330
1E
100
AcDbEntity
  8
0
 48
0.27
100
AcDbLine
 10
50.62575474330211
 20
418.1287118582166
 30
0.0
 11
50.86404211097113
 21
418.1900409582087
 31
0.0
  0
LINE
  5
5BFA
330
1E
100
AcDbEntity
  8
0
 48
0.27
100
AcDbLine
 10
50.17471431622834
 20
418.1635664395374
 30
0.0
 11
50.62575474330211
 21
418.1287118582166
 31
0.0
  0
LINE
  5
5BFB
330
1E
100
AcDbEntity
  8
0
 48
0.27
100
AcDbLine
 10
48.83905456079818
 20
418.8863693952455
 30
0.0
 11
49.53148855655967
 21
418.4298480263814
 31
0.0
  0
LINE
  5
5BFC
330
1E
100
AcDbEntity
  8
0
 48
0.27
100
AcDbLine
 10
52.25993377596002
 20
419.0808710186022
 30
0.0
 11
52.42713590050776
 21
419.1239035926637
 31
0.0
  0
LINE
  5
5BFD
330
1E
100
AcDbEntity
  8
0
 48
0.27
100
AcDbLine
 10
50.86404211097113
 20
424.4508629792659
 30
0.0
 11
52.42713590050776
 21
423.5169986748106
 31
0.0
  0
LINE
  5
5BFE
330
1E
100
AcDbEntity
  8
0
 48
0.27
100
AcDbLine
 10
52.42713590050776
 20
423.5169986748106
 30
0.0
 11
52.58791186298236
 21
423.389552583277
 31
0.0
  0
LINE
  5
5BFF
330
1E
100
AcDbEntity
  8
0
 48
0.27
100
AcDbLine
 10
50.62575474330211
 20
424.5121904092576
 30
0.0
 11
50.86404211097113
 21
424.4508629792659
 31
0.0
  0
LINE
  5
5C00
330
1E
100
AcDbEntity
  8
0
 48
0.27
100
AcDbLine
 10
50.17471431622834
 20
424.4773374978121
 30
0.0
 11
50.62575474330211
 21
424.5121904092576
 31
0.0
  0
LINE
  5
5C01
330
1E
100
AcDbEntity
  8
0
 48
0.27
100
AcDbLine
 10
48.60051001308624
 20
419.0669983241605
 30
0.0
 11
48.77561124007815
 21
418.9281978988558
 31
0.0
  0
LINE
  5
5C02
330
1E
100
AcDbEntity
  8
0
 48
0.27
100
AcDbLine
 10
49.53148855655967
 20
418.4298480263814
 30
0.0
 11
49.93902880936888
 21
418.2242241994172
 31
0.0
  0
LINE
  5
5C03
330
1E
100
AcDbEntity
  8
0
 48
0.27
100
AcDbLine
 10
49.93902880936888
 20
418.2242241994172
 30
0.0
 11
50.17471431622834
 21
418.1635664395374
 31
0.0
  0
LINE
  5
5C04
330
1E
100
AcDbEntity
  8
0
 48
0.27
100
AcDbLine
 10
48.83905456079818
 20
423.7545328722287
 30
0.0
 11
49.53148855655967
 21
424.2110542410928
 31
0.0
  0
LINE
  5
5C05
330
1E
100
AcDbEntity
  8
0
 48
0.27
100
AcDbLine
 10
48.60051001308624
 20
423.5739039433138
 30
0.0
 11
48.77561124007815
 21
423.7127043686184
 31
0.0
  0
LINE
  5
5C06
330
1E
100
AcDbEntity
  8
0
 48
0.27
100
AcDbLine
 10
44.6894923180713
 20
418.2024390422791
 30
0.0
 11
44.47202818712978
 21
418.6688000542863
 31
0.0
  0
LINE
  5
5C07
330
1E
100
AcDbEntity
  8
0
 48
0.27
100
AcDbLine
 10
44.47202818712978
 20
423.9721022131878
 30
0.0
 11
44.6894923180713
 21
424.4384632251951
 31
0.0
  0
LINE
  5
5C08
330
1E
100
AcDbEntity
  8
0
 48
0.27
100
AcDbLine
 10
50.38746570563283
 20
418.1900409582087
 30
0.0
 11
50.62575474330211
 21
418.1287118582166
 31
0.0
  0
LINE
  5
5C09
330
1E
100
AcDbEntity
  8
0
 48
0.27
100
AcDbLine
 10
49.93902880936888
 20
424.416678068057
 30
0.0
 11
50.17471431622834
 21
424.4773374978121
 31
0.0
  0
LINE
  5
5C0A
330
1E
100
AcDbEntity
  8
0
 48
0.27
100
AcDbLine
 10
49.53148855655967
 20
424.2110542410928
 30
0.0
 11
49.93902880936888
 21
424.416678068057
 31
0.0
  0
LINE
  5
5C0B
330
1E
100
AcDbEntity
  8
0
 48
0.27
100
AcDbLine
 10
44.6582365878516
 20
417.570450716237
 30
0.0
 11
43.82970255773641
 21
421.3204519687373
 31
0.0
  0
LINE
  5
5C0C
330
1E
100
AcDbEntity
  8
0
 48
0.27
100
AcDbLine
 10
43.82970255773641
 20
421.3204519687373
 30
0.0
 11
44.6582365878516
 21
425.0704515512372
 31
0.0
  0
LINE
  5
5C0D
330
1E
100
AcDbEntity
  8
0
 48
0.27
100
AcDbLine
 10
48.60051001308624
 20
419.0669983241605
 30
0.0
 11
48.43913452038655
 21
419.292396627552
 31
0.0
  0
LINE
  5
5C0E
330
1E
100
AcDbEntity
  8
0
 48
0.27
100
AcDbLine
 10
52.09273165153724
 20
419.1239035926637
 30
0.0
 11
52.25993377596002
 21
419.0808710186022
 31
0.0
  0
LINE
  5
5C0F
330
1E
100
AcDbEntity
  8
0
 48
0.27
100
AcDbLine
 10
52.25993377596002
 20
423.560031248872
 30
0.0
 11
52.42713590050776
 21
423.5169986748106
 31
0.0
  0
LINE
  5
5C10
330
1E
100
AcDbEntity
  8
0
 48
0.27
100
AcDbLine
 10
50.38746570563283
 20
424.4508629792659
 30
0.0
 11
50.62575474330211
 21
424.5121904092576
 31
0.0
  0
LINE
  5
5C11
330
1E
100
AcDbEntity
  8
0
 48
0.27
100
AcDbLine
 10
49.31990950760097
 20
424.0433394263344
 30
0.0
 11
49.53148855655967
 21
424.2110542410928
 31
0.0
  0
LINE
  5
5C12
330
1E
100
AcDbEntity
  8
0
 48
0.27
100
AcDbLine
 10
48.43913452038655
 20
423.3485056399223
 30
0.0
 11
48.60051001308624
 21
423.5739039433138
 31
0.0
  0
LINE
  5
5C13
330
1E
100
AcDbEntity
  8
0
 48
0.27
100
AcDbLine
 10
44.47202818712978
 20
418.6688000542863
 30
0.0
 11
44.29355856895036
 21
419.2370628295613
 31
0.0
  0
LINE
  5
5C14
330
1E
100
AcDbEntity
  8
0
 48
0.27
100
AcDbLine
 10
44.29355856895036
 20
423.403839437913
 30
0.0
 11
44.47202818712978
 21
423.9721022131878
 31
0.0
  0
LINE
  5
5C15
330
1E
100
AcDbEntity
  8
0
 48
0.27
100
AcDbLine
 10
48.43913452038655
 20
419.292396627552
 30
0.0
 11
48.29768881439012
 21
419.595732186459
 31
0.0
  0
LINE
  5
5C16
330
1E
100
AcDbEntity
  8
0
 48
0.27
100
AcDbLine
 10
50.15833495086802
 20
418.3716685474154
 30
0.0
 11
50.38746570563283
 21
418.1900409582087
 31
0.0
  0
LINE
  5
5C17
330
1E
100
AcDbEntity
  8
0
 48
0.27
100
AcDbLine
 10
48.29768881439012
 20
423.0451700810152
 30
0.0
 11
48.43913452038655
 21
423.3485056399223
 31
0.0
  0
LINE
  5
5C18
330
1E
100
AcDbEntity
  8
0
 48
0.27
100
AcDbLine
 10
51.93195401906238
 20
419.2513496841972
 30
0.0
 11
52.09273165153724
 21
419.1239035926637
 31
0.0
  0
LINE
  5
5C19
330
1E
100
AcDbEntity
  8
0
 48
0.27
100
AcDbLine
 10
50.15833495086802
 20
424.2692337200588
 30
0.0
 11
50.38746570563283
 21
424.4508629792659
 31
0.0
  0
LINE
  5
5C1A
330
1E
100
AcDbEntity
  8
0
 48
0.27
100
AcDbLine
 10
52.09273165153724
 20
423.5169986748106
 30
0.0
 11
52.25993377596002
 21
423.560031248872
 31
0.0
  0
LINE
  5
5C1B
330
1E
100
AcDbEntity
  8
0
 48
0.27
100
AcDbLine
 10
48.29768881439012
 20
419.595732186459
 30
0.0
 11
48.18160707650446
 21
419.9653483969349
 31
0.0
  0
LINE
  5
5C1C
330
1E
100
AcDbEntity
  8
0
 48
0.27
100
AcDbLine
 10
44.29355856895036
 20
419.2370628295613
 30
0.0
 11
44.16094549580398
 21
419.8853887709567
 31
0.0
  0
LINE
  5
5C1D
330
1E
100
AcDbEntity
  8
0
 48
0.27
100
AcDbLine
 10
44.16094549580398
 20
422.7555151665178
 30
0.0
 11
44.29355856895036
 21
423.403839437913
 31
0.0
  0
LINE
  5
5C1E
330
1E
100
AcDbEntity
  8
0
 48
0.27
100
AcDbLine
 10
48.18160707650446
 20
422.6755538705393
 30
0.0
 11
48.29768881439012
 21
423.0451700810152
 31
0.0
  0
LINE
  5
5C1F
330
1E
100
AcDbEntity
  8
0
 48
0.27
100
AcDbLine
 10
50.15833495086802
 20
418.3716685474154
 30
0.0
 11
49.94716672210291
 21
418.6666173635469
 31
0.0
  0
LINE
  5
5C20
330
1E
100
AcDbEntity
  8
0
 48
0.27
100
AcDbLine
 10
48.18160707650446
 20
419.9653483969349
 30
0.0
 11
48.09535154834978
 21
420.3870402344825
 31
0.0
  0
LINE
  5
5C21
330
1E
100
AcDbEntity
  8
0
 48
0.27
100
AcDbLine
 10
44.16094549580398
 20
419.8853887709567
 30
0.0
 11
44.07928246916624
 21
420.5888631401869
 31
0.0
  0
LINE
  5
5C22
330
1E
100
AcDbEntity
  8
0
 48
0.27
100
AcDbLine
 10
44.07928246916624
 20
422.0520407971626
 30
0.0
 11
44.16094549580398
 21
422.7555151665178
 31
0.0
  0
LINE
  5
5C23
330
1E
100
AcDbEntity
  8
0
 48
0.27
100
AcDbLine
 10
51.93195401906238
 20
423.389552583277
 30
0.0
 11
52.09273165153724
 21
423.5169986748106
 31
0.0
  0
LINE
  5
5C24
330
1E
100
AcDbEntity
  8
0
 48
0.27
100
AcDbLine
 10
51.93195401906238
 20
419.2513496841972
 30
0.0
 11
51.78378155081762
 21
419.4583078416342
 31
0.0
  0
LINE
  5
5C25
330
1E
100
AcDbEntity
  8
0
 48
0.27
100
AcDbLine
 10
49.94716672210291
 20
423.9742849039273
 30
0.0
 11
50.15833495086802
 21
424.2692337200588
 31
0.0
  0
LINE
  5
5C26
330
1E
100
AcDbEntity
  8
0
 48
0.27
100
AcDbLine
 10
48.09535154834978
 20
422.2538620329918
 30
0.0
 11
48.18160707650446
 21
422.6755538705393
 31
0.0
  0
LINE
  5
5C27
330
1E
100
AcDbEntity
  8
0
 48
0.27
100
AcDbLine
 10
48.09535154834978
 20
420.3870402344825
 30
0.0
 11
48.04223384110414
 21
420.8446020136453
 31
0.0
  0
LINE
  5
5C28
330
1E
100
AcDbEntity
  8
0
 48
0.27
100
AcDbLine
 10
44.07928246916624
 20
420.5888631401869
 30
0.0
 11
44.05170742018622
 21
421.3204519687373
 31
0.0
  0
LINE
  5
5C29
330
1E
100
AcDbEntity
  8
0
 48
0.27
100
AcDbLine
 10
44.05170742018622
 20
421.3204519687373
 30
0.0
 11
44.07928246916624
 21
422.0520407971626
 31
0.0
  0
LINE
  5
5C2A
330
1E
100
AcDbEntity
  8
0
 48
0.27
100
AcDbLine
 10
48.04223384110414
 20
421.7963002538288
 30
0.0
 11
48.09535154834978
 21
422.2538620329918
 31
0.0
  0
LINE
  5
5C2B
330
1E
100
AcDbEntity
  8
0
 48
0.27
100
AcDbLine
 10
48.04223384110414
 20
420.8446020136453
 30
0.0
 11
48.02429970523413
 21
421.3204519687373
 31
0.0
  0
LINE
  5
5C2C
330
1E
100
AcDbEntity
  8
0
 48
0.27
100
AcDbLine
 10
48.02429970523413
 20
421.3204519687373
 30
0.0
 11
48.04223384110414
 21
421.7963002538288
 31
0.0
  0
LINE
  5
5C2D
330
1E
100
AcDbEntity
  8
0
 48
0.27
100
AcDbLine
 10
49.94716672210291
 20
418.6666173635469
 30
0.0
 11
49.76207555169271
 21
419.0635514429599
 31
0.0
  0
LINE
  5
5C2E
330
1E
100
AcDbEntity
  8
0
 48
0.27
100
AcDbLine
 10
51.78378155081762
 20
423.18259442584
 30
0.0
 11
51.93195401906238
 21
423.389552583277
 31
0.0
  0
LINE
  5
5C2F
330
1E
100
AcDbEntity
  8
0
 48
0.27
100
AcDbLine
 10
51.78378155081762
 20
419.4583078416342
 30
0.0
 11
51.65390727850357
 21
419.7368288625222
 31
0.0
  0
LINE
  5
5C30
330
1E
100
AcDbEntity
  8
0
 48
0.27
100
AcDbLine
 10
49.76207555169271
 20
423.5773524945146
 30
0.0
 11
49.94716672210291
 21
423.9742849039273
 31
0.0
  0
LINE
  5
5C31
330
1E
100
AcDbEntity
  8
0
 48
0.27
100
AcDbLine
 10
51.65390727850357
 20
422.904073404952
 30
0.0
 11
51.78378155081762
 21
423.18259442584
 31
0.0
  0
LINE
  5
5C32
330
1E
100
AcDbEntity
  8
0
 48
0.27
100
AcDbLine
 10
49.76207555169271
 20
419.0635514429599
 30
0.0
 11
49.61017564220042
 21
419.5472153306067
 31
0.0
  0
LINE
  5
5C33
330
1E
100
AcDbEntity
  8
0
 48
0.27
100
AcDbLine
 10
51.65390727850357
 20
419.7368288625222
 30
0.0
 11
51.54732283370396
 21
420.0762080430735
 31
0.0
  0
LINE
  5
5C34
330
1E
100
AcDbEntity
  8
0
 48
0.27
100
AcDbLine
 10
49.61017564220042
 20
423.0936869367424
 30
0.0
 11
49.76207555169271
 21
423.5773524945146
 31
0.0
  0
LINE
  5
5C35
330
1E
100
AcDbEntity
  8
0
 48
0.27
100
AcDbLine
 10
51.54732283370396
 20
422.564695894401
 30
0.0
 11
51.65390727850357
 21
422.904073404952
 31
0.0
  0
LINE
  5
5C36
330
1E
100
AcDbEntity
  8
0
 48
0.27
100
AcDbLine
 10
49.61017564220042
 20
419.5472153306067
 30
0.0
 11
49.49730364535081
 21
420.099025260509
 31
0.0
  0
LINE
  5
5C37
330
1E
100
AcDbEntity
  8
0
 48
0.27
100
AcDbLine
 10
51.54732283370396
 20
420.0762080430735
 30
0.0
 11
51.46812305785264
 21
420.4634010093597
 31
0.0
  0
LINE
  5
5C38
330
1E
100
AcDbEntity
  8
0
 48
0.27
100
AcDbLine
 10
49.49730364535081
 20
422.5418770069652
 30
0.0
 11
49.61017564220042
 21
423.0936869367424
 31
0.0
  0
LINE
  5
5C39
330
1E
100
AcDbEntity
  8
0
 48
0.27
100
AcDbLine
 10
51.46812305785264
 20
422.1775012581145
 30
0.0
 11
51.54732283370396
 21
422.564695894401
 31
0.0
  0
LINE
  5
5C3A
330
1E
100
AcDbEntity
  8
0
 48
0.27
100
AcDbLine
 10
49.49730364535081
 20
420.099025260509
 30
0.0
 11
49.42779822274337
 21
420.69777389575
 31
0.0
  0
LINE
  5
5C3B
330
1E
100
AcDbEntity
  8
0
 48
0.27
100
AcDbLine
 10
51.46812305785264
 20
420.4634010093597
 30
0.0
 11
51.41935069195762
 21
420.8835313962715
 31
0.0
  0
LINE
  5
5C3C
330
1E
100
AcDbEntity
  8
0
 48
0.27
100
AcDbLine
 10
49.42779822274337
 20
421.9431283717242
 30
0.0
 11
49.49730364535081
 21
422.5418770069652
 31
0.0
  0
LINE
  5
5C3D
330
1E
100
AcDbEntity
  8
0
 48
0.27
100
AcDbLine
 10
51.41935069195762
 20
421.757372541203
 30
0.0
 11
51.46812305785264
 21
422.1775012581145
 31
0.0
  0
LINE
  5
5C3E
330
1E
100
AcDbEntity
  8
0
 48
0.27
100
AcDbLine
 10
49.42779822274337
 20
420.69777389575
 30
0.0
 11
49.40432803507383
 21
421.3204519687373
 31
0.0
  0
LINE
  5
5C3F
330
1E
100
AcDbEntity
  8
0
 48
0.27
100
AcDbLine
 10
51.41935069195762
 20
420.8835313962715
 30
0.0
 11
51.40288281658252
 21
421.3204519687373
 31
0.0
  0
LINE
  5
5C40
330
1E
100
AcDbEntity
  8
0
 48
0.27
100
AcDbLine
 10
51.40288281658252
 20
421.3204519687373
 30
0.0
 11
51.41935069195762
 21
421.757372541203
 31
0.0
  0
LINE
  5
5C41
330
1E
100
AcDbEntity
  8
0
 48
0.27
100
AcDbLine
 10
49.40432803507383
 20
421.3204519687373
 30
0.0
 11
49.42779822274337
 21
421.9431283717242
 31
0.0
  0
LINE
  5
5C42
330
1E
100
AcDbEntity
  8
0
 48
0.27
100
AcDbLine
 10
48.77561124007815
 20
418.9281978988558
 30
0.0
 11
48.83905456079818
 21
418.8863693952455
 31
0.0
  0
LINE
  5
5C43
330
1E
100
AcDbEntity
  8
0
 48
0.27
100
AcDbLine
 10
48.50995757358899
 20
418.9003456298295
 30
0.0
 11
48.57039990318284
 21
418.8977788389008
 31
0.0
  0
LINE
  5
5C44
330
1E
100
AcDbEntity
  8
0
 48
0.27
100
AcDbLine
 10
48.77561124007815
 20
423.7127043686184
 30
0.0
 11
48.83905456079818
 21
423.7545328722287
 31
0.0
  0
LINE
  5
5C46
330
1E
100
AcDbEntity
  8
中心線
 48
0.27
100
AcDbLine
 10
54.61698306546225
 20
421.3204519687373
 30
0.0
 11
32.85833439351792
 21
421.3204519687373
 31
0.0
  0
POINT
  5
5C47
330
1E
100
AcDbEntity
  8
0
100
AcDbPoint
 10
53.11698306546226
 20
421.3204519687373
 30
0.0
1001
pntflag
1000
endpoint
  0
LINE
  5
5D8B
330
1E
100
AcDbEntity
  8
0
 48
0.27
100
AcDbLine
 10
14.96924191836005
 20
376.3191990346839
 30
0.0
 11
-4.576991963861459
 21
376.3182553887014
 31
0.0
  0
LINE
  5
5D8C
330
1E
100
AcDbEntity
  8
0
 48
0.27
100
AcDbLine
 10
-6.780058848840781
 20
376.3176993210546
 30
0.0
 11
1.980093086017248
 21
376.318122240489
 31
0.0
  0
LINE
  5
5D8D
330
1E
100
AcDbEntity
  8
0
 48
0.27
100
AcDbLine
 10
-4.576991963861459
 20
376.3182553887014
 30
0.0
 11
-7.57713679327594
 21
379.3181105522947
 31
0.0
  0
LINE
  5
5D8E
330
1E
100
AcDbEntity
  8
0
 48
0.27
100
AcDbLine
 10
-6.780058848840781
 20
376.3176993210546
 30
0.0
 11
-9.671009106949455
 21
378.5357817384866
 31
0.0
  0
LINE
  5
5DBA
330
1E
100
AcDbEntity
  8
0
 48
0.27
100
AcDbLine
 10
86.42300793009054
 20
376.3226486536559
 30
0.0
 11
66.87677404796885
 21
376.3217050076734
 31
0.0
  0
LINE
  5
5DBC
330
1E
100
AcDbEntity
  8
0
 48
0.27
100
AcDbLine
 10
79.86684434119888
 20
376.3218824287869
 30
0.0
 11
88.62699627605691
 21
376.3223053482214
 31
0.0
  0
LINE
  5
5DBD
330
1E
100
AcDbEntity
  8
0
 48
0.27
100
AcDbLine
 10
79.86684434119888
 20
376.3218824287869
 30
0.0
 11
79.86658468000131
 21
376.3223321250348
 31
0.0
  0
LINE
  5
5DBE
330
1E
100
AcDbEntity
  8
0
 48
0.27
100
AcDbLine
 10
91.51773235313459
 20
378.5406668918071
 30
0.0
 11
88.62699627605691
 21
376.3223053482214
 31
0.0
  0
LINE
  5
5DBF
330
1E
100
AcDbEntity
  8
0
 48
0.27
100
AcDbLine
 10
89.42286309368386
 20
379.3227934830704
 30
0.0
 11
86.42300793009054
 21
376.3226486536559
 31
0.0
  0
LINE
  5
5DEA
330
1E
100
AcDbEntity
  8
0
 48
0.27
100
AcDbLine
 10
-7.076542213194841
 20
376.5451762676709
 30
3.0
 11
-7.076651924015521
 21
378.817674005155
 31
3.0
  0
LINE
  5
5DEC
330
1E
100
AcDbEntity
  8
0
 48
0.27
100
AcDbLine
 10
88.92345767492988
 20
376.5498109208098
 30
3.0
 11
88.92334791962534
 21
378.8232300758589
 31
3.0
  0
LINE
  5
5DF0
330
1E
100
AcDbEntity
  8
0
 48
0.27
100
AcDbLine
 10
59.42071686674765
 20
433.3208954044941
 30
0.0
 11
22.42071690986615
 21
433.3191091319303
 31
0.0
  0
LINE
  5
5DFA
330
1E
100
AcDbEntity
  8
0
 48
0.27
100
AcDbLine
 10
22.42071690986615
 20
433.3191091319303
 30
0.0
 11
21.42076518866815
 21
432.3190608554588
 31
0.0
  0
LINE
  5
5DFE
330
1E
100
AcDbEntity
  8
0
 48
0.27
100
AcDbLine
 10
59.42071686674765
 20
433.3208954044941
 30
0.0
 11
60.42076514321891
 21
432.3209436832964
 31
0.0
  0
LINE
  5
6148
330
1E
100
AcDbEntity
  8
0
 48
0.27
100
AcDbLine
 10
110.921947886471
 20
407.8233817325094
 30
0.0
 11
110.9208109481229
 21
431.3733817050652
 31
0.0
  0
LINE
  5
614C
330
1E
100
AcDbEntity
  8
0
 48
0.27
100
AcDbLine
 10
89.42047335065916
 20
428.8227934253848
 30
0.0
 11
89.42216788490368
 21
393.7230173663685
 31
0.0
  0
LINE
  5
6151
330
1E
100
AcDbEntity
  8
0
 48
0.27
100
AcDbLine
 10
-26.37800367588735
 20
406.8167532141335
 30
0.0
 11
-27.88688021209198
 21
408.3254840673844
 31
0.0
  0
LINE
  5
6152
330
1E
100
AcDbEntity
  8
0
 48
0.27
100
AcDbLine
 10
-7.577832643838547
 20
393.7316280112974
 30
0.0
 11
-7.579526536300647
 21
428.8181104946091
 31
0.0
  0
LINE
  5
6153
330
1E
100
AcDbEntity
  8
中心線
 48
0.27
100
AcDbLine
 10
-17.07792924733553
 20
405.2753001006366
 30
3.0
 11
-17.07937959937565
 21
435.3172021629434
 31
0.0
  0
LINE
  5
6154
330
1E
100
AcDbEntity
  8
中心線
 48
0.27
100
AcDbLine
 10
98.92209181431745
 20
404.8418391405948
 30
3.0
 11
98.92062026544177
 21
435.3228023688195
 31
0.0
  0
LINE
  5
6156
330
1E
100
AcDbEntity
  8
0
 48
0.27
100
AcDbLine
 10
-9.671009106949455
 20
378.5357817384866
 30
0.0
 11
-16.75386750431448
 21
404.9642654552823
 31
0.0
  0
LINE
  5
6157
330
1E
100
AcDbEntity
  8
0
 48
0.27
100
AcDbLine
 10
-26.37800367588735
 20
406.8167532141335
 30
0.0
 11
-19.16877152338533
 21
406.8171012588258
 31
0.0
  0
ARC
  5
6158
330
1E
100
AcDbEntity
  8
0
 48
0.27
100
AcDbCircle
 10
-19.16865082929317
 20
404.3171012617393
 30
0.0
 40
2.5
100
AcDbArc
 50
15.00276610484049
 51
90.00276610483828
  0
LINE
  5
6162
330
1E
100
AcDbEntity
  8
0
 48
0.27
100
AcDbLine
 10
-7.57713679327594
 20
379.3181105522947
 30
0.0
 11
-7.577647306850906
 21
389.8926458348175
 31
0.0
  0
LINE
  5
6167
330
1E
100
AcDbEntity
  8
0
 48
0.27
100
AcDbLine
 10
-7.577933374284171
 20
395.8181105330662
 30
0.0
 11
-4.077933378362956
 21
395.8182795047952
 31
0.0
  0
LINE
  5
6168
330
1E
100
AcDbEntity
  8
0
 48
0.27
100
AcDbLine
 10
-7.577547153189271
 20
387.8181105423891
 30
0.0
 11
-4.077547157268057
 21
387.8182795141182
 31
0.0
  0
ARC
  5
6169
330
1E
100
AcDbEntity
  8
0
 48
0.27
100
AcDbCircle
 10
-4.077740267815514
 20
391.8182795094567
 30
0.0
 40
4.0
100
AcDbArc
 50
270.0027661048382
 51
90.00276610483828
  0
LINE
  5
618A
330
1E
100
AcDbEntity
  8
0
 48
0.27
100
AcDbLine
 10
91.51773235313459
 20
378.5406668918071
 30
0.0
 11
98.5980389080065
 21
404.9698343727379
 31
0.0
  0
LINE
  5
618B
330
1E
100
AcDbEntity
  8
0
 48
0.27
100
AcDbLine
 10
89.42235135843304
 20
389.9226339779742
 30
0.0
 11
89.42286309368386
 21
379.3227934830704
 31
0.0
  0
ARC
  5
61BA
330
1E
100
AcDbEntity
  8
0
 48
0.27
100
AcDbCircle
 10
85.92225962730186
 20
391.8226244967744
 30
0.0
 40
4.0
100
AcDbArc
 50
90.00276610483828
 51
270.0027661048382
  0
LINE
  5
61BB
330
1E
100
AcDbEntity
  8
0
 48
0.27
100
AcDbLine
 10
89.42245273377052
 20
387.8227934731648
 30
0.0
 11
85.9224527378493
 21
387.8226245014358
 31
0.0
  0
LINE
  5
61BC
330
1E
100
AcDbEntity
  8
0
 48
0.27
100
AcDbLine
 10
89.42206651267563
 20
395.8227934638419
 30
0.0
 11
85.92206651675441
 21
395.8226244921129
 31
0.0
  0
LINE
  5
61BD
330
1E
100
AcDbEntity
  8
0
 48
0.27
100
AcDbLine
 10
109.9219961652733
 20
406.8233334560379
 30
0.0
 11
101.0127640147526
 21
406.8229033393629
 31
0.0
  0
ARC
  5
61BE
330
1E
100
AcDbEntity
  8
0
 48
0.27
100
AcDbCircle
 10
101.0128847088447
 20
404.3229033422764
 30
0.0
 40
2.5
100
AcDbArc
 50
90.00276610483828
 51
165.0027661048371
  0
LINE
  5
61BF
330
1E
100
AcDbEntity
  8
0
 48
0.27
100
AcDbLine
 10
109.9219961652733
 20
406.8233334560379
 30
0.0
 11
110.921947886471
 21
407.8233817325094
 31
0.0
  0
LINE
  5
61C3
330
1E
100
AcDbEntity
  8
0
 48
0.27
100
AcDbLine
 10
-4.579671372707323
 20
431.8182553240236
 30
0.0
 11
86.42032852124467
 21
431.8226485889781
 31
0.0
  0
LINE
  5
61C6
330
1E
100
AcDbEntity
  8
0
 48
0.27
100
AcDbLine
 10
3.420716932007863
 20
433.3181918568299
 30
0.0
 11
-27.17928303233186
 21
433.3167145611419
 31
0.0
  0
LINE
  5
61C7
330
1E
100
AcDbEntity
  8
0
 48
0.27
100
AcDbLine
 10
-27.17928303233186
 20
433.3167145611419
 30
0.0
 11
-29.07919130260749
 21
431.4166228358462
 31
0.0
  0
LINE
  5
61C8
330
1E
100
AcDbEntity
  8
0
 48
0.27
100
AcDbLine
 10
-29.07919130260749
 20
431.416622835846
 30
0.0
 11
-29.07843941394261
 21
415.8423587852838
 31
0.0
  0
ARC
  5
61C9
330
1E
100
AcDbEntity
  8
0
 48
0.27
100
AcDbCircle
 10
-28.9392497818987
 20
414.289037299656
 30
0.0
 40
1.0
100
AcDbArc
 50
0.5027661048428233
 51
45.00276610484596
  0
LINE
  5
61CA
330
1E
100
AcDbEntity
  8
0
 48
0.27
100
AcDbLine
 10
-27.88688021209198
 20
408.3254840673844
 30
0.0
 11
-27.93928828129618
 21
414.2978121109427
 31
0.0
  0
LINE
  5
61CB
330
1E
100
AcDbEntity
  8
0
 48
0.27
100
AcDbLine
 10
-28.23217713898047
 20
414.9961782174629
 30
0.0
 11
-29.07843941394261
 21
415.8423587852838
 31
0.0
  0
LINE
  5
61CC
330
1E
100
AcDbEntity
  8
0
 48
0.27
100
AcDbLine
 10
21.42076518866815
 20
432.3190608554588
 30
0.0
 11
4.420765208479366
 21
432.3182401356321
 31
0.0
  0
LINE
  5
61CD
330
1E
100
AcDbEntity
  8
0
 48
0.27
100
AcDbLine
 10
4.420765208479366
 20
432.3182401356321
 30
0.0
 11
3.420716932007863
 21
433.3181918568299
 31
0.0
  0
ARC
  5
61CE
330
1E
100
AcDbEntity
  8
0
 48
0.27
100
AcDbCircle
 10
-4.579526539796745
 20
428.8182553275198
 30
0.0
 40
3.0
100
AcDbArc
 50
90.00276610483828
 51
180.0027661048382
  0
LINE
  5
61D2
330
1E
100
AcDbEntity
  8
0
 48
0.27
100
AcDbLine
 10
108.9707168090035
 20
433.3232875614007
 30
0.0
 11
78.4207168446057
 21
433.3218126795945
 31
0.0
  0
LINE
  5
61D3
330
1E
100
AcDbEntity
  8
0
 48
0.27
100
AcDbLine
 10
78.4207168446057
 20
433.3218126795945
 30
0.0
 11
77.4207651234077
 21
432.321764403123
 31
0.0
  0
LINE
  5
61D5
330
1E
100
AcDbEntity
  8
0
 48
0.27
100
AcDbLine
 10
77.4207651234077
 20
432.321764403123
 30
0.0
 11
60.42076514321891
 21
432.3209436832964
 31
0.0
  0
CIRCLE
  5
61D6
330
1E
100
AcDbEntity
  8
指線
 48
0.27
100
AcDbCircle
 10
81.92066646994662
 20
424.8224313477698
 30
0.0
 40
4.0
  0
ARC
  5
61D7
330
1E
100
AcDbEntity
  8
0
 48
0.27
100
AcDbCircle
 10
86.42047335415526
 20
428.8226485924742
 30
0.0
 40
3.0
100
AcDbArc
 50
0.0027661048382591
 51
90.00276610483828
  0
LINE
  5
61D8
330
1E
100
AcDbEntity
  8
0
 48
0.27
100
AcDbLine
 10
110.9208109481229
 20
431.3733817050652
 30
0.0
 11
108.9707168090035
 21
433.3232875614007
 31
0.0
  0
LINE
  5
61D9
330
1E
100
AcDbEntity
  8
虛線
 48
0.27
100
AcDbLine
 10
-24.07921061948907
 20
431.8168642235641
 30
3.0
 11
-10.07921063580418
 21
431.8175401104802
 31
3.0
  0
LINE
  5
61DA
330
1E
100
AcDbEntity
  8
0
 48
0.27
100
AcDbLine
 10
-7.57892304412897
 20
416.3176608003936
 30
3.0
 11
-29.0784623102911
 21
416.316622853443
 31
3.0
  0
LINE
  5
61DB
330
1E
100
AcDbEntity
  8
虛線
 48
0.27
100
AcDbLine
 10
-24.07854438810037
 20
418.0168642396463
 30
3.0
 11
-10.07854440441548
 21
418.0175401265623
 31
3.0
  0
LINE
  5
61DC
330
1E
100
AcDbEntity
  8
虛線
 48
0.27
100
AcDbLine
 10
-24.07921061948907
 20
431.8168642235641
 30
3.0
 11
-25.57928303419655
 21
433.3167918053608
 31
3.0
  0
LINE
  5
61DD
330
1E
100
AcDbEntity
  8
虛線
 48
0.27
100
AcDbLine
 10
-24.07854438810037
 20
418.0168642396463
 30
3.0
 11
-24.07921061948907
 21
431.8168642235641
 31
3.0
  0
LINE
  5
61DE
330
1E
100
AcDbEntity
  8
虛線
 48
0.27
100
AcDbLine
 10
-23.07854438926573
 20
418.0169125172831
 30
3.0
 11
-23.07921062065443
 21
431.816912501201
 31
3.0
  0
LINE
  5
61DF
330
1E
100
AcDbEntity
  8
虛線
 48
0.27
100
AcDbLine
 10
-24.07854438810037
 20
418.0168642396463
 30
3.0
 11
-25.77846231413686
 21
416.3167821696446
 31
3.0
  0
LINE
  5
61E0
330
1E
100
AcDbEntity
  8
虛線
 48
0.27
100
AcDbLine
 10
-10.07921063580418
 20
431.8175401104802
 30
3.0
 11
-8.579283054007532
 21
433.3176125251875
 31
3.0
  0
LINE
  5
61E1
330
1E
100
AcDbEntity
  8
虛線
 48
0.27
100
AcDbLine
 10
-11.07854440325012
 20
418.0174918489255
 30
3.0
 11
-11.07921063463882
 21
431.8174918328434
 31
3.0
  0
LINE
  5
61E2
330
1E
100
AcDbEntity
  8
虛線
 48
0.27
100
AcDbLine
 10
-10.07854440441548
 20
418.0175401265623
 30
3.0
 11
-10.07921063580418
 21
431.8175401104802
 31
3.0
  0
LINE
  5
61E3
330
1E
100
AcDbEntity
  8
虛線
 48
0.27
100
AcDbLine
 10
-10.07854440441548
 20
418.0175401265623
 30
3.0
 11
-8.378462334414123
 21
416.3176222005261
 31
3.0
  0
LINE
  5
61E4
330
1E
100
AcDbEntity
  8
虛線
 48
0.27
100
AcDbLine
 10
91.92078924532834
 20
431.8224644294402
 30
3.0
 11
90.42071683062088
 21
433.3223920112369
 31
3.0
  0
LINE
  5
61E5
330
1E
100
AcDbEntity
  8
虛線
 48
0.27
100
AcDbLine
 10
91.92145547671705
 20
418.0224644455223
 30
3.0
 11
90.2215375506808
 21
416.3223823755207
 31
3.0
  0
LINE
  5
61E6
330
1E
100
AcDbEntity
  8
0
 48
0.27
100
AcDbLine
 10
89.42107684283083
 20
416.3223437311692
 30
3.0
 11
110.9215375265577
 21
416.3233817226037
 31
3.0
  0
LINE
  5
61E7
330
1E
100
AcDbEntity
  8
虛線
 48
0.27
100
AcDbLine
 10
105.9207892290132
 20
431.8231403163563
 30
3.0
 11
107.4207168108101
 21
433.3232127310636
 31
3.0
  0
LINE
  5
61E8
330
1E
100
AcDbEntity
  8
虛線
 48
0.27
100
AcDbLine
 10
105.9214554604019
 20
418.0231403324383
 30
3.0
 11
105.9207892290132
 21
431.8231403163563
 31
3.0
  0
LINE
  5
61E9
330
1E
100
AcDbEntity
  8
虛線
 48
0.27
100
AcDbLine
 10
104.9214554615673
 20
418.0230920548015
 30
3.0
 11
104.9207892301786
 21
431.8230920387194
 31
3.0
  0
LINE
  5
61EA
330
1E
100
AcDbEntity
  8
虛線
 48
0.27
100
AcDbLine
 10
91.92145547671705
 20
418.0224644455223
 30
3.0
 11
91.92078924532834
 21
431.8224644294402
 31
3.0
  0
LINE
  5
61EB
330
1E
100
AcDbEntity
  8
虛線
 48
0.27
100
AcDbLine
 10
92.92145547555168
 20
418.0225127231592
 30
3.0
 11
92.92078924416298
 21
431.822512707077
 31
3.0
  0
LINE
  5
61EC
330
1E
100
AcDbEntity
  8
虛線
 48
0.27
100
AcDbLine
 10
105.9214554604019
 20
418.0231403324383
 30
3.0
 11
91.92145547671705
 21
418.0224644455223
 31
3.0
  0
LINE
  5
61ED
330
1E
100
AcDbEntity
  8
虛線
 48
0.27
100
AcDbLine
 10
105.9214554604019
 20
418.0231403324383
 30
3.0
 11
107.6215375304035
 21
416.3232224064021
 31
3.0
  0
LINE
  5
61EE
330
1E
100
AcDbEntity
  8
虛線
 48
0.27
100
AcDbLine
 10
105.9207892290132
 20
431.8231403163563
 30
3.0
 11
91.92078924532834
 21
431.8224644294402
 31
3.0
  0
LINE
  5
61EF
330
1E
100
AcDbEntity
  8
指線
 48
0.27
100
AcDbLine
 10
82.71957641875784
 20
425.6215901695829
 30
0.0
 11
85.83178950201828
 21
425.6221481204793
 31
0.0
  0
LINE
  5
61F0
330
1E
100
AcDbEntity
  8
指線
 48
0.27
100
AcDbLine
 10
82.71982361219455
 20
424.0235198716629
 30
0.0
 11
85.83203669545497
 21
424.0240778225593
 31
0.0
  0
LINE
  5
61F1
330
1E
100
AcDbEntity
  8
指線
 48
0.27
100
AcDbLine
 10
81.12150932769868
 20
425.6213428238768
 30
0.0
 11
78.00289160589262
 21
425.6209363784251
 31
0.0
  0
LINE
  5
61F2
330
1E
100
AcDbEntity
  8
指線
 48
0.27
100
AcDbLine
 10
81.12175652113503
 20
424.0232725259573
 30
0.0
 11
78.00313879932897
 21
424.0228660805052
 31
0.0
  0
LINE
  5
61F3
330
1E
100
AcDbEntity
  8
指線
 48
0.27
100
AcDbLine
 10
82.71982361219455
 20
424.0235198716629
 30
0.0
 11
82.72004960006629
 21
422.5625423318369
 31
0.0
  0
LINE
  5
61F4
330
1E
100
AcDbEntity
  8
指線
 48
0.27
100
AcDbLine
 10
81.12175652113503
 20
424.0232725259573
 30
0.0
 11
81.12198250868738
 21
422.5622949861381
 31
0.0
  0
LINE
  5
61F5
330
1E
100
AcDbEntity
  8
指線
 48
0.27
100
AcDbLine
 10
82.71935043120585
 20
427.0825677094014
 30
0.0
 11
82.71957641875784
 21
425.6215901695829
 31
0.0
  0
LINE
  5
61F6
330
1E
100
AcDbEntity
  8
指線
 48
0.27
100
AcDbLine
 10
81.12128333982694
 20
427.0823203637031
 30
0.0
 11
81.12150932769868
 21
425.6213428238768
 31
0.0
  0
ARC
  5
61F7
330
1E
100
AcDbEntity
  8
指線
 48
0.27
100
AcDbCircle
 10
81.92066646994662
 20
424.8224313477698
 30
0.0
 40
2.397104869014718
100
AcDbArc
 50
109.4800477691859
 51
160.5367368026387
  0
ARC
  5
61F8
330
1E
100
AcDbEntity
  8
指線
 48
0.27
100
AcDbCircle
 10
81.92066646994662
 20
424.8224313477698
 30
0.0
 40
2.397104869014718
100
AcDbArc
 50
199.4791883124835
 51
250.5376775403883
  0
ARC
  5
61F9
330
1E
100
AcDbEntity
  8
指線
 48
0.27
100
AcDbCircle
 10
81.92066646994662
 20
424.8224313477698
 30
0.0
 40
2.397104869014718
100
AcDbArc
 50
289.4800477691853
 51
340.5385498150813
  0
ARC
  5
61FA
330
1E
100
AcDbEntity
  8
指線
 48
0.27
100
AcDbCircle
 10
81.92066646994662
 20
424.8224313477698
 30
0.0
 40
2.397104869014718
100
AcDbArc
 50
19.48100132469906
 51
70.53767754038912
  0
CIRCLE
  5
61FB
330
1E
100
AcDbEntity
  8
指線
 48
0.27
100
AcDbCircle
 10
85.92225962730186
 20
391.8226244967744
 30
0.0
 40
4.0
  0
ARC
  5
61FC
330
1E
100
AcDbEntity
  8
指線
 48
0.27
100
AcDbCircle
 10
85.92225962730186
 20
391.8226244967744
 30
0.0
 40
2.397104869014718
100
AcDbArc
 50
109.4800477691859
 51
160.5367368026387
  0
ARC
  5
61FD
330
1E
100
AcDbEntity
  8
指線
 48
0.27
100
AcDbCircle
 10
85.92225962730186
 20
391.8226244967744
 30
0.0
 40
2.397104869014718
100
AcDbArc
 50
199.4791883124835
 51
250.5376775403883
  0
LINE
  5
61FE
330
1E
100
AcDbEntity
  8
指線
 48
0.27
100
AcDbLine
 10
85.12287649718217
 20
394.0825135127076
 30
0.0
 11
85.12310248505391
 21
392.6215359728813
 31
0.0
  0
LINE
  5
61FF
330
1E
100
AcDbEntity
  8
指線
 48
0.27
100
AcDbLine
 10
85.12334967849026
 20
391.0234656749618
 30
0.0
 11
85.1235756660426
 21
389.5624881351427
 31
0.0
  0
LINE
  5
6200
330
1E
100
AcDbEntity
  8
指線
 48
0.27
100
AcDbLine
 10
85.12334967849026
 20
391.0234656749618
 30
0.0
 11
82.0047319566842
 21
391.0230592295097
 31
0.0
  0
LINE
  5
6201
330
1E
100
AcDbEntity
  8
指線
 48
0.27
100
AcDbLine
 10
85.12310248505391
 20
392.6215359728813
 30
0.0
 11
82.00448476324785
 21
392.6211295274297
 31
0.0
  0
ARC
  5
6202
330
1E
100
AcDbEntity
  8
指線
 48
0.27
100
AcDbCircle
 10
85.92225962730186
 20
391.8226244967744
 30
0.0
 40
2.397104869014718
100
AcDbArc
 50
19.48100132469906
 51
70.53767754038912
  0
ARC
  5
6203
330
1E
100
AcDbEntity
  8
指線
 48
0.27
100
AcDbCircle
 10
85.92225962730186
 20
391.8226244967744
 30
0.0
 40
2.397104869014718
100
AcDbArc
 50
289.4800477691853
 51
340.5385498150813
  0
LINE
  5
6204
330
1E
100
AcDbEntity
  8
指線
 48
0.27
100
AcDbLine
 10
86.72094358856108
 20
394.082760858406
 30
0.0
 11
86.72116957611306
 21
392.6217833185873
 31
0.0
  0
LINE
  5
6205
330
1E
100
AcDbEntity
  8
指線
 48
0.27
100
AcDbLine
 10
86.72141676954977
 20
391.0237130206674
 30
0.0
 11
86.72164275742151
 21
389.5627354808414
 31
0.0
  0
LINE
  5
6206
330
1E
100
AcDbEntity
  8
指線
 48
0.27
100
AcDbLine
 10
86.72141676954977
 20
391.0237130206674
 30
0.0
 11
89.83362985281022
 21
391.0242709715638
 31
0.0
  0
LINE
  5
6207
330
1E
100
AcDbEntity
  8
指線
 48
0.27
100
AcDbLine
 10
86.72116957611306
 20
392.6217833185873
 30
0.0
 11
89.83338265937351
 21
392.6223412694838
 31
0.0
  0
CIRCLE
  5
6208
330
1E
100
AcDbEntity
  8
指線
 48
0.27
100
AcDbCircle
 10
-4.077740267815514
 20
391.8182795094567
 30
0.0
 40
4.0
  0
LINE
  5
6209
330
1E
100
AcDbEntity
  8
指線
 48
0.27
100
AcDbLine
 10
-3.279056306556284
 20
394.0784158710883
 30
0.0
 11
-3.278830319004299
 21
392.6174383312697
 31
0.0
  0
ARC
  5
620A
330
1E
100
AcDbEntity
  8
指線
 48
0.27
100
AcDbCircle
 10
-4.077740267815514
 20
391.8182795094567
 30
0.0
 40
2.397104869014718
100
AcDbArc
 50
19.48100132469906
 51
70.53767754038912
  0
LINE
  5
620B
330
1E
100
AcDbEntity
  8
指線
 48
0.27
100
AcDbLine
 10
-4.877123397935193
 20
394.07816852539
 30
0.0
 11
-4.876897410063463
 21
392.6171909855637
 31
0.0
  0
ARC
  5
620C
330
1E
100
AcDbEntity
  8
指線
 48
0.27
100
AcDbCircle
 10
-4.077740267815514
 20
391.8182795094567
 30
0.0
 40
2.397104869014718
100
AcDbArc
 50
109.4800477691859
 51
160.5367368026387
  0
LINE
  5
620D
330
1E
100
AcDbEntity
  8
指線
 48
0.27
100
AcDbLine
 10
-3.278830319004299
 20
392.6174383312697
 30
0.0
 11
-0.1666172357438569
 21
392.6179962821661
 31
0.0
  0
LINE
  5
620E
330
1E
100
AcDbEntity
  8
指線
 48
0.27
100
AcDbLine
 10
-3.278583125567593
 20
391.0193680333497
 30
0.0
 11
-0.1663700423071646
 21
391.0199259842462
 31
0.0
  0
LINE
  5
620F
330
1E
100
AcDbEntity
  8
指線
 48
0.27
100
AcDbLine
 10
-3.278583125567593
 20
391.0193680333497
 30
0.0
 11
-3.278357137695849
 21
389.5583904935238
 31
0.0
  0
LINE
  5
6210
330
1E
100
AcDbEntity
  8
指線
 48
0.27
100
AcDbLine
 10
-4.876897410063463
 20
392.6171909855637
 30
0.0
 11
-7.995515131869524
 21
392.6167845401121
 31
0.0
  0
LINE
  5
6211
330
1E
100
AcDbEntity
  8
指線
 48
0.27
100
AcDbLine
 10
-4.876650216627112
 20
391.0191206876441
 30
0.0
 11
-7.995267938433173
 21
391.0187142421921
 31
0.0
  0
LINE
  5
6212
330
1E
100
AcDbEntity
  8
指線
 48
0.27
100
AcDbLine
 10
-4.876650216627112
 20
391.0191206876441
 30
0.0
 11
-4.876424229074757
 21
389.5581431478251
 31
0.0
  0
ARC
  5
6213
330
1E
100
AcDbEntity
  8
指線
 48
0.27
100
AcDbCircle
 10
-4.077740267815514
 20
391.8182795094567
 30
0.0
 40
2.397104869014718
100
AcDbArc
 50
199.4791883124835
 51
250.5376775403883
  0
ARC
  5
6214
330
1E
100
AcDbEntity
  8
指線
 48
0.27
100
AcDbCircle
 10
-4.077740267815514
 20
391.8182795094567
 30
0.0
 40
2.397104869014718
100
AcDbArc
 50
289.4800477691853
 51
340.5385498150813
  0
CIRCLE
  5
6215
330
1E
100
AcDbEntity
  8
指線
 48
0.27
100
AcDbCircle
 10
-0.0793334344934351
 20
424.8184725815471
 30
0.0
 40
4.0
  0
LINE
  5
6216
330
1E
100
AcDbEntity
  8
指線
 48
0.27
100
AcDbLine
 10
0.7193505267657941
 20
427.0786089431787
 30
0.0
 11
0.7195765143177795
 21
425.61763140336
 31
0.0
  0
ARC
  5
6217
330
1E
100
AcDbEntity
  8
指線
 48
0.27
100
AcDbCircle
 10
-0.0793334344934351
 20
424.8184725815471
 30
0.0
 40
2.397104869014718
100
AcDbArc
 50
19.48100132469906
 51
70.53767754038912
  0
LINE
  5
6218
330
1E
100
AcDbEntity
  8
指線
 48
0.27
100
AcDbLine
 10
-0.8787165646131143
 20
427.0783615974805
 30
0.0
 11
-0.8784905767413704
 21
425.6173840576541
 31
0.0
  0
ARC
  5
6219
330
1E
100
AcDbEntity
  8
指線
 48
0.27
100
AcDbCircle
 10
-0.0793334344934351
 20
424.8184725815471
 30
0.0
 40
2.397104869014718
100
AcDbArc
 50
109.4800477691859
 51
160.5367368026387
  0
LINE
  5
621A
330
1E
100
AcDbEntity
  8
指線
 48
0.27
100
AcDbLine
 10
0.7195765143177795
 20
425.61763140336
 30
0.0
 11
3.831789597578222
 21
425.6181893542565
 31
0.0
  0
LINE
  5
621B
330
1E
100
AcDbEntity
  8
指線
 48
0.27
100
AcDbLine
 10
0.7198237077544718
 20
424.0195611054401
 30
0.0
 11
3.832036791014921
 21
424.0201190563366
 31
0.0
  0
LINE
  5
621C
330
1E
100
AcDbEntity
  8
指線
 48
0.27
100
AcDbLine
 10
0.7198237077544718
 20
424.0195611054401
 30
0.0
 11
0.7200496956262157
 21
422.5585835656142
 31
0.0
  0
LINE
  5
621D
330
1E
100
AcDbEntity
  8
指線
 48
0.27
100
AcDbLine
 10
-0.8784905767413704
 20
425.6173840576541
 30
0.0
 11
-3.997108298547431
 21
425.6169776122025
 31
0.0
  0
LINE
  5
621E
330
1E
100
AcDbEntity
  8
指線
 48
0.27
100
AcDbLine
 10
-0.8782433833050333
 20
424.0193137597345
 30
0.0
 11
-3.996861105111094
 21
424.0189073142825
 31
0.0
  0
LINE
  5
621F
330
1E
100
AcDbEntity
  8
指線
 48
0.27
100
AcDbLine
 10
-0.8782433833050333
 20
424.0193137597345
 30
0.0
 11
-0.8780173957526926
 21
422.5583362199155
 31
0.0
  0
ARC
  5
6220
330
1E
100
AcDbEntity
  8
指線
 48
0.27
100
AcDbCircle
 10
-0.0793334344934351
 20
424.8184725815471
 30
0.0
 40
2.397104869014718
100
AcDbArc
 50
199.4791883124835
 51
250.5376775403883
  0
ARC
  5
6221
330
1E
100
AcDbEntity
  8
指線
 48
0.27
100
AcDbCircle
 10
-0.0793334344934351
 20
424.8184725815471
 30
0.0
 40
2.397104869014718
100
AcDbArc
 50
289.4800477691853
 51
340.5385498150813
  0
MTEXT
  5
622D
330
1E
100
AcDbEntity
  8
0
100
AcDbMText
 10
1.205653338837223
 20
343.6441062884422
 30
0.0
 40
7.800000159341863
 41
100.6094999999999
 71
     1
 72
     5
  1
\A1;{\fTimes New Roman|b0|i0|c0|p18;HGW55HC\PC : 14210 kgf\PC\fProxy 1|b0|i0|c0|p0;\H0.7x;\S^ 0;\fTimes New Roman|b0|i0|c0|p18;\H1.429x;: 30720 kgf}
 73
     1
 44
1.0
  0
LINE
  5
65AA
330
1E
100
AcDbEntity
  8
虛線
 48
0.27
100
AcDbLine
 10
428.9050328760622
 20
363.3221164376217
 30
0.0
 11
429.4050328760625
 21
363.8221164376218
 31
0.0
  0
LINE
  5
65AB
330
1E
100
AcDbEntity
  8
虛線
 48
0.27
100
AcDbLine
 10
429.4050328760625
 20
363.8221164376218
 30
0.0
 11
445.4050328760624
 21
363.8221164376218
 31
0.0
  0
LINE
  5
65AC
330
1E
100
AcDbEntity
  8
虛線
 48
0.27
100
AcDbLine
 10
445.9050328760624
 20
363.3221164376217
 30
0.0
 11
445.4050328760624
 21
363.8221164376218
 31
0.0
  0
LINE
  5
65AD
330
1E
100
AcDbEntity
  8
中心線
 48
0.27
100
AcDbLine
 10
437.4050328760622
 20
361.4707868637876
 30
0.0
 11
437.4050328760622
 21
377.7255436506381
 31
0.0
  0
LINE
  5
65AE
330
1E
100
AcDbEntity
  8
虛線
 48
0.27
100
AcDbLine
 10
445.4050328760624
 20
363.8221164376218
 30
0.0
 11
445.4050328760624
 21
376.3200022599534
 31
0.0
  0
LINE
  5
65AF
330
1E
100
AcDbEntity
  8
虛線
 48
0.27
100
AcDbLine
 10
429.4050328760625
 20
363.8221164376218
 30
0.0
 11
429.4050328760625
 21
376.3200022599534
 31
0.0
  0
LINE
  5
65B0
330
1E
100
AcDbEntity
  8
0
 48
0.27
100
AcDbLine
 10
427.5518221830889
 20
527.4153211010129
 30
0.0
 11
448.7518221830887
 21
527.4153211010131
 31
0.0
  0
LINE
  5
65B1
330
1E
100
AcDbEntity
  8
中心線
100
AcDbLine
 10
452.0534011031257
 20
530.9153211010134
 30
0.0
 11
441.4081755751968
 21
530.9153211010134
 31
0.0
  0
LINE
  5
65B2
330
1E
100
AcDbEntity
  8
0
100
AcDbLine
 10
450.3885509170877
 20
532.7661377598785
 30
0.0
 11
450.3885509170877
 21
529.0645044421482
 31
0.0
  0
ARC
  5
65B3
330
1E
100
AcDbEntity
  8
0
100
AcDbCircle
 10
448.1308291085226
 20
529.1010611028301
 30
0.0
 40
2.258017748891657
100
AcDbArc
 50
285.9630221688284
 51
359.072357212004
  0
LINE
  5
65B4
330
1E
100
AcDbEntity
  8
中心線
100
AcDbLine
 10
452.0534011031257
 20
534.9153211010131
 30
0.0
 11
441.4081755751968
 21
534.9153211010131
 31
0.0
  0
LINE
  5
65B5
330
1E
100
AcDbEntity
  8
0
100
AcDbLine
 10
450.3885509170877
 20
536.7661377598782
 30
0.0
 11
450.3885509170877
 21
533.0645044421479
 31
0.0
  0
ARC
  5
65B6
330
1E
100
AcDbEntity
  8
0
100
AcDbCircle
 10
448.1308291085226
 20
536.7295810991963
 30
0.0
 40
2.258017748891657
100
AcDbArc
 50
0.9276427879959419
 51
74.03697783117156
  0
ARC
  5
65B7
330
1E
100
AcDbEntity
  8
0
100
AcDbCircle
 10
448.1308291085226
 20
533.1010611028298
 30
0.0
 40
2.258017748891657
100
AcDbArc
 50
285.9630221688284
 51
359.072357212004
  0
LINE
  5
65B8
330
1E
100
AcDbEntity
  8
中心線
100
AcDbLine
 10
452.0534011031257
 20
616.9153211010133
 30
0.0
 11
441.4081755751968
 21
616.9153211010133
 31
0.0
  0
ARC
  5
65B9
330
1E
100
AcDbEntity
  8
0
100
AcDbCircle
 10
448.1308291085226
 20
615.10106110283
 30
0.0
 40
2.258017748891657
100
AcDbArc
 50
285.9630221688284
 51
359.072357212004
  0
LINE
  5
65BA
330
1E
100
AcDbEntity
  8
0
 48
0.27
100
AcDbLine
 10
446.5518221830889
 20
527.4153211010129
 30
0.0
 11
446.5518221830889
 21
624.4153211010131
 31
0.0
  0
LINE
  5
65BB
330
1E
100
AcDbEntity
  8
0
100
AcDbLine
 10
448.7518221830887
 20
527.4153211010131
 30
0.0
 11
448.7518221830887
 21
624.4153211010133
 31
0.0
  0
LINE
  5
65BC
330
1E
100
AcDbEntity
  8
0
 48
0.27
100
AcDbLine
 10
448.7518221830887
 20
624.4153211010133
 30
0.0
 11
427.5518221830889
 21
624.4153211010131
 31
0.0
  0
LINE
  5
65BD
330
1E
100
AcDbEntity
  8
中心線
100
AcDbLine
 10
452.0534011031257
 20
620.9153211010134
 30
0.0
 11
441.4081755751968
 21
620.9153211010134
 31
0.0
  0
LINE
  5
65BE
330
1E
100
AcDbEntity
  8
0
100
AcDbLine
 10
450.3885509170877
 20
622.7661377598785
 30
0.0
 11
450.3885509170877
 21
619.0645044421483
 31
0.0
  0
ARC
  5
65BF
330
1E
100
AcDbEntity
  8
0
100
AcDbCircle
 10
448.1308291085226
 20
622.7295810991967
 30
0.0
 40
2.258017748891657
100
AcDbArc
 50
0.9276427879959419
 51
74.03697783117156
  0
LINE
  5
65C0
330
1E
100
AcDbEntity
  8
0
100
AcDbLine
 10
450.3885509170877
 20
618.7661377598784
 30
0.0
 11
450.3885509170877
 21
615.0645044421481
 31
0.0
  0
ARC
  5
65C1
330
1E
100
AcDbEntity
  8
0
100
AcDbCircle
 10
448.1308291085226
 20
618.7295810991965
 30
0.0
 40
2.258017748891657
100
AcDbArc
 50
0.9276427879959419
 51
74.03697783117156
  0
LINE
  5
65C2
330
1E
100
AcDbEntity
  8
0
100
AcDbLine
 10
427.5518221830889
 20
505.9153211010131
 30
0.0
 11
427.5518221830889
 21
645.915321101013
 31
0.0
  0
LINE
  5
65C3
330
1E
100
AcDbEntity
  8
中心線
 48
0.27
100
AcDbLine
 10
557.4050328760622
 20
561.4153211010128
 30
0.0
 11
557.4050328760622
 21
590.4153211010132
 31
0.0
  0
CIRCLE
  5
65C4
330
1E
100
AcDbEntity
  8
0
100
AcDbCircle
 10
557.4050328760622
 20
575.915321101013
 30
0.0
 40
11.50000000000022
  0
CIRCLE
  5
65C5
330
1E
100
AcDbEntity
  8
0
100
AcDbCircle
 10
557.4050328760622
 20
575.915321101013
 30
0.0
 40
8.000000000000227
  0
LINE
  5
65C6
330
1E
100
AcDbEntity
  8
中心線
 48
0.27
100
AcDbLine
 10
542.905032876062
 20
575.915321101013
 30
0.0
 11
571.9050328760625
 21
575.915321101013
 31
0.0
  0
LINE
  5
65C7
330
1E
100
AcDbEntity
  8
0
100
AcDbLine
 10
587.4050328760621
 20
602.4153211010132
 30
0.0
 11
448.7518221830887
 21
602.4153211010131
 31
0.0
  0
LINE
  5
65C8
330
1E
100
AcDbEntity
  8
0
100
AcDbLine
 10
587.4050328760621
 20
549.415321101013
 30
0.0
 11
448.7518221830887
 21
549.4153211010128
 31
0.0
  0
LINE
  5
65C9
330
1E
100
AcDbEntity
  8
0
 48
0.27
100
AcDbLine
 10
587.4050328760621
 20
549.415321101013
 30
0.0
 11
587.4050328760621
 21
602.4153211010132
 31
0.0
  0
CIRCLE
  5
65CA
330
1E
100
AcDbEntity
  8
0
100
AcDbCircle
 10
197.4050328760623
 20
575.915321101013
 30
0.0
 40
8.000000000000227
  0
CIRCLE
  5
65CB
330
1E
100
AcDbEntity
  8
0
100
AcDbCircle
 10
197.4050328760623
 20
575.915321101013
 30
0.0
 40
11.50000000000022
  0
LINE
  5
65CC
330
1E
100
AcDbEntity
  8
中心線
 48
0.27
100
AcDbLine
 10
182.905032876062
 20
575.915321101013
 30
0.0
 11
211.9050328760625
 21
575.915321101013
 31
0.0
  0
LINE
  5
65CD
330
1E
100
AcDbEntity
  8
中心線
 48
0.27
100
AcDbLine
 10
197.4050328760623
 20
561.4153211010128
 30
0.0
 11
197.4050328760623
 21
590.4153211010132
 31
0.0
  0
LINE
  5
65CE
330
1E
100
AcDbEntity
  8
0
 48
0.27
100
AcDbLine
 10
167.4050328760623
 20
549.415321101013
 30
0.0
 11
167.4050328760623
 21
602.4153211010132
 31
0.0
  0
ARC
  5
65CF
330
1E
100
AcDbEntity
  8
0
100
AcDbCircle
 10
251.1728152576549
 20
615.1010611028299
 30
0.0
 40
2.258017748891657
100
AcDbArc
 50
180.9276427879959
 51
254.0369778311715
  0
ARC
  5
65D0
330
1E
100
AcDbEntity
  8
0
100
AcDbCircle
 10
251.1728152576549
 20
618.7295810991964
 30
0.0
 40
2.258017748891657
100
AcDbArc
 50
105.9630221688284
 51
179.072357212004
  0
LINE
  5
65D1
330
1E
100
AcDbEntity
  8
0
100
AcDbLine
 10
248.9150934490898
 20
618.7661377598783
 30
0.0
 11
248.9150934490898
 21
615.064504442148
 31
0.0
  0
LINE
  5
65D2
330
1E
100
AcDbEntity
  8
中心線
100
AcDbLine
 10
247.2502432630518
 20
616.9153211010132
 30
0.0
 11
257.8954687909808
 21
616.9153211010132
 31
0.0
  0
ARC
  5
65D3
330
1E
100
AcDbEntity
  8
0
100
AcDbCircle
 10
251.1728152576549
 20
622.7295810991965
 30
0.0
 40
2.258017748891657
100
AcDbArc
 50
105.9630221688284
 51
179.072357212004
  0
LINE
  5
65D4
330
1E
100
AcDbEntity
  8
0
100
AcDbLine
 10
248.9150934490898
 20
622.7661377598784
 30
0.0
 11
248.9150934490898
 21
619.0645044421481
 31
0.0
  0
LINE
  5
65D5
330
1E
100
AcDbEntity
  8
中心線
100
AcDbLine
 10
247.2502432630518
 20
620.9153211010133
 30
0.0
 11
257.8954687909808
 21
620.9153211010133
 31
0.0
  0
ARC
  5
65D6
330
1E
100
AcDbEntity
  8
0
100
AcDbCircle
 10
251.1728152576549
 20
533.1010611028297
 30
0.0
 40
2.258017748891657
100
AcDbArc
 50
180.9276427879959
 51
254.0369778311715
  0
ARC
  5
65D7
330
1E
100
AcDbEntity
  8
0
100
AcDbCircle
 10
251.1728152576549
 20
536.7295810991962
 30
0.0
 40
2.258017748891657
100
AcDbArc
 50
105.9630221688284
 51
179.072357212004
  0
LINE
  5
65D8
330
1E
100
AcDbEntity
  8
0
100
AcDbLine
 10
248.9150934490898
 20
536.7661377598781
 30
0.0
 11
248.9150934490898
 21
533.0645044421478
 31
0.0
  0
LINE
  5
65D9
330
1E
100
AcDbEntity
  8
中心線
100
AcDbLine
 10
247.2502432630518
 20
534.9153211010129
 30
0.0
 11
257.8954687909808
 21
534.9153211010129
 31
0.0
  0
ARC
  5
65DA
330
1E
100
AcDbEntity
  8
0
100
AcDbCircle
 10
251.1728152576549
 20
529.10106110283
 30
0.0
 40
2.258017748891657
100
AcDbArc
 50
180.9276427879959
 51
254.0369778311715
  0
LINE
  5
65DB
330
1E
100
AcDbEntity
  8
0
100
AcDbLine
 10
248.9150934490898
 20
532.7661377598785
 30
0.0
 11
248.9150934490898
 21
529.0645044421482
 31
0.0
  0
LINE
  5
65DC
330
1E
100
AcDbEntity
  8
中心線
100
AcDbLine
 10
247.2502432630518
 20
530.9153211010133
 30
0.0
 11
257.8954687909808
 21
530.9153211010133
 31
0.0
  0
LINE
  5
65DD
330
1E
100
AcDbEntity
  8
0
100
AcDbLine
 10
167.4050328760623
 20
602.4153211010132
 30
0.0
 11
250.5518221830888
 21
602.4153211010131
 31
0.0
  0
LINE
  5
65DE
330
1E
100
AcDbEntity
  8
0
100
AcDbLine
 10
167.4050328760623
 20
549.415321101013
 30
0.0
 11
250.5518221830888
 21
549.415321101013
 31
0.0
  0
LINE
  5
65DF
330
1E
100
AcDbEntity
  8
0
 48
0.27
100
AcDbLine
 10
250.5518221830888
 20
624.415321101013
 30
0.0
 11
271.7518221830886
 21
624.415321101013
 31
0.0
  0
LINE
  5
65E0
330
1E
100
AcDbEntity
  8
0
 48
0.27
100
AcDbLine
 10
271.7518221830886
 20
527.4153211010128
 30
0.0
 11
250.5518221830888
 21
527.4153211010129
 31
0.0
  0
LINE
  5
65E1
330
1E
100
AcDbEntity
  8
0
100
AcDbLine
 10
250.5518221830888
 20
527.4153211010128
 30
0.0
 11
250.5518221830888
 21
624.415321101013
 31
0.0
  0
LINE
  5
65E2
330
1E
100
AcDbEntity
  8
0
 48
0.27
100
AcDbLine
 10
252.7518221830888
 20
527.4153211010128
 30
0.0
 11
252.7518221830888
 21
624.415321101013
 31
0.0
  0
LINE
  5
65E3
330
1E
100
AcDbEntity
  8
0
  6
Continuous
100
AcDbLine
 10
240.40640008678
 20
560.1340329260499
 30
0.0
 11
243.2649932941578
 21
562.9926261334276
 31
0.0
  0
LINE
  5
65E4
330
1E
100
AcDbEntity
  8
0
  6
Continuous
100
AcDbLine
 10
235.5817601157564
 20
562.132464235615
 30
0.0
 11
240.40640008678
 21
560.1340329260499
 31
0.0
  0
LINE
  5
65E5
330
1E
100
AcDbEntity
  8
0
  6
Continuous
100
AcDbLine
 10
249.3674301719023
 20
582.0486544343465
 30
0.0
 11
250.5518221830887
 21
582.0486544343465
 31
0.0
  0
LINE
  5
65E6
330
1E
100
AcDbEntity
  8
0
  6
Continuous
100
AcDbLine
 10
249.3674301719023
 20
578.9819875020985
 30
0.0
 11
250.5518221830887
 21
578.9819875020985
 31
0.0
  0
ARC
  5
65E7
330
1E
100
AcDbEntity
  8
0
  6
Continuous
100
AcDbCircle
 10
251.7404400851511
 20
580.5153212338036
 30
0.0
 40
2.825346636061327
100
AcDbArc
 50
147.1327799989379
 51
212.867220001062
  0
LINE
  5
65E8
330
1E
100
AcDbEntity
  8
0
  6
Continuous
100
AcDbLine
 10
244.1170150191097
 20
581.2486544343464
 30
0.0
 11
249.0119228997765
 21
581.2486544343464
 31
0.0
  0
LINE
  5
65E9
330
1E
100
AcDbEntity
  8
0
  6
Continuous
100
AcDbLine
 10
249.3674301719023
 20
572.8486546999276
 30
0.0
 11
250.5518221830887
 21
572.8486546999276
 31
0.0
  0
LINE
  5
65EA
330
1E
100
AcDbEntity
  8
0
  6
Continuous
100
AcDbLine
 10
249.3674301719023
 20
569.7819877676796
 30
0.0
 11
250.5518221830887
 21
569.7819877676797
 31
0.0
  0
ARC
  5
65EB
330
1E
100
AcDbEntity
  8
0
  6
Continuous
100
AcDbCircle
 10
251.7404400851511
 20
571.3153209682226
 30
0.0
 40
2.825346636061327
100
AcDbArc
 50
147.1327799989379
 51
212.867220001062
  0
LINE
  5
65EC
330
1E
100
AcDbEntity
  8
0
  6
Continuous
100
AcDbLine
 10
246.5237225885628
 20
567.7019303011039
 30
0.0
 11
247.2865491130506
 21
569.5435564422601
 31
0.0
  0
LINE
  5
65ED
330
1E
100
AcDbEntity
  8
0
  6
Continuous
100
AcDbLine
 10
244.0447019643585
 20
568.7288546392402
 30
0.0
 11
244.8074716557127
 21
570.5703435730746
 31
0.0
  0
ARC
  5
65EE
330
1E
100
AcDbEntity
  8
0
  6
Continuous
100
AcDbCircle
 10
244.9713338645656
 20
577.9778292443037
 30
0.0
 40
9.295339642905963
100
AcDbArc
 50
230.7213499979124
 51
264.2786500020895
  0
LINE
  5
65EF
330
1E
100
AcDbEntity
  8
0
  6
Continuous
100
AcDbLine
 10
239.0865489026032
 20
570.7825888817409
 30
0.0
 11
239.8493185939575
 21
572.6240778155754
 31
0.0
  0
ARC
  5
65F0
330
1E
100
AcDbEntity
  8
0
  6
Continuous
100
AcDbCircle
 10
238.9226866937504
 20
563.3751032105119
 30
0.0
 40
9.295339642905963
100
AcDbArc
 50
50.72134999791184
 51
84.27865000208958
  0
LINE
  5
65F1
330
1E
100
AcDbEntity
  8
0
  6
Continuous
100
AcDbLine
 10
236.6074719423369
 20
571.8094561808499
 30
0.0
 11
237.3702416336912
 21
573.6509451146844
 31
0.0
  0
ARC
  5
65F2
330
1E
100
AcDbEntity
  8
0
  6
Continuous
100
AcDbCircle
 10
238.6416078390844
 20
573.2143509983597
 30
0.0
 40
2.472178306553662
100
AcDbArc
 50
214.6327799989367
 51
280.3672200010634
  0
ARC
  5
65F3
330
1E
100
AcDbEntity
  8
0
  6
Continuous
100
AcDbCircle
 10
234.9094586142316
 20
569.5699989316932
 30
0.0
 40
2.746231479756806
100
AcDbArc
 50
335.8479011650615
 51
45.84790116506176
  0
ARC
  5
65F4
330
1E
100
AcDbEntity
  8
0
  6
Continuous
100
AcDbCircle
 10
239.9161124556297
 20
564.8174706769629
 30
0.0
 40
3.813798694049015
100
AcDbArc
 50
331.4135141737373
 51
16.41351417373966
  0
LINE
  5
65F5
330
1E
100
AcDbEntity
  8
0
  6
Continuous
100
AcDbLine
 10
235.5817601157564
 20
562.132464235615
 30
0.0
 11
235.5817601157564
 21
566.1751255187963
 31
0.0
  0
LINE
  5
65F6
330
1E
100
AcDbEntity
  8
0
  6
Continuous
100
AcDbLine
 10
235.5817601157564
 20
566.1751255187963
 30
0.0
 11
243.2649932941578
 21
562.9926261334276
 31
0.0
  0
ARC
  5
65F7
330
1E
100
AcDbEntity
  8
0
  6
Continuous
100
AcDbCircle
 10
239.2401364174103
 20
565.0974691198326
 30
0.0
 40
3.813798694049016
100
AcDbArc
 50
118.5864858262631
 51
163.5864858262639
  0
LINE
  5
65F8
330
1E
100
AcDbEntity
  8
0
  6
Continuous
100
AcDbLine
 10
237.6616597492114
 20
568.3443010430631
 30
0.0
 11
243.3281208819473
 21
565.997175991224
 31
0.0
  0
LINE
  5
65F9
330
1E
100
AcDbEntity
  8
0
  6
Continuous
100
AcDbLine
 10
237.695546159314
 20
570.9303560602162
 30
0.0
 11
245.1327766107242
 21
567.849754340748
 31
0.0
  0
LINE
  5
65FA
330
1E
100
AcDbEntity
  8
0
  6
Continuous
100
AcDbLine
 10
238.7612439475918
 20
573.5031781140677
 30
0.0
 11
246.1984743990021
 21
570.4225763945993
 31
0.0
  0
ARC
  5
65FB
330
1E
100
AcDbEntity
  8
0
  6
Continuous
100
AcDbCircle
 10
246.0788382904946
 20
570.1337492788913
 30
0.0
 40
2.472178306553662
100
AcDbArc
 50
214.6327799989367
 51
280.3672200010634
  0
ARC
  5
65FC
330
1E
100
AcDbEntity
  8
0
  6
Continuous
100
AcDbCircle
 10
246.1409202564171
 20
564.9177751942267
 30
0.0
 40
2.746231479756806
100
AcDbArc
 50
89.1520988349392
 51
159.1520988349398
  0
ARC
  5
65FD
330
1E
100
AcDbEntity
  8
0
  6
Continuous
100
AcDbCircle
 10
245.2524127192315
 20
568.1385814564561
 30
0.0
 40
2.472178306553662
100
AcDbArc
 50
34.63277999893668
 51
100.3672200010633
  0
LINE
  5
65FE
330
1E
100
AcDbEntity
  8
0
  6
Continuous
100
AcDbLine
 10
245.6284860866306
 20
570.5819877676798
 30
0.0
 11
249.0119228997765
 21
570.5819877676798
 31
0.0
  0
ARC
  5
65FF
330
1E
100
AcDbEntity
  8
0
  6
Continuous
100
AcDbCircle
 10
244.1170150191097
 20
575.915321101013
 30
0.0
 40
5.333333333333332
100
AcDbArc
 50
90.0
 51
210.8352048940846
  0
ARC
  5
6600
330
1E
100
AcDbEntity
  8
0
  6
Continuous
100
AcDbCircle
 10
237.8151822678213
 20
571.2191831759244
 30
0.0
 40
2.472178306553662
100
AcDbArc
 50
34.63277999893668
 51
100.3672200010633
  0
ARC
  5
6601
330
1E
100
AcDbEntity
  8
0
  6
Continuous
100
AcDbCircle
 10
259.538338755268
 20
575.915321101013
 30
0.0
 40
10.62324530617823
100
AcDbArc
 50
163.2213499979121
 51
196.7786500020878
  0
LINE
  5
6602
330
1E
100
AcDbEntity
  8
0
  6
Continuous
100
AcDbLine
 10
248.9150934490898
 20
571.3153209682226
 30
0.0
 11
248.9150934490898
 21
580.5153212338036
 31
0.0
  0
LINE
  5
6603
330
1E
100
AcDbEntity
  8
AM7
100
AcDbLine
 10
388.0274697478437
 20
517.9153211010129
 30
0.0
 11
405.828050336835
 21
517.9153211010129
 31
0.0
  0
LINE
  5
6604
330
1E
100
AcDbEntity
  8
AM7
100
AcDbLine
 10
397.151822183089
 20
509.2863141486106
 30
0.0
 11
397.1518221830889
 21
527.169285141724
 31
0.0
  0
CIRCLE
  5
6605
330
1E
100
AcDbEntity
  8
0
100
AcDbCircle
 10
397.1518221830889
 20
517.9153211010129
 30
0.0
 40
6.0
  0
ARC
  5
6606
330
1E
100
AcDbEntity
  8
AM4
100
AcDbCircle
 10
397.1518221830889
 20
517.9153211010129
 30
0.0
 40
7.0
100
AcDbArc
 50
180.0
 51
90.0
  0
LINE
  5
6607
330
1E
100
AcDbEntity
  8
AM7
100
AcDbLine
 10
302.1518221830889
 20
509.2863141486108
 30
0.0
 11
302.1518221830889
 21
527.1692851417241
 31
0.0
  0
LINE
  5
6608
330
1E
100
AcDbEntity
  8
AM7
100
AcDbLine
 10
311.2761746183341
 20
517.915321101013
 30
0.0
 11
293.4755940293428
 21
517.915321101013
 31
0.0
  0
CIRCLE
  5
6609
330
1E
100
AcDbEntity
  8
0
100
AcDbCircle
 10
302.1518221830889
 20
517.915321101013
 30
0.0
 40
6.0
  0
ARC
  5
660A
330
1E
100
AcDbEntity
  8
AM4
100
AcDbCircle
 10
302.1518221830889
 20
517.915321101013
 30
0.0
 40
7.0
100
AcDbArc
 50
180.0
 51
90.0
  0
LINE
  5
660B
330
1E
100
AcDbEntity
  8
0
100
AcDbLine
 10
271.7518221830886
 20
505.9153211010127
 30
0.0
 11
427.5518221830889
 21
505.9153211010131
 31
0.0
  0
LINE
  5
660C
330
1E
100
AcDbEntity
  8
0
100
AcDbLine
 10
271.7518221830886
 20
539.4153211010131
 30
0.0
 11
427.5518221830889
 21
539.4153211010129
 31
0.0
  0
LINE
  5
660D
330
1E
100
AcDbEntity
  8
0
100
AcDbLine
 10
271.7518221830886
 20
538.415321101013
 30
0.0
 11
427.5518221830889
 21
538.4153211010129
 31
0.0
  0
LINE
  5
660E
330
1E
100
AcDbEntity
  8
0
100
AcDbLine
 10
271.7518221830886
 20
508.0153211010132
 30
0.0
 11
427.5518221830889
 21
508.0153211010131
 31
0.0
  0
LINE
  5
660F
330
1E
100
AcDbEntity
  8
AM7
100
AcDbLine
 10
388.0274697478437
 20
633.915321101013
 30
0.0
 11
405.828050336835
 21
633.915321101013
 31
0.0
  0
CIRCLE
  5
6610
330
1E
100
AcDbEntity
  8
0
100
AcDbCircle
 10
397.151822183089
 20
633.9153211010129
 30
0.0
 40
6.0
  0
ARC
  5
6611
330
1E
100
AcDbEntity
  8
AM4
100
AcDbCircle
 10
397.151822183089
 20
633.9153211010129
 30
0.0
 40
7.0
100
AcDbArc
 50
180.0
 51
90.0
  0
LINE
  5
6612
330
1E
100
AcDbEntity
  8
AM7
100
AcDbLine
 10
397.151822183089
 20
642.5443280534153
 30
0.0
 11
397.1518221830889
 21
624.661357060302
 31
0.0
  0
LINE
  5
6613
330
1E
100
AcDbEntity
  8
AM7
100
AcDbLine
 10
311.2761746183342
 20
633.915321101013
 30
0.0
 11
293.4755940293428
 21
633.915321101013
 31
0.0
  0
LINE
  5
6614
330
1E
100
AcDbEntity
  8
AM7
100
AcDbLine
 10
302.1518221830889
 20
642.5443280534153
 30
0.0
 11
302.1518221830889
 21
624.661357060302
 31
0.0
  0
CIRCLE
  5
6615
330
1E
100
AcDbEntity
  8
0
100
AcDbCircle
 10
302.1518221830889
 20
633.915321101013
 30
0.0
 40
6.0
  0
ARC
  5
6616
330
1E
100
AcDbEntity
  8
AM4
100
AcDbCircle
 10
302.1518221830889
 20
633.915321101013
 30
0.0
 40
7.0
100
AcDbArc
 50
180.0
 51
90.0
  0
LINE
  5
6617
330
1E
100
AcDbEntity
  8
0
100
AcDbLine
 10
271.7518221830886
 20
557.4153211010133
 30
0.0
 11
427.5518221830889
 21
557.4153211010131
 31
0.0
  0
LINE
  5
6618
330
1E
100
AcDbEntity
  8
0
100
AcDbLine
 10
271.7518221830886
 20
556.4153211010128
 30
0.0
 11
427.5518221830889
 21
556.4153211010129
 31
0.0
  0
LINE
  5
6619
330
1E
100
AcDbEntity
  8
AM7
100
AcDbLine
 10
271.7518221830886
 20
575.915321101013
 30
0.0
 11
439.5518221830889
 21
575.9153211010129
 31
0.0
  0
LINE
  5
661A
330
1E
100
AcDbEntity
  8
0
100
AcDbLine
 10
271.7518221830886
 20
645.9153211010133
 30
0.0
 11
427.5518221830889
 21
645.9153211010129
 31
0.0
  0
LINE
  5
661B
330
1E
100
AcDbEntity
  8
0
100
AcDbLine
 10
271.7518221830886
 20
643.965321101013
 30
0.0
 11
427.5518221830889
 21
643.965321101013
 31
0.0
  0
LINE
  5
661C
330
1E
100
AcDbEntity
  8
0
100
AcDbLine
 10
271.7518221830886
 20
613.4153211010133
 30
0.0
 11
427.5518221830889
 21
613.4153211010133
 31
0.0
  0
LINE
  5
661D
330
1E
100
AcDbEntity
  8
0
100
AcDbLine
 10
271.7518221830886
 20
612.415321101013
 30
0.0
 11
427.5518221830889
 21
612.4153211010126
 31
0.0
  0
LINE
  5
661E
330
1E
100
AcDbEntity
  8
0
100
AcDbLine
 10
271.7518221830886
 20
595.415321101013
 30
0.0
 11
427.5518221830889
 21
595.415321101013
 31
0.0
  0
LINE
  5
661F
330
1E
100
AcDbEntity
  8
0
100
AcDbLine
 10
271.7518221830886
 20
594.4153211010132
 30
0.0
 11
427.5518221830889
 21
594.4153211010132
 31
0.0
  0
LINE
  5
6620
330
1E
100
AcDbEntity
  8
0
100
AcDbLine
 10
271.7518221830886
 20
645.9153211010133
 30
0.0
 11
271.7518221830886
 21
505.9153211010128
 31
0.0
  0
LINE
  5
6621
330
1E
100
AcDbEntity
  8
AM7
100
AcDbLine
 10
349.6518221830888
 20
651.8511020170689
 30
0.0
 11
349.6518221830888
 21
498.7024508175888
 31
0.0
  0
LINE
  5
662A
330
1E
100
AcDbEntity
  8
中心線
 48
0.27
100
AcDbLine
 10
438.5518221830889
 20
409.4553428317727
 30
0.0
 11
438.5518221830889
 21
419.1846616881355
 31
0.0
  0
LINE
  5
662B
330
1E
100
AcDbEntity
  8
中心線
 48
0.27
100
AcDbLine
 10
433.6871627549076
 20
414.3200022599542
 30
0.0
 11
443.4164816112704
 21
414.3200022599542
 31
0.0
  0
LINE
  5
662C
330
1E
100
AcDbEntity
  8
0
 48
0.27
100
AcDbLine
 10
427.5518221830889
 20
428.8200022599541
 30
0.0
 11
446.5518221830889
 21
428.8200022599541
 31
0.0
  0
LINE
  5
662D
330
1E
100
AcDbEntity
  8
0
 48
0.27
100
AcDbLine
 10
427.5518221830889
 20
431.8200022599541
 30
0.0
 11
446.5518221830889
 21
431.8200022599541
 31
0.0
  0
CIRCLE
  5
662E
330
1E
100
AcDbEntity
  8
0
 48
0.27
100
AcDbCircle
 10
438.5518221830889
 20
414.3200022599542
 30
0.0
 40
3.9375
  0
CIRCLE
  5
662F
330
1E
100
AcDbEntity
  8
0
 48
0.27
100
AcDbCircle
 10
438.5518221830889
 20
414.3200022599542
 30
0.0
 40
4.25
  0
CIRCLE
  5
6630
330
1E
100
AcDbEntity
  8
0
 48
0.27
100
AcDbCircle
 10
438.5518221830889
 20
414.3200022599542
 30
0.0
 40
0.75
  0
CIRCLE
  5
6631
330
1E
100
AcDbEntity
  8
0
 48
0.27
100
AcDbCircle
 10
438.5518221830889
 20
414.3200022599542
 30
0.0
 40
4.549999999999999
  0
LINE
  5
6632
330
1E
100
AcDbEntity
  8
中心線
 48
0.27
100
AcDbLine
 10
260.7518221830888
 20
409.4553428317726
 30
0.0
 11
260.7518221830888
 21
419.1846616881354
 31
0.0
  0
CIRCLE
  5
6633
330
1E
100
AcDbEntity
  8
0
 48
0.27
100
AcDbCircle
 10
260.7518221830888
 20
414.3200022599541
 30
0.0
 40
0.75
  0
LINE
  5
6634
330
1E
100
AcDbEntity
  8
中心線
 48
0.27
100
AcDbLine
 10
255.8871627549074
 20
414.3200022599541
 30
0.0
 11
265.6164816112703
 21
414.3200022599541
 31
0.0
  0
LINE
  5
6635
330
1E
100
AcDbEntity
  8
0
 48
0.27
100
AcDbLine
 10
271.7518221830889
 20
431.820002259954
 30
0.0
 11
252.7518221830888
 21
431.820002259954
 31
0.0
  0
LINE
  5
6636
330
1E
100
AcDbEntity
  8
0
 48
0.27
100
AcDbLine
 10
271.7518221830889
 20
428.820002259954
 30
0.0
 11
252.7518221830888
 21
428.820002259954
 31
0.0
  0
CIRCLE
  5
6637
330
1E
100
AcDbEntity
  8
0
 48
0.27
100
AcDbCircle
 10
260.7518221830888
 20
414.3200022599541
 30
0.0
 40
3.9375
  0
CIRCLE
  5
6638
330
1E
100
AcDbEntity
  8
0
 48
0.27
100
AcDbCircle
 10
260.7518221830888
 20
414.3200022599541
 30
0.0
 40
4.25
  0
CIRCLE
  5
6639
330
1E
100
AcDbEntity
  8
0
 48
0.27
100
AcDbCircle
 10
260.7518221830888
 20
414.3200022599541
 30
0.0
 40
4.549999999999999
  0
LINE
  5
663A
330
1E
100
AcDbEntity
  8
0
 48
0.27
100
AcDbLine
 10
271.7518221830889
 20
433.3200022599541
 30
0.0
 11
427.551822183089
 21
433.3200022599541
 31
0.0
  0
LINE
  5
663B
330
1E
100
AcDbEntity
  8
0
 48
0.27
100
AcDbLine
 10
271.7518221830889
 20
431.3733817173014
 30
0.0
 11
427.5518221830889
 21
431.3733817173014
 31
0.0
  0
LINE
  5
6655
330
1E
100
AcDbEntity
  8
0
 48
0.27
100
AcDbLine
 10
427.5518221830889
 20
376.3200022599541
 30
0.0
 11
446.5518221830889
 21
376.3200022599541
 31
0.0
  0
LINE
  5
66A3
330
1E
100
AcDbEntity
  8
0
 48
0.27
100
AcDbLine
 10
271.7518221830889
 20
376.3200022599541
 30
0.0
 11
252.7518221830888
 21
376.3200022599541
 31
0.0
  0
LINE
  5
66A6
330
1E
100
AcDbEntity
  8
0
 48
0.27
100
AcDbLine
 10
271.7518221830888
 20
376.3200022599541
 30
0.0
 11
427.5518221830889
 21
376.3200022599541
 31
0.0
  0
LINE
  5
66A7
330
1E
100
AcDbEntity
  8
0
 48
0.27
100
AcDbLine
 10
446.5518221830889
 20
379.320002259954
 30
0.0
 11
252.7518221830888
 21
379.3200022599541
 31
0.0
  0
LINE
  5
66A9
330
1E
100
AcDbEntity
  8
0
 48
0.27
100
AcDbLine
 10
427.5518221830889
 20
433.3200022599542
 30
0.0
 11
427.5518221830889
 21
376.3200022599541
 31
0.0
  0
LINE
  5
66AA
330
1E
100
AcDbEntity
  8
0
 48
0.27
100
AcDbLine
 10
446.5518221830889
 20
431.8200022599541
 30
0.0
 11
446.5518221830889
 21
376.3200022599541
 31
0.0
  0
LINE
  5
66AC
330
1E
100
AcDbEntity
  8
0
 48
0.27
100
AcDbLine
 10
271.7518221830889
 20
433.3200022599542
 30
0.0
 11
271.7518221830889
 21
376.3200022599541
 31
0.0
  0
LINE
  5
66AD
330
1E
100
AcDbEntity
  8
0
 48
0.27
100
AcDbLine
 10
252.7518221830888
 20
376.3200022599541
 30
0.0
 11
252.7518221830888
 21
431.820002259954
 31
0.0
  0
ARC
  5
67AC
330
1E
100
AcDbEntity
  8
0
 48
0.27
100
AcDbCircle
 10
252.8444609330887
 20
418.8204761326123
 30
0.0
 40
3.69263874999997
100
AcDbArc
 50
141.6920247901375
 51
222.6114069976012
  0
POINT
  5
67AD
330
1E
100
AcDbEntity
  8
0
100
AcDbPoint
 10
236.9799396830889
 20
421.3204761326123
 30
0.0
1001
pntflag
1000
endpoint
  0
LINE
  5
67AE
330
1E
100
AcDbEntity
  8
0
 48
0.27
100
AcDbLine
 10
241.3209246830888
 20
421.3204761326123
 30
0.0
 11
241.2811671830889
 21
420.8835561326123
 31
0.0
  0
LINE
  5
67AF
330
1E
100
AcDbEntity
  8
0
 48
0.27
100
AcDbLine
 10
241.2811671830889
 20
420.8835561326123
 30
0.0
 11
241.1634234330889
 21
420.4634261326122
 31
0.0
  0
LINE
  5
67B0
330
1E
100
AcDbEntity
  8
0
 48
0.27
100
AcDbLine
 10
241.2811671830889
 20
421.7573961326122
 30
0.0
 11
241.3209246830888
 21
421.3204761326123
 31
0.0
  0
LINE
  5
67B1
330
1E
100
AcDbEntity
  8
0
 48
0.27
100
AcDbLine
 10
241.1634234330889
 20
420.4634261326122
 30
0.0
 11
240.9722184330889
 21
420.0762323826123
 31
0.0
  0
LINE
  5
67B2
330
1E
100
AcDbEntity
  8
0
 48
0.27
100
AcDbLine
 10
241.1634234330889
 20
422.1775261326122
 30
0.0
 11
241.2811671830889
 21
421.7573961326122
 31
0.0
  0
LINE
  5
67B3
330
1E
100
AcDbEntity
  8
0
 48
0.27
100
AcDbLine
 10
240.9722184330889
 20
420.0762323826123
 30
0.0
 11
240.7148984330889
 21
419.7368536326123
 31
0.0
  0
LINE
  5
67B4
330
1E
100
AcDbEntity
  8
0
 48
0.27
100
AcDbLine
 10
240.9722184330889
 20
422.5647198826122
 30
0.0
 11
241.1634234330889
 21
422.1775261326122
 31
0.0
  0
LINE
  5
67B5
330
1E
100
AcDbEntity
  8
0
 48
0.27
100
AcDbLine
 10
240.4013546830889
 20
419.4583336326123
 30
0.0
 11
240.7148984330889
 21
419.7368536326123
 31
0.0
  0
LINE
  5
67B6
330
1E
100
AcDbEntity
  8
0
 48
0.27
100
AcDbLine
 10
240.7148984330889
 20
422.9040973826122
 30
0.0
 11
240.9722184330889
 21
422.5647198826122
 31
0.0
  0
LINE
  5
67B7
330
1E
100
AcDbEntity
  8
0
 48
0.27
100
AcDbLine
 10
242.8775046830889
 20
421.3204761326123
 30
0.0
 11
242.8208446830888
 21
420.6977986326122
 31
0.0
  0
LINE
  5
67B8
330
1E
100
AcDbEntity
  8
0
 48
0.27
100
AcDbLine
 10
242.8208446830888
 20
420.6977986326122
 30
0.0
 11
242.6530409330889
 21
420.0990498826122
 31
0.0
  0
LINE
  5
67B9
330
1E
100
AcDbEntity
  8
0
 48
0.27
100
AcDbLine
 10
242.8208446830888
 20
421.9431536326123
 30
0.0
 11
242.8775046830889
 21
421.3204761326123
 31
0.0
  0
LINE
  5
67BA
330
1E
100
AcDbEntity
  8
0
 48
0.27
100
AcDbLine
 10
240.0436334330889
 20
419.2513736326122
 30
0.0
 11
240.4013546830889
 21
419.4583336326123
 31
0.0
  0
LINE
  5
67BB
330
1E
100
AcDbEntity
  8
0
 48
0.27
100
AcDbLine
 10
240.4013546830889
 20
423.1826186326122
 30
0.0
 11
240.7148984330889
 21
422.9040973826122
 31
0.0
  0
LINE
  5
67BC
330
1E
100
AcDbEntity
  8
0
 48
0.27
100
AcDbLine
 10
242.6530409330889
 20
420.0990498826122
 30
0.0
 11
242.3805446830888
 21
419.5472411326123
 31
0.0
  0
LINE
  5
67BD
330
1E
100
AcDbEntity
  8
0
 48
0.27
100
AcDbLine
 10
242.6530409330889
 20
422.5419011326122
 30
0.0
 11
242.8208446830888
 21
421.9431536326123
 31
0.0
  0
LINE
  5
67BE
330
1E
100
AcDbEntity
  8
0
 48
0.27
100
AcDbLine
 10
242.3805446830888
 20
419.5472411326123
 30
0.0
 11
242.0138259330888
 21
419.0635761326122
 31
0.0
  0
LINE
  5
67BF
330
1E
100
AcDbEntity
  8
0
 48
0.27
100
AcDbLine
 10
242.3805446830888
 20
423.0937111326122
 30
0.0
 11
242.6530409330889
 21
422.5419011326122
 31
0.0
  0
LINE
  5
67C0
330
1E
100
AcDbEntity
  8
0
 48
0.27
100
AcDbLine
 10
239.6554846830889
 20
419.1239286326122
 30
0.0
 11
240.0436334330889
 21
419.2513736326122
 31
0.0
  0
LINE
  5
67C1
330
1E
100
AcDbEntity
  8
0
 48
0.27
100
AcDbLine
 10
240.0436334330889
 20
423.3895773826121
 30
0.0
 11
240.4013546830889
 21
423.1826186326122
 31
0.0
  0
LINE
  5
67C2
330
1E
100
AcDbEntity
  8
0
 48
0.27
100
AcDbLine
 10
241.5669771830889
 20
418.6666423826123
 30
0.0
 11
242.0138259330888
 21
419.0635761326122
 31
0.0
  0
LINE
  5
67C3
330
1E
100
AcDbEntity
  8
0
 48
0.27
100
AcDbLine
 10
242.0138259330888
 20
423.5773761326123
 30
0.0
 11
242.3805446830888
 21
423.0937111326122
 31
0.0
  0
LINE
  5
67C4
330
1E
100
AcDbEntity
  8
0
 48
0.27
100
AcDbLine
 10
243.0321296830889
 20
421.3204761326123
 30
0.0
 11
242.9760884330889
 21
420.7045986326122
 31
0.0
  0
LINE
  5
67C5
330
1E
100
AcDbEntity
  8
0
 48
0.27
100
AcDbLine
 10
239.2518234330889
 20
419.0808961326123
 30
0.0
 11
239.6554846830889
 21
419.1239286326122
 31
0.0
  0
LINE
  5
67C6
330
1E
100
AcDbEntity
  8
0
 48
0.27
100
AcDbLine
 10
239.6554846830889
 20
423.5170223826122
 30
0.0
 11
240.0436334330889
 21
423.3895773826121
 31
0.0
  0
LINE
  5
67C7
330
1E
100
AcDbEntity
  8
0
 48
0.27
100
AcDbLine
 10
242.9760884330889
 20
420.7045986326122
 30
0.0
 11
242.8101184330889
 21
420.1123886326122
 31
0.0
  0
LINE
  5
67C8
330
1E
100
AcDbEntity
  8
0
 48
0.27
100
AcDbLine
 10
242.9760884330889
 20
421.9363536326122
 30
0.0
 11
243.0321296830889
 21
421.3204761326123
 31
0.0
  0
LINE
  5
67C9
330
1E
100
AcDbEntity
  8
0
 48
0.27
100
AcDbLine
 10
241.0571721830889
 20
418.3716936326122
 30
0.0
 11
241.5669771830889
 21
418.6666423826123
 31
0.0
  0
LINE
  5
67CA
330
1E
100
AcDbEntity
  8
0
 48
0.27
100
AcDbLine
 10
241.5669771830889
 20
423.9743098826123
 30
0.0
 11
242.0138259330888
 21
423.5773761326123
 31
0.0
  0
LINE
  5
67CB
330
1E
100
AcDbEntity
  8
0
 48
0.27
100
AcDbLine
 10
242.8101184330889
 20
420.1123886326122
 30
0.0
 11
242.5405971830889
 21
419.5666048826122
 31
0.0
  0
LINE
  5
67CC
330
1E
100
AcDbEntity
  8
0
 48
0.27
100
AcDbLine
 10
242.8101184330889
 20
422.5285636326122
 30
0.0
 11
242.9760884330889
 21
421.9363536326122
 31
0.0
  0
LINE
  5
67CD
330
1E
100
AcDbEntity
  8
0
 48
0.27
100
AcDbLine
 10
242.5405971830889
 20
419.5666048826122
 30
0.0
 11
242.1778834330889
 21
419.0882211326123
 31
0.0
  0
LINE
  5
67CE
330
1E
100
AcDbEntity
  8
0
 48
0.27
100
AcDbLine
 10
242.5405971830889
 20
423.0743473826122
 30
0.0
 11
242.8101184330889
 21
422.5285636326122
 31
0.0
  0
LINE
  5
67CF
330
1E
100
AcDbEntity
  8
0
 48
0.27
100
AcDbLine
 10
240.5040009330889
 20
418.1900648826122
 30
0.0
 11
241.0571721830889
 21
418.3716936326122
 31
0.0
  0
LINE
  5
67D0
330
1E
100
AcDbEntity
  8
0
 48
0.27
100
AcDbLine
 10
241.0571721830889
 20
424.2692586326121
 30
0.0
 11
241.5669771830889
 21
423.9743098826123
 31
0.0
  0
LINE
  5
67D1
330
1E
100
AcDbEntity
  8
0
 48
0.27
100
AcDbLine
 10
238.8481609330889
 20
419.1239286326122
 30
0.0
 11
239.2518234330889
 21
419.0808961326123
 31
0.0
  0
LINE
  5
67D2
330
1E
100
AcDbEntity
  8
0
 48
0.27
100
AcDbLine
 10
239.2518234330889
 20
423.5600548826122
 30
0.0
 11
239.6554846830889
 21
423.5170223826122
 31
0.0
  0
LINE
  5
67D3
330
1E
100
AcDbEntity
  8
0
 48
0.27
100
AcDbLine
 10
241.7359146830889
 20
418.6956223826122
 30
0.0
 11
242.1778834330889
 21
419.0882211326123
 31
0.0
  0
LINE
  5
67D4
330
1E
100
AcDbEntity
  8
0
 48
0.27
100
AcDbLine
 10
242.1778834330889
 20
423.5527311326122
 30
0.0
 11
242.5405971830889
 21
423.0743473826122
 31
0.0
  0
LINE
  5
67D5
330
1E
100
AcDbEntity
  8
0
 48
0.27
100
AcDbLine
 10
239.9287221830889
 20
418.1287373826123
 30
0.0
 11
240.5040009330889
 21
418.1900648826122
 31
0.0
  0
LINE
  5
67D6
330
1E
100
AcDbEntity
  8
0
 48
0.27
100
AcDbLine
 10
240.5040009330889
 20
418.1900648826122
 30
0.0
 11
240.6845459330889
 21
418.2242498826123
 31
0.0
  0
LINE
  5
67D7
330
1E
100
AcDbEntity
  8
0
 48
0.27
100
AcDbLine
 10
240.5040009330889
 20
424.4508861326122
 30
0.0
 11
241.0571721830889
 21
424.2692586326121
 31
0.0
  0
LINE
  5
67D8
330
1E
100
AcDbEntity
  8
0
 48
0.27
100
AcDbLine
 10
238.4600121830889
 20
419.2513736326122
 30
0.0
 11
238.8481609330889
 21
419.1239286326122
 31
0.0
  0
LINE
  5
67D9
330
1E
100
AcDbEntity
  8
0
 48
0.27
100
AcDbLine
 10
238.8481609330889
 20
423.5170223826122
 30
0.0
 11
239.2518234330889
 21
423.5600548826122
 31
0.0
  0
LINE
  5
67DA
330
1E
100
AcDbEntity
  8
0
 48
0.27
100
AcDbLine
 10
241.2316759330889
 20
418.4038948826123
 30
0.0
 11
241.7359146830889
 21
418.6956223826122
 31
0.0
  0
LINE
  5
67DB
330
1E
100
AcDbEntity
  8
0
 48
0.27
100
AcDbLine
 10
241.7359146830889
 20
423.9453298826122
 30
0.0
 11
242.1778834330889
 21
423.5527311326122
 31
0.0
  0
LINE
  5
67DC
330
1E
100
AcDbEntity
  8
0
 48
0.27
100
AcDbLine
 10
240.6845459330889
 20
418.2242498826123
 30
0.0
 11
241.2316759330889
 21
418.4038948826123
 31
0.0
  0
LINE
  5
67DD
330
1E
100
AcDbEntity
  8
0
 48
0.27
100
AcDbLine
 10
241.2316759330889
 20
424.2370573826121
 30
0.0
 11
241.7359146830889
 21
423.9453298826122
 31
0.0
  0
LINE
  5
67DE
330
1E
100
AcDbEntity
  8
0
 48
0.27
100
AcDbLine
 10
239.353443433089
 20
418.1900648826122
 30
0.0
 11
239.9287221830889
 21
418.1287373826123
 31
0.0
  0
LINE
  5
67DF
330
1E
100
AcDbEntity
  8
0
 48
0.27
100
AcDbLine
 10
239.9287221830889
 20
424.5122148826122
 30
0.0
 11
240.5040009330889
 21
424.4508861326122
 31
0.0
  0
LINE
  5
67E0
330
1E
100
AcDbEntity
  8
0
 48
0.27
100
AcDbLine
 10
240.5040009330889
 20
424.4508861326122
 30
0.0
 11
240.6845459330889
 21
424.4167023826122
 31
0.0
  0
LINE
  5
67E1
330
1E
100
AcDbEntity
  8
0
 48
0.27
100
AcDbLine
 10
238.102290933089
 20
419.4583336326123
 30
0.0
 11
238.4600121830889
 21
419.2513736326122
 31
0.0
  0
LINE
  5
67E2
330
1E
100
AcDbEntity
  8
0
 48
0.27
100
AcDbLine
 10
238.4600121830889
 20
423.3895773826121
 30
0.0
 11
238.8481609330889
 21
423.5170223826122
 31
0.0
  0
LINE
  5
67E3
330
1E
100
AcDbEntity
  8
0
 48
0.27
100
AcDbLine
 10
240.6845459330889
 20
424.4167023826122
 30
0.0
 11
241.2316759330889
 21
424.2370573826121
 31
0.0
  0
LINE
  5
67E4
330
1E
100
AcDbEntity
  8
0
 48
0.27
100
AcDbLine
 10
237.788747183089
 20
419.7368536326123
 30
0.0
 11
238.102290933089
 21
419.4583336326123
 31
0.0
  0
LINE
  5
67E5
330
1E
100
AcDbEntity
  8
0
 48
0.27
100
AcDbLine
 10
238.102290933089
 20
423.1826186326122
 30
0.0
 11
238.4600121830889
 21
423.3895773826121
 31
0.0
  0
LINE
  5
67E6
330
1E
100
AcDbEntity
  8
0
 48
0.27
100
AcDbLine
 10
238.8002721830889
 20
418.3716936326122
 30
0.0
 11
239.353443433089
 21
418.1900648826122
 31
0.0
  0
LINE
  5
67E7
330
1E
100
AcDbEntity
  8
0
 48
0.27
100
AcDbLine
 10
239.353443433089
 20
424.4508861326122
 30
0.0
 11
239.9287221830889
 21
424.5122148826122
 31
0.0
  0
LINE
  5
67E8
330
1E
100
AcDbEntity
  8
0
 48
0.27
100
AcDbLine
 10
237.5314271830889
 20
420.0762323826123
 30
0.0
 11
237.788747183089
 21
419.7368536326123
 31
0.0
  0
LINE
  5
67E9
330
1E
100
AcDbEntity
  8
0
 48
0.27
100
AcDbLine
 10
237.788747183089
 20
422.9040973826122
 30
0.0
 11
238.102290933089
 21
423.1826186326122
 31
0.0
  0
LINE
  5
67EA
330
1E
100
AcDbEntity
  8
0
 48
0.27
100
AcDbLine
 10
238.2904659330889
 20
418.6666423826123
 30
0.0
 11
238.8002721830889
 21
418.3716936326122
 31
0.0
  0
LINE
  5
67EB
330
1E
100
AcDbEntity
  8
0
 48
0.27
100
AcDbLine
 10
238.8002721830889
 20
424.2692586326121
 30
0.0
 11
239.353443433089
 21
424.4508861326122
 31
0.0
  0
LINE
  5
67EC
330
1E
100
AcDbEntity
  8
0
 48
0.27
100
AcDbLine
 10
237.340222183089
 20
420.4634261326122
 30
0.0
 11
237.5314271830889
 21
420.0762323826123
 31
0.0
  0
LINE
  5
67ED
330
1E
100
AcDbEntity
  8
0
 48
0.27
100
AcDbLine
 10
237.788747183089
 20
422.9040973826122
 30
0.0
 11
237.5314271830889
 21
422.5647198826122
 31
0.0
  0
LINE
  5
67EE
330
1E
100
AcDbEntity
  8
0
 48
0.27
100
AcDbLine
 10
237.8436184330889
 20
419.0635761326122
 30
0.0
 11
238.2904659330889
 21
418.6666423826123
 31
0.0
  0
LINE
  5
67EF
330
1E
100
AcDbEntity
  8
0
 48
0.27
100
AcDbLine
 10
238.2904659330889
 20
423.9743098826123
 30
0.0
 11
238.8002721830889
 21
424.2692586326121
 31
0.0
  0
LINE
  5
67F0
330
1E
100
AcDbEntity
  8
0
 48
0.27
100
AcDbLine
 10
237.2224784330889
 20
420.8835561326123
 30
0.0
 11
237.340222183089
 21
420.4634261326122
 31
0.0
  0
LINE
  5
67F1
330
1E
100
AcDbEntity
  8
0
 48
0.27
100
AcDbLine
 10
237.5314271830889
 20
422.5647198826122
 30
0.0
 11
237.340222183089
 21
422.1775261326122
 31
0.0
  0
LINE
  5
67F2
330
1E
100
AcDbEntity
  8
0
 48
0.27
100
AcDbLine
 10
237.182720933089
 20
421.3204761326123
 30
0.0
 11
237.2224784330889
 21
420.8835561326123
 31
0.0
  0
LINE
  5
67F3
330
1E
100
AcDbEntity
  8
0
 48
0.27
100
AcDbLine
 10
237.340222183089
 20
422.1775261326122
 30
0.0
 11
237.2224784330889
 21
421.7573961326122
 31
0.0
  0
LINE
  5
67F4
330
1E
100
AcDbEntity
  8
0
 48
0.27
100
AcDbLine
 10
237.2224784330889
 20
421.7573961326122
 30
0.0
 11
237.182720933089
 21
421.3204761326123
 31
0.0
  0
LINE
  5
67F5
330
1E
100
AcDbEntity
  8
0
 48
0.27
100
AcDbLine
 10
237.4768984330889
 20
419.5472411326123
 30
0.0
 11
237.8436184330889
 21
419.0635761326122
 31
0.0
  0
LINE
  5
67F6
330
1E
100
AcDbEntity
  8
0
 48
0.27
100
AcDbLine
 10
237.8436184330889
 20
423.5773761326123
 30
0.0
 11
238.2904659330889
 21
423.9743098826123
 31
0.0
  0
LINE
  5
67F7
330
1E
100
AcDbEntity
  8
0
 48
0.27
100
AcDbLine
 10
237.2044021830889
 20
420.0990498826122
 30
0.0
 11
237.4768984330889
 21
419.5472411326123
 31
0.0
  0
LINE
  5
67F8
330
1E
100
AcDbEntity
  8
0
 48
0.27
100
AcDbLine
 10
237.8436184330889
 20
423.5773761326123
 30
0.0
 11
237.4768984330889
 21
423.0937111326122
 31
0.0
  0
LINE
  5
67F9
330
1E
100
AcDbEntity
  8
0
 48
0.27
100
AcDbLine
 10
237.0365996830889
 20
420.6977986326122
 30
0.0
 11
237.2044021830889
 21
420.0990498826122
 31
0.0
  0
LINE
  5
67FA
330
1E
100
AcDbEntity
  8
0
 48
0.27
100
AcDbLine
 10
237.4768984330889
 20
423.0937111326122
 30
0.0
 11
237.2044021830889
 21
422.5419011326122
 31
0.0
  0
LINE
  5
67FB
330
1E
100
AcDbEntity
  8
0
 48
0.27
100
AcDbLine
 10
236.9799396830889
 20
421.3204761326123
 30
0.0
 11
237.0365996830889
 21
420.6977986326122
 31
0.0
  0
LINE
  5
67FC
330
1E
100
AcDbEntity
  8
0
 48
0.27
100
AcDbLine
 10
237.2044021830889
 20
422.5419011326122
 30
0.0
 11
237.0365996830889
 21
421.9431536326123
 31
0.0
  0
LINE
  5
67FD
330
1E
100
AcDbEntity
  8
0
 48
0.27
100
AcDbLine
 10
237.0365996830889
 20
421.9431536326123
 30
0.0
 11
236.9799396830889
 21
421.3204761326123
 31
0.0
  0
LINE
  5
67FE
330
1E
100
AcDbEntity
  8
0
 48
0.27
100
AcDbLine
 10
238.427487183089
 20
419.2701911326123
 30
0.0
 11
238.4312009330889
 21
419.2722111326122
 31
0.0
  0
LINE
  5
67FF
330
1E
100
AcDbEntity
  8
0
 48
0.27
100
AcDbLine
 10
238.427487183089
 20
423.3707598826121
 30
0.0
 11
238.4312009330889
 21
423.3687411326123
 31
0.0
  0
LINE
  5
6800
330
1E
100
AcDbEntity
  8
0
 48
0.27
100
AcDbLine
 10
245.5219059330889
 20
421.3204761326123
 30
0.0
 11
245.4553359330888
 21
420.5888873826122
 31
0.0
  0
LINE
  5
6801
330
1E
100
AcDbEntity
  8
0
 48
0.27
100
AcDbLine
 10
245.4553359330888
 20
422.0520648826123
 30
0.0
 11
245.5219059330889
 21
421.3204761326123
 31
0.0
  0
LINE
  5
6802
330
1E
100
AcDbEntity
  8
0
 48
0.27
100
AcDbLine
 10
245.4553359330888
 20
420.5888873826122
 30
0.0
 11
245.2581834330889
 21
419.8854123826123
 31
0.0
  0
LINE
  5
6803
330
1E
100
AcDbEntity
  8
0
 48
0.27
100
AcDbLine
 10
245.2581834330889
 20
422.7555386326121
 30
0.0
 11
245.4553359330888
 21
422.0520648826123
 31
0.0
  0
LINE
  5
6804
330
1E
100
AcDbEntity
  8
0
 48
0.27
100
AcDbLine
 10
245.2581834330889
 20
419.8854123826123
 30
0.0
 11
244.9380246830889
 21
419.2370873826122
 31
0.0
  0
LINE
  5
6805
330
1E
100
AcDbEntity
  8
0
 48
0.27
100
AcDbLine
 10
244.9380246830889
 20
423.4038636326122
 30
0.0
 11
245.2581834330889
 21
422.7555386326121
 31
0.0
  0
LINE
  5
6806
330
1E
100
AcDbEntity
  8
0
 48
0.27
100
AcDbLine
 10
244.9380246830889
 20
419.2370873826122
 30
0.0
 11
244.5071634330889
 21
418.6688248826122
 31
0.0
  0
LINE
  5
6807
330
1E
100
AcDbEntity
  8
0
 48
0.27
100
AcDbLine
 10
244.5071634330889
 20
423.9721261326122
 30
0.0
 11
244.9380246830889
 21
423.4038636326122
 31
0.0
  0
LINE
  5
6808
330
1E
100
AcDbEntity
  8
0
 48
0.27
100
AcDbLine
 10
246.0578734330888
 20
421.3204761326123
 30
0.0
 11
244.0576159330889
 21
417.5704761326122
 31
0.0
  0
LINE
  5
6809
330
1E
100
AcDbEntity
  8
0
 48
0.27
100
AcDbLine
 10
244.0576159330889
 20
425.0704761326121
 30
0.0
 11
246.0578734330888
 21
421.3204761326123
 31
0.0
  0
LINE
  5
680A
330
1E
100
AcDbEntity
  8
0
 48
0.27
100
AcDbLine
 10
243.9821584330889
 20
418.2024648826122
 30
0.0
 11
244.5071634330889
 21
418.6688248826122
 31
0.0
  0
LINE
  5
680B
330
1E
100
AcDbEntity
  8
0
 48
0.27
100
AcDbLine
 10
243.9821584330889
 20
424.4384873826122
 30
0.0
 11
244.5071634330889
 21
423.9721261326122
 31
0.0
  0
LINE
  5
680C
330
1E
100
AcDbEntity
  8
0
 48
0.27
100
AcDbLine
 10
243.3831834330888
 20
417.8559273826122
 30
0.0
 11
243.9821584330889
 21
418.2024648826122
 31
0.0
  0
LINE
  5
680D
330
1E
100
AcDbEntity
  8
0
 48
0.27
100
AcDbLine
 10
243.3831834330888
 20
424.7850236326122
 30
0.0
 11
243.9821584330889
 21
424.4384873826122
 31
0.0
  0
LINE
  5
680E
330
1E
100
AcDbEntity
  8
0
 48
0.27
100
AcDbLine
 10
242.7332584330889
 20
417.6425311326124
 30
0.0
 11
243.3831834330888
 21
417.8559273826122
 31
0.0
  0
LINE
  5
680F
330
1E
100
AcDbEntity
  8
0
 48
0.27
100
AcDbLine
 10
242.7332584330889
 20
424.9984211326121
 30
0.0
 11
243.3831834330888
 21
424.7850236326122
 31
0.0
  0
LINE
  5
6810
330
1E
100
AcDbEntity
  8
0
 48
0.27
100
AcDbLine
 10
242.0573584330889
 20
417.5704761326122
 30
0.0
 11
242.7332584330889
 21
417.6425311326124
 31
0.0
  0
LINE
  5
6811
330
1E
100
AcDbEntity
  8
0
 48
0.27
100
AcDbLine
 10
242.0573584330889
 20
425.0704761326121
 30
0.0
 11
242.7332584330889
 21
424.9984211326121
 31
0.0
  0
LINE
  5
6812
330
1E
100
AcDbEntity
  8
0
 48
0.27
100
AcDbLine
 10
241.3814584330888
 20
417.6425311326124
 30
0.0
 11
242.0573584330889
 21
417.5704761326122
 31
0.0
  0
LINE
  5
6813
330
1E
100
AcDbEntity
  8
0
 48
0.27
100
AcDbLine
 10
241.3814584330888
 20
424.9984211326121
 30
0.0
 11
242.0573584330889
 21
425.0704761326121
 31
0.0
  0
LINE
  5
6814
330
1E
100
AcDbEntity
  8
0
 48
0.27
100
AcDbLine
 10
240.7315334330889
 20
417.8559273826122
 30
0.0
 11
241.3814584330888
 21
417.6425311326124
 31
0.0
  0
LINE
  5
6815
330
1E
100
AcDbEntity
  8
0
 48
0.27
100
AcDbLine
 10
240.7315334330889
 20
424.7850236326122
 30
0.0
 11
241.3814584330888
 21
424.9984211326121
 31
0.0
  0
LINE
  5
6816
330
1E
100
AcDbEntity
  8
0
 48
0.27
100
AcDbLine
 10
240.2084496830889
 20
418.1585573826123
 30
0.0
 11
240.7315334330889
 21
417.8559273826122
 31
0.0
  0
LINE
  5
6817
330
1E
100
AcDbEntity
  8
0
 48
0.27
100
AcDbLine
 10
240.2084496830889
 20
424.4823936326122
 30
0.0
 11
240.7315334330889
 21
424.7850236326122
 31
0.0
  0
LINE
  5
6818
330
1E
100
AcDbEntity
  8
0
 48
0.27
100
AcDbLine
 10
246.9320784330888
 20
421.3204761326123
 30
0.0
 11
244.9318209330888
 21
417.5704761326122
 31
0.0
  0
LINE
  5
6819
330
1E
100
AcDbEntity
  8
0
 48
0.27
100
AcDbLine
 10
244.9318209330888
 20
417.5704761326122
 30
0.0
 11
240.0571009330889
 21
417.5704761326122
 31
0.0
  0
LINE
  5
681A
330
1E
100
AcDbEntity
  8
0
 48
0.27
100
AcDbLine
 10
244.9318209330888
 20
425.0704761326121
 30
0.0
 11
246.9320784330888
 21
421.3204761326123
 31
0.0
  0
LINE
  5
681B
330
1E
100
AcDbEntity
  8
0
 48
0.27
100
AcDbLine
 10
246.0578734330888
 20
421.3204761326123
 30
0.0
 11
246.9320784330888
 21
421.3204761326123
 31
0.0
  0
LINE
  5
681C
330
1E
100
AcDbEntity
  8
0
 48
0.27
100
AcDbLine
 10
240.0571009330889
 20
425.0704761326121
 30
0.0
 11
239.749109683089
 21
424.4930673826122
 31
0.0
  0
LINE
  5
681D
330
1E
100
AcDbEntity
  8
0
 48
0.27
100
AcDbLine
 10
239.749109683089
 20
418.1478848826122
 30
0.0
 11
240.0571009330889
 21
417.5704761326122
 31
0.0
  0
LINE
  5
681E
330
1E
100
AcDbEntity
  8
0
 48
0.27
100
AcDbLine
 10
240.0571009330889
 20
425.0704761326121
 30
0.0
 11
244.9318209330888
 21
425.0704761326121
 31
0.0
  0
LINE
  5
681F
330
1E
100
AcDbEntity
  8
0
 48
0.27
100
AcDbLine
 10
249.1518221830888
 20
421.9986518254813
 30
0.0
 11
249.1518221830888
 21
416.3204761326122
 31
0.0
  0
LINE
  5
6820
330
1E
100
AcDbEntity
  8
0
 48
0.27
100
AcDbLine
 10
244.4663971830888
 20
416.3204761326122
 30
0.0
 11
250.5518221830888
 21
416.3204761326122
 31
0.0
  0
LINE
  5
6821
330
1E
100
AcDbEntity
  8
0
 48
0.27
100
AcDbLine
 10
248.9150934490899
 20
426.3204761326123
 30
0.0
 11
244.4663971830888
 21
426.3204761326123
 31
0.0
  0
ARC
  5
6822
330
1E
100
AcDbEntity
  8
0
 48
0.27
100
AcDbCircle
 10
244.4663971830888
 20
421.3204761326123
 30
0.0
 40
4.99999999999996
100
AcDbArc
 50
228.5903779973018
 51
270.0
  0
ARC
  5
6823
330
1E
100
AcDbEntity
  8
0
 48
0.27
100
AcDbCircle
 10
244.4663971830888
 20
421.3204761326123
 30
0.0
 40
4.99999999999996
100
AcDbArc
 50
90.0
 51
131.4096219996002
  0
LWPOLYLINE
  5
6824
330
1E
100
AcDbEntity
  8
0
 48
0.27
100
AcDbPolyline
 90
       31
 70
     0
 43
0.0
 10
239.9909259330889
 20
421.3204761326122
 10
239.9499034330889
 20
421.5832948826122
 10
239.8947196830889
 20
421.7151536326122
 10
239.8159284330889
 20
421.8373773826121
 10
239.7165834330889
 20
421.9425186326122
 10
239.6022196830889
 20
422.0248598826122
 10
239.4798196830889
 20
422.0814611326122
 10
239.3140246830889
 20
422.1176373826121
 10
239.1602634330889
 20
422.1143136326122
 10
239.0266084330889
 20
422.0824311326122
 10
238.8813521830889
 20
422.0127211326122
 10
238.7431396830889
 20
421.9008598826122
 10
238.6328521830889
 20
421.7576723826121
 10
238.5620596830889
 20
421.6078736326123
 10
238.5272459330889
 20
421.4783036326122
 10
238.5127196830889
 20
421.3204761326122
 10
238.5537421830889
 20
421.0576573826122
 10
238.6089271830889
 20
420.9257973826122
 10
238.6877171830889
 20
420.8035748826122
 10
238.7870621830889
 20
420.6984336326122
 10
238.901425933089
 20
420.6160923826122
 10
239.0238259330889
 20
420.5594911326121
 10
239.1896209330889
 20
420.5233136326121
 10
239.3433821830889
 20
420.5266386326123
 10
239.4770371830889
 20
420.5585198826122
 10
239.6222934330889
 20
420.6282298826122
 10
239.7605059330889
 20
420.7400923826122
 10
239.8707934330889
 20
420.8832786326122
 10
239.9415859330888
 20
421.0330773826122
 10
239.976400933089
 20
421.1626486326123
 10
239.9909259330889
 20
421.3204761326122
  0
LINE
  5
6825
330
1E
100
AcDbEntity
  8
中心線
 48
0.27
100
AcDbLine
 10
235.4799396830889
 20
421.3204761326123
 30
0.0
 11
251.5500182938871
 21
421.3204519687373
 31
0.0
  0
ARC
  5
6826
330
1E
100
AcDbEntity
  8
0
100
AcDbCircle
 10
448.1308291085226
 20
426.6342622581374
 30
0.0
 40
2.258017748891657
100
AcDbArc
 50
0.9276427879959419
 51
74.03697783117156
  0
ARC
  5
6827
330
1E
100
AcDbEntity
  8
0
100
AcDbCircle
 10
448.1308291085226
 20
423.0057422617709
 30
0.0
 40
2.258017748891657
100
AcDbArc
 50
285.9630221688284
 51
359.072357212004
  0
LINE
  5
6828
330
1E
100
AcDbEntity
  8
0
100
AcDbLine
 10
450.3885509170877
 20
426.6708189188193
 30
0.0
 11
450.3885509170877
 21
422.969185601089
 31
0.0
  0
LINE
  5
6829
330
1E
100
AcDbEntity
  8
中心線
100
AcDbLine
 10
449.4647991804574
 20
424.8200022599542
 30
0.0
 11
445.7309409240244
 21
424.8200022599542
 31
0.0
  0
LINE
  5
682A
330
1E
100
AcDbEntity
  8
中心線
100
AcDbLine
 10
449.7518221830887
 20
424.8200022599542
 30
0.0
 11
445.5518221830886
 21
424.8200022599542
 31
0.0
  0
LINE
  5
682B
330
1E
100
AcDbEntity
  8
中心線
100
AcDbLine
 10
452.0534011031257
 20
424.8200022599542
 30
0.0
 11
441.4081755751968
 21
424.8200022599542
 31
0.0
  0
LINE
  5
682C
330
1E
100
AcDbEntity
  8
0
100
AcDbLine
 10
446.5518221830887
 20
431.8200022599541
 30
0.0
 11
448.7518221830887
 21
431.8200022599541
 31
0.0
  0
LINE
  5
682D
330
1E
100
AcDbEntity
  8
0
100
AcDbLine
 10
451.5518221830887
 20
408.970002259954
 30
0.0
 11
448.7518221830887
 21
410.220002259954
 31
0.0
  0
ARC
  5
682E
330
1E
100
AcDbEntity
  8
0
100
AcDbCircle
 10
448.1308291085226
 20
393.6342622581375
 30
0.0
 40
2.258017748891657
100
AcDbArc
 50
0.9276427879959419
 51
74.03697783117156
  0
ARC
  5
682F
330
1E
100
AcDbEntity
  8
0
100
AcDbCircle
 10
448.1308291085226
 20
390.0057422617709
 30
0.0
 40
2.258017748891657
100
AcDbArc
 50
285.9630221688284
 51
359.072357212004
  0
LINE
  5
6830
330
1E
100
AcDbEntity
  8
0
100
AcDbLine
 10
450.3885509170877
 20
393.6708189188193
 30
0.0
 11
450.3885509170877
 21
389.969185601089
 31
0.0
  0
LINE
  5
6831
330
1E
100
AcDbEntity
  8
中心線
100
AcDbLine
 10
452.6127461474723
 20
391.8200022599542
 30
0.0
 11
445.4322496098577
 21
391.8200022599542
 31
0.0
  0
LINE
  5
6832
330
1E
100
AcDbEntity
  8
中心線
100
AcDbLine
 10
449.7518221830887
 20
391.8200022599542
 30
0.0
 11
445.5518221830886
 21
391.8200022599542
 31
0.0
  0
LINE
  5
6833
330
1E
100
AcDbEntity
  8
中心線
100
AcDbLine
 10
452.0534011031257
 20
391.8200022599542
 30
0.0
 11
441.4081755751968
 21
391.8200022599542
 31
0.0
  0
LINE
  5
6834
330
1E
100
AcDbEntity
  8
0
100
AcDbLine
 10
451.5518221830887
 20
403.8322701674542
 30
0.0
 11
451.5518221830887
 21
408.970002259954
 31
0.0
  0
LINE
  5
6835
330
1E
100
AcDbEntity
  8
0
100
AcDbLine
 10
451.5518221830887
 20
376.3200022599541
 30
0.0
 11
446.5518221830887
 21
376.3200022599541
 31
0.0
  0
LINE
  5
6836
330
1E
100
AcDbEntity
  8
0
100
AcDbLine
 10
446.5518221830887
 20
379.3200022599542
 30
0.0
 11
448.7518221830887
 21
379.3200022599542
 31
0.0
  0
LINE
  5
6837
330
1E
100
AcDbEntity
  8
0
100
AcDbLine
 10
448.7518221830887
 20
376.3200022599541
 30
0.0
 11
448.7518221830887
 21
431.8200022599541
 31
0.0
  0
LINE
  5
6838
330
1E
100
AcDbEntity
  8
0
100
AcDbLine
 10
451.5518221830887
 20
376.3200022599541
 30
0.0
 11
451.5518221830887
 21
403.7810925558542
 31
0.0
  0
ARC
  5
6839
330
1E
100
AcDbEntity
  8
0
100
AcDbCircle
 10
251.1728152576549
 20
426.6342622581374
 30
0.0
 40
2.258017748891657
100
AcDbArc
 50
105.9630221688284
 51
179.072357212004
  0
ARC
  5
683A
330
1E
100
AcDbEntity
  8
0
100
AcDbCircle
 10
251.1728152576549
 20
423.0057422617709
 30
0.0
 40
2.258017748891657
100
AcDbArc
 50
180.9276427879959
 51
254.0369778311715
  0
LINE
  5
683B
330
1E
100
AcDbEntity
  8
0
100
AcDbLine
 10
248.9150934490898
 20
426.6708189188192
 30
0.0
 11
248.9150934490898
 21
422.969185601089
 31
0.0
  0
LINE
  5
683C
330
1E
100
AcDbEntity
  8
中心線
100
AcDbLine
 10
249.8388451857201
 20
424.8200022599541
 30
0.0
 11
253.5727034421531
 21
424.8200022599541
 31
0.0
  0
LINE
  5
683D
330
1E
100
AcDbEntity
  8
中心線
100
AcDbLine
 10
249.5518221830888
 20
424.8200022599541
 30
0.0
 11
253.7518221830889
 21
424.8200022599541
 31
0.0
  0
LINE
  5
683E
330
1E
100
AcDbEntity
  8
中心線
100
AcDbLine
 10
247.2502432630518
 20
424.8200022599541
 30
0.0
 11
257.8954687909808
 21
424.8200022599541
 31
0.0
  0
LINE
  5
683F
330
1E
100
AcDbEntity
  8
0
100
AcDbLine
 10
252.7518221830888
 20
431.8200022599541
 30
0.0
 11
250.5518221830888
 21
431.8200022599541
 31
0.0
  0
LINE
  5
6840
330
1E
100
AcDbEntity
  8
0
100
AcDbLine
 10
247.7518221830889
 20
408.970002259954
 30
0.0
 11
250.5518221830888
 21
410.2200022599539
 31
0.0
  0
ARC
  5
6841
330
1E
100
AcDbEntity
  8
0
100
AcDbCircle
 10
251.1728152576549
 20
393.6342622581374
 30
0.0
 40
2.258017748891657
100
AcDbArc
 50
105.9630221688284
 51
179.072357212004
  0
ARC
  5
6842
330
1E
100
AcDbEntity
  8
0
100
AcDbCircle
 10
251.1728152576549
 20
390.0057422617708
 30
0.0
 40
2.258017748891657
100
AcDbArc
 50
180.9276427879959
 51
254.0369778311715
  0
LINE
  5
6843
330
1E
100
AcDbEntity
  8
0
100
AcDbLine
 10
248.9150934490898
 20
393.6708189188193
 30
0.0
 11
248.9150934490898
 21
389.9691856010889
 31
0.0
  0
LINE
  5
6844
330
1E
100
AcDbEntity
  8
中心線
100
AcDbLine
 10
246.6908982187053
 20
391.8200022599541
 30
0.0
 11
253.8713947563198
 21
391.8200022599541
 31
0.0
  0
LINE
  5
6845
330
1E
100
AcDbEntity
  8
中心線
100
AcDbLine
 10
249.5518221830888
 20
391.8200022599541
 30
0.0
 11
253.7518221830889
 21
391.8200022599541
 31
0.0
  0
LINE
  5
6846
330
1E
100
AcDbEntity
  8
中心線
100
AcDbLine
 10
247.2502432630518
 20
391.8200022599541
 30
0.0
 11
257.8954687909808
 21
391.8200022599541
 31
0.0
  0
LINE
  5
6847
330
1E
100
AcDbEntity
  8
0
100
AcDbLine
 10
247.7518221830889
 20
403.8322701674541
 30
0.0
 11
247.7518221830889
 21
408.970002259954
 31
0.0
  0
LINE
  5
6848
330
1E
100
AcDbEntity
  8
0
100
AcDbLine
 10
247.7518221830889
 20
376.3200022599541
 30
0.0
 11
252.7518221830888
 21
376.3200022599541
 31
0.0
  0
LINE
  5
6849
330
1E
100
AcDbEntity
  8
0
100
AcDbLine
 10
252.7518221830888
 20
379.3200022599541
 30
0.0
 11
250.5518221830888
 21
379.3200022599541
 31
0.0
  0
LINE
  5
684A
330
1E
100
AcDbEntity
  8
0
100
AcDbLine
 10
250.5518221830888
 20
376.3200022599541
 30
0.0
 11
250.5518221830888
 21
431.8200022599541
 31
0.0
  0
LINE
  5
684B
330
1E
100
AcDbEntity
  8
0
100
AcDbLine
 10
247.7518221830889
 20
376.3200022599541
 30
0.0
 11
247.7518221830889
 21
403.7810925558542
 31
0.0
  0
LINE
  5
684C
330
1E
100
AcDbEntity
  8
0
 48
0.27
100
AcDbLine
 10
446.5518221830889
 20
431.8200022599541
 30
0.0
 11
446.5518221830889
 21
376.3200022599541
 31
0.0
  0
LINE
  5
684D
330
1E
100
AcDbEntity
  8
0
 48
0.27
100
AcDbLine
 10
252.7518221830888
 20
376.3200022599541
 30
0.0
 11
252.7518221830888
 21
431.820002259954
 31
0.0
  0
LINE
  5
68D9
330
1E
100
AcDbEntity
  8
0
 48
0.27
100
AcDbLine
 10
247.7518221830889
 20
383.3221164376224
 30
0.0
 11
238.3320065691155
 21
383.3221164376224
 31
0.0
  0
LINE
  5
68DA
330
1E
100
AcDbEntity
  8
0
 48
0.27
100
AcDbLine
 10
247.7518221830889
 20
389.3221164376224
 30
0.0
 11
236.8522382998158
 21
389.3221164376224
 31
0.0
  0
LINE
  5
68DB
330
1E
100
AcDbEntity
  8
0
 48
0.27
100
AcDbLine
 10
247.7518221830889
 20
390.81024528682
 30
0.0
 11
237.2188226903945
 21
390.81024528682
 31
0.0
  0
LINE
  5
68DC
330
1E
100
AcDbEntity
  8
0
 48
0.27
100
AcDbLine
 10
247.7518221830889
 20
394.6879611321753
 30
0.0
 11
238.1740559020712
 21
394.6879611321753
 31
0.0
  0
LINE
  5
68DD
330
1E
100
AcDbEntity
  8
0
 48
0.27
100
AcDbLine
 10
247.7518221830889
 20
397.122121987353
 30
0.0
 11
238.7736850095556
 21
397.122121987353
 31
0.0
  0
LINE
  5
68DE
330
1E
100
AcDbEntity
  8
0
 48
0.27
100
AcDbLine
 10
247.7518221830889
 20
400.0220954376224
 30
0.0
 11
238.197731095271
 21
400.0220954376224
 31
0.0
  0
LINE
  5
68DF
330
1E
100
AcDbEntity
  8
0
 48
0.27
100
AcDbLine
 10
247.7518221830889
 20
402.4550672748086
 30
0.0
 11
237.1084771505216
 21
402.4550672748086
 31
0.0
  0
LINE
  5
68E0
330
1E
100
AcDbEntity
  8
0
 48
0.27
100
AcDbLine
 10
247.7518221830889
 20
407.3221164376223
 30
0.0
 11
167.4050328760623
 21
407.3221164376222
 31
0.0
  0
LINE
  5
68E1
330
1E
100
AcDbEntity
  8
0
 48
0.27
100
AcDbLine
 10
247.7518221830889
 20
406.3341517260837
 30
0.0
 11
237.08479996689
 21
406.3341517260837
 31
0.0
  0
LINE
  5
68E2
330
1E
100
AcDbEntity
  8
虛線
 48
0.27
100
AcDbLine
 10
548.9050328760624
 20
363.3221164376223
 30
0.0
 11
549.4050328760624
 21
363.8221164376224
 31
0.0
  0
LINE
  5
68E3
330
1E
100
AcDbEntity
  8
虛線
 48
0.27
100
AcDbLine
 10
565.9050328760624
 20
363.3221164376223
 30
0.0
 11
565.4050328760624
 21
363.8221164376224
 31
0.0
  0
LINE
  5
68E4
330
1E
100
AcDbEntity
  8
虛線
 48
0.27
100
AcDbLine
 10
549.4050328760624
 20
363.8221164376224
 30
0.0
 11
565.4050328760624
 21
363.8221164376224
 31
0.0
  0
LINE
  5
68E5
330
1E
100
AcDbEntity
  8
虛線
 48
0.27
100
AcDbLine
 10
545.6740927683868
 20
407.3221164376221
 30
0.0
 11
545.9050328760624
 21
406.9221164376223
 31
0.0
  0
LINE
  5
68E6
330
1E
100
AcDbEntity
  8
虛線
 48
0.27
100
AcDbLine
 10
568.9050328760624
 20
406.9221164376223
 30
0.0
 11
569.1359729837381
 21
407.3221164376222
 31
0.0
  0
LINE
  5
68E7
330
1E
100
AcDbEntity
  8
虛線
 48
0.27
100
AcDbLine
 10
568.9050328760624
 20
406.9221164376223
 30
0.0
 11
545.9050328760624
 21
406.9221164376223
 31
0.0
  0
LINE
  5
68E8
330
1E
100
AcDbEntity
  8
虛線
 48
0.27
100
AcDbLine
 10
565.4050328760624
 20
386.8221164376223
 30
0.0
 11
565.9050328760624
 21
387.3221164376223
 31
0.0
  0
LINE
  5
68E9
330
1E
100
AcDbEntity
  8
虛線
 48
0.27
100
AcDbLine
 10
548.9050328760624
 20
387.3221164376223
 30
0.0
 11
549.4050328760624
 21
386.8221164376223
 31
0.0
  0
LINE
  5
68EA
330
1E
100
AcDbEntity
  8
虛線
 48
0.27
100
AcDbLine
 10
565.4050328760624
 20
386.8221164376223
 30
0.0
 11
549.4050328760624
 21
386.8221164376223
 31
0.0
  0
LINE
  5
68EB
330
1E
100
AcDbEntity
  8
虛線
 48
0.27
100
AcDbLine
 10
568.9050328760624
 20
387.3221164376223
 30
0.0
 11
545.9050328760624
 21
387.3221164376223
 31
0.0
  0
LINE
  5
68EC
330
1E
100
AcDbEntity
  8
虛線
 48
0.27
100
AcDbLine
 10
568.9050328760624
 20
387.3221164376223
 30
0.0
 11
568.9050328760624
 21
406.9221164376223
 31
0.0
  0
LINE
  5
68ED
330
1E
100
AcDbEntity
  8
虛線
 48
0.27
100
AcDbLine
 10
545.9050328760624
 20
387.3221164376223
 30
0.0
 11
545.9050328760624
 21
406.9221164376223
 31
0.0
  0
LINE
  5
68EE
330
1E
100
AcDbEntity
  8
虛線
 48
0.27
100
AcDbLine
 10
549.4050328760624
 20
363.8221164376224
 30
0.0
 11
549.4050328760624
 21
386.8221164376223
 31
0.0
  0
LINE
  5
68EF
330
1E
100
AcDbEntity
  8
虛線
 48
0.27
100
AcDbLine
 10
565.4050328760624
 20
363.8221164376224
 30
0.0
 11
565.4050328760624
 21
386.8221164376223
 31
0.0
  0
LINE
  5
68F0
330
1E
100
AcDbEntity
  8
虛線
 48
0.27
100
AcDbLine
 10
308.9050328760623
 20
363.3221164376223
 30
0.0
 11
309.4050328760625
 21
363.8221164376224
 31
0.0
  0
LINE
  5
68F1
330
1E
100
AcDbEntity
  8
虛線
 48
0.27
100
AcDbLine
 10
325.9050328760625
 20
363.3221164376223
 30
0.0
 11
325.4050328760625
 21
363.8221164376224
 31
0.0
  0
LINE
  5
68F2
330
1E
100
AcDbEntity
  8
虛線
 48
0.27
100
AcDbLine
 10
309.4050328760625
 20
363.8221164376224
 30
0.0
 11
325.4050328760625
 21
363.8221164376224
 31
0.0
  0
LINE
  5
68F3
330
1E
100
AcDbEntity
  8
虛線
 48
0.27
100
AcDbLine
 10
309.4050328760625
 20
363.8221164376224
 30
0.0
 11
309.4050328760625
 21
376.320002259954
 31
0.0
  0
LINE
  5
68F4
330
1E
100
AcDbEntity
  8
虛線
 48
0.27
100
AcDbLine
 10
325.4050328760625
 20
363.8221164376224
 30
0.0
 11
325.4050328760625
 21
376.320002259954
 31
0.0
  0
LINE
  5
68F5
330
1E
100
AcDbEntity
  8
建構線
 48
0.27
100
AcDbLine
 10
236.7875216685401
 20
371.5926016469283
 30
0.0
 11
237.9559985048866
 21
363.3221164376223
 31
0.0
  0
LINE
  5
68F6
330
1E
100
AcDbEntity
  8
建構線
 48
0.27
100
AcDbLine
 10
239.8309956049889
 20
379.7557798589478
 30
0.0
 11
236.7875216685401
 21
371.5926016469283
 31
0.0
  0
LINE
  5
68F7
330
1E
100
AcDbEntity
  8
建構線
 48
0.27
100
AcDbLine
 10
236.4671560353201
 20
387.7588965029017
 30
0.0
 11
239.8309956049889
 21
379.7557798589478
 31
0.0
  0
LINE
  5
68F8
330
1E
100
AcDbEntity
  8
建構線
 48
0.27
100
AcDbLine
 10
239.0300811010798
 20
398.1629475937464
 30
0.0
 11
236.4671560353201
 21
387.7588965029017
 31
0.0
  0
LINE
  5
68F9
330
1E
100
AcDbEntity
  8
建構線
 48
0.27
100
AcDbLine
 10
236.3069736395694
 20
404.2453159849026
 30
0.0
 11
239.0300811010798
 21
398.1629475937464
 31
0.0
  0
LINE
  5
68FA
330
1E
100
AcDbEntity
  8
建構線
 48
0.27
100
AcDbLine
 10
237.4526914903586
 20
407.3221164376223
 30
0.0
 11
236.3069736395694
 21
404.2453159849026
 31
0.0
  0
LINE
  5
68FB
330
1E
100
AcDbEntity
  8
0
 48
0.27
100
AcDbLine
 10
188.9050328760623
 20
363.3221164376224
 30
0.0
 11
189.4050328760625
 21
363.8221164376225
 31
0.0
  0
LINE
  5
68FC
330
1E
100
AcDbEntity
  8
0
 48
0.27
100
AcDbLine
 10
205.9050328760625
 20
363.3221164376223
 30
0.0
 11
205.4050328760625
 21
363.8221164376225
 31
0.0
  0
LINE
  5
68FD
330
1E
100
AcDbEntity
  8
0
 48
0.27
100
AcDbLine
 10
189.4050328760625
 20
363.8221164376225
 30
0.0
 11
205.4050328760625
 21
363.8221164376225
 31
0.0
  0
LINE
  5
68FE
330
1E
100
AcDbEntity
  8
0
 48
0.27
100
AcDbLine
 10
185.6740927683868
 20
407.3221164376222
 30
0.0
 11
185.9050328760625
 21
406.9221164376224
 31
0.0
  0
LINE
  5
68FF
330
1E
100
AcDbEntity
  8
0
 48
0.27
100
AcDbLine
 10
208.9050328760625
 20
406.9221164376224
 30
0.0
 11
209.1359729837382
 21
407.3221164376223
 31
0.0
  0
LINE
  5
6900
330
1E
100
AcDbEntity
  8
0
 48
0.27
100
AcDbLine
 10
208.9050328760625
 20
406.9221164376224
 30
0.0
 11
185.9050328760625
 21
406.9221164376224
 31
0.0
  0
LINE
  5
6901
330
1E
100
AcDbEntity
  8
0
 48
0.27
100
AcDbLine
 10
205.4050328760625
 20
386.8221164376224
 30
0.0
 11
205.9050328760625
 21
387.3221164376224
 31
0.0
  0
LINE
  5
6902
330
1E
100
AcDbEntity
  8
0
 48
0.27
100
AcDbLine
 10
205.4050328760625
 20
363.8221164376225
 30
0.0
 11
205.4050328760625
 21
386.8221164376224
 31
0.0
  0
LINE
  5
6903
330
1E
100
AcDbEntity
  8
0
 48
0.27
100
AcDbLine
 10
188.9050328760625
 20
387.3221164376224
 30
0.0
 11
189.4050328760625
 21
386.8221164376224
 31
0.0
  0
LINE
  5
6904
330
1E
100
AcDbEntity
  8
0
 48
0.27
100
AcDbLine
 10
189.4050328760625
 20
363.8221164376225
 30
0.0
 11
189.4050328760625
 21
386.8221164376224
 31
0.0
  0
LINE
  5
6905
330
1E
100
AcDbEntity
  8
0
 48
0.27
100
AcDbLine
 10
208.9050328760625
 20
387.3221164376224
 30
0.0
 11
185.9050328760625
 21
387.3221164376224
 31
0.0
  0
LINE
  5
6906
330
1E
100
AcDbEntity
  8
0
 48
0.27
100
AcDbLine
 10
205.4050328760625
 20
386.8221164376224
 30
0.0
 11
189.4050328760625
 21
386.8221164376224
 31
0.0
  0
LINE
  5
6907
330
1E
100
AcDbEntity
  8
0
 48
0.27
100
AcDbLine
 10
185.9050328760625
 20
387.3221164376224
 30
0.0
 11
185.9050328760625
 21
406.9221164376224
 31
0.0
  0
LINE
  5
6908
330
1E
100
AcDbEntity
  8
0
 48
0.27
100
AcDbLine
 10
208.9050328760625
 20
387.3221164376224
 30
0.0
 11
208.9050328760625
 21
406.9221164376224
 31
0.0
  0
LINE
  5
6909
330
1E
100
AcDbEntity
  8
0
 48
0.27
100
AcDbLine
 10
167.4050328760623
 20
363.3221164376223
 30
0.0
 11
167.4050328760623
 21
407.3221164376222
 31
0.0
  0
LINE
  5
690A
330
1E
100
AcDbEntity
  8
0
 48
0.27
100
AcDbLine
 10
587.4050328760623
 20
363.3221164376223
 30
0.0
 11
587.4050328760622
 21
407.3221164376223
 31
0.0
  0
LINE
  5
690B
330
1E
100
AcDbEntity
  8
中心線
 48
0.27
100
AcDbLine
 10
197.4050328760623
 20
361.4707868637883
 30
0.0
 11
197.4050328760623
 21
409.7826585008771
 31
0.0
  0
LINE
  5
690C
330
1E
100
AcDbEntity
  8
中心線
 48
0.27
100
AcDbLine
 10
557.4050328760623
 20
361.4707868637882
 30
0.0
 11
557.4050328760623
 21
409.782658500877
 31
0.0
  0
LINE
  5
690D
330
1E
100
AcDbEntity
  8
中心線
 48
0.27
100
AcDbLine
 10
317.4050328760622
 20
361.4707868637882
 30
0.0
 11
317.4050328760622
 21
377.7255436506388
 31
0.0
  0
LINE
  5
690E
330
1E
100
AcDbEntity
  8
0
 48
0.27
100
AcDbLine
 10
587.4050328760622
 20
407.3221164376223
 30
0.0
 11
451.5518221830887
 21
407.3221164376224
 31
0.0
  0
LINE
  5
690F
330
1E
100
AcDbEntity
  8
0
 48
0.27
100
AcDbLine
 10
587.4050328760623
 20
375.5221153976222
 30
0.0
 11
238.2525604527657
 21
375.5221153976224
 31
0.0
  0
LINE
  5
6910
330
1E
100
AcDbEntity
  8
0
 48
0.27
100
AcDbLine
 10
587.4050328760623
 20
365.622124033627
 30
0.0
 11
237.6310471227924
 21
365.6221240336272
 31
0.0
  0
LINE
  5
6911
330
1E
100
AcDbEntity
  8
0
 48
0.27
100
AcDbLine
 10
587.4050328760622
 20
406.3341517260837
 30
0.0
 11
451.5518221830887
 21
406.3341517260838
 31
0.0
  0
LINE
  5
6912
330
1E
100
AcDbEntity
  8
0
 48
0.27
100
AcDbLine
 10
587.4050328760622
 20
402.4550672748085
 30
0.0
 11
451.5518221830887
 21
402.4550672748087
 31
0.0
  0
LINE
  5
6913
330
1E
100
AcDbEntity
  8
0
 48
0.27
100
AcDbLine
 10
587.4050328760622
 20
400.0220954376223
 30
0.0
 11
451.5518221830887
 21
400.0220954376224
 31
0.0
  0
LINE
  5
6914
330
1E
100
AcDbEntity
  8
0
 48
0.27
100
AcDbLine
 10
587.4050328760622
 20
397.122121987353
 30
0.0
 11
451.5518221830887
 21
397.1221219873531
 31
0.0
  0
LINE
  5
6915
330
1E
100
AcDbEntity
  8
0
 48
0.27
100
AcDbLine
 10
587.4050328760622
 20
394.6879611321751
 30
0.0
 11
451.5518221830887
 21
394.6879611321753
 31
0.0
  0
LINE
  5
6916
330
1E
100
AcDbEntity
  8
0
 48
0.27
100
AcDbLine
 10
587.4050328760622
 20
390.8102452868197
 30
0.0
 11
451.5518221830887
 21
390.81024528682
 31
0.0
  0
LINE
  5
6917
330
1E
100
AcDbEntity
  8
0
 48
0.27
100
AcDbLine
 10
587.4050328760623
 20
389.3221164376222
 30
0.0
 11
451.5518221830887
 21
389.3221164376224
 31
0.0
  0
LINE
  5
6918
330
1E
100
AcDbEntity
  8
0
 48
0.27
100
AcDbLine
 10
587.4050328760623
 20
383.3221164376223
 30
0.0
 11
451.5518221830887
 21
383.3221164376225
 31
0.0
  0
LINE
  5
6919
330
1E
100
AcDbEntity
  8
0
 48
0.27
100
AcDbLine
 10
587.4050328760624
 20
363.3221164376223
 30
0.0
 11
167.4050328760623
 21
363.3221164376223
 31
0.0
  0
LINE
  5
695A
330
1E
100
AcDbEntity
  8
虛線
 48
0.27
100
AcDbLine
 10
309.1518221830889
 20
418.0200022599541
 30
3.0
 11
310.8518221830892
 21
416.320002259954
 31
3.0
  0
LINE
  5
695B
330
1E
100
AcDbEntity
  8
0
 48
0.27
100
AcDbLine
 10
311.4415501830893
 20
416.320002259954
 30
3.0
 11
311.4415501830893
 21
408.3573782599539
 31
3.0
  0
LINE
  5
695C
330
1E
100
AcDbEntity
  8
虛線
 48
0.27
100
AcDbLine
 10
309.1518221830889
 20
418.0200022599541
 30
3.0
 11
295.151822183089
 21
418.0200022599541
 31
3.0
  0
LINE
  5
695D
330
1E
100
AcDbEntity
  8
虛線
 48
0.27
100
AcDbLine
 10
309.1518221830889
 20
418.0200022599541
 30
3.0
 11
309.1518221830889
 21
431.820002259954
 31
3.0
  0
LINE
  5
695E
330
1E
100
AcDbEntity
  8
虛線
 48
0.27
100
AcDbLine
 10
308.151822183089
 20
418.0200022599541
 30
3.0
 11
308.151822183089
 21
431.820002259954
 31
3.0
  0
LINE
  5
695F
330
1E
100
AcDbEntity
  8
虛線
 48
0.27
100
AcDbLine
 10
296.1518221830889
 20
418.0200022599541
 30
3.0
 11
296.1518221830889
 21
431.820002259954
 31
3.0
  0
LINE
  5
6960
330
1E
100
AcDbEntity
  8
虛線
 48
0.27
100
AcDbLine
 10
295.151822183089
 20
418.0200022599541
 30
3.0
 11
295.151822183089
 21
431.820002259954
 31
3.0
  0
LINE
  5
6961
330
1E
100
AcDbEntity
  8
0
 48
0.27
100
AcDbLine
 10
292.8620941830891
 20
416.320002259954
 30
3.0
 11
292.8620941830891
 21
408.3573782599539
 31
3.0
  0
LINE
  5
6962
330
1E
100
AcDbEntity
  8
虛線
 48
0.27
100
AcDbLine
 10
295.151822183089
 20
418.0200022599541
 30
3.0
 11
293.4518221830891
 21
416.320002259954
 31
3.0
  0
LINE
  5
6963
330
1E
100
AcDbEntity
  8
0
 48
0.27
100
AcDbLine
 10
292.8620941830891
 20
416.320002259954
 30
3.0
 11
311.4415501830893
 21
416.320002259954
 31
3.0
  0
LINE
  5
6964
330
1E
100
AcDbEntity
  8
0
 48
0.27
100
AcDbLine
 10
272.151822183089
 20
406.8233334682742
 30
0.0
 11
293.1059905940021
 21
406.8233334682742
 31
0.0
  0
LINE
  5
6965
330
1E
100
AcDbEntity
  8
0
 48
0.27
100
AcDbLine
 10
311.1964322112752
 20
406.8233334682742
 30
0.0
 11
388.1072121549027
 21
406.8233334682742
 31
0.0
  0
LWPOLYLINE
  5
6966
330
1E
100
AcDbEntity
  8
0
 48
0.27
100
AcDbPolyline
 90
       73
 70
     0
 43
0.0
 38
3.0
 10
292.8620941830891
 20
408.2880582819702
 10
292.871771660797
 20
408.1706135017741
 10
292.8997316481286
 20
407.9933993457358
 10
292.9125420076414
 20
407.9222103043382
 10
292.9646706722256
 20
407.646245932018
 10
293.0122984945595
 20
407.3919878939055
 10
293.0944962896373
 20
406.9085297415396
 10
293.1710260624602
 20
406.3412878074944
 10
293.192140506736
 20
406.1396299292449
 10
293.2211605334277
 20
405.7898985863682
 10
293.2477062556645
 20
405.450537777818
 10
293.3058512918217
 20
404.7483772449037
 10
293.4324402815154
 20
403.3748555370437
 10
293.6820389096829
 20
401.0932535562345
 10
293.9933868520009
 20
398.7545334906083
 10
294.1104233572776
 20
397.9766972012896
 10
294.4936946457735
 20
395.708927896865
 10
294.835823783536
 20
393.9688971016871
 10
295.1334783830028
 20
392.6217014524828
 10
295.5135515651864
 20
391.0822141554874
 10
295.8413861527894
 20
389.892709154081
 10
296.2887410696612
 20
388.443007610153
 10
296.6765856569679
 20
387.327730788641
 10
297.1959825007426
 20
386.0115217604059
 10
297.3310860125321
 20
385.6994979052198
 10
297.400704460187
 20
385.5452796741408
 10
297.5024341598717
 20
385.3581063930942
 10
297.7482092817547
 20
385.0266163711777
 10
297.9739976104685
 20
384.803178535635
 10
298.3045252791597
 20
384.5544696913287
 10
298.747415564035
 20
384.3116724450615
 10
299.1149905704481
 20
384.1615919282852
 10
299.6503614144936
 20
383.9991369331121
 10
300.4156648563434
 20
383.8483243685174
 10
301.2098593812491
 20
383.7614248861637
 10
301.8358202555853
 20
383.7317086317387
 10
302.6892344039434
 20
383.7385595197052
 10
303.3487788935835
 20
383.783006357359
 10
304.167231397234
 20
383.8941789401438
 10
304.7838032445621
 20
384.0338287426295
 10
305.3356045308165
 20
384.2168181044779
 10
305.7373207124966
 20
384.401239455558
 10
306.0307711210299
 20
384.5755209072827
 10
306.3720091975938
 20
384.8410125306206
 10
306.6058177842231
 20
385.08508102109
 10
306.8293080775327
 20
385.4056322378816
 10
306.9108306025035
 20
385.5618395229247
 10
306.9800084752971
 20
385.7163948474883
 10
307.4955885440789
 20
386.9762666128938
 10
308.0098112696907
 20
388.4274951589584
 10
308.367404246386
 20
389.5695506076899
 10
308.8174542007189
 20
391.1852610950289
 10
309.2944309872733
 20
393.1659053952474
 10
309.6199758484698
 20
394.7161141573245
 10
310.0231060017328
 20
396.9215432748916
 10
310.3739113824838
 20
399.1983097759931
 10
310.4778757490208
 20
399.9590104907225
 10
310.7377896608578
 20
402.0980086233519
 10
310.9584907033818
 20
404.3012547094714
 10
311.0221845237118
 20
405.0365414540434
 10
311.0744729815707
 20
405.6861231494536
 10
311.098894786217
 20
405.9999524221362
 10
311.1281801881447
 20
406.3018152513559
 10
311.19225526422
 20
406.7976744867944
 10
311.2666676479192
 20
407.2547896835955
 10
311.2915541117103
 20
407.3931247858588
 10
311.3521361903384
 20
407.7161279518167
 10
311.3975736828163
 20
407.9590161228455
 10
311.4294431557402
 20
408.1522085130592
 10
311.4358523397013
 20
408.2029947367446
 10
311.4408724120547
 20
408.3087486105704
 10
311.4304417101509
 20
408.3500150897154
 10
311.4195982278096
 20
408.3567801773122
  0
LINE
  5
6967
330
1E
100
AcDbEntity
  8
中心線
 48
0.27
100
AcDbLine
 10
302.151822183089
 20
405.2781001626375
 30
3.0
 11
302.151822183089
 21
435.3200022599541
 31
0.0
  0
LINE
  5
6968
330
1E
100
AcDbEntity
  8
虛線
 48
0.27
100
AcDbLine
 10
309.1518221830889
 20
431.820002259954
 30
3.0
 11
310.6518221830892
 21
433.3200022599541
 31
3.0
  0
LINE
  5
6969
330
1E
100
AcDbEntity
  8
虛線
 48
0.27
100
AcDbLine
 10
309.1518221830889
 20
431.820002259954
 30
3.0
 11
295.151822183089
 21
431.820002259954
 31
3.0
  0
LINE
  5
696A
330
1E
100
AcDbEntity
  8
虛線
 48
0.27
100
AcDbLine
 10
295.151822183089
 20
431.820002259954
 30
3.0
 11
293.651822183089
 21
433.3200022599541
 31
3.0
  0
LINE
  5
696B
330
1E
100
AcDbEntity
  8
0
 48
0.27
100
AcDbLine
 10
406.4415501830889
 20
416.320002259954
 30
3.0
 11
406.4415501830889
 21
408.3573782599539
 31
3.0
  0
LINE
  5
696C
330
1E
100
AcDbEntity
  8
0
 48
0.27
100
AcDbLine
 10
387.8620941830886
 20
416.320002259954
 30
3.0
 11
387.8620941830886
 21
408.3573782599539
 31
3.0
  0
LINE
  5
696D
330
1E
100
AcDbEntity
  8
0
 48
0.27
100
AcDbLine
 10
406.197653772176
 20
406.8233334682742
 30
0.0
 11
427.1518221830889
 21
406.8233334682742
 31
0.0
  0
LWPOLYLINE
  5
696E
330
1E
100
AcDbEntity
  8
0
 48
0.27
100
AcDbPolyline
 90
       73
 70
     0
 43
0.0
 38
3.0
 10
406.4415501830889
 20
408.2880582819702
 10
406.431872705381
 20
408.1706135017741
 10
406.4039127180493
 20
407.9933993457358
 10
406.3911023585364
 20
407.9222103043382
 10
406.3389736939523
 20
407.646245932018
 10
406.2913458716184
 20
407.3919878939055
 10
406.2091480765407
 20
406.9085297415396
 10
406.1326183037176
 20
406.3412878074944
 10
406.111503859442
 20
406.1396299292449
 10
406.0824838327501
 20
405.7898985863682
 10
406.0559381105134
 20
405.450537777818
 10
405.9977930743562
 20
404.7483772449037
 10
405.8712040846626
 20
403.3748555370437
 10
405.6216054564949
 20
401.0932535562345
 10
405.3102575141769
 20
398.7545334906083
 10
405.1932210089004
 20
397.9766972012896
 10
404.8099497204043
 20
395.708927896865
 10
404.4678205826419
 20
393.9688971016871
 10
404.1701659831751
 20
392.6217014524828
 10
403.7900928009916
 20
391.0822141554874
 10
403.4622582133886
 20
389.892709154081
 10
403.0149032965166
 20
388.443007610153
 10
402.62705870921
 20
387.327730788641
 10
402.1076618654353
 20
386.0115217604059
 10
401.9725583536458
 20
385.6994979052198
 10
401.9029399059909
 20
385.5452796741408
 10
401.8012102063062
 20
385.3581063930942
 10
401.5554350844232
 20
385.0266163711777
 10
401.3296467557095
 20
384.803178535635
 10
400.9991190870182
 20
384.5544696913287
 10
400.5562288021428
 20
384.3116724450615
 10
400.1886537957298
 20
384.1615919282852
 10
399.6532829516843
 20
383.9991369331121
 10
398.8879795098346
 20
383.8483243685174
 10
398.0937849849289
 20
383.7614248861637
 10
397.4678241105925
 20
383.7317086317387
 10
396.6144099622344
 20
383.7385595197052
 10
395.9548654725945
 20
383.783006357359
 10
395.1364129689439
 20
383.8941789401438
 10
394.5198411216158
 20
384.0338287426295
 10
393.9680398353614
 20
384.2168181044779
 10
393.5663236536813
 20
384.401239455558
 10
393.272873245148
 20
384.5755209072827
 10
392.9316351685841
 20
384.8410125306206
 10
392.6978265819548
 20
385.08508102109
 10
392.4743362886451
 20
385.4056322378816
 10
392.3928137636744
 20
385.5618395229247
 10
392.3236358908809
 20
385.7163948474883
 10
391.808055822099
 20
386.9762666128938
 10
391.2938330964873
 20
388.4274951589584
 10
390.936240119792
 20
389.5695506076899
 10
390.4861901654589
 20
391.1852610950289
 10
390.0092133789046
 20
393.1659053952474
 10
389.6836685177081
 20
394.7161141573245
 10
389.2805383644451
 20
396.9215432748916
 10
388.929732983694
 20
399.1983097759931
 10
388.825768617157
 20
399.9590104907225
 10
388.5658547053201
 20
402.0980086233519
 10
388.3451536627962
 20
404.3012547094714
 10
388.2814598424661
 20
405.0365414540434
 10
388.2291713846072
 20
405.6861231494536
 10
388.2047495799609
 20
405.9999524221362
 10
388.1754641780332
 20
406.3018152513559
 10
388.1113891019579
 20
406.7976744867944
 10
388.0369767182587
 20
407.2547896835955
 10
388.0120902544677
 20
407.3931247858588
 10
387.9515081758395
 20
407.7161279518167
 10
387.9060706833616
 20
407.9590161228455
 10
387.8742012104378
 20
408.1522085130592
 10
387.8677920264767
 20
408.2029947367446
 10
387.8627719541232
 20
408.3087486105704
 10
387.873202656027
 20
408.3500150897154
 10
387.8840461383683
 20
408.3567801773122
  0
LINE
  5
696F
330
1E
100
AcDbEntity
  8
中心線
 48
0.27
100
AcDbLine
 10
397.151822183089
 20
405.2781001626375
 30
3.0
 11
397.151822183089
 21
435.3200022599541
 31
0.0
  0
LINE
  5
6970
330
1E
100
AcDbEntity
  8
虛線
 48
0.27
100
AcDbLine
 10
404.151822183089
 20
418.0200022599541
 30
3.0
 11
405.8518221830893
 21
416.320002259954
 31
3.0
  0
LINE
  5
6971
330
1E
100
AcDbEntity
  8
虛線
 48
0.27
100
AcDbLine
 10
403.151822183089
 20
418.0200022599541
 30
3.0
 11
403.151822183089
 21
431.820002259954
 31
3.0
  0
LINE
  5
6972
330
1E
100
AcDbEntity
  8
虛線
 48
0.27
100
AcDbLine
 10
404.151822183089
 20
418.0200022599541
 30
3.0
 11
404.151822183089
 21
431.820002259954
 31
3.0
  0
LINE
  5
6973
330
1E
100
AcDbEntity
  8
虛線
 48
0.27
100
AcDbLine
 10
390.151822183089
 20
418.0200022599541
 30
3.0
 11
388.4518221830892
 21
416.320002259954
 31
3.0
  0
LINE
  5
6974
330
1E
100
AcDbEntity
  8
虛線
 48
0.27
100
AcDbLine
 10
390.151822183089
 20
418.0200022599541
 30
3.0
 11
390.151822183089
 21
431.820002259954
 31
3.0
  0
LINE
  5
6975
330
1E
100
AcDbEntity
  8
虛線
 48
0.27
100
AcDbLine
 10
391.151822183089
 20
418.0200022599541
 30
3.0
 11
391.151822183089
 21
431.820002259954
 31
3.0
  0
LINE
  5
6976
330
1E
100
AcDbEntity
  8
虛線
 48
0.27
100
AcDbLine
 10
404.151822183089
 20
418.0200022599541
 30
3.0
 11
390.151822183089
 21
418.0200022599541
 31
3.0
  0
LINE
  5
6977
330
1E
100
AcDbEntity
  8
0
 48
0.27
100
AcDbLine
 10
406.4415501830889
 20
416.320002259954
 30
3.0
 11
387.8620941830886
 21
416.320002259954
 31
3.0
  0
LINE
  5
6978
330
1E
100
AcDbEntity
  8
虛線
 48
0.27
100
AcDbLine
 10
404.151822183089
 20
431.820002259954
 30
3.0
 11
405.6518221830892
 21
433.3200022599541
 31
3.0
  0
LINE
  5
6979
330
1E
100
AcDbEntity
  8
虛線
 48
0.27
100
AcDbLine
 10
404.151822183089
 20
431.820002259954
 30
3.0
 11
390.151822183089
 21
431.820002259954
 31
3.0
  0
LINE
  5
697A
330
1E
100
AcDbEntity
  8
虛線
 48
0.27
100
AcDbLine
 10
390.151822183089
 20
431.820002259954
 30
3.0
 11
388.651822183089
 21
433.3200022599541
 31
3.0
  0
ENDSEC
  0
SECTION
  2
OBJECTS
  0
DICTIONARY
  5
C
330
0
100
AcDbDictionary
281
     1
  3
ACAD_COLOR
350
3D97
  3
ACAD_GROUP
350
D
  3
ACAD_LAYOUT
350
19
  3
ACAD_MATERIAL
350
3D96
  3
ACAD_MLINESTYLE
350
16
  3
ACAD_PLOTSETTINGS
350
18
  3
ACAD_PLOTSTYLENAME
350
E
  3
ACDBHEADERROUNDTRIPXREC
350
698F
  3
AcDbVariableDictionary
350
3E63
  0
DICTIONARY
  5
43C2
330
2
100
AcDbDictionary
280
     1
281
     1
  3
ACAD_LAYERSTATES
360
43C3
  0
DICTIONARY
  5
3D1E
330
1E
100
AcDbDictionary
280
     1
281
     1
  3
ACAD_LAYOUTSELFREF
360
3D92
  0
DICTIONARY
  5
3D20
330
1A
100
AcDbDictionary
280
     1
281
     1
  3
ACAD_LAYOUTSELFREF
360
3D91
  0
DICTIONARY
  5
3D97
102
{ACAD_REACTORS
330
C
102
}
330
C
100
AcDbDictionary
281
     1
  0
DICTIONARY
  5
D
102
{ACAD_REACTORS
330
C
102
}
330
C
100
AcDbDictionary
281
     1
  3
*A1
350
4143
  3
*A10
350
43C0
  3
*A11
350
43C1
  3
*A12
350
43B7
  3
*A13
350
4148
  3
*A14
350
414C
  3
*A15
350
414F
  3
*A16
350
437E
  3
*A17
350
4149
  3
*A18
350
414A
  3
*A19
350
414B
  3
*A2
350
43BC
  3
*A20
350
5691
  3
*A21
350
4239
  3
*A22
350
423B
  3
*A23
350
43B8
  3
*A24
350
576A
  3
*A25
350
579E
  3
*A26
350
57D9
  3
*A27
350
4235
  3
*A28
350
4240
  3
*A29
350
4373
  3
*A3
350
43BD
  3
*A30
350
4236
  3
*A31
350
4237
  3
*A32
350
4238
  3
*A33
350
423C
  3
*A34
350
4377
  3
*A35
350
4379
  3
*A36
350
423D
  3
*A37
350
423E
  3
*A38
350
423F
  3
*A39
350
4374
  3
*A4
350
437D
  3
*A40
350
437F
  3
*A41
350
4375
  3
*A42
350
4145
  3
*A43
350
4376
  3
*A44
350
437A
  3
*A45
350
43B9
  3
*A46
350
437B
  3
*A47
350
414D
  3
*A48
350
437C
  3
*A49
350
4146
  3
*A5
350
43BE
  3
*A50
350
43B5
  3
*A51
350
423A
  3
*A52
350
43B6
  3
*A53
350
414E
  3
*A54
350
43BA
  3
*A55
350
4241
  3
*A56
350
43BB
  3
*A6
350
4144
  3
*A7
350
4147
  3
*A8
350
4378
  3
*A9
350
43BF
  0
DICTIONARY
  5
19
102
{ACAD_REACTORS
330
C
102
}
330
C
100
AcDbDictionary
281
     1
  3
Model
350
21
  3
配置1
350
1D
  0
DICTIONARY
  5
3D96
102
{ACAD_REACTORS
330
C
102
}
330
C
100
AcDbDictionary
281
     1
  0
DICTIONARY
  5
16
102
{ACAD_REACTORS
330
C
102
}
330
C
100
AcDbDictionary
281
     1
  3
Standard
350
17
  0
DICTIONARY
  5
18
102
{ACAD_REACTORS
330
C
102
}
330
C
100
AcDbDictionary
281
     1
  3
LANSRO
350
4150
  0
ACDBDICTIONARYWDFLT
  5
E
102
{ACAD_REACTORS
330
C
102
}
330
C
100
AcDbDictionary
281
     1
  3
Normal
350
F
100
AcDbDictionaryWithDefault
340
F
  0
DICTIONARY
  5
698F
102
{ACAD_REACTORS
330
C
102
}
330
C
100
AcDbDictionary
281
     1
  3
CEPSNTYPE
350
6999
  3
DIMSTYLEDATA
350
699D
  3
FINGERPRINTGUID
350
699A
  3
HYPERLINKBASE
350
6992
  3
INSUNITS
350
6998
  3
LAYOUTDICT
350
6994
  3
LWETCUNION
350
6997
  3
PLOTSETDICT
350
6995
  3
PLOTSTYLNAMDICT
350
6996
  3
PSVPSCALE
350
699C
  3
PUCSBASE
350
69A0
  3
PUCSORGBACK
350
69A6
  3
PUCSORGBOTTOM
350
69A2
  3
PUCSORGFRONT
350
69A5
  3
PUCSORGLEFT
350
69A3
  3
PUCSORGRIGHT
350
69A4
  3
PUCSORGTOP
350
69A1
  3
PUCSORTHOREF
350
699E
  3
PUCSORTHOVIEW
350
699F
  3
STYLESHEET
350
6993
  3
TSTACKALIGN
350
6990
  3
TSTACKSIZE
350
6991
  3
UCSBASE
350
69A9
  3
UCSORGBACK
350
69AF
  3
UCSORGBOTTOM
350
69AB
  3
UCSORGFRONT
350
69AE
  3
UCSORGLEFT
350
69AC
  3
UCSORGRIGHT
350
69AD
  3
UCSORGTOP
350
69AA
  3
UCSORTHOREF
350
69A7
  3
UCSORTHOVIEW
350
69A8
  3
VERSIONGUID
350
699B
  0
DICTIONARY
  5
3E63
102
{ACAD_REACTORS
330
C
102
}
330
C
100
AcDbDictionary
281
     1
  3
DIMASSOC
350
3E64
  3
PROJECTNAME
350
3E65
  0
DICTIONARY
  5
43C3
102
{ACAD_REACTORS
330
43C2
102
}
330
43C2
100
AcDbDictionary
281
     1
  0
XRECORD
  5
3D92
102
{ACAD_REACTORS
330
3D1E
102
}
330
3D1E
100
AcDbXrecord
280
     1
340
1E
  0
XRECORD
  5
3D91
102
{ACAD_REACTORS
330
3D20
102
}
330
3D20
100
AcDbXrecord
280
     1
340
1A
  0
GROUP
  5
4143
102
{ACAD_REACTORS
330
D
102
}
330
D
100
AcDbGroup
300

 70
     1
 71
     1
  0
GROUP
  5
43C0
102
{ACAD_REACTORS
330
D
102
}
330
D
100
AcDbGroup
300

 70
     1
 71
     1
  0
GROUP
  5
43C1
102
{ACAD_REACTORS
330
D
102
}
330
D
100
AcDbGroup
300

 70
     1
 71
     1
  0
GROUP
  5
43B7
102
{ACAD_REACTORS
330
D
102
}
330
D
100
AcDbGroup
300

 70
     1
 71
     1
  0
GROUP
  5
4148
102
{ACAD_REACTORS
330
D
102
}
330
D
100
AcDbGroup
300

 70
     1
 71
     1
  0
GROUP
  5
414C
102
{ACAD_REACTORS
330
D
102
}
330
D
100
AcDbGroup
300

 70
     1
 71
     1
  0
GROUP
  5
414F
102
{ACAD_REACTORS
330
D
102
}
330
D
100
AcDbGroup
300

 70
     1
 71
     1
  0
GROUP
  5
437E
102
{ACAD_REACTORS
330
D
102
}
330
D
100
AcDbGroup
300

 70
     1
 71
     1
  0
GROUP
  5
4149
102
{ACAD_REACTORS
330
D
102
}
330
D
100
AcDbGroup
300

 70
     1
 71
     1
  0
GROUP
  5
414A
102
{ACAD_REACTORS
330
D
102
}
330
D
100
AcDbGroup
300

 70
     1
 71
     1
  0
GROUP
  5
414B
102
{ACAD_REACTORS
330
D
102
}
330
D
100
AcDbGroup
300

 70
     1
 71
     1
  0
GROUP
  5
43BC
102
{ACAD_REACTORS
330
D
102
}
330
D
100
AcDbGroup
300

 70
     1
 71
     1
  0
GROUP
  5
5691
102
{ACAD_REACTORS
330
D
102
}
330
D
100
AcDbGroup
300

 70
     1
 71
     1
  0
GROUP
  5
4239
102
{ACAD_REACTORS
330
D
102
}
330
D
100
AcDbGroup
300

 70
     1
 71
     1
  0
GROUP
  5
423B
102
{ACAD_REACTORS
330
D
102
}
330
D
100
AcDbGroup
300

 70
     1
 71
     1
  0
GROUP
  5
43B8
102
{ACAD_REACTORS
330
D
102
}
330
D
100
AcDbGroup
300

 70
     1
 71
     1
  0
GROUP
  5
576A
102
{ACAD_REACTORS
330
D
102
}
330
D
100
AcDbGroup
300

 70
     1
 71
     1
  0
GROUP
  5
579E
102
{ACAD_REACTORS
330
D
102
}
330
D
100
AcDbGroup
300

 70
     1
 71
     1
  0
GROUP
  5
57D9
102
{ACAD_REACTORS
330
D
102
}
330
D
100
AcDbGroup
300

 70
     1
 71
     1
  0
GROUP
  5
4235
102
{ACAD_REACTORS
330
D
102
}
330
D
100
AcDbGroup
300

 70
     1
 71
     1
  0
GROUP
  5
4240
102
{ACAD_REACTORS
330
D
102
}
330
D
100
AcDbGroup
300

 70
     1
 71
     1
  0
GROUP
  5
4373
102
{ACAD_REACTORS
330
D
102
}
330
D
100
AcDbGroup
300

 70
     1
 71
     1
  0
GROUP
  5
43BD
102
{ACAD_REACTORS
330
D
102
}
330
D
100
AcDbGroup
300

 70
     1
 71
     1
  0
GROUP
  5
4236
102
{ACAD_REACTORS
330
D
102
}
330
D
100
AcDbGroup
300

 70
     1
 71
     1
  0
GROUP
  5
4237
102
{ACAD_REACTORS
330
D
102
}
330
D
100
AcDbGroup
300

 70
     1
 71
     1
  0
GROUP
  5
4238
102
{ACAD_REACTORS
330
D
102
}
330
D
100
AcDbGroup
300

 70
     1
 71
     1
  0
GROUP
  5
423C
102
{ACAD_REACTORS
330
D
102
}
330
D
100
AcDbGroup
300

 70
     1
 71
     1
  0
GROUP
  5
4377
102
{ACAD_REACTORS
330
D
102
}
330
D
100
AcDbGroup
300

 70
     1
 71
     1
  0
GROUP
  5
4379
102
{ACAD_REACTORS
330
D
102
}
330
D
100
AcDbGroup
300

 70
     1
 71
     1
  0
GROUP
  5
423D
102
{ACAD_REACTORS
330
D
102
}
330
D
100
AcDbGroup
300

 70
     1
 71
     1
  0
GROUP
  5
423E
102
{ACAD_REACTORS
330
D
102
}
330
D
100
AcDbGroup
300

 70
     1
 71
     1
  0
GROUP
  5
423F
102
{ACAD_REACTORS
330
D
102
}
330
D
100
AcDbGroup
300

 70
     1
 71
     1
  0
GROUP
  5
4374
102
{ACAD_REACTORS
330
D
102
}
330
D
100
AcDbGroup
300

 70
     1
 71
     1
  0
GROUP
  5
437D
102
{ACAD_REACTORS
330
D
102
}
330
D
100
AcDbGroup
300

 70
     1
 71
     1
  0
GROUP
  5
437F
102
{ACAD_REACTORS
330
D
102
}
330
D
100
AcDbGroup
300

 70
     1
 71
     1
  0
GROUP
  5
4375
102
{ACAD_REACTORS
330
D
102
}
330
D
100
AcDbGroup
300

 70
     1
 71
     1
  0
GROUP
  5
4145
102
{ACAD_REACTORS
330
D
102
}
330
D
100
AcDbGroup
300

 70
     1
 71
     1
  0
GROUP
  5
4376
102
{ACAD_REACTORS
330
D
102
}
330
D
100
AcDbGroup
300

 70
     1
 71
     1
  0
GROUP
  5
437A
102
{ACAD_REACTORS
330
D
102
}
330
D
100
AcDbGroup
300

 70
     1
 71
     1
  0
GROUP
  5
43B9
102
{ACAD_REACTORS
330
D
102
}
330
D
100
AcDbGroup
300

 70
     1
 71
     1
  0
GROUP
  5
437B
102
{ACAD_REACTORS
330
D
102
}
330
D
100
AcDbGroup
300

 70
     1
 71
     1
  0
GROUP
  5
414D
102
{ACAD_REACTORS
330
D
102
}
330
D
100
AcDbGroup
300

 70
     1
 71
     1
  0
GROUP
  5
437C
102
{ACAD_REACTORS
330
D
102
}
330
D
100
AcDbGroup
300

 70
     1
 71
     1
  0
GROUP
  5
4146
102
{ACAD_REACTORS
330
D
102
}
330
D
100
AcDbGroup
300

 70
     1
 71
     1
  0
GROUP
  5
43BE
102
{ACAD_REACTORS
330
D
102
}
330
D
100
AcDbGroup
300

 70
     1
 71
     1
  0
GROUP
  5
43B5
102
{ACAD_REACTORS
330
D
102
}
330
D
100
AcDbGroup
300

 70
     1
 71
     1
  0
GROUP
  5
423A
102
{ACAD_REACTORS
330
D
102
}
330
D
100
AcDbGroup
300

 70
     1
 71
     1
  0
GROUP
  5
43B6
102
{ACAD_REACTORS
330
D
102
}
330
D
100
AcDbGroup
300

 70
     1
 71
     1
  0
GROUP
  5
414E
102
{ACAD_REACTORS
330
D
102
}
330
D
100
AcDbGroup
300

 70
     1
 71
     1
  0
GROUP
  5
43BA
102
{ACAD_REACTORS
330
D
102
}
330
D
100
AcDbGroup
300

 70
     1
 71
     1
  0
GROUP
  5
4241
102
{ACAD_REACTORS
330
D
102
}
330
D
100
AcDbGroup
300

 70
     1
 71
     1
  0
GROUP
  5
43BB
102
{ACAD_REACTORS
330
D
102
}
330
D
100
AcDbGroup
300

 70
     1
 71
     1
  0
GROUP
  5
4144
102
{ACAD_REACTORS
330
D
102
}
330
D
100
AcDbGroup
300

 70
     1
 71
     1
  0
GROUP
  5
4147
102
{ACAD_REACTORS
330
D
102
}
330
D
100
AcDbGroup
300

 70
     1
 71
     1
  0
GROUP
  5
4378
102
{ACAD_REACTORS
330
D
102
}
330
D
100
AcDbGroup
300

 70
     1
 71
     1
  0
GROUP
  5
43BF
102
{ACAD_REACTORS
330
D
102
}
330
D
100
AcDbGroup
300

 70
     1
 71
     1
  0
LAYOUT
  5
21
102
{ACAD_XDICTIONARY
360
6981
102
}
102
{ACAD_REACTORS
330
19
102
}
330
19
100
AcDbPlotSettings
  1

  2
HP 2200
  4

  6

 40
0.0
 41
0.0
 42
0.0
 43
0.0
 44
0.0
 45
0.0
 46
0.0
 47
0.0
 48
0.0
 49
0.0
140
0.0
141
0.0
142
1.0
143
1.0
 70
  1712
 72
     0
 73
     0
 74
     0
  7
AAA.ctb
 75
     0
147
1.0
148
0.0
149
0.0
100
AcDbLayout
  1
Model
 70
     1
 71
     0
 10
0.0
 20
0.0
 11
12.0
 21
9.0
 12
0.0
 22
0.0
 32
0.0
 14
0.0
 24
0.0
 34
0.0
 15
0.0
 25
0.0
 35
0.0
146
0.0
 13
0.0
 23
0.0
 33
0.0
 16
1.0
 26
0.0
 36
0.0
 17
0.0
 27
1.0
 37
0.0
 76
     0
330
1E
  0
LAYOUT
  5
1D
102
{ACAD_XDICTIONARY
360
697F
102
}
102
{ACAD_REACTORS
330
19
102
}
330
19
100
AcDbPlotSettings
  1

  2
HP 2200
  4

  6

 40
0.0
 41
0.0
 42
0.0
 43
0.0
 44
0.0
 45
0.0
 46
0.0
 47
0.0
 48
0.0
 49
0.0
140
0.0
141
0.0
142
1.0
143
1.0
 70
   688
 72
     0
 73
     0
 74
     5
  7
AAA.ctb
 75
    16
147
1.0
148
0.0
149
0.0
100
AcDbLayout
  1
配置1
 70
     0
 71
     1
 10
0.0
 20
0.0
 11
12.0
 21
9.0
 12
0.0
 22
0.0
 32
0.0
 14
1.000000000000000E+20
 24
1.000000000000000E+20
 34
1.000000000000000E+20
 15
-1.000000000000000E+20
 25
-1.000000000000000E+20
 35
-1.000000000000000E+20
146
0.0
 13
0.0
 23
0.0
 33
0.0
 16
1.0
 26
0.0
 36
0.0
 17
0.0
 27
1.0
 37
0.0
 76
     0
330
1A
  0
MLINESTYLE
  5
17
102
{ACAD_REACTORS
330
16
102
}
330
16
100
AcDbMlineStyle
  2
STANDARD
 70
     0
  3

 62
   256
 51
90.0
 52
90.0
 71
     2
 49
0.5
 62
   256
  6
BYLAYER
 49
-0.5
 62
   256
  6
BYLAYER
  0
PLOTSETTINGS
  5
4150
102
{ACAD_XDICTIONARY
360
6983
102
}
102
{ACAD_REACTORS
330
18
102
}
330
18
100
AcDbPlotSettings
  1
LANSRO
  2
\\1260\HP2200
  4
A4
  6

 40
6.043083190917968
 41
6.762742042541503
 42
7.736419677734375
 43
5.027069091796875
 44
209.9733276367187
 45
296.9683227539062
 46
5.15
 47
0.0
 48
0.0
 49
0.0
140
0.0
141
0.0
142
1.0
143
0.8829829263240881
 70
  1716
 72
     1
 73
     1
 74
     0
  7
AAA.ctb
 75
     0
147
1.132524729739748
148
-132.297014905803
149
-71.78507365635891
  0
ACDBPLACEHOLDER
  5
F
102
{ACAD_REACTORS
330
E
102
}
330
E
  0
XRECORD
  5
6999
102
{ACAD_REACTORS
330
698F
102
}
330
698F
100
AcDbXrecord
280
     1
 90
        0
  0
XRECORD
  5
699D
102
{ACAD_REACTORS
330
698F
102
}
330
698F
100
AcDbXrecord
280
     1
1000
DSTYLE
1002
{
1070
   279
 70
     2
1002
}
  0
XRECORD
  5
699A
102
{ACAD_REACTORS
330
698F
102
}
330
698F
100
AcDbXrecord
280
     1
  1
{77095E5F-9CE7-11D7-970D-0040F4541FA8}
  0
XRECORD
  5
6992
102
{ACAD_REACTORS
330
698F
102
}
330
698F
100
AcDbXrecord
280
     1
  1

  0
XRECORD
  5
6998
102
{ACAD_REACTORS
330
698F
102
}
330
698F
100
AcDbXrecord
280
     1
 90
        0
  0
XRECORD
  5
6994
102
{ACAD_REACTORS
330
698F
102
}
330
698F
100
AcDbXrecord
280
     1
340
19
  0
XRECORD
  5
6997
102
{ACAD_REACTORS
330
698F
102
}
330
698F
100
AcDbXrecord
280
     1
 90
    14877
  0
XRECORD
  5
6995
102
{ACAD_REACTORS
330
698F
102
}
330
698F
100
AcDbXrecord
280
     1
340
18
  0
XRECORD
  5
6996
102
{ACAD_REACTORS
330
698F
102
}
330
698F
100
AcDbXrecord
280
     1
340
E
  0
XRECORD
  5
699C
102
{ACAD_REACTORS
330
698F
102
}
330
698F
100
AcDbXrecord
280
     1
 40
0.0
  0
XRECORD
  5
69A0
102
{ACAD_REACTORS
330
698F
102
}
330
698F
100
AcDbXrecord
280
     1
340
0
  0
XRECORD
  5
69A6
102
{ACAD_REACTORS
330
698F
102
}
330
698F
100
AcDbXrecord
280
     1
 10
0.0
 20
0.0
 30
0.0
  0
XRECORD
  5
69A2
102
{ACAD_REACTORS
330
698F
102
}
330
698F
100
AcDbXrecord
280
     1
 10
0.0
 20
0.0
 30
0.0
  0
XRECORD
  5
69A5
102
{ACAD_REACTORS
330
698F
102
}
330
698F
100
AcDbXrecord
280
     1
 10
0.0
 20
0.0
 30
0.0
  0
XRECORD
  5
69A3
102
{ACAD_REACTORS
330
698F
102
}
330
698F
100
AcDbXrecord
280
     1
 10
0.0
 20
0.0
 30
0.0
  0
XRECORD
  5
69A4
102
{ACAD_REACTORS
330
698F
102
}
330
698F
100
AcDbXrecord
280
     1
 10
0.0
 20
0.0
 30
0.0
  0
XRECORD
  5
69A1
102
{ACAD_REACTORS
330
698F
102
}
330
698F
100
AcDbXrecord
280
     1
 10
0.0
 20
0.0
 30
0.0
  0
XRECORD
  5
699E
102
{ACAD_REACTORS
330
698F
102
}
330
698F
100
AcDbXrecord
280
     1
340
0
  0
XRECORD
  5
699F
102
{ACAD_REACTORS
330
698F
102
}
330
698F
100
AcDbXrecord
280
     1
 70
     0
  0
XRECORD
  5
6993
102
{ACAD_REACTORS
330
698F
102
}
330
698F
100
AcDbXrecord
280
     1
  1

  0
XRECORD
  5
6990
102
{ACAD_REACTORS
330
698F
102
}
330
698F
100
AcDbXrecord
280
     1
 90
        1
  0
XRECORD
  5
6991
102
{ACAD_REACTORS
330
698F
102
}
330
698F
100
AcDbXrecord
280
     1
 90
       70
  0
XRECORD
  5
69A9
102
{ACAD_REACTORS
330
698F
102
}
330
698F
100
AcDbXrecord
280
     1
340
0
  0
XRECORD
  5
69AF
102
{ACAD_REACTORS
330
698F
102
}
330
698F
100
AcDbXrecord
280
     1
 10
0.0
 20
0.0
 30
0.0
  0
XRECORD
  5
69AB
102
{ACAD_REACTORS
330
698F
102
}
330
698F
100
AcDbXrecord
280
     1
 10
0.0
 20
0.0
 30
0.0
  0
XRECORD
  5
69AE
102
{ACAD_REACTORS
330
698F
102
}
330
698F
100
AcDbXrecord
280
     1
 10
0.0
 20
0.0
 30
0.0
  0
XRECORD
  5
69AC
102
{ACAD_REACTORS
330
698F
102
}
330
698F
100
AcDbXrecord
280
     1
 10
0.0
 20
0.0
 30
0.0
  0
XRECORD
  5
69AD
102
{ACAD_REACTORS
330
698F
102
}
330
698F
100
AcDbXrecord
280
     1
 10
0.0
 20
0.0
 30
0.0
  0
XRECORD
  5
69AA
102
{ACAD_REACTORS
330
698F
102
}
330
698F
100
AcDbXrecord
280
     1
 10
0.0
 20
0.0
 30
0.0
  0
XRECORD
  5
69A7
102
{ACAD_REACTORS
330
698F
102
}
330
698F
100
AcDbXrecord
280
     1
340
0
  0
XRECORD
  5
69A8
102
{ACAD_REACTORS
330
698F
102
}
330
698F
100
AcDbXrecord
280
     1
 70
     0
  0
XRECORD
  5
699B
102
{ACAD_REACTORS
330
698F
102
}
330
698F
100
AcDbXrecord
280
     1
  1
{9BFC1488-6220-4469-AD7A-785A5F7F04D6}
  0
DICTIONARYVAR
  5
3E64
102
{ACAD_REACTORS
330
3E63
102
}
330
3E63
100
DictionaryVariables
280
     0
  1
1
  0
DICTIONARYVAR
  5
3E65
102
{ACAD_REACTORS
330
3E63
102
}
330
3E63
100
DictionaryVariables
280
     0
  1

  0
DICTIONARY
  5
6981
330
21
100
AcDbDictionary
280
     1
281
     1
  3
ACAD_XREC_ROUNDTRIP
360
6982
  0
DICTIONARY
  5
697F
330
1D
100
AcDbDictionary
280
     1
281
     1
  3
ACAD_XREC_ROUNDTRIP
360
6980
  0
DICTIONARY
  5
6983
330
4150
100
AcDbDictionary
280
     1
281
     1
  3
ACAD_XREC_ROUNDTRIP
360
6984
  0
XRECORD
  5
6982
102
{ACAD_REACTORS
330
6981
102
}
330
6981
100
AcDbXrecord
280
     1
102
SHADEPLOT
 70
     0
102
SHADEPLOTRESLEVEL
 70
     2
102
SHADEPLOTCUSTOMDPI
 70
   300
  0
XRECORD
  5
6980
102
{ACAD_REACTORS
330
697F
102
}
330
697F
100
AcDbXrecord
280
     1
102
SHADEPLOT
 70
     0
102
SHADEPLOTRESLEVEL
 70
     2
102
SHADEPLOTCUSTOMDPI
 70
   300
  0
XRECORD
  5
6984
102
{ACAD_REACTORS
330
6983
102
}
330
6983
100
AcDbXrecord
280
     1
102
SHADEPLOT
 70
     0
102
SHADEPLOTRESLEVEL
 70
     2
102
SHADEPLOTCUSTOMDPI
 70
   300
  0
ENDSEC
  0
EOF
