  0
SECTION
  2
HEADER
  9
$ACADVER
  1
AC1015
  9
$ACADMAINTVER
 70
    10
  9
$DWGCODEPAGE
  3
ANSI_1252
  9
$INSBASE
 10
0.0
 20
0.0
 30
0.0
  9
$EXTMIN
 10
-7.5
 20
-32.38059611050549
 30
-0.0005
  9
$EXTMAX
 10
132.9921496144716
 20
66.999998
 30
0.0
  9
$LIMMIN
 10
0.0
 20
0.0
  9
$LIMMAX
 10
0.0
 20
0.0
  9
$ORTHOMODE
 70
     0
  9
$REGENMODE
 70
     1
  9
$FILLMODE
 70
     1
  9
$QTEXTMODE
 70
     0
  9
$MIRRTEXT
 70
     1
  9
$LTSCALE
 40
1.0
  9
$ATTMODE
 70
     1
  9
$TEXTSIZE
 40
0.0
  9
$TRACEWID
 40
0.05
  9
$TEXTSTYLE
  7
STANDARD
  9
$CLAYER
  8
0
  9
$CELTYPE
  6
CONTINUOUS
  9
$CECOLOR
 62
     4
  9
$CELTSCALE
 40
1.0
  9
$DISPSILH
 70
     0
  9
$DIMSCALE
 40
1.0
  9
$DIMASZ
 40
0.18
  9
$DIMEXO
 40
0.0625
  9
$DIMDLI
 40
0.38
  9
$DIMRND
 40
0.0
  9
$DIMDLE
 40
0.0
  9
$DIMEXE
 40
0.25
  9
$DIMTP
 40
0.1
  9
$DIMTM
 40
-0.1
  9
$DIMTXT
 40
2.5
  9
$DIMCEN
 40
0.09
  9
$DIMTSZ
 40
0.0
  9
$DIMTOL
 70
     0
  9
$DIMLIM
 70
     0
  9
$DIMTIH
 70
     1
  9
$DIMTOH
 70
     1
  9
$DIMSE1
 70
     0
  9
$DIMSE2
 70
     0
  9
$DIMTAD
 70
     0
  9
$DIMZIN
 70
     0
  9
$DIMBLK
  1

  9
$DIMASO
 70
     1
  9
$DIMSHO
 70
     1
  9
$DIMPOST
  1

  9
$DIMAPOST
  1

  9
$DIMALT
 70
     0
  9
$DIMALTD
 70
     2
  9
$DIMALTF
 40
25.4
  9
$DIMLFAC
 40
1.0
  9
$DIMTOFL
 70
     0
  9
$DIMTVP
 40
0.0
  9
$DIMTIX
 70
     0
  9
$DIMSOXD
 70
     0
  9
$DIMSAH
 70
     0
  9
$DIMBLK1
  1

  9
$DIMBLK2
  1

  9
$DIMSTYLE
  2
STANDARD
  9
$DIMCLRD
 70
     0
  9
$DIMCLRE
 70
     0
  9
$DIMCLRT
 70
     4
  9
$DIMTFAC
 40
0.7
  9
$DIMGAP
 40
0.09
  9
$DIMJUST
 70
     0
  9
$DIMSD1
 70
     0
  9
$DIMSD2
 70
     0
  9
$DIMTOLJ
 70
     1
  9
$DIMTZIN
 70
     0
  9
$DIMALTZ
 70
     0
  9
$DIMALTTZ
 70
     0
  9
$DIMUPT
 70
     0
  9
$DIMDEC
 70
     4
  9
$DIMTDEC
 70
     4
  9
$DIMALTU
 70
     2
  9
$DIMALTTD
 70
     2
  9
$DIMTXSTY
  7
STANDARD
  9
$DIMAUNIT
 70
     0
  9
$DIMADEC
 70
     0
  9
$DIMALTRND
 40
0.0
  9
$DIMAZIN
 70
     0
  9
$DIMDSEP
 70
    46
  9
$DIMATFIT
 70
     3
  9
$DIMFRAC
 70
     0
  9
$DIMLDRBLK
  1

  9
$DIMLUNIT
 70
     2
  9
$DIMLWD
 70
    -2
  9
$DIMLWE
 70
    -2
  9
$DIMTMOVE
 70
     0
  9
$LUNITS
 70
     2
  9
$LUPREC
 70
    10
  9
$SKETCHINC
 40
0.1
  9
$FILLETRAD
 40
0.0
  9
$AUNITS
 70
     0
  9
$AUPREC
 70
     0
  9
$MENU
  1
acad
  9
$ELEVATION
 40
0.0
  9
$PELEVATION
 40
0.0
  9
$THICKNESS
 40
0.0
  9
$LIMCHECK
 70
     0
  9
$CHAMFERA
 40
0.0
  9
$CHAMFERB
 40
0.0
  9
$CHAMFERC
 40
0.0
  9
$CHAMFERD
 40
0.0
  9
$SKPOLY
 70
     0
  9
$TDCREATE
 40
2444972.041666666
  9
$TDUCREATE
 40
2444972.000000000
  9
$TDUPDATE
 40
2452327.428170960
  9
$TDUUPDATE
 40
2452327.386504294
  9
$TDINDWG
 40
0.0015244097
  9
$TDUSRTIMER
 40
0.0015244097
  9
$USRTIMER
 70
     1
  9
$ANGBASE
 50
0.0
  9
$ANGDIR
 70
     0
  9
$PDMODE
 70
     2
  9
$PDSIZE
 40
0.0
  9
$PLINEWID
 40
0.0
  9
$SPLFRAME
 70
     0
  9
$SPLINETYPE
 70
     6
  9
$SPLINESEGS
 70
     8
  9
$HANDSEED
  5
FC
  9
$SURFTAB1
 70
     6
  9
$SURFTAB2
 70
     6
  9
$SURFTYPE
 70
     6
  9
$SURFU
 70
     6
  9
$SURFV
 70
     6
  9
$UCSBASE
  2

  9
$UCSNAME
  2

  9
$UCSORG
 10
0.0
 20
0.0
 30
0.0
  9
$UCSXDIR
 10
1.0
 20
0.0
 30
0.0
  9
$UCSYDIR
 10
0.0
 20
1.0
 30
0.0
  9
$UCSORTHOREF
  2

  9
$UCSORTHOVIEW
 70
     0
  9
$UCSORGTOP
 10
0.0
 20
0.0
 30
0.0
  9
$UCSORGBOTTOM
 10
0.0
 20
0.0
 30
0.0
  9
$UCSORGLEFT
 10
0.0
 20
0.0
 30
0.0
  9
$UCSORGRIGHT
 10
0.0
 20
0.0
 30
0.0
  9
$UCSORGFRONT
 10
0.0
 20
0.0
 30
0.0
  9
$UCSORGBACK
 10
0.0
 20
0.0
 30
0.0
  9
$PUCSBASE
  2

  9
$PUCSNAME
  2

  9
$PUCSORG
 10
0.0
 20
0.0
 30
0.0
  9
$PUCSXDIR
 10
1.0
 20
0.0
 30
0.0
  9
$PUCSYDIR
 10
0.0
 20
1.0
 30
0.0
  9
$PUCSORTHOREF
  2

  9
$PUCSORTHOVIEW
 70
     0
  9
$PUCSORGTOP
 10
0.0
 20
0.0
 30
0.0
  9
$PUCSORGBOTTOM
 10
0.0
 20
0.0
 30
0.0
  9
$PUCSORGLEFT
 10
0.0
 20
0.0
 30
0.0
  9
$PUCSORGRIGHT
 10
0.0
 20
0.0
 30
0.0
  9
$PUCSORGFRONT
 10
0.0
 20
0.0
 30
0.0
  9
$PUCSORGBACK
 10
0.0
 20
0.0
 30
0.0
  9
$USERI1
 70
     0
  9
$USERI2
 70
     0
  9
$USERI3
 70
     0
  9
$USERI4
 70
     0
  9
$USERI5
 70
     0
  9
$USERR1
 40
0.0
  9
$USERR2
 40
0.0
  9
$USERR3
 40
0.0
  9
$USERR4
 40
0.0
  9
$USERR5
 40
0.0
  9
$WORLDVIEW
 70
     1
  9
$SHADEDGE
 70
     3
  9
$SHADEDIF
 70
    70
  9
$TILEMODE
 70
     1
  9
$MAXACTVP
 70
    16
  9
$PINSBASE
 10
0.0
 20
0.0
 30
0.0
  9
$PLIMCHECK
 70
     0
  9
$PEXTMIN
 10
1.000000000000000E+20
 20
1.000000000000000E+20
 30
1.000000000000000E+20
  9
$PEXTMAX
 10
-1.000000000000000E+20
 20
-1.000000000000000E+20
 30
-1.000000000000000E+20
  9
$PLIMMIN
 10
0.0
 20
0.0
  9
$PLIMMAX
 10
12.0
 20
9.0
  9
$UNITMODE
 70
     0
  9
$VISRETAIN
 70
     0
  9
$PLINEGEN
 70
     1
  9
$PSLTSCALE
 70
     0
  9
$TREEDEPTH
 70
  3020
  9
$CMLSTYLE
  2
STANDARD
  9
$CMLJUST
 70
     0
  9
$CMLSCALE
 40
1.0
  9
$PROXYGRAPHICS
 70
     1
  9
$MEASUREMENT
 70
     0
  9
$CELWEIGHT
370
    -1
  9
$ENDCAPS
280
     0
  9
$JOINSTYLE
280
     0
  9
$LWDISPLAY
290
     0
  9
$INSUNITS
 70
     0
  9
$HYPERLINKBASE
  1

  9
$STYLESHEET
  1

  9
$XEDIT
290
     1
  9
$CEPSNTYPE
380
     0
  9
$PSTYLEMODE
290
     1
  9
$FINGERPRINTGUID
  2
{63FD5C60-26AB-11D6-8687-00A024540C4A}
  9
$VERSIONGUID
  2
{63FD5C79-26AB-11D6-8687-00A024540C4A}
  9
$EXTNAMES
290
     1
  9
$PSVPSCALE
 40
0.0
  9
$OLESTARTUP
290
     0
  0
ENDSEC
  0
SECTION
  2
CLASSES
  0
CLASS
  1
LWPOLYLINE
  2
AcDbPolyline
  3
AutoCAD 2000
 90
    32768
280
     0
281
     1
  0
CLASS
  1
IMAGE
  2
AcDbRasterImage
  3
ISM
 90
    32895
280
     0
281
     1
  0
CLASS
  1
OLE2FRAME
  2
AcDbOle2Frame
  3
AutoCAD 2000
 90
    32768
280
     0
281
     1
  0
CLASS
  1
HATCH
  2
AcDbHatch
  3
AutoCAD 2000
 90
    32768
280
     0
281
     1
  0
CLASS
  1
DICTIONARYVAR
  2
AcDbDictionaryVar
  3
AutoCAD 2000
 90
    32768
280
     0
281
     0
  0
CLASS
  1
RASTERVARIABLES
  2
AcDbRasterVariables
  3
ISM
 90
    32768
280
     0
281
     0
  0
CLASS
  1
IMAGEDEF
  2
AcDbRasterImageDef
  3
ISM
 90
    32768
280
     0
281
     0
  0
CLASS
  1
IMAGEDEF_REACTOR
  2
AcDbRasterImageDefReactor
  3
ISM
 90
    32769
280
     0
281
     0
  0
CLASS
  1
IDBUFFER
  2
AcDbIdBuffer
  3
AutoCAD 2000
 90
    32768
280
     0
281
     0
  0
CLASS
  1
SPATIAL_FILTER
  2
AcDbSpatialFilter
  3
AutoCAD 2000
 90
    32768
280
     0
281
     0
  0
CLASS
  1
XRECORD
  2
AcDbXrecord
  3
AutoCAD 2000
 90
    32768
280
     0
281
     0
  0
CLASS
  1
SORTENTSTABLE
  2
AcDbSortentsTable
  3
AutoCAD 2000
 90
    32768
280
     0
281
     0
  0
CLASS
  1
LAYER_INDEX
  2
AcDbLayerIndex
  3
AutoCAD 2000
 90
    32768
280
     0
281
     0
  0
CLASS
  1
SPATIAL_INDEX
  2
AcDbSpatialIndex
  3
AutoCAD 2000
 90
    32768
280
     0
281
     0
  0
CLASS
  1
OBJECT_PTR
  2
CAseDLPNTableRecord
  3
"ASE-LPNTableRecord"
 90
    32768
280
     0
281
     0
  0
CLASS
  1
ACDBDICTIONARYWDFLT
  2
AcDbDictionaryWithDefault
  3
AutoCAD 2000
 90
        0
280
     0
281
     0
  0
CLASS
  1
ACDBPLACEHOLDER
  2
AcDbPlaceHolder
  3
AutoCAD 2000
 90
        0
280
     0
281
     0
  0
CLASS
  1
LAYOUT
  2
AcDbLayout
  3
AutoCAD 2000
 90
        0
280
     0
281
     0
  0
ENDSEC
  0
SECTION
  2
TABLES
  0
TABLE
  2
VPORT
  5
7
330
0
100
AcDbSymbolTable
 70
     3
  0
VPORT
  5
FB
330
7
100
AcDbSymbolTableRecord
100
AcDbViewportTableRecord
  2
*Active
 70
     0
 10
0.0
 20
0.0
 11
1.0
 21
1.0
 12
76.52734858693571
 22
17.64303427808059
 13
0.0
 23
0.0
 14
1.0
 24
1.0
 15
0.0
 25
0.0
 16
0.0
 26
0.0
 36
1.0
 17
0.0
 27
0.0
 37
0.0
 40
110.1976307764203
 41
1.672360248447204
 42
50.0
 43
0.0
 44
0.0
 50
0.0
 51
0.0
 71
     0
 72
   100
 73
     1
 74
     1
 75
     0
 76
     0
 77
     0
 78
     0
281
     0
 65
     1
110
0.0
120
0.0
130
0.0
111
1.0
121
0.0
131
0.0
112
0.0
122
1.0
132
0.0
 79
     0
146
0.0
  0
ENDTAB
  0
TABLE
  2
LTYPE
  5
4
330
0
100
AcDbSymbolTable
 70
     4
  0
LTYPE
  5
11
330
4
100
AcDbSymbolTableRecord
100
AcDbLinetypeTableRecord
  2
BYBLOCK
 70
     0
  3

 72
    65
 73
     0
 40
0.0
  0
LTYPE
  5
12
330
4
100
AcDbSymbolTableRecord
100
AcDbLinetypeTableRecord
  2
BYLAYER
 70
     0
  3

 72
    65
 73
     0
 40
0.0
  0
LTYPE
  5
13
330
4
100
AcDbSymbolTableRecord
100
AcDbLinetypeTableRecord
  2
CONTINUOUS
 70
     0
  3
Solid line
 72
    65
 73
     0
 40
0.0
  0
LTYPE
  5
1D
330
4
100
AcDbSymbolTableRecord
100
AcDbLinetypeTableRecord
  2
DASHED
 70
     0
  3
_ _ _ _ _ _ _ _ _ _ _ _ _ _ _ _
 72
    65
 73
     2
 40
0.2
 49
0.1
 74
     0
 49
-0.1
 74
     0
  0
LTYPE
  5
1E
330
4
100
AcDbSymbolTableRecord
100
AcDbLinetypeTableRecord
  2
CENTER
 70
     0
  3
___ _ ___ _ ___ _ ___ _ ___ _ ___ _ ___ _ ___ _
 72
    65
 73
     4
 40
0.95
 49
0.625
 74
     0
 49
-0.125
 74
     0
 49
0.075
 74
     0
 49
-0.125
 74
     0
  0
LTYPE
  5
1F
330
4
100
AcDbSymbolTableRecord
100
AcDbLinetypeTableRecord
  2
PHANTOM
 70
     0
  3
______  __  __  ______  __  __  ______  __  __  
 72
    65
 73
     6
 40
1.024999999999999
 49
0.625
 74
     0
 49
-0.125
 74
     0
 49
0.075
 74
     0
 49
-0.125
 74
     0
 49
0.075
 74
     0
 49
-0.125
 74
     0
  0
ENDTAB
  0
TABLE
  2
LAYER
  5
2
330
0
100
AcDbSymbolTable
 70
     2
  0
LAYER
  5
14
330
2
100
AcDbSymbolTableRecord
100
AcDbLayerTableRecord
  2
0
 70
     0
 62
     7
  6
CONTINUOUS
370
    -3
390
F3
  0
LAYER
  5
21
330
2
100
AcDbSymbolTableRecord
100
AcDbLayerTableRecord
  2
CK_LEVEL_1
 70
     0
 62
     7
  6
CONTINUOUS
370
    -3
390
F3
  0
ENDTAB
  0
TABLE
  2
STYLE
  5
3
330
0
100
AcDbSymbolTable
 70
     1
  0
STYLE
  5
17
330
3
100
AcDbSymbolTableRecord
100
AcDbTextStyleTableRecord
  2
STANDARD
 70
     0
 40
0.0
 41
1.0
 50
0.0
 71
     0
 42
0.0
  3
txt
  4

  0
ENDTAB
  0
TABLE
  2
VIEW
  5
5
330
0
100
AcDbSymbolTable
 70
     0
  0
ENDTAB
  0
TABLE
  2
UCS
  5
6
330
0
100
AcDbSymbolTable
 70
     1
  0
UCS
  5
20
330
6
100
AcDbSymbolTableRecord
100
AcDbUCSTableRecord
  2
CK_VIEW_1
 70
     0
 10
0.0
 20
0.0
 30
1.0
 11
1.0
 21
0.0
 31
0.0
 12
0.0
 22
1.0
 32
0.0
 79
     0
146
0.0
  0
ENDTAB
  0
TABLE
  2
APPID
  5
8
330
0
100
AcDbSymbolTable
 70
     1
  0
APPID
  5
16
330
8
100
AcDbSymbolTableRecord
100
AcDbRegAppTableRecord
  2
ACAD
 70
     0
  0
ENDTAB
  0
TABLE
  2
DIMSTYLE
  5
9
330
0
100
AcDbSymbolTable
 70
     1
100
AcDbDimStyleTable
 71
     0
  0
DIMSTYLE
105
18
330
9
100
AcDbSymbolTableRecord
100
AcDbDimStyleTableRecord
  2
STANDARD
 70
     0
289
     0
340
17
  0
ENDTAB
  0
TABLE
  2
BLOCK_RECORD
  5
1
330
0
100
AcDbSymbolTable
 70
     0
  0
BLOCK_RECORD
  5
A
330
1
100
AcDbSymbolTableRecord
100
AcDbBlockTableRecord
  2
*MODEL_SPACE
340
F6
  0
BLOCK_RECORD
  5
B
330
1
100
AcDbSymbolTableRecord
100
AcDbBlockTableRecord
  2
*PAPER_SPACE
340
F7
  0
ENDTAB
  0
ENDSEC
  0
SECTION
  2
BLOCKS
  0
BLOCK
  5
D
330
A
100
AcDbEntity
  8
0
100
AcDbBlockBegin
  2
*MODEL_SPACE
 70
     0
 10
0.0
 20
0.0
 30
0.0
  3
*MODEL_SPACE
  1

  0
ENDBLK
  5
E
330
A
100
AcDbEntity
  8
0
100
AcDbBlockEnd
  0
BLOCK
  5
F
330
B
100
AcDbEntity
 67
     1
  8
0
100
AcDbBlockBegin
  2
*PAPER_SPACE
 70
     0
 10
0.0
 20
0.0
 30
0.0
  3
*PAPER_SPACE
  1

  0
ENDBLK
  5
10
330
B
100
AcDbEntity
 67
     1
  8
0
100
AcDbBlockEnd
  0
ENDSEC
  0
SECTION
  2
ENTITIES
  0
LINE
  5
22
330
A
100
AcDbEntity
  8
CK_LEVEL_1
  6
DASHED
 62
   252
100
AcDbLine
 10
67.75
 20
0.4000000000000002
 30
0.0
 11
67.34999999999999
 21
0.0
 31
0.0
  0
LINE
  5
23
330
A
100
AcDbEntity
  8
CK_LEVEL_1
  6
DASHED
 62
   252
100
AcDbLine
 10
71.25
 20
0.4000000000000002
 30
0.0
 11
67.75
 21
0.4000000000000002
 31
0.0
  0
LINE
  5
24
330
A
100
AcDbEntity
  8
CK_LEVEL_1
  6
DASHED
 62
   252
100
AcDbLine
 10
71.25
 20
0.4000000000000002
 30
0.0
 11
71.65000000000003
 21
0.0
 31
0.0
  0
LINE
  5
25
330
A
100
AcDbEntity
  8
CK_LEVEL_1
  6
DASHED
 62
   252
100
AcDbLine
 10
71.25
 20
0.5000000000000002
 30
0.0
 11
71.25
 21
2.999998
 31
0.0
  0
LINE
  5
26
330
A
100
AcDbEntity
  8
CK_LEVEL_1
  6
DASHED
 62
   252
100
AcDbLine
 10
67.75
 20
0.4000000000000002
 30
0.0
 11
67.75
 21
2.999998000000001
 31
0.0
  0
CIRCLE
  5
27
330
A
100
AcDbEntity
  8
CK_LEVEL_1
  6
Continuous
 62
     4
100
AcDbCircle
 10
6.0
 20
10.49999799999999
 30
0.0
 40
0.4
  0
CIRCLE
  5
28
330
A
100
AcDbEntity
  8
CK_LEVEL_1
  6
Continuous
 62
     4
100
AcDbCircle
 10
44.5
 20
53.499998
 30
0.0
 40
3.0
  0
ARC
  5
29
330
A
100
AcDbEntity
  8
CK_LEVEL_1
  6
Continuous
 62
     4
100
AcDbCircle
 10
-0.3
 20
5.483759206986578
 30
0.0
 40
1.199999999999999
100
AcDbArc
 50
292.2909703747589
 51
329.3910488649737
  0
LINE
  5
2A
330
A
100
AcDbEntity
  8
CK_LEVEL_1
  6
Continuous
 62
     4
100
AcDbLine
 10
-7.5
 20
7.799998000000003
 30
0.0
 11
-7.5
 21
12.399998
 31
0.0
  0
ARC
  5
2B
330
A
100
AcDbEntity
  8
CK_LEVEL_1
  6
Continuous
 62
     4
100
AcDbCircle
 10
4.000000000000008
 20
-0.3000000000000001
 30
0.0
 40
0.5
100
AcDbArc
 50
36.86989764584402
 51
143.1301023541559
  0
ARC
  5
2C
330
A
100
AcDbEntity
  8
CK_LEVEL_1
  6
Continuous
 62
     4
100
AcDbCircle
 10
-7.799999999999997
 20
7.399998000000001
 30
0.0
 40
0.5
100
AcDbArc
 50
306.8698976458435
 51
413.1301023541563
  0
ARC
  5
2D
330
A
100
AcDbEntity
  8
CK_LEVEL_1
  6
Continuous
 62
     4
100
AcDbCircle
 10
11.8
 20
7.799998000000002
 30
0.0
 40
1.0
100
AcDbArc
 50
0.0
 51
5.891257284780847
  0
ARC
  5
2E
330
A
100
AcDbEntity
  8
CK_LEVEL_1
  6
Continuous
 62
     4
100
AcDbCircle
 10
0.1999999999999996
 20
7.799998000000002
 30
0.0
 40
1.0
100
AcDbArc
 50
174.1087427152191
 51
180.0
  0
ARC
  5
2F
330
A
100
AcDbEntity
  8
CK_LEVEL_1
  6
Continuous
 62
     4
100
AcDbCircle
 10
11.7
 20
7.699998000000002
 30
0.0
 40
0.6
100
AcDbArc
 50
0.0
 51
31.86348008984449
  0
ARC
  5
30
330
A
100
AcDbEntity
  8
CK_LEVEL_1
  6
Continuous
 62
     4
100
AcDbCircle
 10
0.2999999999999995
 20
7.699998000000002
 30
0.0
 40
0.6
100
AcDbArc
 50
148.1365199101555
 51
180.0
  0
LINE
  5
31
330
A
100
AcDbEntity
  8
CK_LEVEL_1
  6
Continuous
 62
     4
100
AcDbLine
 10
12.8
 20
2.999998000000001
 30
0.0
 11
12.8
 21
7.799998000000002
 31
0.0
  0
LINE
  5
32
330
A
100
AcDbEntity
  8
CK_LEVEL_1
  6
Continuous
 62
     4
100
AcDbLine
 10
-0.8
 20
2.999998000000001
 30
0.0
 11
-0.8
 21
7.799998000000002
 31
0.0
  0
LINE
  5
33
330
A
100
AcDbEntity
  8
CK_LEVEL_1
  6
Continuous
 62
     4
100
AcDbLine
 10
11.1766312060386
 20
8.799998000000002
 30
0.0
 11
0.8233687939613982
 21
8.799998000000002
 31
0.0
  0
LINE
  5
34
330
A
100
AcDbEntity
  8
CK_LEVEL_1
  6
Continuous
 62
     4
100
AcDbLine
 10
12.3
 20
2.999998000000001
 30
0.0
 11
12.3
 21
4.883759206986578
 31
0.0
  0
LINE
  5
35
330
A
100
AcDbEntity
  8
CK_LEVEL_1
  6
Continuous
 62
     4
100
AcDbLine
 10
-0.3
 20
2.999998000000001
 30
0.0
 11
-0.3
 21
4.883759206986578
 31
0.0
  0
LINE
  5
36
330
A
100
AcDbEntity
  8
CK_LEVEL_1
  6
Continuous
 62
     4
100
AcDbLine
 10
11.66711719940621
 20
8.299998000000002
 30
0.0
 11
0.3328828005937883
 21
8.299998000000002
 31
0.0
  0
LINE
  5
37
330
A
100
AcDbEntity
  8
CK_LEVEL_1
  6
CENTER
 62
   252
100
AcDbLine
 10
119.5
 20
48.540655825336
 30
0.0
 11
119.5
 21
58.32603902275309
 31
0.0
  0
CIRCLE
  5
38
330
A
100
AcDbEntity
  8
CK_LEVEL_1
  6
Continuous
 62
     4
100
AcDbCircle
 10
44.5
 20
53.499998
 30
0.0
 40
1.75
  0
LINE
  5
39
330
A
100
AcDbEntity
  8
CK_LEVEL_1
  6
CENTER
 62
   252
100
AcDbLine
 10
44.5
 20
48.540655825336
 30
0.0
 11
44.5
 21
58.32603902275309
 31
0.0
  0
LINE
  5
3A
330
A
100
AcDbEntity
  8
CK_LEVEL_1
  6
CENTER
 62
   252
100
AcDbLine
 10
119.5
 20
-1.459433934413311
 30
0.0
 11
119.5
 21
9.295110584987957
 31
0.0
  0
LINE
  5
3B
330
A
100
AcDbEntity
  8
CK_LEVEL_1
  6
CENTER
 62
   252
100
AcDbLine
 10
44.5
 20
-1.459433934413311
 30
0.0
 11
44.5
 21
9.295110584987956
 31
0.0
  0
LINE
  5
3C
330
A
100
AcDbEntity
  8
CK_LEVEL_1
  6
DASHED
 62
   252
100
AcDbLine
 10
46.25
 20
0.4
 30
0.0
 11
46.65000000000004
 21
0.0
 31
0.0
  0
LINE
  5
3D
330
A
100
AcDbEntity
  8
CK_LEVEL_1
  6
DASHED
 62
   252
100
AcDbLine
 10
42.75
 20
0.4
 30
0.0
 11
42.34999999999999
 21
0.0
 31
0.0
  0
LINE
  5
3E
330
A
100
AcDbEntity
  8
CK_LEVEL_1
  6
DASHED
 62
   252
100
AcDbLine
 10
46.25
 20
0.4
 30
0.0
 11
42.75
 21
0.4
 31
0.0
  0
LINE
  5
3F
330
A
100
AcDbEntity
  8
CK_LEVEL_1
  6
DASHED
 62
   252
100
AcDbLine
 10
46.25
 20
0.5
 30
0.0
 11
46.25
 21
3.499998000000002
 31
0.0
  0
LINE
  5
40
330
A
100
AcDbEntity
  8
CK_LEVEL_1
  6
DASHED
 62
   252
100
AcDbLine
 10
42.75
 20
0.4
 30
0.0
 11
42.75
 21
3.499998000000002
 31
0.0
  0
LINE
  5
41
330
A
100
AcDbEntity
  8
CK_LEVEL_1
  6
DASHED
 62
   252
100
AcDbLine
 10
41.5
 20
3.499998000000001
 30
0.0
 11
41.5
 21
7.599998000000002
 31
0.0
  0
LINE
  5
42
330
A
100
AcDbEntity
  8
CK_LEVEL_1
  6
DASHED
 62
   252
100
AcDbLine
 10
47.5
 20
3.499998000000001
 30
0.0
 11
41.5
 21
3.499998000000001
 31
0.0
  0
LINE
  5
43
330
A
100
AcDbEntity
  8
CK_LEVEL_1
  6
DASHED
 62
   252
100
AcDbLine
 10
47.9
 20
7.999998000000002
 30
0.0
 11
47.5
 21
7.599998000000002
 31
0.0
  0
LINE
  5
44
330
A
100
AcDbEntity
  8
CK_LEVEL_1
  6
DASHED
 62
   252
100
AcDbLine
 10
47.5
 20
3.499998000000001
 30
0.0
 11
47.5
 21
7.599998000000002
 31
0.0
  0
LINE
  5
45
330
A
100
AcDbEntity
  8
CK_LEVEL_1
  6
DASHED
 62
   252
100
AcDbLine
 10
47.5
 20
7.599998000000002
 30
0.0
 11
41.5
 21
7.599998000000002
 31
0.0
  0
LINE
  5
46
330
A
100
AcDbEntity
  8
CK_LEVEL_1
  6
DASHED
 62
   252
100
AcDbLine
 10
41.09999999999999
 20
7.999998000000002
 30
0.0
 11
41.5
 21
7.599997999999996
 31
0.0
  0
LINE
  5
47
330
A
100
AcDbEntity
  8
CK_LEVEL_1
  6
Continuous
 62
     4
100
AcDbLine
 10
64.65
 20
7.999998000000002
 30
0.0
 11
35.0
 21
7.999998000000002
 31
0.0
  0
LINE
  5
48
330
A
100
AcDbEntity
  8
CK_LEVEL_1
  6
Continuous
 62
     4
100
AcDbLine
 10
64.65
 20
47.499998
 30
0.0
 11
35.0
 21
47.499998
 31
0.0
  0
LINE
  5
49
330
A
100
AcDbEntity
  8
CK_LEVEL_1
  6
Continuous
 62
     4
100
AcDbLine
 10
64.65
 20
59.499998
 30
0.0
 11
35.0
 21
59.499998
 31
0.0
  0
LINE
  5
4A
330
A
100
AcDbEntity
  8
CK_LEVEL_1
  6
Continuous
 62
     4
100
AcDbLine
 10
99.35
 20
2.999998000000001
 30
0.0
 11
99.35
 21
12.599998
 31
0.0
  0
LINE
  5
4B
330
A
100
AcDbEntity
  8
CK_LEVEL_1
  6
Continuous
 62
     4
100
AcDbLine
 10
64.65
 20
2.999997999999999
 30
0.0
 11
64.65
 21
12.599998
 31
0.0
  0
LINE
  5
4C
330
A
100
AcDbEntity
  8
CK_LEVEL_1
  6
Continuous
 62
     4
100
AcDbLine
 10
99.35
 20
66.69999800000001
 30
0.0
 11
99.35
 21
40.299998
 31
0.0
  0
LINE
  5
4D
330
A
100
AcDbEntity
  8
CK_LEVEL_1
  6
Continuous
 62
     4
100
AcDbLine
 10
64.65
 20
66.69999800000001
 30
0.0
 11
64.65
 21
40.299998
 31
0.0
  0
LINE
  5
4E
330
A
100
AcDbEntity
  8
CK_LEVEL_1
  6
DASHED
 62
   252
100
AcDbLine
 10
9.400000000000005
 20
7.999998000000002
 30
0.0
 11
9.0
 21
7.599998000000002
 31
0.0
  0
LINE
  5
4F
330
A
100
AcDbEntity
  8
CK_LEVEL_1
  6
DASHED
 62
   252
100
AcDbLine
 10
2.599999999999994
 20
7.999998000000002
 30
0.0
 11
3.0
 21
7.599997999999996
 31
0.0
  0
LINE
  5
50
330
A
100
AcDbEntity
  8
CK_LEVEL_1
  6
DASHED
 62
   252
100
AcDbLine
 10
9.0
 20
7.599998000000002
 30
0.0
 11
3.0
 21
7.599998000000002
 31
0.0
  0
LINE
  5
51
330
A
100
AcDbEntity
  8
CK_LEVEL_1
  6
DASHED
 62
   252
100
AcDbLine
 10
-2.099999999999994
 20
12.999998
 30
0.0
 11
-2.5
 21
12.599998
 31
0.0
  0
LINE
  5
52
330
A
100
AcDbEntity
  8
CK_LEVEL_1
  6
DASHED
 62
   252
100
AcDbLine
 10
-5.900000000000005
 20
12.999998
 30
0.0
 11
-5.5
 21
12.599998
 31
0.0
  0
LINE
  5
53
330
A
100
AcDbEntity
  8
CK_LEVEL_1
  6
DASHED
 62
   252
100
AcDbLine
 10
-2.5
 20
12.599998
 30
0.0
 11
-5.5
 21
12.599998
 31
0.0
  0
LINE
  5
54
330
A
100
AcDbEntity
  8
CK_LEVEL_1
  6
CENTER
 62
   252
100
AcDbLine
 10
16.0
 20
13.6221667836487
 30
0.0
 11
16.0
 21
6.156141379864265
 31
0.0
  0
LINE
  5
55
330
A
100
AcDbEntity
  8
CK_LEVEL_1
  6
Continuous
 62
     4
100
AcDbLine
 10
16.0
 20
12.999998
 30
0.0
 11
16.0
 21
12.999998
 31
-0.0005
  0
LINE
  5
56
330
A
100
AcDbEntity
  8
CK_LEVEL_1
  6
DASHED
 62
   252
100
AcDbLine
 10
-5.250000000000014
 20
7.499998000000005
 30
0.0
 11
-4.0
 21
6.77831016351297
 31
0.0
  0
LINE
  5
57
330
A
100
AcDbEntity
  8
CK_LEVEL_1
  6
DASHED
 62
   252
100
AcDbLine
 10
-2.75
 20
7.499998000000003
 30
0.0
 11
-4.0
 21
6.77831016351297
 31
0.0
  0
LINE
  5
58
330
A
100
AcDbEntity
  8
CK_LEVEL_1
  6
DASHED
 62
   252
100
AcDbLine
 10
-2.75
 20
7.499998000000003
 30
0.0
 11
-5.250000000000014
 21
7.499998000000005
 31
0.0
  0
LINE
  5
59
330
A
100
AcDbEntity
  8
CK_LEVEL_1
  6
DASHED
 62
   252
100
AcDbLine
 10
-5.25
 20
12.599998
 30
0.0
 11
-5.250000000000014
 21
7.499998000000005
 31
0.0
  0
LINE
  5
5A
330
A
100
AcDbEntity
  8
CK_LEVEL_1
  6
DASHED
 62
   252
100
AcDbLine
 10
-2.75
 20
12.599998
 30
0.0
 11
-2.75
 21
7.499998000000003
 31
0.0
  0
LINE
  5
5B
330
A
100
AcDbEntity
  8
CK_LEVEL_1
  6
DASHED
 62
   252
100
AcDbLine
 10
-2.5
 20
9.499998000000001
 30
0.0
 11
-5.5
 21
9.499998000000001
 31
0.0
  0
LINE
  5
5C
330
A
100
AcDbEntity
  8
CK_LEVEL_1
  6
DASHED
 62
   252
100
AcDbLine
 10
-5.5
 20
12.599998
 30
0.0
 11
-5.5
 21
9.499998000000001
 31
0.0
  0
LINE
  5
5D
330
A
100
AcDbEntity
  8
CK_LEVEL_1
  6
DASHED
 62
   252
100
AcDbLine
 10
-2.5
 20
12.599998
 30
0.0
 11
-2.5
 21
9.499998000000001
 31
0.0
  0
LINE
  5
5E
330
A
100
AcDbEntity
  8
CK_LEVEL_1
  6
CENTER
 62
   252
100
AcDbLine
 10
-4.0
 20
13.6221667836487
 30
0.0
 11
-4.0
 21
6.156141379864267
 31
0.0
  0
LINE
  5
5F
330
A
100
AcDbEntity
  8
CK_LEVEL_1
  6
Continuous
 62
     4
100
AcDbLine
 10
-4.0
 20
12.999998
 30
0.0
 11
-4.0
 21
12.999998
 31
-0.0005
  0
LINE
  5
60
330
A
100
AcDbEntity
  8
CK_LEVEL_1
  6
Continuous
 62
     4
100
AcDbLine
 10
19.5
 20
12.399998
 30
0.0
 11
18.9
 21
12.999998
 31
0.0
  0
LINE
  5
61
330
A
100
AcDbEntity
  8
CK_LEVEL_1
  6
Continuous
 62
     4
100
AcDbLine
 10
18.9
 20
2.999998000000001
 30
0.0
 11
19.5
 21
3.599998000000001
 31
0.0
  0
LINE
  5
62
330
A
100
AcDbEntity
  8
CK_LEVEL_1
  6
Continuous
 62
     4
100
AcDbLine
 10
-7.5
 20
3.599998
 30
0.0
 11
-6.900000000000005
 21
2.999998000000001
 31
0.0
  0
LINE
  5
63
330
A
100
AcDbEntity
  8
CK_LEVEL_1
  6
Continuous
 62
     4
100
AcDbLine
 10
-6.900000000000005
 20
12.999998
 30
0.0
 11
-7.5
 21
12.399998
 31
0.0
  0
LINE
  5
64
330
A
100
AcDbEntity
  8
CK_LEVEL_1
  6
Continuous
 62
     4
100
AcDbLine
 10
10.5
 20
5.241307535462368
 30
0.0
 11
10.5
 21
5.758692464537633
 31
0.0
  0
LINE
  5
65
330
A
100
AcDbEntity
  8
CK_LEVEL_1
  6
Continuous
 62
     4
100
AcDbLine
 10
11.07382832431686
 20
4.99450285479705
 30
0.0
 11
10.72821106431308
 21
5.024740446966274
 31
0.0
  0
LINE
  5
66
330
A
100
AcDbEntity
  8
CK_LEVEL_1
  6
Continuous
 62
     4
100
AcDbLine
 10
11.09477657022956
 20
6.007329879241062
 30
0.0
 11
10.72821106431308
 21
5.975259553033724
 31
0.0
  0
LINE
  5
67
330
A
100
AcDbEntity
  8
CK_LEVEL_1
  6
Continuous
 62
     4
100
AcDbLine
 10
0.9261716756831351
 20
4.99450285479705
 30
0.0
 11
1.271788935686913
 21
5.024740446966274
 31
0.0
  0
LINE
  5
68
330
A
100
AcDbEntity
  8
CK_LEVEL_1
  6
Continuous
 62
     4
100
AcDbLine
 10
1.5
 20
5.241307535462368
 30
0.0
 11
1.5
 21
5.726210878510786
 31
0.0
  0
LINE
  5
69
330
A
100
AcDbEntity
  8
CK_LEVEL_1
  6
Continuous
 62
     4
100
AcDbLine
 10
12.0
 20
0.4999999999999999
 30
0.0
 11
12.0
 21
4.142118420486703
 31
0.0
  0
LINE
  5
6A
330
A
100
AcDbEntity
  8
CK_LEVEL_1
  6
Continuous
 62
     4
100
AcDbLine
 10
12.0
 20
6.825399993486453
 30
0.0
 11
12.0
 21
7.499998000000002
 31
0.0
  0
LINE
  5
6B
330
A
100
AcDbEntity
  8
CK_LEVEL_1
  6
Continuous
 62
     4
100
AcDbLine
 10
0.0
 20
0.4999999999999999
 30
0.0
 11
0.0
 21
4.142118420486703
 31
0.0
  0
LINE
  5
6C
330
A
100
AcDbEntity
  8
CK_LEVEL_1
  6
CENTER
 62
   252
100
AcDbLine
 10
6.0
 20
-1.625
 30
0.0
 11
6.0
 21
14.624998
 31
0.0
  0
LINE
  5
6D
330
A
100
AcDbEntity
  8
CK_LEVEL_1
  6
Continuous
 62
     4
100
AcDbLine
 10
11.5
 20
0.0
 30
0.0
 11
4.400000000000009
 21
0.0
 31
0.0
  0
LINE
  5
6E
330
A
100
AcDbEntity
  8
CK_LEVEL_1
  6
Continuous
 62
     4
100
AcDbLine
 10
0.0
 20
6.825399993486453
 30
0.0
 11
0.0
 21
7.499998000000002
 31
0.0
  0
LINE
  5
6F
330
A
100
AcDbEntity
  8
CK_LEVEL_1
  6
Continuous
 62
     4
100
AcDbLine
 10
11.5
 20
7.999998000000002
 30
0.0
 11
0.5
 21
7.999998000000002
 31
0.0
  0
LINE
  5
70
330
A
100
AcDbEntity
  8
CK_LEVEL_1
  6
Continuous
 62
     4
100
AcDbLine
 10
0.0
 20
7.499998000000002
 30
0.0
 11
0.5
 21
7.999998000000002
 31
0.0
  0
LINE
  5
71
330
A
100
AcDbEntity
  8
CK_LEVEL_1
  6
Continuous
 62
     4
100
AcDbLine
 10
11.5
 20
7.999998000000002
 30
0.0
 11
12.0
 21
7.499998000000002
 31
0.0
  0
LINE
  5
72
330
A
100
AcDbEntity
  8
CK_LEVEL_1
  6
Continuous
 62
     4
100
AcDbLine
 10
12.0
 20
0.4999999999999999
 30
0.0
 11
11.5
 21
0.0
 31
0.0
  0
LINE
  5
73
330
A
100
AcDbEntity
  8
CK_LEVEL_1
  6
Continuous
 62
     4
100
AcDbLine
 10
0.0
 20
0.4999999999999999
 30
0.0
 11
0.5
 21
0.0
 31
0.0
  0
LINE
  5
74
330
A
100
AcDbEntity
  8
CK_LEVEL_1
  6
Continuous
 62
     4
100
AcDbLine
 10
-7.5
 20
3.599998
 30
0.0
 11
-7.5
 21
6.999997999999999
 31
0.0
  0
LINE
  5
75
330
A
100
AcDbEntity
  8
CK_LEVEL_1
  6
Continuous
 62
     4
100
AcDbLine
 10
-0.4000000000000057
 20
12.999998
 30
0.0
 11
-6.900000000000005
 21
12.999998
 31
0.0
  0
LINE
  5
76
330
A
100
AcDbEntity
  8
CK_LEVEL_1
  6
Continuous
 62
     4
100
AcDbLine
 10
18.9
 20
12.999998
 30
0.0
 11
12.4
 21
12.999998
 31
0.0
  0
LINE
  5
77
330
A
100
AcDbEntity
  8
CK_LEVEL_1
  6
Continuous
 62
     4
100
AcDbLine
 10
0.0
 20
12.599998
 30
0.0
 11
-0.4000000000000057
 21
12.999998
 31
0.0
  0
LINE
  5
78
330
A
100
AcDbEntity
  8
CK_LEVEL_1
  6
Continuous
 62
     4
100
AcDbLine
 10
11.99999999999998
 20
12.599998
 30
0.0
 11
12.4
 21
12.999998
 31
0.0
  0
LINE
  5
79
330
A
100
AcDbEntity
  8
CK_LEVEL_1
  6
Continuous
 62
     4
100
AcDbLine
 10
17.99999999999998
 20
12.599998
 30
0.0
 11
-5.999999999999989
 21
12.599998
 31
0.0
  0
LINE
  5
7A
330
A
100
AcDbEntity
  8
CK_LEVEL_1
  6
Continuous
 62
     4
100
AcDbLine
 10
3.600000000000008
 20
0.0
 30
0.0
 11
0.5
 21
0.0
 31
0.0
  0
LINE
  5
7B
330
A
100
AcDbEntity
  8
CK_LEVEL_1
  6
Continuous
 62
     4
100
AcDbLine
 10
19.5
 20
3.599998000000001
 30
0.0
 11
19.5
 21
12.399998
 31
0.0
  0
LINE
  5
7C
330
A
100
AcDbEntity
  8
CK_LEVEL_1
  6
DASHED
 62
   252
100
AcDbLine
 10
3.0
 20
3.499998000000001
 30
0.0
 11
3.0
 21
7.599998000000002
 31
0.0
  0
LINE
  5
7D
330
A
100
AcDbEntity
  8
CK_LEVEL_1
  6
DASHED
 62
   252
100
AcDbLine
 10
9.0
 20
3.499998000000001
 30
0.0
 11
3.0
 21
3.499998000000001
 31
0.0
  0
LINE
  5
7E
330
A
100
AcDbEntity
  8
CK_LEVEL_1
  6
DASHED
 62
   252
100
AcDbLine
 10
4.25
 20
0.4
 30
0.0
 11
4.25
 21
3.499998000000002
 31
0.0
  0
LINE
  5
7F
330
A
100
AcDbEntity
  8
CK_LEVEL_1
  6
DASHED
 62
   252
100
AcDbLine
 10
7.75
 20
0.5
 30
0.0
 11
7.75
 21
3.499998000000002
 31
0.0
  0
LINE
  5
80
330
A
100
AcDbEntity
  8
CK_LEVEL_1
  6
DASHED
 62
   252
100
AcDbLine
 10
9.0
 20
3.499998000000001
 30
0.0
 11
9.0
 21
7.599998000000002
 31
0.0
  0
LINE
  5
81
330
A
100
AcDbEntity
  8
CK_LEVEL_1
  6
DASHED
 62
   252
100
AcDbLine
 10
7.75
 20
0.4
 30
0.0
 11
4.25
 21
0.4
 31
0.0
  0
LINE
  5
82
330
A
100
AcDbEntity
  8
CK_LEVEL_1
  6
DASHED
 62
   252
100
AcDbLine
 10
7.75
 20
0.4
 30
0.0
 11
8.15000000000003
 21
0.0
 31
0.0
  0
LINE
  5
83
330
A
100
AcDbEntity
  8
CK_LEVEL_1
  6
DASHED
 62
   252
100
AcDbLine
 10
4.25
 20
0.4
 30
0.0
 11
4.04771780286589
 21
0.1977178028658939
 31
0.0
  0
LINE
  5
84
330
A
100
AcDbEntity
  8
CK_LEVEL_1
  6
Continuous
 62
     4
100
AcDbLine
 10
0.9052234297704302
 20
6.007329879241062
 30
0.0
 11
1.271788935686913
 21
5.975259553033723
 31
0.0
  0
ARC
  5
85
330
A
100
AcDbEntity
  8
CK_LEVEL_1
  6
Continuous
 62
     4
100
AcDbCircle
 10
1.25
 20
5.726210878510786
 30
0.0
 40
0.25
100
AcDbArc
 50
0.0
 51
85.00000000000021
  0
ARC
  5
86
330
A
100
AcDbEntity
  8
CK_LEVEL_1
  6
Continuous
 62
     4
100
AcDbCircle
 10
1.25
 20
5.273789121489211
 30
0.0
 40
0.25
100
AcDbArc
 50
274.9999999999997
 51
360.0
  0
ARC
  5
87
330
A
100
AcDbEntity
  8
CK_LEVEL_1
  6
Continuous
 62
     4
100
AcDbCircle
 10
10.74999999999999
 20
5.726210878510788
 30
0.0
 40
0.25
100
AcDbArc
 50
94.99999999999978
 51
180.0
  0
ARC
  5
88
330
A
100
AcDbEntity
  8
CK_LEVEL_1
  6
Continuous
 62
     4
100
AcDbCircle
 10
10.74999999999999
 20
5.27378912148921
 30
0.0
 40
0.25
100
AcDbArc
 50
180.0
 51
265.0000000000002
  0
LINE
  5
89
330
A
100
AcDbEntity
  8
CK_LEVEL_1
  6
Continuous
 62
     4
100
AcDbLine
 10
129.0
 20
0.0
 30
0.0
 11
35.0
 21
0.0
 31
0.0
  0
LINE
  5
8A
330
A
100
AcDbEntity
  8
CK_LEVEL_1
  6
Continuous
 62
     4
100
AcDbLine
 10
129.0
 20
7.999998000000002
 30
0.0
 11
99.35
 21
7.999998000000002
 31
0.0
  0
LINE
  5
8B
330
A
100
AcDbEntity
  8
CK_LEVEL_1
  6
Continuous
 62
     4
100
AcDbLine
 10
71.15000000000001
 20
12.999998
 30
0.0
 11
92.85
 21
12.999998
 31
0.0
  0
LINE
  5
8C
330
A
100
AcDbEntity
  8
CK_LEVEL_1
  6
Continuous
 62
     4
100
AcDbLine
 10
92.85
 20
2.999997999999997
 30
0.0
 11
92.85
 21
12.999998
 31
0.0
  0
LINE
  5
8D
330
A
100
AcDbEntity
  8
CK_LEVEL_1
  6
Continuous
 62
     4
100
AcDbLine
 10
71.15000000000001
 20
2.999998000000001
 30
0.0
 11
71.15000000000001
 21
12.999998
 31
0.0
  0
LINE
  5
8E
330
A
100
AcDbEntity
  8
CK_LEVEL_1
  6
Continuous
 62
     4
100
AcDbLine
 10
92.85
 20
66.999998
 30
0.0
 11
71.15000000000001
 21
66.999998
 31
0.0
  0
LINE
  5
8F
330
A
100
AcDbEntity
  8
CK_LEVEL_1
  6
Continuous
 62
     4
100
AcDbLine
 10
92.85
 20
59.899998
 30
0.0
 11
71.15000000000001
 21
59.899998
 31
0.0
  0
LINE
  5
90
330
A
100
AcDbEntity
  8
CK_LEVEL_1
  6
Continuous
 62
     4
100
AcDbLine
 10
92.85
 20
39.99999799999999
 30
0.0
 11
71.15000000000001
 21
39.99999799999999
 31
0.0
  0
LINE
  5
91
330
A
100
AcDbEntity
  8
CK_LEVEL_1
  6
Continuous
 62
     4
100
AcDbLine
 10
92.85
 20
47.09999799999999
 30
0.0
 11
71.15000000000001
 21
47.09999799999999
 31
0.0
  0
LINE
  5
92
330
A
100
AcDbEntity
  8
CK_LEVEL_1
  6
Continuous
 62
     4
100
AcDbLine
 10
99.35
 20
2.999998000000001
 30
0.0
 11
64.65
 21
2.999998000000001
 31
0.0
  0
LINE
  5
93
330
A
100
AcDbEntity
  8
CK_LEVEL_1
  6
Continuous
 62
     4
100
AcDbLine
 10
71.15000000000001
 20
39.99999799999999
 30
0.0
 11
71.15000000000001
 21
66.999998
 31
0.0
  0
LINE
  5
94
330
A
100
AcDbEntity
  8
CK_LEVEL_1
  6
Continuous
 62
     4
100
AcDbLine
 10
92.85
 20
39.99999799999999
 30
0.0
 11
92.85
 21
66.999998
 31
0.0
  0
LINE
  5
95
330
A
100
AcDbEntity
  8
CK_LEVEL_1
  6
CENTER
 62
   252
100
AcDbLine
 10
132.9921496144716
 20
53.49999799999999
 30
0.0
 11
31.10593964802966
 21
53.49999799999999
 31
0.0
  0
LINE
  5
96
330
A
100
AcDbEntity
  8
CK_LEVEL_1
  6
Continuous
 62
     4
100
AcDbLine
 10
129.0
 20
59.499998
 30
0.0
 11
99.35
 21
59.499998
 31
0.0
  0
LINE
  5
97
330
A
100
AcDbEntity
  8
CK_LEVEL_1
  6
Continuous
 62
     4
100
AcDbLine
 10
129.0
 20
47.499998
 30
0.0
 11
99.35
 21
47.499998
 31
0.0
  0
LINE
  5
98
330
A
100
AcDbEntity
  8
CK_LEVEL_1
  6
Continuous
 62
     4
100
AcDbLine
 10
34.5
 20
58.99999799999999
 30
0.0
 11
34.5
 21
47.999998
 31
0.0
  0
LINE
  5
99
330
A
100
AcDbEntity
  8
CK_LEVEL_1
  6
Continuous
 62
     4
100
AcDbLine
 10
34.5
 20
7.499998000000002
 30
0.0
 11
34.5
 21
0.5
 31
0.0
  0
LINE
  5
9A
330
A
100
AcDbEntity
  8
CK_LEVEL_1
  6
Continuous
 62
     4
100
AcDbLine
 10
129.4999999999999
 20
58.99999799999999
 30
0.0
 11
129.4999999999999
 21
47.999998
 31
0.0
  0
LINE
  5
9B
330
A
100
AcDbEntity
  8
CK_LEVEL_1
  6
Continuous
 62
     4
100
AcDbLine
 10
129.4999999999999
 20
7.499998000000002
 30
0.0
 11
129.4999999999999
 21
0.5
 31
0.0
  0
LINE
  5
9C
330
A
100
AcDbEntity
  8
CK_LEVEL_1
  6
Continuous
 62
     4
100
AcDbLine
 10
66.15000000000001
 20
2.999997999999999
 30
0.0
 11
66.15000000000001
 21
12.599998
 31
0.0
  0
LINE
  5
9D
330
A
100
AcDbEntity
  8
CK_LEVEL_1
  6
Continuous
 62
     4
100
AcDbLine
 10
97.85
 20
2.999997999999999
 30
0.0
 11
97.85
 21
12.599998
 31
0.0
  0
LINE
  5
9E
330
A
100
AcDbEntity
  8
CK_LEVEL_1
  6
Continuous
 62
     4
100
AcDbLine
 10
19.19999999999999
 20
3.599998000000001
 30
0.0
 11
18.59999999999999
 21
2.999998000000001
 31
0.0
  0
LINE
  5
9F
330
A
100
AcDbEntity
  8
CK_LEVEL_1
  6
Continuous
 62
     4
100
AcDbLine
 10
-7.199999999999988
 20
3.599998000000001
 30
0.0
 11
-6.599999999999994
 21
2.999998000000001
 31
0.0
  0
LINE
  5
A0
330
A
100
AcDbEntity
  8
CK_LEVEL_1
  6
Continuous
 62
     4
100
AcDbLine
 10
-7.199999999999988
 20
3.599998000000001
 30
0.0
 11
-7.199999999999988
 21
11.399998
 31
0.0
  0
LINE
  5
A1
330
A
100
AcDbEntity
  8
CK_LEVEL_1
  6
Continuous
 62
     4
100
AcDbLine
 10
19.19999999999999
 20
3.599998000000001
 30
0.0
 11
19.19999999999999
 21
11.399998
 31
0.0
  0
LINE
  5
A2
330
A
100
AcDbEntity
  8
CK_LEVEL_1
  6
Continuous
 62
     4
100
AcDbLine
 10
-5.999999999999985
 20
12.599998
 30
0.0
 11
-7.199999999999988
 21
11.399998
 31
0.0
  0
LINE
  5
A3
330
A
100
AcDbEntity
  8
CK_LEVEL_1
  6
Continuous
 62
     4
100
AcDbLine
 10
17.99999999999998
 20
12.599998
 30
0.0
 11
19.19999999999999
 21
11.399998
 31
0.0
  0
LINE
  5
A4
330
A
100
AcDbEntity
  8
CK_LEVEL_1
  6
Continuous
 62
     4
100
AcDbLine
 10
18.9
 20
2.999998000000001
 30
0.0
 11
12.0
 21
2.999998000000001
 31
0.0
  0
LINE
  5
A5
330
A
100
AcDbEntity
  8
CK_LEVEL_1
  6
Continuous
 62
     4
100
AcDbLine
 10
0.0
 20
2.999998000000001
 30
0.0
 11
-6.900000000000005
 21
2.999998000000001
 31
0.0
  0
LINE
  5
A6
330
A
100
AcDbEntity
  8
CK_LEVEL_1
  6
Continuous
 62
     4
100
AcDbLine
 10
99.35
 20
12.599998
 30
0.0
 11
92.85
 21
12.599998
 31
0.0
  0
LINE
  5
A7
330
A
100
AcDbEntity
  8
CK_LEVEL_1
  6
Continuous
 62
     4
100
AcDbLine
 10
71.15000000000001
 20
12.599998
 30
0.0
 11
64.65
 21
12.599998
 31
0.0
  0
LINE
  5
A8
330
A
100
AcDbEntity
  8
CK_LEVEL_1
  6
Continuous
 62
     4
100
AcDbLine
 10
99.35
 20
40.299998
 30
0.0
 11
92.85
 21
40.299998
 31
0.0
  0
LINE
  5
A9
330
A
100
AcDbEntity
  8
CK_LEVEL_1
  6
Continuous
 62
     4
100
AcDbLine
 10
99.35
 20
66.69999800000001
 30
0.0
 11
92.85
 21
66.69999800000001
 31
0.0
  0
LINE
  5
AA
330
A
100
AcDbEntity
  8
CK_LEVEL_1
  6
Continuous
 62
     4
100
AcDbLine
 10
66.15000000000001
 20
66.69999800000001
 30
0.0
 11
66.15000000000001
 21
40.299998
 31
0.0
  0
LINE
  5
AB
330
A
100
AcDbEntity
  8
CK_LEVEL_1
  6
Continuous
 62
     4
100
AcDbLine
 10
97.85
 20
66.69999800000001
 30
0.0
 11
97.85
 21
40.299998
 31
0.0
  0
LINE
  5
AC
330
A
100
AcDbEntity
  8
CK_LEVEL_1
  6
Continuous
 62
     4
100
AcDbLine
 10
71.15000000000001
 20
66.69999800000001
 30
0.0
 11
64.65
 21
66.69999800000001
 31
0.0
  0
LINE
  5
AD
330
A
100
AcDbEntity
  8
CK_LEVEL_1
  6
Continuous
 62
     4
100
AcDbLine
 10
71.15000000000001
 20
40.299998
 30
0.0
 11
64.65
 21
40.299998
 31
0.0
  0
LINE
  5
AE
330
A
100
AcDbEntity
  8
CK_LEVEL_1
  6
CENTER
 62
   252
100
AcDbLine
 10
94.50000000000001
 20
-1.459433934413311
 30
0.0
 11
94.50000000000001
 21
4.265774217744434
 31
0.0
  0
LINE
  5
AF
330
A
100
AcDbEntity
  8
CK_LEVEL_1
  6
CENTER
 62
   252
100
AcDbLine
 10
69.5
 20
-1.459433934413311
 30
0.0
 11
69.5
 21
4.265774217744434
 31
0.0
  0
LINE
  5
B0
330
A
100
AcDbEntity
  8
CK_LEVEL_1
  6
CENTER
 62
   252
100
AcDbLine
 10
92.85
 20
63.499998
 30
0.0
 11
71.15000000000001
 21
63.499998
 31
0.0
  0
LINE
  5
B1
330
A
100
AcDbEntity
  8
CK_LEVEL_1
  6
CENTER
 62
   252
100
AcDbLine
 10
92.85
 20
43.49999799999999
 30
0.0
 11
71.15000000000001
 21
43.49999799999999
 31
0.0
  0
LINE
  5
B2
330
A
100
AcDbEntity
  8
CK_LEVEL_1
  6
CENTER
 62
   252
100
AcDbLine
 10
74.5
 20
40.7685204366479
 30
0.0
 11
74.5
 21
46.41531441638484
 31
0.0
  0
LINE
  5
B3
330
A
100
AcDbEntity
  8
CK_LEVEL_1
  6
CENTER
 62
   252
100
AcDbLine
 10
89.50000000000001
 20
40.7685204366479
 30
0.0
 11
89.50000000000001
 21
46.41531441638484
 31
0.0
  0
CIRCLE
  5
B4
330
A
100
AcDbEntity
  8
CK_LEVEL_1
  6
Continuous
 62
     4
100
AcDbCircle
 10
74.5
 20
43.49999799999999
 30
0.0
 40
1.25
  0
ARC
  5
B5
330
A
100
AcDbEntity
  8
CK_LEVEL_1
  6
DASHED
 62
   252
100
AcDbCircle
 10
74.5
 20
43.49999799999999
 30
0.0
 40
1.5
100
AcDbArc
 50
259.9999999999998
 51
549.9999999999998
  0
LINE
  5
B6
330
A
100
AcDbEntity
  8
CK_LEVEL_1
  6
CENTER
 62
   252
100
AcDbLine
 10
74.5
 20
60.73689335050026
 30
0.0
 11
74.5
 21
66.38368733023719
 31
0.0
  0
LINE
  5
B7
330
A
100
AcDbEntity
  8
CK_LEVEL_1
  6
CENTER
 62
   252
100
AcDbLine
 10
89.50000000000001
 20
60.73689335050026
 30
0.0
 11
89.50000000000001
 21
66.38368733023719
 31
0.0
  0
LINE
  5
B8
330
A
100
AcDbEntity
  8
CK_LEVEL_1
  6
Continuous
 62
     4
100
AcDbLine
 10
35.0
 20
59.499998
 30
0.0
 11
34.5
 21
58.99999799999999
 31
0.0
  0
LINE
  5
B9
330
A
100
AcDbEntity
  8
CK_LEVEL_1
  6
Continuous
 62
     4
100
AcDbLine
 10
35.0
 20
47.499998
 30
0.0
 11
34.5
 21
47.999998
 31
0.0
  0
LINE
  5
BA
330
A
100
AcDbEntity
  8
CK_LEVEL_1
  6
Continuous
 62
     4
100
AcDbLine
 10
129.0
 20
47.499998
 30
0.0
 11
129.4999999999999
 21
47.999998
 31
0.0
  0
LINE
  5
BB
330
A
100
AcDbEntity
  8
CK_LEVEL_1
  6
Continuous
 62
     4
100
AcDbLine
 10
129.4999999999999
 20
58.99999799999999
 30
0.0
 11
129.0
 21
59.499998
 31
0.0
  0
LINE
  5
BC
330
A
100
AcDbEntity
  8
CK_LEVEL_1
  6
Continuous
 62
     4
100
AcDbLine
 10
35.0
 20
7.999998000000002
 30
0.0
 11
34.5
 21
7.499998000000002
 31
0.0
  0
LINE
  5
BD
330
A
100
AcDbEntity
  8
CK_LEVEL_1
  6
Continuous
 62
     4
100
AcDbLine
 10
34.5
 20
0.5
 30
0.0
 11
35.0
 21
0.0
 31
0.0
  0
LINE
  5
BE
330
A
100
AcDbEntity
  8
CK_LEVEL_1
  6
Continuous
 62
     4
100
AcDbLine
 10
129.0
 20
7.999998000000002
 30
0.0
 11
129.4999999999999
 21
7.499998000000002
 31
0.0
  0
LINE
  5
BF
330
A
100
AcDbEntity
  8
CK_LEVEL_1
  6
Continuous
 62
     4
100
AcDbLine
 10
129.4999999999999
 20
0.5
 30
0.0
 11
129.0
 21
0.0
 31
0.0
  0
CIRCLE
  5
C0
330
A
100
AcDbEntity
  8
CK_LEVEL_1
  6
Continuous
 62
     4
100
AcDbCircle
 10
-0.9000000000000119
 20
9.999997999999999
 30
0.0
 40
1.9
  0
CIRCLE
  5
C1
330
A
100
AcDbEntity
  8
CK_LEVEL_1
  6
Continuous
 62
     4
100
AcDbCircle
 10
12.90000000000001
 20
9.999997999999999
 30
0.0
 40
1.9
  0
LINE
  5
C2
330
A
100
AcDbEntity
  8
CK_LEVEL_1
  6
Continuous
 62
     4
100
AcDbLine
 10
-1.84045201897812
 20
10.9404500189781
 30
0.0
 11
0.0404520189780968
 21
9.059545981021891
 31
0.0
  0
LINE
  5
C3
330
A
100
AcDbEntity
  8
CK_LEVEL_1
  6
Continuous
 62
     4
100
AcDbLine
 10
0.0404520189780967
 20
10.9404500189781
 30
0.0
 11
-1.84045201897812
 21
9.059545981021891
 31
0.0
  0
LINE
  5
C4
330
A
100
AcDbEntity
  8
CK_LEVEL_1
  6
Continuous
 62
     4
100
AcDbLine
 10
11.9595479810219
 20
10.9404500189781
 30
0.0
 11
13.84045201897812
 21
9.059545981021891
 31
0.0
  0
LINE
  5
C5
330
A
100
AcDbEntity
  8
CK_LEVEL_1
  6
Continuous
 62
     4
100
AcDbLine
 10
13.84045201897812
 20
10.9404500189781
 30
0.0
 11
11.9595479810219
 21
9.059545981021891
 31
0.0
  0
ARC
  5
C6
330
A
100
AcDbEntity
  8
CK_LEVEL_1
  6
Continuous
 62
     4
100
AcDbCircle
 10
-0.9000000000000119
 20
9.999997999999999
 30
0.0
 40
2.1
100
AcDbArc
 50
180.0
 51
360.0
  0
LINE
  5
C7
330
A
100
AcDbEntity
  8
CK_LEVEL_1
  6
Continuous
 62
     4
100
AcDbLine
 10
-3.000000000000012
 20
9.999997999999999
 30
0.0
 11
-3.000000000000012
 21
12.599998
 31
0.0
  0
LINE
  5
C8
330
A
100
AcDbEntity
  8
CK_LEVEL_1
  6
Continuous
 62
     4
100
AcDbLine
 10
1.199999999999988
 20
9.999997999999999
 30
0.0
 11
1.199999999999988
 21
12.599998
 31
0.0
  0
LINE
  5
C9
330
A
100
AcDbEntity
  8
CK_LEVEL_1
  6
Continuous
 62
     4
100
AcDbLine
 10
10.80000000000001
 20
9.999997999999999
 30
0.0
 11
10.80000000000001
 21
12.599998
 31
0.0
  0
ARC
  5
CA
330
A
100
AcDbEntity
  8
CK_LEVEL_1
  6
Continuous
 62
     4
100
AcDbCircle
 10
12.90000000000001
 20
9.999997999999999
 30
0.0
 40
2.1
100
AcDbArc
 50
180.0
 51
360.0
  0
LINE
  5
CB
330
A
100
AcDbEntity
  8
CK_LEVEL_1
  6
Continuous
 62
     4
100
AcDbLine
 10
15.00000000000001
 20
9.999997999999999
 30
0.0
 11
15.00000000000001
 21
12.599998
 31
0.0
  0
LINE
  5
CC
330
A
100
AcDbEntity
  8
CK_LEVEL_1
  6
CENTER
 62
   252
100
AcDbLine
 10
74.5
 20
13.6221667836487
 30
0.0
 11
74.5
 21
6.156141379864261
 31
0.0
  0
LINE
  5
CD
330
A
100
AcDbEntity
  8
CK_LEVEL_1
  6
CENTER
 62
   252
100
AcDbLine
 10
89.50000000000001
 20
13.6221667836487
 30
0.0
 11
89.50000000000001
 21
6.156141379864261
 31
0.0
  0
LINE
  5
CE
330
A
100
AcDbEntity
  8
CK_LEVEL_1
  6
Continuous
 62
     4
100
AcDbLine
 10
129.4999999999999
 20
7.499998000000002
 30
0.0
 11
99.35
 21
7.499998000000002
 31
0.0
  0
LINE
  5
CF
330
A
100
AcDbEntity
  8
CK_LEVEL_1
  6
Continuous
 62
     4
100
AcDbLine
 10
129.4999999999999
 20
0.4999999999999999
 30
0.0
 11
34.50000000000001
 21
0.4999999999999999
 31
0.0
  0
LINE
  5
D0
330
A
100
AcDbEntity
  8
CK_LEVEL_1
  6
Continuous
 62
     4
100
AcDbLine
 10
129.4999999999999
 20
6.629403130725537
 30
0.0
 11
99.35
 21
6.629403130725537
 31
0.0
  0
LINE
  5
D1
330
A
100
AcDbEntity
  8
CK_LEVEL_1
  6
Continuous
 62
     4
100
AcDbLine
 10
129.4999999999999
 20
6.031989506229855
 30
0.0
 11
99.35
 21
6.031989506229855
 31
0.0
  0
LINE
  5
D2
330
A
100
AcDbEntity
  8
CK_LEVEL_1
  6
Continuous
 62
     4
100
AcDbLine
 10
129.4999999999999
 20
4.969402240505999
 30
0.0
 11
99.35
 21
4.969402240505999
 31
0.0
  0
LINE
  5
D3
330
A
100
AcDbEntity
  8
CK_LEVEL_1
  6
Continuous
 62
     4
100
AcDbLine
 10
129.4999999999999
 20
4.338115283247618
 30
0.0
 11
99.35
 21
4.338115283247618
 31
0.0
  0
LINE
  5
D4
330
A
100
AcDbEntity
  8
CK_LEVEL_1
  6
Continuous
 62
     4
100
AcDbLine
 10
64.65
 20
7.499998000000002
 30
0.0
 11
34.49999999999997
 21
7.499998000000002
 31
0.0
  0
LINE
  5
D5
330
A
100
AcDbEntity
  8
CK_LEVEL_1
  6
Continuous
 62
     4
100
AcDbLine
 10
64.65
 20
6.629403130725537
 30
0.0
 11
34.5
 21
6.629403130725537
 31
0.0
  0
LINE
  5
D6
330
A
100
AcDbEntity
  8
CK_LEVEL_1
  6
Continuous
 62
     4
100
AcDbLine
 10
64.65
 20
6.031989506229855
 30
0.0
 11
34.5
 21
6.031989506229855
 31
0.0
  0
LINE
  5
D7
330
A
100
AcDbEntity
  8
CK_LEVEL_1
  6
Continuous
 62
     4
100
AcDbLine
 10
64.65
 20
4.969402240505999
 30
0.0
 11
34.5
 21
4.969402240505999
 31
0.0
  0
LINE
  5
D8
330
A
100
AcDbEntity
  8
CK_LEVEL_1
  6
Continuous
 62
     4
100
AcDbLine
 10
64.65
 20
4.338115283247618
 30
0.0
 11
34.5
 21
4.338115283247618
 31
0.0
  0
ARC
  5
D9
330
A
100
AcDbEntity
  8
CK_LEVEL_1
  6
Continuous
 62
     4
100
AcDbCircle
 10
-0.3
 20
5.483759206986578
 30
0.0
 40
1.199999999999999
100
AcDbArc
 50
32.19760666690921
 51
67.70902962524103
  0
ARC
  5
DA
330
A
100
AcDbEntity
  8
CK_LEVEL_1
  6
Continuous
 62
     4
100
AcDbCircle
 10
0.25
 20
6.825399993486453
 30
0.0
 40
0.25
100
AcDbArc
 50
180.0
 51
247.7090296252411
  0
ARC
  5
DB
330
A
100
AcDbEntity
  8
CK_LEVEL_1
  6
Continuous
 62
     4
100
AcDbCircle
 10
0.927012365457346
 20
6.256378553763997
 30
0.0
 40
0.25
100
AcDbArc
 50
212.1976066669092
 51
264.9999999999997
  0
ARC
  5
DC
330
A
100
AcDbEntity
  8
CK_LEVEL_1
  6
Continuous
 62
     4
100
AcDbCircle
 10
0.9479606113700501
 20
4.745454180274115
 30
0.0
 40
0.25
100
AcDbArc
 50
95.00000000000017
 51
149.3910488649734
  0
ARC
  5
DD
330
A
100
AcDbEntity
  8
CK_LEVEL_1
  6
Continuous
 62
     4
100
AcDbCircle
 10
0.25
 20
4.142118420486703
 30
0.0
 40
0.25
100
AcDbArc
 50
112.290970374759
 51
180.0000000000002
  0
ARC
  5
DE
330
A
100
AcDbEntity
  8
CK_LEVEL_1
  6
Continuous
 62
     4
100
AcDbCircle
 10
-0.3
 20
5.483759206986578
 30
0.0
 40
0.6
100
AcDbArc
 50
270.0
 51
450.0
  0
ARC
  5
DF
330
A
100
AcDbEntity
  8
CK_LEVEL_1
  6
Continuous
 62
     4
100
AcDbCircle
 10
12.3
 20
5.483759206986578
 30
0.0
 40
0.6
100
AcDbArc
 50
90.0
 51
270.0
  0
ARC
  5
E0
330
A
100
AcDbEntity
  8
CK_LEVEL_1
  6
Continuous
 62
     4
100
AcDbCircle
 10
12.3
 20
5.483759206986578
 30
0.0
 40
1.199999999999999
100
AcDbArc
 50
112.2909703747589
 51
147.8023933330907
  0
ARC
  5
E1
330
A
100
AcDbEntity
  8
CK_LEVEL_1
  6
Continuous
 62
     4
100
AcDbCircle
 10
11.75
 20
6.825399993486453
 30
0.0
 40
0.25
100
AcDbArc
 50
292.2909703747588
 51
360.0
  0
ARC
  5
E2
330
A
100
AcDbEntity
  8
CK_LEVEL_1
  6
Continuous
 62
     4
100
AcDbCircle
 10
11.07298763454265
 20
6.256378553763997
 30
0.0
 40
0.25
100
AcDbArc
 50
275.0000000000003
 51
327.8023933330907
  0
ARC
  5
E3
330
A
100
AcDbEntity
  8
CK_LEVEL_1
  6
Continuous
 62
     4
100
AcDbCircle
 10
11.05203938862995
 20
4.745454180274115
 30
0.0
 40
0.25
100
AcDbArc
 50
30.60895113502647
 51
84.9999999999998
  0
ARC
  5
E4
330
A
100
AcDbEntity
  8
CK_LEVEL_1
  6
Continuous
 62
     4
100
AcDbCircle
 10
12.3
 20
5.483759206986578
 30
0.0
 40
1.199999999999999
100
AcDbArc
 50
210.6089511350262
 51
247.7090296252411
  0
ARC
  5
E5
330
A
100
AcDbEntity
  8
CK_LEVEL_1
  6
Continuous
 62
     4
100
AcDbCircle
 10
11.75
 20
4.142118420486703
 30
0.0
 40
0.25
100
AcDbArc
 50
359.9999999999997
 51
427.7090296252409
  0
LINE
  5
E6
330
A
100
AcDbEntity
  8
CK_LEVEL_1
  6
Continuous
 62
     4
100
AcDbLine
 10
12.3
 20
6.083759206986577
 30
0.0
 11
12.3
 21
7.699998000000002
 31
0.0
  0
LINE
  5
E7
330
A
100
AcDbEntity
  8
CK_LEVEL_1
  6
Continuous
 62
     4
100
AcDbLine
 10
-0.3
 20
6.083759206986577
 30
0.0
 11
-0.3
 21
7.699998000000002
 31
0.0
  0
LINE
  5
EE
330
A
100
AcDbEntity
  8
CK_LEVEL_1
  6
CENTER
 62
   252
100
AcDbLine
 10
8.0
 20
10.49999799999999
 30
0.0
 11
4.0
 21
10.49999799999999
 31
0.0
  0
ENDSEC
  0
SECTION
  2
OBJECTS
  0
DICTIONARY
  5
19
330
0
100
AcDbDictionary
281
     1
  3
ACAD_GROUP
350
1A
  3
ACAD_LAYOUT
350
F4
  3
ACAD_MLINESTYLE
350
1B
  3
ACAD_PLOTSETTINGS
350
F5
  3
ACAD_PLOTSTYLENAME
350
F2
  0
DICTIONARY
  5
1A
102
{ACAD_REACTORS
330
19
102
}
330
19
100
AcDbDictionary
281
     1
  0
DICTIONARY
  5
F4
102
{ACAD_REACTORS
330
19
102
}
330
19
100
AcDbDictionary
281
     1
  3
Layout1
350
F7
  3
Model
350
F6
  0
DICTIONARY
  5
1B
102
{ACAD_REACTORS
330
19
102
}
330
19
100
AcDbDictionary
281
     1
  3
STANDARD
350
1C
  0
DICTIONARY
  5
F5
102
{ACAD_REACTORS
330
19
102
}
330
19
100
AcDbDictionary
281
     1
  0
ACDBDICTIONARYWDFLT
  5
F2
102
{ACAD_REACTORS
330
19
102
}
330
19
100
AcDbDictionary
281
     1
  3
Normal
350
F3
100
AcDbDictionaryWithDefault
340
F3
  0
LAYOUT
  5
F7
102
{ACAD_REACTORS
330
F4
102
}
330
F4
100
AcDbPlotSettings
  1

  2
HPLJ2100_Technik_S3
  4

  6

 40
0.0
 41
0.0
 42
0.0
 43
0.0
 44
0.0
 45
0.0
 46
0.0
 47
0.0
 48
0.0
 49
0.0
140
0.0
141
0.0
142
1.0
143
1.0
 70
   688
 72
     0
 73
     0
 74
     5
  7

 75
    16
147
1.0
148
0.0
149
0.0
100
AcDbLayout
  1
Layout1
 70
     0
 71
     1
 10
0.0
 20
0.0
 11
12.0
 21
9.0
 12
0.0
 22
0.0
 32
0.0
 14
1.000000000000000E+20
 24
1.000000000000000E+20
 34
1.000000000000000E+20
 15
-1.000000000000000E+20
 25
-1.000000000000000E+20
 35
-1.000000000000000E+20
146
0.0
 13
0.0
 23
0.0
 33
0.0
 16
1.0
 26
0.0
 36
0.0
 17
0.0
 27
1.0
 37
0.0
 76
     0
330
B
  0
LAYOUT
  5
F6
102
{ACAD_REACTORS
330
F4
102
}
330
F4
100
AcDbPlotSettings
  1

  2
HPLJ2100_Technik_S3
  4

  6

 40
0.0
 41
0.0
 42
0.0
 43
0.0
 44
0.0
 45
0.0
 46
0.0
 47
0.0
 48
0.0
 49
0.0
140
0.0
141
0.0
142
1.0
143
1.0
 70
  1712
 72
     0
 73
     0
 74
     0
  7

 75
     0
147
1.0
148
0.0
149
0.0
100
AcDbLayout
  1
Model
 70
     1
 71
     0
 10
0.0
 20
0.0
 11
12.0
 21
9.0
 12
0.0
 22
0.0
 32
0.0
 14
0.0
 24
0.0
 34
0.0
 15
0.0
 25
0.0
 35
0.0
146
0.0
 13
0.0
 23
0.0
 33
0.0
 16
1.0
 26
0.0
 36
0.0
 17
0.0
 27
1.0
 37
0.0
 76
     0
330
A
  0
MLINESTYLE
  5
1C
102
{ACAD_REACTORS
330
1B
102
}
330
1B
100
AcDbMlineStyle
  2
STANDARD
 70
     0
  3

 62
     0
 51
90.00000000000019
 52
90.00000000000019
 71
     2
 49
0.5
 62
   256
  6
BYLAYER
 49
-0.5
 62
   256
  6
BYLAYER
  0
ACDBPLACEHOLDER
  5
F3
102
{ACAD_REACTORS
330
F2
102
}
330
F2
  0
ENDSEC
  0
EOF
