  0
SECTION
  2
HEADER
  9
$ACADVER
  1
AC1015
  9
$ACADMAINTVER
 70
    10
  9
$DWGCODEPAGE
  3
ANSI_1252
  9
$INSBASE
 10
0.0
 20
0.0
 30
0.0
  9
$EXTMIN
 10
-8.5
 20
-48.57089416575823
 30
-0.0005
  9
$EXTMAX
 10
202.791574911945
 20
80.0
 30
0.0
  9
$LIMMIN
 10
0.0
 20
0.0
  9
$LIMMAX
 10
0.0
 20
0.0
  9
$ORTHOMODE
 70
     0
  9
$REGENMODE
 70
     1
  9
$FILLMODE
 70
     1
  9
$QTEXTMODE
 70
     0
  9
$MIRRTEXT
 70
     1
  9
$LTSCALE
 40
1.0
  9
$ATTMODE
 70
     1
  9
$TEXTSIZE
 40
0.0
  9
$TRACEWID
 40
0.05
  9
$TEXTSTYLE
  7
STANDARD
  9
$CLAYER
  8
0
  9
$CELTYPE
  6
CONTINUOUS
  9
$CECOLOR
 62
     4
  9
$CELTSCALE
 40
1.0
  9
$DISPSILH
 70
     0
  9
$DIMSCALE
 40
1.0
  9
$DIMASZ
 40
0.18
  9
$DIMEXO
 40
0.0625
  9
$DIMDLI
 40
0.38
  9
$DIMRND
 40
0.0
  9
$DIMDLE
 40
0.0
  9
$DIMEXE
 40
0.25
  9
$DIMTP
 40
0.1
  9
$DIMTM
 40
-0.1
  9
$DIMTXT
 40
2.5
  9
$DIMCEN
 40
0.09
  9
$DIMTSZ
 40
0.0
  9
$DIMTOL
 70
     0
  9
$DIMLIM
 70
     0
  9
$DIMTIH
 70
     1
  9
$DIMTOH
 70
     1
  9
$DIMSE1
 70
     0
  9
$DIMSE2
 70
     0
  9
$DIMTAD
 70
     0
  9
$DIMZIN
 70
     0
  9
$DIMBLK
  1

  9
$DIMASO
 70
     1
  9
$DIMSHO
 70
     1
  9
$DIMPOST
  1

  9
$DIMAPOST
  1

  9
$DIMALT
 70
     0
  9
$DIMALTD
 70
     2
  9
$DIMALTF
 40
25.4
  9
$DIMLFAC
 40
1.0
  9
$DIMTOFL
 70
     0
  9
$DIMTVP
 40
0.0
  9
$DIMTIX
 70
     0
  9
$DIMSOXD
 70
     0
  9
$DIMSAH
 70
     0
  9
$DIMBLK1
  1

  9
$DIMBLK2
  1

  9
$DIMSTYLE
  2
STANDARD
  9
$DIMCLRD
 70
     0
  9
$DIMCLRE
 70
     0
  9
$DIMCLRT
 70
     4
  9
$DIMTFAC
 40
0.7
  9
$DIMGAP
 40
0.09
  9
$DIMJUST
 70
     0
  9
$DIMSD1
 70
     0
  9
$DIMSD2
 70
     0
  9
$DIMTOLJ
 70
     1
  9
$DIMTZIN
 70
     0
  9
$DIMALTZ
 70
     0
  9
$DIMALTTZ
 70
     0
  9
$DIMUPT
 70
     0
  9
$DIMDEC
 70
     4
  9
$DIMTDEC
 70
     4
  9
$DIMALTU
 70
     2
  9
$DIMALTTD
 70
     2
  9
$DIMTXSTY
  7
STANDARD
  9
$DIMAUNIT
 70
     0
  9
$DIMADEC
 70
     0
  9
$DIMALTRND
 40
0.0
  9
$DIMAZIN
 70
     0
  9
$DIMDSEP
 70
    46
  9
$DIMATFIT
 70
     3
  9
$DIMFRAC
 70
     0
  9
$DIMLDRBLK
  1

  9
$DIMLUNIT
 70
     2
  9
$DIMLWD
 70
    -2
  9
$DIMLWE
 70
    -2
  9
$DIMTMOVE
 70
     0
  9
$LUNITS
 70
     2
  9
$LUPREC
 70
    10
  9
$SKETCHINC
 40
0.1
  9
$FILLETRAD
 40
0.0
  9
$AUNITS
 70
     0
  9
$AUPREC
 70
     0
  9
$MENU
  1
acad
  9
$ELEVATION
 40
0.0
  9
$PELEVATION
 40
0.0
  9
$THICKNESS
 40
0.0
  9
$LIMCHECK
 70
     0
  9
$CHAMFERA
 40
0.0
  9
$CHAMFERB
 40
0.0
  9
$CHAMFERC
 40
0.0
  9
$CHAMFERD
 40
0.0
  9
$SKPOLY
 70
     0
  9
$TDCREATE
 40
2444972.041666666
  9
$TDUCREATE
 40
2444972.000000000
  9
$TDUPDATE
 40
2452327.428039525
  9
$TDUUPDATE
 40
2452327.386372858
  9
$TDINDWG
 40
0.0013583218
  9
$TDUSRTIMER
 40
0.0013583218
  9
$USRTIMER
 70
     1
  9
$ANGBASE
 50
0.0
  9
$ANGDIR
 70
     0
  9
$PDMODE
 70
     2
  9
$PDSIZE
 40
0.0
  9
$PLINEWID
 40
0.0
  9
$SPLFRAME
 70
     0
  9
$SPLINETYPE
 70
     6
  9
$SPLINESEGS
 70
     8
  9
$HANDSEED
  5
12B
  9
$SURFTAB1
 70
     6
  9
$SURFTAB2
 70
     6
  9
$SURFTYPE
 70
     6
  9
$SURFU
 70
     6
  9
$SURFV
 70
     6
  9
$UCSBASE
  2

  9
$UCSNAME
  2

  9
$UCSORG
 10
0.0
 20
0.0
 30
0.0
  9
$UCSXDIR
 10
1.0
 20
0.0
 30
0.0
  9
$UCSYDIR
 10
0.0
 20
1.0
 30
0.0
  9
$UCSORTHOREF
  2

  9
$UCSORTHOVIEW
 70
     0
  9
$UCSORGTOP
 10
0.0
 20
0.0
 30
0.0
  9
$UCSORGBOTTOM
 10
0.0
 20
0.0
 30
0.0
  9
$UCSORGLEFT
 10
0.0
 20
0.0
 30
0.0
  9
$UCSORGRIGHT
 10
0.0
 20
0.0
 30
0.0
  9
$UCSORGFRONT
 10
0.0
 20
0.0
 30
0.0
  9
$UCSORGBACK
 10
0.0
 20
0.0
 30
0.0
  9
$PUCSBASE
  2

  9
$PUCSNAME
  2

  9
$PUCSORG
 10
0.0
 20
0.0
 30
0.0
  9
$PUCSXDIR
 10
1.0
 20
0.0
 30
0.0
  9
$PUCSYDIR
 10
0.0
 20
1.0
 30
0.0
  9
$PUCSORTHOREF
  2

  9
$PUCSORTHOVIEW
 70
     0
  9
$PUCSORGTOP
 10
0.0
 20
0.0
 30
0.0
  9
$PUCSORGBOTTOM
 10
0.0
 20
0.0
 30
0.0
  9
$PUCSORGLEFT
 10
0.0
 20
0.0
 30
0.0
  9
$PUCSORGRIGHT
 10
0.0
 20
0.0
 30
0.0
  9
$PUCSORGFRONT
 10
0.0
 20
0.0
 30
0.0
  9
$PUCSORGBACK
 10
0.0
 20
0.0
 30
0.0
  9
$USERI1
 70
     0
  9
$USERI2
 70
     0
  9
$USERI3
 70
     0
  9
$USERI4
 70
     0
  9
$USERI5
 70
     0
  9
$USERR1
 40
0.0
  9
$USERR2
 40
0.0
  9
$USERR3
 40
0.0
  9
$USERR4
 40
0.0
  9
$USERR5
 40
0.0
  9
$WORLDVIEW
 70
     1
  9
$SHADEDGE
 70
     3
  9
$SHADEDIF
 70
    70
  9
$TILEMODE
 70
     1
  9
$MAXACTVP
 70
    16
  9
$PINSBASE
 10
0.0
 20
0.0
 30
0.0
  9
$PLIMCHECK
 70
     0
  9
$PEXTMIN
 10
1.000000000000000E+20
 20
1.000000000000000E+20
 30
1.000000000000000E+20
  9
$PEXTMAX
 10
-1.000000000000000E+20
 20
-1.000000000000000E+20
 30
-1.000000000000000E+20
  9
$PLIMMIN
 10
0.0
 20
0.0
  9
$PLIMMAX
 10
12.0
 20
9.0
  9
$UNITMODE
 70
     0
  9
$VISRETAIN
 70
     0
  9
$PLINEGEN
 70
     1
  9
$PSLTSCALE
 70
     0
  9
$TREEDEPTH
 70
  3020
  9
$CMLSTYLE
  2
STANDARD
  9
$CMLJUST
 70
     0
  9
$CMLSCALE
 40
1.0
  9
$PROXYGRAPHICS
 70
     1
  9
$MEASUREMENT
 70
     0
  9
$CELWEIGHT
370
    -1
  9
$ENDCAPS
280
     0
  9
$JOINSTYLE
280
     0
  9
$LWDISPLAY
290
     0
  9
$INSUNITS
 70
     0
  9
$HYPERLINKBASE
  1

  9
$STYLESHEET
  1

  9
$XEDIT
290
     1
  9
$CEPSNTYPE
380
     0
  9
$PSTYLEMODE
290
     1
  9
$FINGERPRINTGUID
  2
{63FD5C64-26AB-11D6-8687-00A024540C4A}
  9
$VERSIONGUID
  2
{63FD5C78-26AB-11D6-8687-00A024540C4A}
  9
$EXTNAMES
290
     1
  9
$PSVPSCALE
 40
0.0
  9
$OLESTARTUP
290
     0
  0
ENDSEC
  0
SECTION
  2
CLASSES
  0
CLASS
  1
LWPOLYLINE
  2
AcDbPolyline
  3
AutoCAD 2000
 90
    32768
280
     0
281
     1
  0
CLASS
  1
IMAGE
  2
AcDbRasterImage
  3
ISM
 90
    32895
280
     0
281
     1
  0
CLASS
  1
OLE2FRAME
  2
AcDbOle2Frame
  3
AutoCAD 2000
 90
    32768
280
     0
281
     1
  0
CLASS
  1
HATCH
  2
AcDbHatch
  3
AutoCAD 2000
 90
    32768
280
     0
281
     1
  0
CLASS
  1
DICTIONARYVAR
  2
AcDbDictionaryVar
  3
AutoCAD 2000
 90
    32768
280
     0
281
     0
  0
CLASS
  1
RASTERVARIABLES
  2
AcDbRasterVariables
  3
ISM
 90
    32768
280
     0
281
     0
  0
CLASS
  1
IMAGEDEF
  2
AcDbRasterImageDef
  3
ISM
 90
    32768
280
     0
281
     0
  0
CLASS
  1
IMAGEDEF_REACTOR
  2
AcDbRasterImageDefReactor
  3
ISM
 90
    32769
280
     0
281
     0
  0
CLASS
  1
IDBUFFER
  2
AcDbIdBuffer
  3
AutoCAD 2000
 90
    32768
280
     0
281
     0
  0
CLASS
  1
SPATIAL_FILTER
  2
AcDbSpatialFilter
  3
AutoCAD 2000
 90
    32768
280
     0
281
     0
  0
CLASS
  1
XRECORD
  2
AcDbXrecord
  3
AutoCAD 2000
 90
    32768
280
     0
281
     0
  0
CLASS
  1
SORTENTSTABLE
  2
AcDbSortentsTable
  3
AutoCAD 2000
 90
    32768
280
     0
281
     0
  0
CLASS
  1
LAYER_INDEX
  2
AcDbLayerIndex
  3
AutoCAD 2000
 90
    32768
280
     0
281
     0
  0
CLASS
  1
SPATIAL_INDEX
  2
AcDbSpatialIndex
  3
AutoCAD 2000
 90
    32768
280
     0
281
     0
  0
CLASS
  1
OBJECT_PTR
  2
CAseDLPNTableRecord
  3
"ASE-LPNTableRecord"
 90
    32768
280
     0
281
     0
  0
CLASS
  1
ACDBDICTIONARYWDFLT
  2
AcDbDictionaryWithDefault
  3
AutoCAD 2000
 90
        0
280
     0
281
     0
  0
CLASS
  1
ACDBPLACEHOLDER
  2
AcDbPlaceHolder
  3
AutoCAD 2000
 90
        0
280
     0
281
     0
  0
CLASS
  1
LAYOUT
  2
AcDbLayout
  3
AutoCAD 2000
 90
        0
280
     0
281
     0
  0
ENDSEC
  0
SECTION
  2
TABLES
  0
TABLE
  2
VPORT
  5
7
330
0
100
AcDbSymbolTable
 70
     3
  0
VPORT
  5
12A
330
7
100
AcDbSymbolTableRecord
100
AcDbViewportTableRecord
  2
*Active
 70
     0
 10
0.0
 20
0.0
 11
1.0
 21
1.0
 12
117.5846690697918
 22
16.21455291712089
 13
0.0
 23
0.0
 14
1.0
 24
1.0
 15
0.0
 25
0.0
 16
0.0
 26
0.0
 36
1.0
 17
0.0
 27
0.0
 37
0.0
 40
163.4392432855562
 41
1.672360248447205
 42
50.0
 43
0.0
 44
0.0
 50
0.0
 51
0.0
 71
     0
 72
   100
 73
     1
 74
     1
 75
     0
 76
     0
 77
     0
 78
     0
281
     0
 65
     1
110
0.0
120
0.0
130
0.0
111
1.0
121
0.0
131
0.0
112
0.0
122
1.0
132
0.0
 79
     0
146
0.0
  0
ENDTAB
  0
TABLE
  2
LTYPE
  5
4
330
0
100
AcDbSymbolTable
 70
     4
  0
LTYPE
  5
11
330
4
100
AcDbSymbolTableRecord
100
AcDbLinetypeTableRecord
  2
BYBLOCK
 70
     0
  3

 72
    65
 73
     0
 40
0.0
  0
LTYPE
  5
12
330
4
100
AcDbSymbolTableRecord
100
AcDbLinetypeTableRecord
  2
BYLAYER
 70
     0
  3

 72
    65
 73
     0
 40
0.0
  0
LTYPE
  5
13
330
4
100
AcDbSymbolTableRecord
100
AcDbLinetypeTableRecord
  2
CONTINUOUS
 70
     0
  3
Solid line
 72
    65
 73
     0
 40
0.0
  0
LTYPE
  5
1D
330
4
100
AcDbSymbolTableRecord
100
AcDbLinetypeTableRecord
  2
DASHED
 70
     0
  3
_ _ _ _ _ _ _ _ _ _ _ _ _ _ _ _
 72
    65
 73
     2
 40
0.2
 49
0.1
 74
     0
 49
-0.1
 74
     0
  0
LTYPE
  5
1E
330
4
100
AcDbSymbolTableRecord
100
AcDbLinetypeTableRecord
  2
CENTER
 70
     0
  3
___ _ ___ _ ___ _ ___ _ ___ _ ___ _ ___ _ ___ _
 72
    65
 73
     4
 40
0.95
 49
0.625
 74
     0
 49
-0.125
 74
     0
 49
0.075
 74
     0
 49
-0.125
 74
     0
  0
LTYPE
  5
1F
330
4
100
AcDbSymbolTableRecord
100
AcDbLinetypeTableRecord
  2
PHANTOM
 70
     0
  3
______  __  __  ______  __  __  ______  __  __  
 72
    65
 73
     6
 40
1.024999999999999
 49
0.625
 74
     0
 49
-0.125
 74
     0
 49
0.075
 74
     0
 49
-0.125
 74
     0
 49
0.075
 74
     0
 49
-0.125
 74
     0
  0
ENDTAB
  0
TABLE
  2
LAYER
  5
2
330
0
100
AcDbSymbolTable
 70
     2
  0
LAYER
  5
14
330
2
100
AcDbSymbolTableRecord
100
AcDbLayerTableRecord
  2
0
 70
     0
 62
     7
  6
CONTINUOUS
370
    -3
390
122
  0
LAYER
  5
21
330
2
100
AcDbSymbolTableRecord
100
AcDbLayerTableRecord
  2
CK_LEVEL_1
 70
     0
 62
     7
  6
CONTINUOUS
370
    -3
390
122
  0
ENDTAB
  0
TABLE
  2
STYLE
  5
3
330
0
100
AcDbSymbolTable
 70
     1
  0
STYLE
  5
17
330
3
100
AcDbSymbolTableRecord
100
AcDbTextStyleTableRecord
  2
STANDARD
 70
     0
 40
0.0
 41
1.0
 50
0.0
 71
     0
 42
0.0
  3
txt
  4

  0
ENDTAB
  0
TABLE
  2
VIEW
  5
5
330
0
100
AcDbSymbolTable
 70
     0
  0
ENDTAB
  0
TABLE
  2
UCS
  5
6
330
0
100
AcDbSymbolTable
 70
     1
  0
UCS
  5
20
330
6
100
AcDbSymbolTableRecord
100
AcDbUCSTableRecord
  2
CK_VIEW_1
 70
     0
 10
0.0
 20
0.0
 30
1.0
 11
1.0
 21
0.0
 31
0.0
 12
0.0
 22
1.0
 32
0.0
 79
     0
146
0.0
  0
ENDTAB
  0
TABLE
  2
APPID
  5
8
330
0
100
AcDbSymbolTable
 70
     1
  0
APPID
  5
16
330
8
100
AcDbSymbolTableRecord
100
AcDbRegAppTableRecord
  2
ACAD
 70
     0
  0
ENDTAB
  0
TABLE
  2
DIMSTYLE
  5
9
330
0
100
AcDbSymbolTable
 70
     1
100
AcDbDimStyleTable
 71
     0
  0
DIMSTYLE
105
18
330
9
100
AcDbSymbolTableRecord
100
AcDbDimStyleTableRecord
  2
STANDARD
 70
     0
289
     0
340
17
  0
ENDTAB
  0
TABLE
  2
BLOCK_RECORD
  5
1
330
0
100
AcDbSymbolTable
 70
     0
  0
BLOCK_RECORD
  5
A
330
1
100
AcDbSymbolTableRecord
100
AcDbBlockTableRecord
  2
*MODEL_SPACE
340
125
  0
BLOCK_RECORD
  5
B
330
1
100
AcDbSymbolTableRecord
100
AcDbBlockTableRecord
  2
*PAPER_SPACE
340
126
  0
ENDTAB
  0
ENDSEC
  0
SECTION
  2
BLOCKS
  0
BLOCK
  5
D
330
A
100
AcDbEntity
  8
0
100
AcDbBlockBegin
  2
*MODEL_SPACE
 70
     0
 10
0.0
 20
0.0
 30
0.0
  3
*MODEL_SPACE
  1

  0
ENDBLK
  5
E
330
A
100
AcDbEntity
  8
0
100
AcDbBlockEnd
  0
BLOCK
  5
F
330
B
100
AcDbEntity
 67
     1
  8
0
100
AcDbBlockBegin
  2
*PAPER_SPACE
 70
     0
 10
0.0
 20
0.0
 30
0.0
  3
*PAPER_SPACE
  1

  0
ENDBLK
  5
10
330
B
100
AcDbEntity
 67
     1
  8
0
100
AcDbBlockEnd
  0
ENDSEC
  0
SECTION
  2
ENTITIES
  0
LINE
  5
22
330
A
100
AcDbEntity
  8
CK_LEVEL_1
  6
DASHED
 62
   252
100
AcDbLine
 10
102.9499999999999
 20
9.5
 30
0.0
 11
100.5
 21
9.5
 31
0.0
  0
LINE
  5
23
330
A
100
AcDbEntity
  8
CK_LEVEL_1
  6
DASHED
 62
   252
100
AcDbLine
 10
100.0
 20
10.0
 30
0.0
 11
100.5
 21
9.5
 31
0.0
  0
LINE
  5
24
330
A
100
AcDbEntity
  8
CK_LEVEL_1
  6
DASHED
 62
   252
100
AcDbLine
 10
100.5
 20
5.499999999999996
 30
0.0
 11
100.5
 21
9.5
 31
0.0
  0
LINE
  5
25
330
A
100
AcDbEntity
  8
CK_LEVEL_1
  6
DASHED
 62
   252
100
AcDbLine
 10
102.9499999999999
 20
5.499999999999996
 30
0.0
 11
100.5
 21
5.499999999999996
 31
0.0
  0
LINE
  5
26
330
A
100
AcDbEntity
  8
CK_LEVEL_1
  6
DASHED
 62
   252
100
AcDbLine
 10
105.2499999999999
 20
0.5
 30
0.0
 11
105.7499999999999
 21
0.0
 31
0.0
  0
LINE
  5
27
330
A
100
AcDbEntity
  8
CK_LEVEL_1
  6
DASHED
 62
   252
100
AcDbLine
 10
101.75
 20
0.5
 30
0.0
 11
101.2499999999999
 21
0.0
 31
0.0
  0
LINE
  5
28
330
A
100
AcDbEntity
  8
CK_LEVEL_1
  6
DASHED
 62
   252
100
AcDbLine
 10
105.2499999999999
 20
0.5
 30
0.0
 11
101.75
 21
0.5
 31
0.0
  0
LINE
  5
29
330
A
100
AcDbEntity
  8
CK_LEVEL_1
  6
DASHED
 62
   252
100
AcDbLine
 10
101.75
 20
0.5
 30
0.0
 11
101.75
 21
5.499999999999996
 31
0.0
  0
LINE
  5
2A
330
A
100
AcDbEntity
  8
CK_LEVEL_1
  6
DASHED
 62
   252
100
AcDbLine
 10
105.2499999999999
 20
0.5
 30
0.0
 11
105.2499999999999
 21
4.0
 31
0.0
  0
CIRCLE
  5
2B
330
A
100
AcDbEntity
  8
CK_LEVEL_1
  6
Continuous
 62
     4
100
AcDbCircle
 10
63.5
 20
63.99999999999999
 30
0.0
 40
3.0
  0
ARC
  5
2C
330
A
100
AcDbEntity
  8
CK_LEVEL_1
  6
Continuous
 62
     4
100
AcDbCircle
 10
143.5499999999999
 20
10.84999999999999
 30
0.0
 40
1.0
100
AcDbArc
 50
299.9999999999999
 51
360.0
  0
ARC
  5
2D
330
A
100
AcDbEntity
  8
CK_LEVEL_1
  6
Continuous
 62
     4
100
AcDbCircle
 10
143.5499999999999
 20
14.34999999999999
 30
0.0
 40
1.0
100
AcDbArc
 50
0.0
 51
60.00000000000002
  0
LINE
  5
2E
330
A
100
AcDbEntity
  8
CK_LEVEL_1
  6
Continuous
 62
     4
100
AcDbLine
 10
144.5499999999999
 20
10.84999999999999
 30
0.0
 11
144.5499999999999
 21
14.34999999999999
 31
0.0
  0
ARC
  5
2F
330
A
100
AcDbEntity
  8
CK_LEVEL_1
  6
Continuous
 62
     4
100
AcDbCircle
 10
103.4499999999999
 20
10.84999999999999
 30
0.0
 40
1.0
100
AcDbArc
 50
180.0
 51
240.0
  0
ARC
  5
30
330
A
100
AcDbEntity
  8
CK_LEVEL_1
  6
Continuous
 62
     4
100
AcDbCircle
 10
103.4499999999999
 20
14.34999999999999
 30
0.0
 40
1.0
100
AcDbArc
 50
119.9999999999999
 51
180.0
  0
LINE
  5
31
330
A
100
AcDbEntity
  8
CK_LEVEL_1
  6
Continuous
 62
     4
100
AcDbLine
 10
102.4499999999999
 20
10.84999999999999
 30
0.0
 11
102.4499999999999
 21
14.34999999999999
 31
0.0
  0
LINE
  5
32
330
A
100
AcDbEntity
  8
CK_LEVEL_1
  6
Continuous
 62
     4
100
AcDbLine
 10
102.9499999999999
 20
5.585786437626906
 30
0.0
 11
48.5
 21
5.585786437626906
 31
0.0
  0
LINE
  5
33
330
A
100
AcDbEntity
  8
CK_LEVEL_1
  6
Continuous
 62
     4
100
AcDbLine
 10
102.9499999999999
 20
6.377754871807495
 30
0.0
 11
48.5
 21
6.377754871807495
 31
0.0
  0
LINE
  5
34
330
A
100
AcDbEntity
  8
CK_LEVEL_1
  6
Continuous
 62
     4
100
AcDbLine
 10
102.9499999999999
 20
7.622245128192482
 30
0.0
 11
48.5
 21
7.622245128192482
 31
0.0
  0
LINE
  5
35
330
A
100
AcDbEntity
  8
CK_LEVEL_1
  6
Continuous
 62
     4
100
AcDbLine
 10
102.9499999999999
 20
8.414213562373097
 30
0.0
 11
48.5
 21
8.414213562373097
 31
0.0
  0
LINE
  5
36
330
A
100
AcDbEntity
  8
CK_LEVEL_1
  6
Continuous
 62
     4
100
AcDbLine
 10
102.9499999999999
 20
9.5
 30
0.0
 11
48.5
 21
9.5
 31
0.0
  0
LINE
  5
37
330
A
100
AcDbEntity
  8
CK_LEVEL_1
  6
Continuous
 62
     4
100
AcDbLine
 10
198.5
 20
5.585786437626906
 30
0.0
 11
144.0499999999999
 21
5.585786437626906
 31
0.0
  0
LINE
  5
38
330
A
100
AcDbEntity
  8
CK_LEVEL_1
  6
Continuous
 62
     4
100
AcDbLine
 10
198.5
 20
6.377754871807495
 30
0.0
 11
144.0499999999999
 21
6.377754871807495
 31
0.0
  0
LINE
  5
39
330
A
100
AcDbEntity
  8
CK_LEVEL_1
  6
Continuous
 62
     4
100
AcDbLine
 10
198.5
 20
7.622245128192482
 30
0.0
 11
144.0499999999999
 21
7.622245128192482
 31
0.0
  0
LINE
  5
3A
330
A
100
AcDbEntity
  8
CK_LEVEL_1
  6
Continuous
 62
     4
100
AcDbLine
 10
198.5
 20
8.414213562373097
 30
0.0
 11
144.0499999999999
 21
8.414213562373097
 31
0.0
  0
LINE
  5
3B
330
A
100
AcDbEntity
  8
CK_LEVEL_1
  6
Continuous
 62
     4
100
AcDbLine
 10
198.5
 20
0.8000000000000007
 30
0.0
 11
48.5
 21
0.8000000000000007
 31
0.0
  0
LINE
  5
3C
330
A
100
AcDbEntity
  8
CK_LEVEL_1
  6
Continuous
 62
     4
100
AcDbLine
 10
198.5
 20
9.5
 30
0.0
 11
144.0499999999999
 21
9.5
 31
0.0
  0
LINE
  5
3D
330
A
100
AcDbEntity
  8
CK_LEVEL_1
  6
Continuous
 62
     4
100
AcDbLine
 10
48.5
 20
0.5
 30
0.0
 11
49.0
 21
0.0
 31
0.0
  0
LINE
  5
3E
330
A
100
AcDbEntity
  8
CK_LEVEL_1
  6
Continuous
 62
     4
100
AcDbLine
 10
49.0
 20
10.0
 30
0.0
 11
48.5
 21
9.5
 31
0.0
  0
LINE
  5
3F
330
A
100
AcDbEntity
  8
CK_LEVEL_1
  6
Continuous
 62
     4
100
AcDbLine
 10
198.5
 20
0.5
 30
0.0
 11
198.0
 21
0.0
 31
0.0
  0
LINE
  5
40
330
A
100
AcDbEntity
  8
CK_LEVEL_1
  6
Continuous
 62
     4
100
AcDbLine
 10
198.0
 20
10.0
 30
0.0
 11
198.5
 21
9.5
 31
0.0
  0
LINE
  5
41
330
A
100
AcDbEntity
  8
CK_LEVEL_1
  6
Continuous
 62
     4
100
AcDbLine
 10
198.5
 20
57.0
 30
0.0
 11
198.0
 21
56.5
 31
0.0
  0
LINE
  5
42
330
A
100
AcDbEntity
  8
CK_LEVEL_1
  6
Continuous
 62
     4
100
AcDbLine
 10
198.0
 20
71.5
 30
0.0
 11
198.5
 21
71.0
 31
0.0
  0
LINE
  5
43
330
A
100
AcDbEntity
  8
CK_LEVEL_1
  6
Continuous
 62
     4
100
AcDbLine
 10
48.5
 20
57.0
 30
0.0
 11
49.0
 21
56.5
 31
0.0
  0
LINE
  5
44
330
A
100
AcDbEntity
  8
CK_LEVEL_1
  6
Continuous
 62
     4
100
AcDbLine
 10
49.0
 20
71.5
 30
0.0
 11
48.5
 21
71.0
 31
0.0
  0
CIRCLE
  5
45
330
A
100
AcDbEntity
  8
CK_LEVEL_1
  6
Continuous
 62
     4
100
AcDbCircle
 10
7.5
 20
13.0
 30
0.0
 40
0.5
  0
LINE
  5
46
330
A
100
AcDbEntity
  8
CK_LEVEL_1
  6
Continuous
 62
     4
100
AcDbLine
 10
9.809401076758504
 20
13.0
 30
0.0
 11
8.654700538379245
 21
15.0
 31
0.0
  0
LINE
  5
47
330
A
100
AcDbEntity
  8
CK_LEVEL_1
  6
Continuous
 62
     4
100
AcDbLine
 10
8.654700538379245
 20
11.0
 30
0.0
 11
9.809401076758504
 21
13.0
 31
0.0
  0
LINE
  5
48
330
A
100
AcDbEntity
  8
CK_LEVEL_1
  6
Continuous
 62
     4
100
AcDbLine
 10
6.34529946162074
 20
11.0
 30
0.0
 11
8.654700538379245
 21
11.0
 31
0.0
  0
LINE
  5
49
330
A
100
AcDbEntity
  8
CK_LEVEL_1
  6
Continuous
 62
     4
100
AcDbLine
 10
5.190598923241495
 20
13.0
 30
0.0
 11
6.34529946162074
 21
11.0
 31
0.0
  0
LINE
  5
4A
330
A
100
AcDbEntity
  8
CK_LEVEL_1
  6
Continuous
 62
     4
100
AcDbLine
 10
8.654700538379245
 20
15.0
 30
0.0
 11
6.34529946162074
 21
15.0
 31
0.0
  0
LINE
  5
4B
330
A
100
AcDbEntity
  8
CK_LEVEL_1
  6
Continuous
 62
     4
100
AcDbLine
 10
6.34529946162074
 20
15.0
 30
0.0
 11
5.190598923241495
 21
13.0
 31
0.0
  0
LINE
  5
4C
330
A
100
AcDbEntity
  8
CK_LEVEL_1
  6
CENTER
 62
   252
100
AcDbLine
 10
133.4999999999999
 20
73.83333333333332
 30
0.0
 11
133.4999999999999
 21
79.16666666666667
 31
0.0
  0
LINE
  5
4D
330
A
100
AcDbEntity
  8
CK_LEVEL_1
  6
CENTER
 62
   252
100
AcDbLine
 10
113.5
 20
73.83333333333332
 30
0.0
 11
113.5
 21
79.16666666666667
 31
0.0
  0
ARC
  5
4E
330
A
100
AcDbEntity
  8
CK_LEVEL_1
  6
DASHED
 62
   252
100
AcDbCircle
 10
113.5
 20
51.5
 30
0.0
 40
1.5
100
AcDbArc
 50
259.9999999999998
 51
549.9999999999998
  0
CIRCLE
  5
4F
330
A
100
AcDbEntity
  8
CK_LEVEL_1
  6
Continuous
 62
     4
100
AcDbCircle
 10
113.5
 20
51.5
 30
0.0
 40
1.25
  0
LINE
  5
50
330
A
100
AcDbEntity
  8
CK_LEVEL_1
  6
CENTER
 62
   252
100
AcDbLine
 10
113.5
 20
48.83333333333332
 30
0.0
 11
113.5
 21
54.16666666666667
 31
0.0
  0
LINE
  5
51
330
A
100
AcDbEntity
  8
CK_LEVEL_1
  6
Continuous
 62
     4
100
AcDbLine
 10
113.5
 20
51.5
 30
0.0
 11
113.5
 21
51.5
 31
-0.0005
  0
LINE
  5
52
330
A
100
AcDbEntity
  8
CK_LEVEL_1
  6
CENTER
 62
   252
100
AcDbLine
 10
133.4999999999999
 20
48.83333333333332
 30
0.0
 11
133.4999999999999
 21
54.16666666666667
 31
0.0
  0
LINE
  5
53
330
A
100
AcDbEntity
  8
CK_LEVEL_1
  6
CENTER
 62
   252
100
AcDbLine
 10
136.85
 20
51.5
 30
0.0
 11
110.1499999999999
 21
51.5
 31
0.0
  0
LINE
  5
54
330
A
100
AcDbEntity
  8
CK_LEVEL_1
  6
CENTER
 62
   252
100
AcDbLine
 10
136.85
 20
76.5
 30
0.0
 11
110.1499999999999
 21
76.5
 31
0.0
  0
LINE
  5
55
330
A
100
AcDbEntity
  8
CK_LEVEL_1
  6
DASHED
 62
   252
100
AcDbLine
 10
65.25
 20
0.5
 30
0.0
 11
65.74999999999999
 21
0.0
 31
0.0
  0
LINE
  5
56
330
A
100
AcDbEntity
  8
CK_LEVEL_1
  6
DASHED
 62
   252
100
AcDbLine
 10
61.75
 20
0.5
 30
0.0
 11
61.25
 21
0.0
 31
0.0
  0
LINE
  5
57
330
A
100
AcDbEntity
  8
CK_LEVEL_1
  6
DASHED
 62
   252
100
AcDbLine
 10
65.25
 20
0.5
 30
0.0
 11
61.75
 21
0.5
 31
0.0
  0
LINE
  5
58
330
A
100
AcDbEntity
  8
CK_LEVEL_1
  6
CENTER
 62
   252
100
AcDbLine
 10
63.5
 20
-1.285397913702372
 30
0.0
 11
63.5
 21
11.47664139328447
 31
0.0
  0
LINE
  5
59
330
A
100
AcDbEntity
  8
CK_LEVEL_1
  6
DASHED
 62
   252
100
AcDbLine
 10
61.75
 20
0.5
 30
0.0
 11
61.75
 21
5.499999999999996
 31
0.0
  0
LINE
  5
5A
330
A
100
AcDbEntity
  8
CK_LEVEL_1
  6
DASHED
 62
   252
100
AcDbLine
 10
65.25
 20
0.5
 30
0.0
 11
65.25
 21
5.499999999999996
 31
0.0
  0
LINE
  5
5B
330
A
100
AcDbEntity
  8
CK_LEVEL_1
  6
DASHED
 62
   252
100
AcDbLine
 10
66.5
 20
5.499999999999996
 30
0.0
 11
60.5
 21
5.499999999999996
 31
0.0
  0
LINE
  5
5C
330
A
100
AcDbEntity
  8
CK_LEVEL_1
  6
DASHED
 62
   252
100
AcDbLine
 10
66.5
 20
5.499999999999996
 30
0.0
 11
66.5
 21
9.5
 31
0.0
  0
LINE
  5
5D
330
A
100
AcDbEntity
  8
CK_LEVEL_1
  6
DASHED
 62
   252
100
AcDbLine
 10
66.5
 20
9.5
 30
0.0
 11
67.0
 21
10.0
 31
0.0
  0
LINE
  5
5E
330
A
100
AcDbEntity
  8
CK_LEVEL_1
  6
DASHED
 62
   252
100
AcDbLine
 10
60.5
 20
5.499999999999996
 30
0.0
 11
60.5
 21
9.5
 31
0.0
  0
LINE
  5
5F
330
A
100
AcDbEntity
  8
CK_LEVEL_1
  6
DASHED
 62
   252
100
AcDbLine
 10
66.5
 20
9.5
 30
0.0
 11
60.5
 21
9.5
 31
0.0
  0
LINE
  5
60
330
A
100
AcDbEntity
  8
CK_LEVEL_1
  6
DASHED
 62
   252
100
AcDbLine
 10
60.0
 20
10.0
 30
0.0
 11
60.5
 21
9.5
 31
0.0
  0
LINE
  5
67
330
A
100
AcDbEntity
  8
CK_LEVEL_1
  6
Continuous
 62
     4
100
AcDbLine
 10
23.5
 20
4.8
 30
0.0
 11
23.5
 21
15.2
 31
0.0
  0
ARC
  5
68
330
A
100
AcDbEntity
  8
CK_LEVEL_1
  6
Continuous
 62
     4
100
AcDbCircle
 10
1.699999999999974
 20
6.651585141594882
 30
0.0
 40
0.2
100
AcDbArc
 50
275.0000000000005
 51
360.0
  0
ARC
  5
69
330
A
100
AcDbEntity
  8
CK_LEVEL_1
  6
Continuous
 62
     4
100
AcDbCircle
 10
1.699999999999974
 20
7.348414858405121
 30
0.0
 40
0.2
100
AcDbArc
 50
0.0
 51
84.99999999999934
  0
ARC
  5
6A
330
A
100
AcDbEntity
  8
CK_LEVEL_1
  6
Continuous
 62
     4
100
AcDbCircle
 10
13.30000000000002
 20
6.651585141594882
 30
0.0
 40
0.2
100
AcDbArc
 50
180.0
 51
264.9999999999993
  0
ARC
  5
6B
330
A
100
AcDbEntity
  8
CK_LEVEL_1
  6
Continuous
 62
     4
100
AcDbCircle
 10
13.30000000000002
 20
7.348414858405121
 30
0.0
 40
0.2
100
AcDbArc
 50
95.00000000000071
 51
180.0
  0
LINE
  5
6C
330
A
100
AcDbEntity
  8
CK_LEVEL_1
  6
Continuous
 62
     4
100
AcDbLine
 10
0.9762494924962442
 20
6.387501209458494
 30
0.0
 11
1.717431148549508
 21
6.452346201976531
 31
0.0
  0
LINE
  5
6D
330
A
100
AcDbEntity
  8
CK_LEVEL_1
  6
DASHED
 62
   252
100
AcDbLine
 10
9.25
 20
0.5
 30
0.0
 11
9.749999999999991
 21
0.0
 31
0.0
  0
LINE
  5
6E
330
A
100
AcDbEntity
  8
CK_LEVEL_1
  6
DASHED
 62
   252
100
AcDbLine
 10
5.75
 20
0.5
 30
0.0
 11
5.548071199583001
 21
0.2980711995830016
 31
0.0
  0
LINE
  5
6F
330
A
100
AcDbEntity
  8
CK_LEVEL_1
  6
DASHED
 62
   252
100
AcDbLine
 10
9.25
 20
0.5
 30
0.0
 11
5.75
 21
0.5
 31
0.0
  0
LINE
  5
70
330
A
100
AcDbEntity
  8
CK_LEVEL_1
  6
DASHED
 62
   252
100
AcDbLine
 10
10.5
 20
5.499999999999996
 30
0.0
 11
10.5
 21
9.5
 31
0.0
  0
LINE
  5
71
330
A
100
AcDbEntity
  8
CK_LEVEL_1
  6
DASHED
 62
   252
100
AcDbLine
 10
4.5
 20
5.499999999999996
 30
0.0
 11
4.5
 21
9.5
 31
0.0
  0
LINE
  5
72
330
A
100
AcDbEntity
  8
CK_LEVEL_1
  6
DASHED
 62
   252
100
AcDbLine
 10
9.25
 20
0.5
 30
0.0
 11
9.25
 21
5.499999999999996
 31
0.0
  0
LINE
  5
73
330
A
100
AcDbEntity
  8
CK_LEVEL_1
  6
DASHED
 62
   252
100
AcDbLine
 10
5.75
 20
0.5
 30
0.0
 11
5.75
 21
5.499999999999996
 31
0.0
  0
LINE
  5
74
330
A
100
AcDbEntity
  8
CK_LEVEL_1
  6
DASHED
 62
   252
100
AcDbLine
 10
10.5
 20
5.499999999999996
 30
0.0
 11
4.5
 21
5.499999999999996
 31
0.0
  0
LINE
  5
75
330
A
100
AcDbEntity
  8
CK_LEVEL_1
  6
Continuous
 62
     4
100
AcDbLine
 10
4.980384757729336
 20
0.0
 30
0.0
 11
0.7999999999999972
 21
0.0
 31
0.0
  0
LINE
  5
76
330
A
100
AcDbEntity
  8
CK_LEVEL_1
  6
Continuous
 62
     4
100
AcDbLine
 10
0.0
 20
9.5
 30
0.0
 11
0.5
 21
10.0
 31
0.0
  0
LINE
  5
77
330
A
100
AcDbEntity
  8
CK_LEVEL_1
  6
Continuous
 62
     4
100
AcDbLine
 10
15.0
 20
9.5
 30
0.0
 11
14.5
 21
10.0
 31
0.0
  0
LINE
  5
78
330
A
100
AcDbEntity
  8
CK_LEVEL_1
  6
Continuous
 62
     4
100
AcDbLine
 10
15.09999999999999
 20
15.6
 30
0.0
 11
15.5
 21
16.0
 31
0.0
  0
LINE
  5
79
330
A
100
AcDbEntity
  8
CK_LEVEL_1
  6
Continuous
 62
     4
100
AcDbLine
 10
-0.5
 20
16.0
 30
0.0
 11
-0.0999999999999943
 21
15.6
 31
0.0
  0
LINE
  5
7A
330
A
100
AcDbEntity
  8
CK_LEVEL_1
  6
Continuous
 62
     4
100
AcDbLine
 10
22.7
 20
16.0
 30
0.0
 11
15.5
 21
16.0
 31
0.0
  0
LINE
  5
7B
330
A
100
AcDbEntity
  8
CK_LEVEL_1
  6
Continuous
 62
     4
100
AcDbLine
 10
21.69999999999999
 20
15.6
 30
0.0
 11
-6.699999999999995
 21
15.6
 31
0.0
  0
LINE
  5
7C
330
A
100
AcDbEntity
  8
CK_LEVEL_1
  6
Continuous
 62
     4
100
AcDbLine
 10
15.0
 20
4.0
 30
0.0
 11
22.7
 21
4.0
 31
0.0
  0
LINE
  5
7D
330
A
100
AcDbEntity
  8
CK_LEVEL_1
  6
Continuous
 62
     4
100
AcDbLine
 10
-8.5
 20
4.8
 30
0.0
 11
-8.5
 21
8.599999999999997
 31
0.0
  0
LINE
  5
7E
330
A
100
AcDbEntity
  8
CK_LEVEL_1
  6
Continuous
 62
     4
100
AcDbLine
 10
15.0
 20
0.8000000000000007
 30
0.0
 11
15.0
 21
5.450806661517034
 31
0.0
  0
LINE
  5
7F
330
A
100
AcDbEntity
  8
CK_LEVEL_1
  6
Continuous
 62
     4
100
AcDbLine
 10
0.0
 20
8.549193338482966
 30
0.0
 11
0.0
 21
9.5
 31
0.0
  0
LINE
  5
80
330
A
100
AcDbEntity
  8
CK_LEVEL_1
  6
Continuous
 62
     4
100
AcDbLine
 10
14.5
 20
10.0
 30
0.0
 11
0.5
 21
10.0
 31
0.0
  0
LINE
  5
81
330
A
100
AcDbEntity
  8
CK_LEVEL_1
  6
Continuous
 62
     4
100
AcDbLine
 10
14.2
 20
0.0
 30
0.0
 11
6.019615242270662
 21
0.0
 31
0.0
  0
LINE
  5
82
330
A
100
AcDbEntity
  8
CK_LEVEL_1
  6
Continuous
 62
     4
100
AcDbLine
 10
0.0
 20
4.0
 30
0.0
 11
-7.700000000000002
 21
4.0
 31
0.0
  0
LINE
  5
83
330
A
100
AcDbEntity
  8
CK_LEVEL_1
  6
Continuous
 62
     4
100
AcDbLine
 10
-0.5
 20
16.0
 30
0.0
 11
-7.700000000000002
 21
16.0
 31
0.0
  0
LINE
  5
84
330
A
100
AcDbEntity
  8
CK_LEVEL_1
  6
CENTER
 62
   252
100
AcDbLine
 10
7.5
 20
-2.0
 30
0.0
 11
7.5
 21
18.0
 31
0.0
  0
LINE
  5
85
330
A
100
AcDbEntity
  8
CK_LEVEL_1
  6
Continuous
 62
     4
100
AcDbLine
 10
0.0
 20
0.8000000000000007
 30
0.0
 11
0.0
 21
5.450806661517034
 31
0.0
  0
LINE
  5
86
330
A
100
AcDbEntity
  8
CK_LEVEL_1
  6
Continuous
 62
     4
100
AcDbLine
 10
15.0
 20
8.549193338482968
 30
0.0
 11
15.0
 21
9.5
 31
0.0
  0
LINE
  5
87
330
A
100
AcDbEntity
  8
CK_LEVEL_1
  6
Continuous
 62
     4
100
AcDbLine
 10
1.899999999999977
 20
6.651585141594882
 30
0.0
 11
1.899999999999977
 21
7.348414858405121
 31
0.0
  0
LINE
  5
88
330
A
100
AcDbEntity
  8
CK_LEVEL_1
  6
Continuous
 62
     4
100
AcDbLine
 10
0.9762494924962616
 20
7.612498790541486
 30
0.0
 11
1.717431148549508
 21
7.547653798023468
 31
0.0
  0
LINE
  5
89
330
A
100
AcDbEntity
  8
CK_LEVEL_1
  6
Continuous
 62
     4
100
AcDbLine
 10
0.0
 20
0.8000000000000007
 30
0.0
 11
0.7999999999999972
 21
0.0
 31
0.0
  0
LINE
  5
8A
330
A
100
AcDbEntity
  8
CK_LEVEL_1
  6
Continuous
 62
     4
100
AcDbLine
 10
15.0
 20
0.8000000000000007
 30
0.0
 11
14.2
 21
0.0
 31
0.0
  0
ARC
  5
8B
330
A
100
AcDbEntity
  8
CK_LEVEL_1
  6
Continuous
 62
     4
100
AcDbCircle
 10
5.5
 20
-0.3000000000000007
 30
0.0
 40
0.6
100
AcDbArc
 50
30.00000000000006
 51
149.9999999999999
  0
ARC
  5
8C
330
A
100
AcDbEntity
  8
CK_LEVEL_1
  6
Continuous
 62
     4
100
AcDbCircle
 10
-8.799999999999997
 20
9.0
 30
0.0
 40
0.5
100
AcDbArc
 50
306.8698976458435
 51
413.1301023541563
  0
LINE
  5
8D
330
A
100
AcDbEntity
  8
CK_LEVEL_1
  6
Continuous
 62
     4
100
AcDbLine
 10
-5.0
 20
16.0
 30
0.0
 11
-5.0
 21
16.0
 31
-0.0005
  0
LINE
  5
8E
330
A
100
AcDbEntity
  8
CK_LEVEL_1
  6
CENTER
 62
   252
100
AcDbLine
 10
-5.0
 20
17.0
 30
0.0
 11
-5.0
 21
8.278312163512964
 31
0.0
  0
LINE
  5
8F
330
A
100
AcDbEntity
  8
CK_LEVEL_1
  6
DASHED
 62
   252
100
AcDbLine
 10
-3.5
 20
15.5
 30
0.0
 11
-3.5
 21
12.0
 31
0.0
  0
LINE
  5
90
330
A
100
AcDbEntity
  8
CK_LEVEL_1
  6
DASHED
 62
   252
100
AcDbLine
 10
-6.5
 20
15.5
 30
0.0
 11
-6.5
 21
12.0
 31
0.0
  0
LINE
  5
91
330
A
100
AcDbEntity
  8
CK_LEVEL_1
  6
DASHED
 62
   252
100
AcDbLine
 10
-3.5
 20
12.0
 30
0.0
 11
-6.5
 21
12.0
 31
0.0
  0
LINE
  5
92
330
A
100
AcDbEntity
  8
CK_LEVEL_1
  6
DASHED
 62
   252
100
AcDbLine
 10
-3.75
 20
15.5
 30
0.0
 11
-3.75
 21
10.0
 31
0.0
  0
LINE
  5
93
330
A
100
AcDbEntity
  8
CK_LEVEL_1
  6
DASHED
 62
   252
100
AcDbLine
 10
-6.25
 20
15.5
 30
0.0
 11
-6.25
 21
10.0
 31
0.0
  0
LINE
  5
94
330
A
100
AcDbEntity
  8
CK_LEVEL_1
  6
DASHED
 62
   252
100
AcDbLine
 10
-3.75
 20
10.0
 30
0.0
 11
-6.25
 21
10.0
 31
0.0
  0
LINE
  5
95
330
A
100
AcDbEntity
  8
CK_LEVEL_1
  6
DASHED
 62
   252
100
AcDbLine
 10
-3.75
 20
10.0
 30
0.0
 11
-5.0
 21
9.278312163512964
 31
0.0
  0
LINE
  5
96
330
A
100
AcDbEntity
  8
CK_LEVEL_1
  6
DASHED
 62
   252
100
AcDbLine
 10
-6.25
 20
10.0
 30
0.0
 11
-5.0
 21
9.278312163512964
 31
0.0
  0
LINE
  5
97
330
A
100
AcDbEntity
  8
CK_LEVEL_1
  6
Continuous
 62
     4
100
AcDbLine
 10
20.0
 20
16.0
 30
0.0
 11
20.0
 21
16.0
 31
-0.0005
  0
LINE
  5
98
330
A
100
AcDbEntity
  8
CK_LEVEL_1
  6
CENTER
 62
   252
100
AcDbLine
 10
20.0
 20
17.0
 30
0.0
 11
20.0
 21
8.278312163512964
 31
0.0
  0
LINE
  5
99
330
A
100
AcDbEntity
  8
CK_LEVEL_1
  6
DASHED
 62
   252
100
AcDbLine
 10
-3.5
 20
15.5
 30
0.0
 11
-6.5
 21
15.5
 31
0.0
  0
LINE
  5
9A
330
A
100
AcDbEntity
  8
CK_LEVEL_1
  6
DASHED
 62
   252
100
AcDbLine
 10
-7.0
 20
16.0
 30
0.0
 11
-6.5
 21
15.5
 31
0.0
  0
LINE
  5
9B
330
A
100
AcDbEntity
  8
CK_LEVEL_1
  6
DASHED
 62
   252
100
AcDbLine
 10
-3.0
 20
16.0
 30
0.0
 11
-3.5
 21
15.5
 31
0.0
  0
LINE
  5
9C
330
A
100
AcDbEntity
  8
CK_LEVEL_1
  6
Continuous
 62
     4
100
AcDbLine
 10
14.02375050750373
 20
7.612498790541486
 30
0.0
 11
13.28256885145049
 21
7.547653798023468
 31
0.0
  0
LINE
  5
9D
330
A
100
AcDbEntity
  8
CK_LEVEL_1
  6
Continuous
 62
     4
100
AcDbLine
 10
13.10000000000002
 20
6.651585141594882
 30
0.0
 11
13.10000000000002
 21
7.348414858405121
 31
0.0
  0
LINE
  5
9E
330
A
100
AcDbEntity
  8
CK_LEVEL_1
  6
Continuous
 62
     4
100
AcDbLine
 10
14.02375050750375
 20
6.387501209458494
 30
0.0
 11
13.28256885145049
 21
6.452346201976531
 31
0.0
  0
LINE
  5
9F
330
A
100
AcDbEntity
  8
CK_LEVEL_1
  6
Continuous
 62
     4
100
AcDbLine
 10
-7.700000000000002
 20
16.0
 30
0.0
 11
-8.5
 21
15.2
 31
0.0
  0
LINE
  5
A0
330
A
100
AcDbEntity
  8
CK_LEVEL_1
  6
Continuous
 62
     4
100
AcDbLine
 10
-8.5
 20
4.8
 30
0.0
 11
-7.700000000000002
 21
4.0
 31
0.0
  0
LINE
  5
A1
330
A
100
AcDbEntity
  8
CK_LEVEL_1
  6
Continuous
 62
     4
100
AcDbLine
 10
23.5
 20
15.2
 30
0.0
 11
22.7
 21
16.0
 31
0.0
  0
LINE
  5
A2
330
A
100
AcDbEntity
  8
CK_LEVEL_1
  6
Continuous
 62
     4
100
AcDbLine
 10
23.5
 20
4.8
 30
0.0
 11
22.7
 21
4.0
 31
0.0
  0
LINE
  5
A3
330
A
100
AcDbEntity
  8
CK_LEVEL_1
  6
DASHED
 62
   252
100
AcDbLine
 10
10.5
 20
9.5
 30
0.0
 11
4.5
 21
9.5
 31
0.0
  0
LINE
  5
A4
330
A
100
AcDbEntity
  8
CK_LEVEL_1
  6
DASHED
 62
   252
100
AcDbLine
 10
10.5
 20
9.5
 30
0.0
 11
11.0
 21
10.0
 31
0.0
  0
LINE
  5
A5
330
A
100
AcDbEntity
  8
CK_LEVEL_1
  6
DASHED
 62
   252
100
AcDbLine
 10
4.0
 20
10.0
 30
0.0
 11
4.5
 21
9.5
 31
0.0
  0
LINE
  5
A6
330
A
100
AcDbEntity
  8
CK_LEVEL_1
  6
Continuous
 62
     4
100
AcDbLine
 10
198.0
 20
0.0
 30
0.0
 11
49.0
 21
0.0
 31
0.0
  0
LINE
  5
A7
330
A
100
AcDbEntity
  8
CK_LEVEL_1
  6
Continuous
 62
     4
100
AcDbLine
 10
198.0
 20
10.0
 30
0.0
 11
144.0499999999999
 21
10.0
 31
0.0
  0
LINE
  5
A8
330
A
100
AcDbEntity
  8
CK_LEVEL_1
  6
Continuous
 62
     4
100
AcDbLine
 10
136.85
 20
80.0
 30
0.0
 11
110.1499999999999
 21
80.0
 31
0.0
  0
LINE
  5
A9
330
A
100
AcDbEntity
  8
CK_LEVEL_1
  6
Continuous
 62
     4
100
AcDbLine
 10
136.85
 20
48.0
 30
0.0
 11
110.1499999999999
 21
48.0
 31
0.0
  0
LINE
  5
AA
330
A
100
AcDbEntity
  8
CK_LEVEL_1
  6
Continuous
 62
     4
100
AcDbLine
 10
136.85
 20
72.0
 30
0.0
 11
110.1499999999999
 21
72.0
 31
0.0
  0
LINE
  5
AB
330
A
100
AcDbEntity
  8
CK_LEVEL_1
  6
Continuous
 62
     4
100
AcDbLine
 10
136.85
 20
56.0
 30
0.0
 11
110.1499999999999
 21
56.0
 31
0.0
  0
LINE
  5
AC
330
A
100
AcDbEntity
  8
CK_LEVEL_1
  6
Continuous
 62
     4
100
AcDbLine
 10
110.1499999999999
 20
16.0
 30
0.0
 11
136.85
 21
16.0
 31
0.0
  0
LINE
  5
AD
330
A
100
AcDbEntity
  8
CK_LEVEL_1
  6
Continuous
 62
     4
100
AcDbLine
 10
102.9499999999999
 20
4.0
 30
0.0
 11
144.0499999999999
 21
4.0
 31
0.0
  0
LINE
  5
AE
330
A
100
AcDbEntity
  8
CK_LEVEL_1
  6
Continuous
 62
     4
100
AcDbLine
 10
136.85
 20
4.0
 30
0.0
 11
136.85
 21
16.0
 31
0.0
  0
LINE
  5
AF
330
A
100
AcDbEntity
  8
CK_LEVEL_1
  6
Continuous
 62
     4
100
AcDbLine
 10
110.1499999999999
 20
4.0
 30
0.0
 11
110.1499999999999
 21
16.0
 31
0.0
  0
LINE
  5
B0
330
A
100
AcDbEntity
  8
CK_LEVEL_1
  6
Continuous
 62
     4
100
AcDbLine
 10
110.1499999999999
 20
48.0
 30
0.0
 11
110.1499999999999
 21
80.0
 31
0.0
  0
LINE
  5
B1
330
A
100
AcDbEntity
  8
CK_LEVEL_1
  6
Continuous
 62
     4
100
AcDbLine
 10
136.85
 20
48.0
 30
0.0
 11
136.85
 21
80.0
 31
0.0
  0
LINE
  5
B2
330
A
100
AcDbEntity
  8
CK_LEVEL_1
  6
CENTER
 62
   252
100
AcDbLine
 10
202.791574911945
 20
64.0
 30
0.0
 11
43.34273019309017
 21
64.0
 31
0.0
  0
LINE
  5
B3
330
A
100
AcDbEntity
  8
CK_LEVEL_1
  6
Continuous
 62
     4
100
AcDbLine
 10
198.0
 20
71.5
 30
0.0
 11
144.5499999999999
 21
71.5
 31
0.0
  0
LINE
  5
B4
330
A
100
AcDbEntity
  8
CK_LEVEL_1
  6
Continuous
 62
     4
100
AcDbLine
 10
198.0
 20
56.5
 30
0.0
 11
144.5499999999999
 21
56.5
 31
0.0
  0
LINE
  5
B5
330
A
100
AcDbEntity
  8
CK_LEVEL_1
  6
Continuous
 62
     4
100
AcDbLine
 10
23.19999999999999
 20
4.799999999999998
 30
0.0
 11
23.19999999999999
 21
14.1
 31
0.0
  0
LINE
  5
B6
330
A
100
AcDbEntity
  8
CK_LEVEL_1
  6
Continuous
 62
     4
100
AcDbLine
 10
-8.199999999999999
 20
4.799999999999997
 30
0.0
 11
-8.199999999999999
 21
14.1
 31
0.0
  0
LINE
  5
B7
330
A
100
AcDbEntity
  8
CK_LEVEL_1
  6
Continuous
 62
     4
100
AcDbLine
 10
-6.699999999999999
 20
15.6
 30
0.0
 11
-8.199999999999999
 21
14.1
 31
0.0
  0
LINE
  5
B8
330
A
100
AcDbEntity
  8
CK_LEVEL_1
  6
Continuous
 62
     4
100
AcDbLine
 10
21.69999999999999
 20
15.6
 30
0.0
 11
23.19999999999999
 21
14.1
 31
0.0
  0
LINE
  5
B9
330
A
100
AcDbEntity
  8
CK_LEVEL_1
  6
Continuous
 62
     4
100
AcDbLine
 10
-8.199999999999999
 20
4.799999999999997
 30
0.0
 11
-7.399999999999998
 21
3.999999999999998
 31
0.0
  0
LINE
  5
BA
330
A
100
AcDbEntity
  8
CK_LEVEL_1
  6
Continuous
 62
     4
100
AcDbLine
 10
23.19999999999999
 20
4.799999999999998
 30
0.0
 11
22.39999999999999
 21
3.999999999999998
 31
0.0
  0
LINE
  5
BB
330
A
100
AcDbEntity
  8
CK_LEVEL_1
  6
Continuous
 62
     4
100
AcDbLine
 10
104.4499999999999
 20
48.3
 30
0.0
 11
104.4499999999999
 21
79.7
 31
0.0
  0
LINE
  5
BC
330
A
100
AcDbEntity
  8
CK_LEVEL_1
  6
Continuous
 62
     4
100
AcDbLine
 10
142.5499999999999
 20
48.3
 30
0.0
 11
142.5499999999999
 21
79.7
 31
0.0
  0
LINE
  5
BD
330
A
100
AcDbEntity
  8
CK_LEVEL_1
  6
Continuous
 62
     4
100
AcDbLine
 10
104.4499999999999
 20
4.0
 30
0.0
 11
104.4499999999999
 21
15.6
 31
0.0
  0
LINE
  5
BE
330
A
100
AcDbEntity
  8
CK_LEVEL_1
  6
Continuous
 62
     4
100
AcDbLine
 10
142.5499999999999
 20
4.0
 30
0.0
 11
142.5499999999999
 21
15.6
 31
0.0
  0
LINE
  5
BF
330
A
100
AcDbEntity
  8
CK_LEVEL_1
  6
Continuous
 62
     4
100
AcDbLine
 10
144.0499999999999
 20
15.6
 30
0.0
 11
136.85
 21
15.6
 31
0.0
  0
LINE
  5
C0
330
A
100
AcDbEntity
  8
CK_LEVEL_1
  6
Continuous
 62
     4
100
AcDbLine
 10
48.5
 20
71.0
 30
0.0
 11
48.5
 21
57.0
 31
0.0
  0
LINE
  5
C1
330
A
100
AcDbEntity
  8
CK_LEVEL_1
  6
Continuous
 62
     4
100
AcDbLine
 10
198.5
 20
71.0
 30
0.0
 11
198.5
 21
57.0
 31
0.0
  0
LINE
  5
C2
330
A
100
AcDbEntity
  8
CK_LEVEL_1
  6
Continuous
 62
     4
100
AcDbLine
 10
48.5
 20
9.5
 30
0.0
 11
48.5
 21
0.5
 31
0.0
  0
LINE
  5
C3
330
A
100
AcDbEntity
  8
CK_LEVEL_1
  6
Continuous
 62
     4
100
AcDbLine
 10
198.5
 20
9.5
 30
0.0
 11
198.5
 21
0.5
 31
0.0
  0
LINE
  5
C4
330
A
100
AcDbEntity
  8
CK_LEVEL_1
  6
CENTER
 62
   252
100
AcDbLine
 10
10.5
 20
13.0
 30
0.0
 11
4.5
 21
13.0
 31
0.0
  0
LINE
  5
C5
330
A
100
AcDbEntity
  8
CK_LEVEL_1
  6
Continuous
 62
     4
100
AcDbLine
 10
102.9499999999999
 20
48.3
 30
0.0
 11
102.9499999999999
 21
79.7
 31
0.0
  0
LINE
  5
C6
330
A
100
AcDbEntity
  8
CK_LEVEL_1
  6
Continuous
 62
     4
100
AcDbLine
 10
144.0499999999999
 20
48.3
 30
0.0
 11
144.0499999999999
 21
79.7
 31
0.0
  0
LINE
  5
C7
330
A
100
AcDbEntity
  8
CK_LEVEL_1
  6
Continuous
 62
     4
100
AcDbLine
 10
102.9499999999999
 20
4.0
 30
0.0
 11
102.9499999999999
 21
15.59999999999999
 31
0.0
  0
LINE
  5
C8
330
A
100
AcDbEntity
  8
CK_LEVEL_1
  6
Continuous
 62
     4
100
AcDbLine
 10
144.0499999999999
 20
4.000000000000001
 30
0.0
 11
144.0499999999999
 21
15.6
 31
0.0
  0
LINE
  5
C9
330
A
100
AcDbEntity
  8
CK_LEVEL_1
  6
Continuous
 62
     4
100
AcDbLine
 10
102.9499999999999
 20
79.7
 30
0.0
 11
110.1499999999999
 21
79.7
 31
0.0
  0
LINE
  5
CA
330
A
100
AcDbEntity
  8
CK_LEVEL_1
  6
Continuous
 62
     4
100
AcDbLine
 10
136.85
 20
79.7
 30
0.0
 11
144.0499999999999
 21
79.7
 31
0.0
  0
LINE
  5
CB
330
A
100
AcDbEntity
  8
CK_LEVEL_1
  6
Continuous
 62
     4
100
AcDbLine
 10
102.9499999999999
 20
15.59999999999999
 30
0.0
 11
110.1499999999999
 21
15.6
 31
0.0
  0
LINE
  5
CC
330
A
100
AcDbEntity
  8
CK_LEVEL_1
  6
Continuous
 62
     4
100
AcDbLine
 10
102.9499999999999
 20
48.3
 30
0.0
 11
110.1499999999999
 21
48.3
 31
0.0
  0
LINE
  5
CD
330
A
100
AcDbEntity
  8
CK_LEVEL_1
  6
Continuous
 62
     4
100
AcDbLine
 10
136.85
 20
48.3
 30
0.0
 11
144.0499999999999
 21
48.3
 31
0.0
  0
LINE
  5
CE
330
A
100
AcDbEntity
  8
CK_LEVEL_1
  6
Continuous
 62
     4
100
AcDbLine
 10
102.45
 20
71.5
 30
0.0
 11
49.0
 21
71.5
 31
0.0
  0
LINE
  5
CF
330
A
100
AcDbEntity
  8
CK_LEVEL_1
  6
Continuous
 62
     4
100
AcDbLine
 10
102.45
 20
56.5
 30
0.0
 11
49.0
 21
56.5
 31
0.0
  0
LINE
  5
D0
330
A
100
AcDbEntity
  8
CK_LEVEL_1
  6
Continuous
 62
     4
100
AcDbLine
 10
102.9499999999999
 20
10.0
 30
0.0
 11
49.0
 21
10.0
 31
0.0
  0
LINE
  5
D1
330
A
100
AcDbEntity
  8
CK_LEVEL_1
  6
CENTER
 62
   252
100
AcDbLine
 10
183.4999999999999
 20
-1.285397913702372
 30
0.0
 11
183.4999999999999
 21
11.47664139328447
 31
0.0
  0
LINE
  5
D2
330
A
100
AcDbEntity
  8
CK_LEVEL_1
  6
CENTER
 62
   252
100
AcDbLine
 10
63.5
 20
58.69432052001005
 30
0.0
 11
63.5
 21
69.82735313788407
 31
0.0
  0
CIRCLE
  5
D3
330
A
100
AcDbEntity
  8
CK_LEVEL_1
  6
Continuous
 62
     4
100
AcDbCircle
 10
63.5
 20
63.99999999999999
 30
0.0
 40
1.75
  0
LINE
  5
D4
330
A
100
AcDbEntity
  8
CK_LEVEL_1
  6
CENTER
 62
   252
100
AcDbLine
 10
183.4999999999999
 20
58.69432052001005
 30
0.0
 11
183.4999999999999
 21
69.82735313788407
 31
0.0
  0
LINE
  5
D5
330
A
100
AcDbEntity
  8
CK_LEVEL_1
  6
CENTER
 62
   252
100
AcDbLine
 10
103.4999999999999
 20
-1.285397913702372
 30
0.0
 11
103.4999999999999
 21
11.0
 31
0.0
  0
LINE
  5
D6
330
A
100
AcDbEntity
  8
CK_LEVEL_1
  6
CENTER
 62
   252
100
AcDbLine
 10
143.5
 20
-1.285397913702372
 30
0.0
 11
143.5
 21
5.56416217062399
 31
0.0
  0
LINE
  5
D7
330
A
100
AcDbEntity
  8
CK_LEVEL_1
  6
Continuous
 62
     4
100
AcDbLine
 10
102.9499999999999
 20
65.15470053837924
 30
0.0
 11
99.36830843616192
 21
65.15470053837924
 31
0.0
  0
LINE
  5
D8
330
A
100
AcDbEntity
  8
CK_LEVEL_1
  6
Continuous
 62
     4
100
AcDbLine
 10
102.9499999999999
 20
62.84529946162074
 30
0.0
 11
99.36830843616194
 21
62.84529946162074
 31
0.0
  0
LINE
  5
D9
330
A
100
AcDbEntity
  8
CK_LEVEL_1
  6
Continuous
 62
     4
100
AcDbLine
 10
102.9499999999999
 20
61.69059892324149
 30
0.0
 11
99.36830843616194
 21
61.69059892324149
 31
0.0
  0
LINE
  5
DA
330
A
100
AcDbEntity
  8
CK_LEVEL_1
  6
Continuous
 62
     4
100
AcDbLine
 10
102.9499999999999
 20
66.30940107675851
 30
0.0
 11
99.36830843616194
 21
66.30940107675851
 31
0.0
  0
ARC
  5
DB
330
A
100
AcDbEntity
  8
CK_LEVEL_1
  6
Continuous
 62
     4
100
AcDbCircle
 10
100.9479814374569
 20
63.99999999999999
 30
0.0
 40
2.797981437456973
100
AcDbArc
 50
124.3728490361161
 51
235.6271509638838
  0
ARC
  5
DC
330
A
100
AcDbEntity
  8
CK_LEVEL_1
  6
Continuous
 62
     4
100
AcDbCircle
 10
99.97286636493155
 20
65.73205080756887
 30
0.0
 40
0.8359567109435422
100
AcDbArc
 50
136.3187223765721
 51
223.6812776234266
  0
ARC
  5
DD
330
A
100
AcDbEntity
  8
CK_LEVEL_1
  6
Continuous
 62
     4
100
AcDbCircle
 10
102.133638324501
 20
64.0
 30
0.0
 40
2.996728670513037
100
AcDbArc
 50
157.3363706176105
 51
202.663629382389
  0
ARC
  5
DE
330
A
100
AcDbEntity
  8
CK_LEVEL_1
  6
Continuous
 62
     4
100
AcDbCircle
 10
99.9728663649315
 20
62.26794919243112
 30
0.0
 40
0.8359567109434914
100
AcDbArc
 50
136.3187223765701
 51
223.6812776234301
  0
LINE
  5
DF
330
A
100
AcDbEntity
  8
CK_LEVEL_1
  6
Continuous
 62
     4
100
AcDbLine
 10
14.35757147143714
 20
10.5
 30
0.0
 11
0.64242852856286
 21
10.5
 31
0.0
  0
LINE
  5
E0
330
A
100
AcDbEntity
  8
CK_LEVEL_1
  6
Continuous
 62
     4
100
AcDbLine
 10
-0.5
 20
4.0
 30
0.0
 11
-0.5
 21
6.250000000000001
 31
0.0
  0
LINE
  5
E1
330
A
100
AcDbEntity
  8
CK_LEVEL_1
  6
Continuous
 62
     4
100
AcDbLine
 10
15.5
 20
4.0
 30
0.0
 11
15.5
 21
6.250000000000001
 31
0.0
  0
LINE
  5
E2
330
A
100
AcDbEntity
  8
CK_LEVEL_1
  6
Continuous
 62
     4
100
AcDbLine
 10
13.84670016771567
 20
11.19999999999999
 30
0.0
 11
8.770170592217176
 21
11.19999999999999
 31
0.0
  0
LINE
  5
E3
330
A
100
AcDbEntity
  8
CK_LEVEL_1
  6
Continuous
 62
     4
100
AcDbLine
 10
16.2
 20
4.0
 30
0.0
 11
16.2
 21
9.615037688680134
 31
0.0
  0
LINE
  5
E4
330
A
100
AcDbEntity
  8
CK_LEVEL_1
  6
Continuous
 62
     4
100
AcDbLine
 10
-1.199999999999999
 20
4.0
 30
0.0
 11
-1.199999999999999
 21
9.615037688680134
 31
0.0
  0
ARC
  5
E5
330
A
100
AcDbEntity
  8
CK_LEVEL_1
  6
Continuous
 62
     4
100
AcDbCircle
 10
0.3000000000000003
 20
9.699999999999999
 30
0.0
 40
0.8
100
AcDbArc
 50
174.7826805650861
 51
180.0
  0
ARC
  5
E6
330
A
100
AcDbEntity
  8
CK_LEVEL_1
  6
Continuous
 62
     4
100
AcDbCircle
 10
14.69999999999999
 20
9.699999999999999
 30
0.0
 40
0.8
100
AcDbArc
 50
0.0
 51
5.217319434913881
  0
LINE
  5
E7
330
A
100
AcDbEntity
  8
CK_LEVEL_1
  6
Continuous
 62
     4
100
AcDbLine
 10
6.229829407782823
 20
11.19999999999999
 30
0.0
 11
1.153299832284321
 21
11.19999999999999
 31
0.0
  0
ARC
  5
E8
330
A
100
AcDbEntity
  8
CK_LEVEL_1
  6
Continuous
 62
     4
100
AcDbCircle
 10
-0.5
 20
7.000000000000001
 30
0.0
 40
1.5
100
AcDbArc
 50
294.3157391711764
 51
331.478220682177
  0
ARC
  5
E9
330
A
100
AcDbEntity
  8
CK_LEVEL_1
  6
Continuous
 62
     4
100
AcDbCircle
 10
-0.5
 20
7.000000000000001
 30
0.0
 40
1.5
100
AcDbArc
 50
28.52177931782208
 51
65.68426082882353
  0
ARC
  5
EA
330
A
100
AcDbEntity
  8
CK_LEVEL_1
  6
Continuous
 62
     4
100
AcDbCircle
 10
0.2000000000000001
 20
8.549193338482968
 30
0.0
 40
0.2
100
AcDbArc
 50
180.0000000000005
 51
245.6842608288234
  0
ARC
  5
EB
330
A
100
AcDbEntity
  8
CK_LEVEL_1
  6
Continuous
 62
     4
100
AcDbCircle
 10
0.9936806410457901
 20
7.811737730159835
 30
0.0
 40
0.2
100
AcDbArc
 50
208.5217793178223
 51
265.0000000000009
  0
ARC
  5
EC
330
A
100
AcDbEntity
  8
CK_LEVEL_1
  6
Continuous
 62
     4
100
AcDbCircle
 10
0.9936806410457778
 20
6.188262269840144
 30
0.0
 40
0.2
100
AcDbArc
 50
95.00000000000053
 51
151.4782206821771
  0
ARC
  5
ED
330
A
100
AcDbEntity
  8
CK_LEVEL_1
  6
Continuous
 62
     4
100
AcDbCircle
 10
0.1999999999999998
 20
5.450806661517034
 30
0.0
 40
0.2
100
AcDbArc
 50
114.3157391711766
 51
180.0
  0
LINE
  5
EE
330
A
100
AcDbEntity
  8
CK_LEVEL_1
  6
Continuous
 62
     4
100
AcDbLine
 10
-8.5
 20
9.400000000000002
 30
0.0
 11
-8.5
 21
15.2
 31
0.0
  0
ARC
  5
EF
330
A
100
AcDbEntity
  8
CK_LEVEL_1
  6
Continuous
 62
     4
100
AcDbCircle
 10
14.8
 20
8.549193338482968
 30
0.0
 40
0.2
100
AcDbArc
 50
294.3157391711764
 51
359.9999999999994
  0
ARC
  5
F0
330
A
100
AcDbEntity
  8
CK_LEVEL_1
  6
Continuous
 62
     4
100
AcDbCircle
 10
15.5
 20
7.000000000000001
 30
0.0
 40
1.5
100
AcDbArc
 50
114.3157391711765
 51
151.4782206821779
  0
ARC
  5
F1
330
A
100
AcDbEntity
  8
CK_LEVEL_1
  6
Continuous
 62
     4
100
AcDbCircle
 10
14.00631935895421
 20
7.811737730159835
 30
0.0
 40
0.2
100
AcDbArc
 50
274.9999999999991
 51
331.4782206821775
  0
ARC
  5
F2
330
A
100
AcDbEntity
  8
CK_LEVEL_1
  6
Continuous
 62
     4
100
AcDbCircle
 10
14.00631935895422
 20
6.188262269840144
 30
0.0
 40
0.2
100
AcDbArc
 50
28.52177931782284
 51
84.9999999999995
  0
ARC
  5
F3
330
A
100
AcDbEntity
  8
CK_LEVEL_1
  6
Continuous
 62
     4
100
AcDbCircle
 10
15.5
 20
7.000000000000001
 30
0.0
 40
1.5
100
AcDbArc
 50
208.521779317823
 51
245.6842608288235
  0
ARC
  5
F4
330
A
100
AcDbEntity
  8
CK_LEVEL_1
  6
Continuous
 62
     4
100
AcDbCircle
 10
14.8
 20
5.450806661517034
 30
0.0
 40
0.2
100
AcDbArc
 50
0.0
 51
65.68426082882338
  0
LINE
  5
F5
330
A
100
AcDbEntity
  8
CK_LEVEL_1
  6
Continuous
 62
     4
100
AcDbLine
 10
-0.5
 20
7.750000000000001
 30
0.0
 11
-0.5
 21
9.699999999999999
 31
0.0
  0
ARC
  5
F6
330
A
100
AcDbEntity
  8
CK_LEVEL_1
  6
Continuous
 62
     4
100
AcDbCircle
 10
-0.5
 20
7.000000000000001
 30
0.0
 40
0.75
100
AcDbArc
 50
270.0
 51
450.0
  0
ARC
  5
F7
330
A
100
AcDbEntity
  8
CK_LEVEL_1
  6
Continuous
 62
     4
100
AcDbCircle
 10
15.5
 20
7.000000000000001
 30
0.0
 40
0.75
100
AcDbArc
 50
90.0
 51
270.0
  0
LINE
  5
F8
330
A
100
AcDbEntity
  8
CK_LEVEL_1
  6
Continuous
 62
     4
100
AcDbLine
 10
15.5
 20
7.750000000000001
 30
0.0
 11
15.5
 21
9.699999999999999
 31
0.0
  0
ARC
  5
F9
330
A
100
AcDbEntity
  8
CK_LEVEL_1
  6
Continuous
 62
     4
100
AcDbCircle
 10
-1.5
 20
12.59999999999999
 30
0.0
 40
3.0
100
AcDbArc
 50
180.0
 51
360.0
  0
CIRCLE
  5
FA
330
A
100
AcDbEntity
  8
CK_LEVEL_1
  6
Continuous
 62
     4
100
AcDbCircle
 10
-1.5
 20
12.59999999999999
 30
0.0
 40
2.75
  0
LINE
  5
FB
330
A
100
AcDbEntity
  8
CK_LEVEL_1
  6
Continuous
 62
     4
100
AcDbLine
 10
1.5
 20
12.59999999999999
 30
0.0
 11
1.5
 21
15.59999999999999
 31
0.0
  0
LINE
  5
FC
330
A
100
AcDbEntity
  8
CK_LEVEL_1
  6
Continuous
 62
     4
100
AcDbLine
 10
-4.5
 20
12.59999999999999
 30
0.0
 11
-4.5
 21
15.59999999999999
 31
0.0
  0
LINE
  5
FD
330
A
100
AcDbEntity
  8
CK_LEVEL_1
  6
Continuous
 62
     4
100
AcDbLine
 10
13.5
 20
12.59999999999999
 30
0.0
 11
13.5
 21
15.59999999999999
 31
0.0
  0
CIRCLE
  5
FE
330
A
100
AcDbEntity
  8
CK_LEVEL_1
  6
Continuous
 62
     4
100
AcDbCircle
 10
16.5
 20
12.59999999999999
 30
0.0
 40
2.75
  0
ARC
  5
FF
330
A
100
AcDbEntity
  8
CK_LEVEL_1
  6
Continuous
 62
     4
100
AcDbCircle
 10
16.5
 20
12.59999999999999
 30
0.0
 40
3.0
100
AcDbArc
 50
180.0
 51
360.0
  0
LINE
  5
100
330
A
100
AcDbEntity
  8
CK_LEVEL_1
  6
Continuous
 62
     4
100
AcDbLine
 10
19.5
 20
12.59999999999999
 30
0.0
 11
19.5
 21
15.59999999999999
 31
0.0
  0
LINE
  5
101
330
A
100
AcDbEntity
  8
CK_LEVEL_1
  6
Continuous
 62
     4
100
AcDbLine
 10
-0.1388194462158956
 20
13.96118055378409
 30
0.0
 11
-2.861180553784104
 21
11.23881944621589
 31
0.0
  0
LINE
  5
102
330
A
100
AcDbEntity
  8
CK_LEVEL_1
  6
Continuous
 62
     4
100
AcDbLine
 10
-2.861180553784104
 20
13.96118055378409
 30
0.0
 11
-0.1388194462158956
 21
11.23881944621589
 31
0.0
  0
LINE
  5
103
330
A
100
AcDbEntity
  8
CK_LEVEL_1
  6
Continuous
 62
     4
100
AcDbLine
 10
15.13881944621589
 20
13.96118055378409
 30
0.0
 11
17.8611805537841
 21
11.23881944621589
 31
0.0
  0
LINE
  5
104
330
A
100
AcDbEntity
  8
CK_LEVEL_1
  6
Continuous
 62
     4
100
AcDbLine
 10
17.8611805537841
 20
13.96118055378409
 30
0.0
 11
15.13881944621589
 21
11.23881944621589
 31
0.0
  0
LINE
  5
105
330
A
100
AcDbEntity
  8
CK_LEVEL_1
  6
CENTER
 62
   252
100
AcDbLine
 10
113.5
 20
17.0
 30
0.0
 11
113.5
 21
8.278312163512964
 31
0.0
  0
LINE
  5
106
330
A
100
AcDbEntity
  8
CK_LEVEL_1
  6
CENTER
 62
   252
100
AcDbLine
 10
133.4999999999999
 20
17.0
 30
0.0
 11
133.4999999999999
 21
8.278312163512964
 31
0.0
  0
LINE
  5
107
330
A
100
AcDbEntity
  8
CK_LEVEL_1
  6
Continuous
 62
     4
100
AcDbLine
 10
99.42948051510327
 20
15.0
 30
0.0
 11
102.6900657923214
 21
15.0
 31
0.0
  0
ARC
  5
108
330
A
100
AcDbEntity
  8
CK_LEVEL_1
  6
Continuous
 62
     4
100
AcDbCircle
 10
102.0591095521002
 20
14.1373738709727
 30
0.0
 40
2.927456874291927
100
AcDbArc
 50
162.8624052261112
 51
202.8624052261111
  0
ARC
  5
109
330
A
100
AcDbEntity
  8
CK_LEVEL_1
  6
Continuous
 62
     4
100
AcDbCircle
 10
98.65710678118654
 20
13.0
 30
0.0
 40
0.7071067811865474
100
AcDbArc
 50
133.1238485291172
 51
226.8761514708819
  0
ARC
  5
10A
330
A
100
AcDbEntity
  8
CK_LEVEL_1
  6
Continuous
 62
     4
100
AcDbCircle
 10
102.0591095521002
 20
11.86262612902729
 30
0.0
 40
2.927456874291927
100
AcDbArc
 50
157.1375947738887
 51
197.1375947738886
  0
LINE
  5
10B
330
A
100
AcDbEntity
  8
CK_LEVEL_1
  6
Continuous
 62
     4
100
AcDbLine
 10
99.42948051510326
 20
11.0
 30
0.0
 11
102.4499999999999
 21
11.0
 31
0.0
  0
LINE
  5
10C
330
A
100
AcDbEntity
  8
CK_LEVEL_1
  6
Continuous
 62
     4
100
AcDbLine
 10
102.4499999999999
 20
13.0
 30
0.0
 11
99.36163213264562
 21
13.0
 31
0.0
  0
ARC
  5
10D
330
A
100
AcDbEntity
  8
CK_LEVEL_1
  6
Continuous
 62
     4
100
AcDbCircle
 10
98.65710678118654
 20
64.0
 30
0.0
 40
0.7071067811865474
100
AcDbArc
 50
129.9561302175172
 51
230.0438697824827
  0
ARC
  5
10E
330
A
100
AcDbEntity
  8
CK_LEVEL_1
  6
Continuous
 62
     4
100
AcDbCircle
 10
100.9237151852403
 20
12.99999999999999
 30
0.0
 40
2.797981437456973
100
AcDbArc
 50
146.2080216911867
 51
213.7919783088127
  0
ARC
  5
10F
330
A
100
AcDbEntity
  8
CK_LEVEL_1
  6
Continuous
 62
     4
100
AcDbCircle
 10
99.42948051510327
 20
14.0
 30
0.0
 40
1.0
100
AcDbArc
 50
90.0
 51
146.2080216911869
  0
ARC
  5
110
330
A
100
AcDbEntity
  8
CK_LEVEL_1
  6
Continuous
 62
     4
100
AcDbCircle
 10
99.42948051510326
 20
12.0
 30
0.0
 40
1.0
100
AcDbArc
 50
213.7919783088132
 51
270.0
  0
LINE
  5
111
330
A
100
AcDbEntity
  8
CK_LEVEL_1
  6
CENTER
 62
   252
100
AcDbLine
 10
105.4499999999999
 20
13.0
 30
0.0
 11
96.95
 21
13.0
 31
0.0
  0
LINE
  5
112
330
A
100
AcDbEntity
  8
CK_LEVEL_1
  6
Continuous
 62
     4
100
AcDbLine
 10
144.5499999999999
 20
71.25
 30
0.0
 11
144.5499999999999
 21
74.75
 31
0.0
  0
ARC
  5
113
330
A
100
AcDbEntity
  8
CK_LEVEL_1
  6
Continuous
 62
     4
100
AcDbCircle
 10
143.5499999999999
 20
74.75
 30
0.0
 40
1.0
100
AcDbArc
 50
0.0
 51
59.99999999999986
  0
ARC
  5
114
330
A
100
AcDbEntity
  8
CK_LEVEL_1
  6
Continuous
 62
     4
100
AcDbCircle
 10
143.5499999999999
 20
71.25
 30
0.0
 40
1.0
100
AcDbArc
 50
300.0000000000001
 51
360.0
  0
LINE
  5
115
330
A
100
AcDbEntity
  8
CK_LEVEL_1
  6
Continuous
 62
     4
100
AcDbLine
 10
144.5499999999999
 20
53.25
 30
0.0
 11
144.5499999999999
 21
56.75
 31
0.0
  0
ARC
  5
116
330
A
100
AcDbEntity
  8
CK_LEVEL_1
  6
Continuous
 62
     4
100
AcDbCircle
 10
143.5499999999999
 20
56.75
 30
0.0
 40
1.0
100
AcDbArc
 50
0.0
 51
60.00000000000007
  0
ARC
  5
117
330
A
100
AcDbEntity
  8
CK_LEVEL_1
  6
Continuous
 62
     4
100
AcDbCircle
 10
143.5499999999999
 20
53.25
 30
0.0
 40
1.0
100
AcDbArc
 50
299.9999999999999
 51
360.0
  0
LINE
  5
118
330
A
100
AcDbEntity
  8
CK_LEVEL_1
  6
Continuous
 62
     4
100
AcDbLine
 10
102.45
 20
71.25
 30
0.0
 11
102.45
 21
74.75
 31
0.0
  0
ARC
  5
119
330
A
100
AcDbEntity
  8
CK_LEVEL_1
  6
Continuous
 62
     4
100
AcDbCircle
 10
103.45
 20
74.75
 30
0.0
 40
1.0
100
AcDbArc
 50
120.0000000000001
 51
180.0
  0
ARC
  5
11A
330
A
100
AcDbEntity
  8
CK_LEVEL_1
  6
Continuous
 62
     4
100
AcDbCircle
 10
103.45
 20
71.25
 30
0.0
 40
1.0
100
AcDbArc
 50
180.0
 51
239.9999999999998
  0
ARC
  5
11B
330
A
100
AcDbEntity
  8
CK_LEVEL_1
  6
Continuous
 62
     4
100
AcDbCircle
 10
103.45
 20
56.75
 30
0.0
 40
1.0
100
AcDbArc
 50
119.9999999999999
 51
180.0
  0
LINE
  5
11C
330
A
100
AcDbEntity
  8
CK_LEVEL_1
  6
Continuous
 62
     4
100
AcDbLine
 10
102.45
 20
53.25
 30
0.0
 11
102.45
 21
56.75
 31
0.0
  0
ARC
  5
11D
330
A
100
AcDbEntity
  8
CK_LEVEL_1
  6
Continuous
 62
     4
100
AcDbCircle
 10
103.45
 20
53.25
 30
0.0
 40
1.0
100
AcDbArc
 50
180.0
 51
240.0
  0
ENDSEC
  0
SECTION
  2
OBJECTS
  0
DICTIONARY
  5
19
330
0
100
AcDbDictionary
281
     1
  3
ACAD_GROUP
350
1A
  3
ACAD_LAYOUT
350
123
  3
ACAD_MLINESTYLE
350
1B
  3
ACAD_PLOTSETTINGS
350
124
  3
ACAD_PLOTSTYLENAME
350
121
  0
DICTIONARY
  5
1A
102
{ACAD_REACTORS
330
19
102
}
330
19
100
AcDbDictionary
281
     1
  0
DICTIONARY
  5
123
102
{ACAD_REACTORS
330
19
102
}
330
19
100
AcDbDictionary
281
     1
  3
Layout1
350
126
  3
Model
350
125
  0
DICTIONARY
  5
1B
102
{ACAD_REACTORS
330
19
102
}
330
19
100
AcDbDictionary
281
     1
  3
STANDARD
350
1C
  0
DICTIONARY
  5
124
102
{ACAD_REACTORS
330
19
102
}
330
19
100
AcDbDictionary
281
     1
  0
ACDBDICTIONARYWDFLT
  5
121
102
{ACAD_REACTORS
330
19
102
}
330
19
100
AcDbDictionary
281
     1
  3
Normal
350
122
100
AcDbDictionaryWithDefault
340
122
  0
LAYOUT
  5
126
102
{ACAD_REACTORS
330
123
102
}
330
123
100
AcDbPlotSettings
  1

  2
HPLJ2100_Technik_S3
  4

  6

 40
0.0
 41
0.0
 42
0.0
 43
0.0
 44
0.0
 45
0.0
 46
0.0
 47
0.0
 48
0.0
 49
0.0
140
0.0
141
0.0
142
1.0
143
1.0
 70
   688
 72
     0
 73
     0
 74
     5
  7

 75
    16
147
1.0
148
0.0
149
0.0
100
AcDbLayout
  1
Layout1
 70
     0
 71
     1
 10
0.0
 20
0.0
 11
12.0
 21
9.0
 12
0.0
 22
0.0
 32
0.0
 14
1.000000000000000E+20
 24
1.000000000000000E+20
 34
1.000000000000000E+20
 15
-1.000000000000000E+20
 25
-1.000000000000000E+20
 35
-1.000000000000000E+20
146
0.0
 13
0.0
 23
0.0
 33
0.0
 16
1.0
 26
0.0
 36
0.0
 17
0.0
 27
1.0
 37
0.0
 76
     0
330
B
  0
LAYOUT
  5
125
102
{ACAD_REACTORS
330
123
102
}
330
123
100
AcDbPlotSettings
  1

  2
HPLJ2100_Technik_S3
  4

  6

 40
0.0
 41
0.0
 42
0.0
 43
0.0
 44
0.0
 45
0.0
 46
0.0
 47
0.0
 48
0.0
 49
0.0
140
0.0
141
0.0
142
1.0
143
1.0
 70
  1712
 72
     0
 73
     0
 74
     0
  7

 75
     0
147
1.0
148
0.0
149
0.0
100
AcDbLayout
  1
Model
 70
     1
 71
     0
 10
0.0
 20
0.0
 11
12.0
 21
9.0
 12
0.0
 22
0.0
 32
0.0
 14
0.0
 24
0.0
 34
0.0
 15
0.0
 25
0.0
 35
0.0
146
0.0
 13
0.0
 23
0.0
 33
0.0
 16
1.0
 26
0.0
 36
0.0
 17
0.0
 27
1.0
 37
0.0
 76
     0
330
A
  0
MLINESTYLE
  5
1C
102
{ACAD_REACTORS
330
1B
102
}
330
1B
100
AcDbMlineStyle
  2
STANDARD
 70
     0
  3

 62
     0
 51
90.00000000000019
 52
90.00000000000019
 71
     2
 49
0.5
 62
   256
  6
BYLAYER
 49
-0.5
 62
   256
  6
BYLAYER
  0
ACDBPLACEHOLDER
  5
122
102
{ACAD_REACTORS
330
121
102
}
330
121
  0
ENDSEC
  0
EOF
