  0
SECTION
  2
HEADER
  9
$ACADVER
  1
AC1014
  9
$ACADMAINTVER
 70
     9
  9
$DWGCODEPAGE
  3
ANSI_1252
  9
$INSBASE
 10
0.0
 20
0.0
 30
0.0
  9
$EXTMIN
 10
-0.026857139495126
 20
-2.0
 30
0.0
  9
$EXTMAX
 10
202.791574911945
 20
71.5
 30
0.0
  9
$LIMMIN
 10
0.0
 20
0.0
  9
$LIMMAX
 10
0.0
 20
0.0
  9
$ORTHOMODE
 70
     1
  9
$REGENMODE
 70
     1
  9
$FILLMODE
 70
     1
  9
$QTEXTMODE
 70
     0
  9
$MIRRTEXT
 70
     1
  9
$DRAGMODE
 70
     2
  9
$LTSCALE
 40
1.0
  9
$OSMODE
 70
    37
  9
$ATTMODE
 70
     1
  9
$TEXTSIZE
 40
0.0
  9
$TRACEWID
 40
0.05
  9
$TEXTSTYLE
  7
STANDARD
  9
$CLAYER
  8
0
  9
$CELTYPE
  6
DASHED
  9
$CECOLOR
 62
     7
  9
$CELTSCALE
 40
1.0
  9
$DELOBJ
 70
     1
  9
$DISPSILH
 70
     0
  9
$DIMSCALE
 40
1.0
  9
$DIMASZ
 40
0.18
  9
$DIMEXO
 40
0.0625
  9
$DIMDLI
 40
0.38
  9
$DIMRND
 40
0.0
  9
$DIMDLE
 40
0.0
  9
$DIMEXE
 40
0.25
  9
$DIMTP
 40
0.1
  9
$DIMTM
 40
-0.1
  9
$DIMTXT
 40
2.5
  9
$DIMCEN
 40
0.09
  9
$DIMTSZ
 40
0.0
  9
$DIMTOL
 70
     0
  9
$DIMLIM
 70
     0
  9
$DIMTIH
 70
     1
  9
$DIMTOH
 70
     1
  9
$DIMSE1
 70
     0
  9
$DIMSE2
 70
     0
  9
$DIMTAD
 70
     0
  9
$DIMZIN
 70
     0
  9
$DIMBLK
  1

  9
$DIMASO
 70
     1
  9
$DIMSHO
 70
     1
  9
$DIMPOST
  1

  9
$DIMAPOST
  1

  9
$DIMALT
 70
     0
  9
$DIMALTD
 70
     2
  9
$DIMALTF
 40
25.4
  9
$DIMLFAC
 40
1.0
  9
$DIMTOFL
 70
     0
  9
$DIMTVP
 40
0.0
  9
$DIMTIX
 70
     0
  9
$DIMSOXD
 70
     0
  9
$DIMSAH
 70
     0
  9
$DIMBLK1
  1

  9
$DIMBLK2
  1

  9
$DIMSTYLE
  2
STANDARD
  9
$DIMCLRD
 70
     0
  9
$DIMCLRE
 70
     0
  9
$DIMCLRT
 70
     4
  9
$DIMTFAC
 40
0.7
  9
$DIMGAP
 40
0.09
  9
$DIMJUST
 70
     0
  9
$DIMSD1
 70
     0
  9
$DIMSD2
 70
     0
  9
$DIMTOLJ
 70
     1
  9
$DIMTZIN
 70
     0
  9
$DIMALTZ
 70
     0
  9
$DIMALTTZ
 70
     0
  9
$DIMFIT
 70
     3
  9
$DIMUPT
 70
     0
  9
$DIMUNIT
 70
     2
  9
$DIMDEC
 70
     4
  9
$DIMTDEC
 70
     4
  9
$DIMALTU
 70
     2
  9
$DIMALTTD
 70
     2
  9
$DIMTXSTY
  7
STANDARD
  9
$DIMAUNIT
 70
     0
  9
$LUNITS
 70
     2
  9
$LUPREC
 70
    10
  9
$SKETCHINC
 40
0.1
  9
$FILLETRAD
 40
0.0
  9
$AUNITS
 70
     0
  9
$AUPREC
 70
     0
  9
$MENU
  1
acad
  9
$ELEVATION
 40
0.0
  9
$PELEVATION
 40
0.0
  9
$THICKNESS
 40
0.0
  9
$LIMCHECK
 70
     0
  9
$BLIPMODE
 70
     0
  9
$CHAMFERA
 40
0.0
  9
$CHAMFERB
 40
0.0
  9
$CHAMFERC
 40
0.0
  9
$CHAMFERD
 40
0.0
  9
$SKPOLY
 70
     0
  9
$TDCREATE
 40
2444972.083333333
  9
$TDUPDATE
 40
2452443.352200046
  9
$TDINDWG
 40
0.0090735764
  9
$TDUSRTIMER
 40
0.0090735764
  9
$USRTIMER
 70
     1
  9
$ANGBASE
 50
0.0
  9
$ANGDIR
 70
     0
  9
$PDMODE
 70
     2
  9
$PDSIZE
 40
0.0
  9
$PLINEWID
 40
0.0
  9
$COORDS
 70
     1
  9
$SPLFRAME
 70
     0
  9
$SPLINETYPE
 70
     6
  9
$SPLINESEGS
 70
     8
  9
$ATTDIA
 70
     0
  9
$ATTREQ
 70
     1
  9
$HANDLING
 70
-16383
  9
$HANDSEED
  5
1CF
  9
$SURFTAB1
 70
     6
  9
$SURFTAB2
 70
     6
  9
$SURFTYPE
 70
     6
  9
$SURFU
 70
     6
  9
$SURFV
 70
     6
  9
$UCSNAME
  2

  9
$UCSORG
 10
0.0
 20
0.0
 30
0.0
  9
$UCSXDIR
 10
1.0
 20
0.0
 30
0.0
  9
$UCSYDIR
 10
0.0
 20
1.0
 30
0.0
  9
$PUCSNAME
  2

  9
$PUCSORG
 10
0.0
 20
0.0
 30
0.0
  9
$PUCSXDIR
 10
1.0
 20
0.0
 30
0.0
  9
$PUCSYDIR
 10
0.0
 20
1.0
 30
0.0
  9
$USERI1
 70
     0
  9
$USERI2
 70
     0
  9
$USERI3
 70
     0
  9
$USERI4
 70
     0
  9
$USERI5
 70
     0
  9
$USERR1
 40
0.0
  9
$USERR2
 40
0.0
  9
$USERR3
 40
0.0
  9
$USERR4
 40
0.0
  9
$USERR5
 40
0.0
  9
$WORLDVIEW
 70
     1
  9
$SHADEDGE
 70
     3
  9
$SHADEDIF
 70
    70
  9
$TILEMODE
 70
     1
  9
$MAXACTVP
 70
    16
  9
$PINSBASE
 10
0.0
 20
0.0
 30
0.0
  9
$PLIMCHECK
 70
     0
  9
$PEXTMIN
 10
1.000000000000000E+20
 20
1.000000000000000E+20
 30
1.000000000000000E+20
  9
$PEXTMAX
 10
-1.000000000000000E+20
 20
-1.000000000000000E+20
 30
-1.000000000000000E+20
  9
$PLIMMIN
 10
0.0
 20
0.0
  9
$PLIMMAX
 10
12.0
 20
9.0
  9
$UNITMODE
 70
     0
  9
$VISRETAIN
 70
     0
  9
$PLINEGEN
 70
     1
  9
$PSLTSCALE
 70
     0
  9
$TREEDEPTH
 70
  3020
  9
$PICKSTYLE
 70
     1
  9
$CMLSTYLE
  2
STANDARD
  9
$CMLJUST
 70
     0
  9
$CMLSCALE
 40
1.0
  9
$PROXYGRAPHICS
 70
     1
  9
$MEASUREMENT
 70
     0
  0
ENDSEC
  0
SECTION
  2
CLASSES
  0
CLASS
  1
LWPOLYLINE
  2
AcDbPolyline
  3
AutoCAD 2000
 90
        0
280
     0
281
     1
  0
CLASS
  1
IMAGE
  2
AcDbRasterImage
  3
ISM
 90
      127
280
     0
281
     1
  0
CLASS
  1
OLE2FRAME
  2
AcDbOle2Frame
  3
AutoCAD 2000
 90
        0
280
     0
281
     1
  0
CLASS
  1
HATCH
  2
AcDbHatch
  3
AutoCAD 2000
 90
        0
280
     0
281
     1
  0
CLASS
  1
DICTIONARYVAR
  2
AcDbDictionaryVar
  3
AutoCAD 2000
 90
        0
280
     0
281
     0
  0
CLASS
  1
RASTERVARIABLES
  2
AcDbRasterVariables
  3
ISM
 90
        0
280
     0
281
     0
  0
CLASS
  1
IMAGEDEF
  2
AcDbRasterImageDef
  3
ISM
 90
        0
280
     0
281
     0
  0
CLASS
  1
IMAGEDEF_REACTOR
  2
AcDbRasterImageDefReactor
  3
ISM
 90
        1
280
     0
281
     0
  0
CLASS
  1
IDBUFFER
  2
AcDbIdBuffer
  3
AutoCAD 2000
 90
        0
280
     0
281
     0
  0
CLASS
  1
SPATIAL_FILTER
  2
AcDbSpatialFilter
  3
AutoCAD 2000
 90
        0
280
     0
281
     0
  0
CLASS
  1
XRECORD
  2
AcDbXrecord
  3
AutoCAD 2000
 90
        0
280
     0
281
     0
  0
CLASS
  1
SORTENTSTABLE
  2
AcDbSortentsTable
  3
AutoCAD 2000
 90
        0
280
     0
281
     0
  0
CLASS
  1
LAYER_INDEX
  2
AcDbLayerIndex
  3
AutoCAD 2000
 90
        0
280
     0
281
     0
  0
CLASS
  1
SPATIAL_INDEX
  2
AcDbSpatialIndex
  3
AutoCAD 2000
 90
        0
280
     0
281
     0
  0
CLASS
  1
OBJECT_PTR
  2
CAseDLPNTableRecord
  3
"ASE-LPNTableRecord"
 90
        0
280
     0
281
     0
  0
CLASS
  1
ACDBDICTIONARYWDFLT
  2
AcDbDictionaryWithDefault
  3
AutoCAD 2000
 90
        0
280
     0
281
     0
  0
CLASS
  1
ACDBPLACEHOLDER
  2
AcDbPlaceHolder
  3
AutoCAD 2000
 90
        0
280
     0
281
     0
  0
CLASS
  1
LAYOUT
  2
AcDbLayout
  3
AutoCAD 2000
 90
        0
280
     0
281
     0
  0
CLASS
  1
LONG_TRANSACTION
  2
AcDbLongTransaction
  3
AutoCAD 2000
 90
        0
280
     0
281
     0
  0
CLASS
  1
LWPOLYLINE
  2
AcDbPolyline
  3
AutoCAD 2000
 90
        0
280
     0
281
     1
  0
CLASS
  1
HATCH
  2
AcDbHatch
  3
AutoCAD 2000
 90
        0
280
     0
281
     1
  0
CLASS
  1
XRECORD
  2
AcDbXrecord
  3
AutoCAD 2000
 90
        0
280
     0
281
     0
  0
ENDSEC
  0
SECTION
  2
TABLES
  0
TABLE
  2
VPORT
  5
7
330
0
100
AcDbSymbolTable
 70
     2
  0
VPORT
  5
1AA
330
7
100
AcDbSymbolTableRecord
100
AcDbViewportTableRecord
  2
*ACTIVE
 70
     0
 10
0.0
 20
0.0
 11
1.0
 21
1.0
 12
101.3854184003877
 22
34.75417310983405
 13
0.0
 23
0.0
 14
1.0
 24
1.0
 15
0.0
 25
0.0
 16
0.0
 26
0.0
 36
1.0
 17
0.0
 27
0.0
 37
0.0
 40
118.9818133579427
 41
1.714285714285714
 42
50.0
 43
0.0
 44
0.0
 50
0.0
 51
0.0
 71
     0
 72
   100
 73
     1
 74
     1
 75
     0
 76
     0
 77
     0
 78
     0
  0
ENDTAB
  0
TABLE
  2
LTYPE
  5
4
330
0
100
AcDbSymbolTable
 70
     4
  0
LTYPE
  5
11
330
4
100
AcDbSymbolTableRecord
100
AcDbLinetypeTableRecord
  2
BYBLOCK
 70
     0
  3

 72
    65
 73
     0
 40
0.0
  0
LTYPE
  5
12
330
4
100
AcDbSymbolTableRecord
100
AcDbLinetypeTableRecord
  2
BYLAYER
 70
     0
  3

 72
    65
 73
     0
 40
0.0
  0
LTYPE
  5
13
330
4
100
AcDbSymbolTableRecord
100
AcDbLinetypeTableRecord
  2
CONTINUOUS
 70
     0
  3
Solid line
 72
    65
 73
     0
 40
0.0
  0
LTYPE
  5
1D
330
4
100
AcDbSymbolTableRecord
100
AcDbLinetypeTableRecord
  2
DASHED
 70
     0
  3
_ _ _ _ _ _ _ _ _ _ _ _ _ _ _ _
 72
    65
 73
     2
 40
0.2
 49
0.1
 74
     0
 49
-0.1
 74
     0
  0
LTYPE
  5
1E
330
4
100
AcDbSymbolTableRecord
100
AcDbLinetypeTableRecord
  2
CENTER
 70
     0
  3
___ _ ___ _ ___ _ ___ _ ___ _ ___ _ ___ _ ___ _
 72
    65
 73
     4
 40
0.95
 49
0.625
 74
     0
 49
-0.125
 74
     0
 49
0.075
 74
     0
 49
-0.125
 74
     0
  0
LTYPE
  5
1F
330
4
100
AcDbSymbolTableRecord
100
AcDbLinetypeTableRecord
  2
PHANTOM
 70
     0
  3
______  __  __  ______  __  __  ______  __  __  
 72
    65
 73
     6
 40
1.024999999999999
 49
0.625
 74
     0
 49
-0.125
 74
     0
 49
0.075
 74
     0
 49
-0.125
 74
     0
 49
0.075
 74
     0
 49
-0.125
 74
     0
  0
ENDTAB
  0
TABLE
  2
LAYER
  5
2
330
0
100
AcDbSymbolTable
 70
     2
  0
LAYER
  5
14
330
2
100
AcDbSymbolTableRecord
100
AcDbLayerTableRecord
  2
0
 70
     0
 62
     7
  6
CONTINUOUS
  0
LAYER
  5
21
330
2
100
AcDbSymbolTableRecord
100
AcDbLayerTableRecord
  2
CK_LEVEL_1
 70
     0
 62
     7
  6
CONTINUOUS
  0
ENDTAB
  0
TABLE
  2
STYLE
  5
3
330
0
100
AcDbSymbolTable
 70
     1
  0
STYLE
  5
17
330
3
100
AcDbSymbolTableRecord
100
AcDbTextStyleTableRecord
  2
STANDARD
 70
     0
 40
0.0
 41
1.0
 50
0.0
 71
     0
 42
0.0
  3
txt
  4

  0
ENDTAB
  0
TABLE
  2
VIEW
  5
5
330
0
100
AcDbSymbolTable
 70
     0
  0
ENDTAB
  0
TABLE
  2
UCS
  5
6
330
0
100
AcDbSymbolTable
 70
     1
  0
UCS
  5
20
330
6
100
AcDbSymbolTableRecord
100
AcDbUCSTableRecord
  2
CK_VIEW_1
 70
     0
 10
0.0
 20
0.0
 30
1.0
 11
1.0
 21
0.0
 31
0.0
 12
0.0
 22
1.0
 32
0.0
  0
ENDTAB
  0
TABLE
  2
APPID
  5
8
330
0
100
AcDbSymbolTable
 70
     1
  0
APPID
  5
16
330
8
100
AcDbSymbolTableRecord
100
AcDbRegAppTableRecord
  2
ACAD
 70
     0
  0
ENDTAB
  0
TABLE
  2
DIMSTYLE
  5
9
330
0
100
AcDbSymbolTable
 70
     1
  0
DIMSTYLE
105
18
330
9
100
AcDbSymbolTableRecord
100
AcDbDimStyleTableRecord
  2
STANDARD
 70
     0
  3

  4

  5

  6

  7

 40
1.0
 41
0.18
 42
0.0625
 43
0.38
 44
0.18
 45
0.0
 46
0.0
 47
0.0
 48
0.0
140
0.18
141
0.09
142
0.0
143
25.4
144
1.0
145
0.0
146
1.0
147
0.09
 71
     0
 72
     0
 73
     1
 74
     1
 75
     0
 76
     0
 77
     0
 78
     0
170
     0
171
     2
172
     0
173
     0
174
     0
175
     0
176
     0
177
     0
178
     0
270
     2
271
     4
272
     4
273
     2
274
     2
340
17
275
     0
280
     0
281
     0
282
     0
283
     1
284
     0
285
     0
286
     0
287
     0
288
     0
  0
ENDTAB
  0
TABLE
  2
BLOCK_RECORD
  5
1
330
0
100
AcDbSymbolTable
 70
     0
  0
BLOCK_RECORD
  5
A
102
{ACAD_XDICTIONARY
360
1CB
102
}
330
1
100
AcDbSymbolTableRecord
100
AcDbBlockTableRecord
  2
*MODEL_SPACE
  0
BLOCK_RECORD
  5
B
102
{ACAD_XDICTIONARY
360
1CD
102
}
330
1
100
AcDbSymbolTableRecord
100
AcDbBlockTableRecord
  2
*PAPER_SPACE
  0
ENDTAB
  0
ENDSEC
  0
SECTION
  2
BLOCKS
  0
BLOCK
  5
D
330
A
100
AcDbEntity
  8
0
100
AcDbBlockBegin
  2
*MODEL_SPACE
 70
     0
 10
0.0
 20
0.0
 30
0.0
  3
*MODEL_SPACE
  1

  0
ENDBLK
  5
E
330
A
100
AcDbEntity
  8
0
100
AcDbBlockEnd
  0
BLOCK
  5
F
330
B
100
AcDbEntity
 67
     1
  8
0
100
AcDbBlockBegin
  2
*PAPER_SPACE
 70
     0
 10
0.0
 20
0.0
 30
0.0
  3
*PAPER_SPACE
  1

  0
ENDBLK
  5
10
330
B
100
AcDbEntity
 67
     1
  8
0
100
AcDbBlockEnd
  0
ENDSEC
  0
SECTION
  2
ENTITIES
  0
LINE
  5
34
330
A
100
AcDbEntity
  8
CK_LEVEL_1
  6
CONTINUOUS
 62
     4
100
AcDbLine
 10
152.3999999999999
 20
5.585786437626906
 30
0.0
 11
48.5
 21
5.585786437626906
 31
0.0
  0
LINE
  5
35
330
A
100
AcDbEntity
  8
CK_LEVEL_1
  6
CONTINUOUS
 62
     4
100
AcDbLine
 10
152.3999999999999
 20
6.377754871807495
 30
0.0
 11
48.5
 21
6.377754871807495
 31
0.0
  0
LINE
  5
36
330
A
100
AcDbEntity
  8
CK_LEVEL_1
  6
CONTINUOUS
 62
     4
100
AcDbLine
 10
152.3999999999999
 20
7.622245128192482
 30
0.0
 11
48.5
 21
7.622245128192482
 31
0.0
  0
LINE
  5
37
330
A
100
AcDbEntity
  8
CK_LEVEL_1
  6
CONTINUOUS
 62
     4
100
AcDbLine
 10
152.3999999999999
 20
8.414213562373097
 30
0.0
 11
48.5
 21
8.414213562373097
 31
0.0
  0
LINE
  5
38
330
A
100
AcDbEntity
  8
CK_LEVEL_1
  6
CONTINUOUS
 62
     4
100
AcDbLine
 10
152.3999999999999
 20
9.5
 30
0.0
 11
48.5
 21
9.5
 31
0.0
  0
LINE
  5
39
330
A
100
AcDbEntity
  8
CK_LEVEL_1
  6
CONTINUOUS
 62
     4
100
AcDbLine
 10
198.5
 20
5.585786437626906
 30
0.0
 11
152.3999999999999
 21
5.585786437626906
 31
0.0
  0
LINE
  5
3A
330
A
100
AcDbEntity
  8
CK_LEVEL_1
  6
CONTINUOUS
 62
     4
100
AcDbLine
 10
198.5
 20
6.377754871807495
 30
0.0
 11
152.3999999999999
 21
6.377754871807495
 31
0.0
  0
LINE
  5
3B
330
A
100
AcDbEntity
  8
CK_LEVEL_1
  6
CONTINUOUS
 62
     4
100
AcDbLine
 10
198.5
 20
7.622245128192482
 30
0.0
 11
152.3999999999999
 21
7.622245128192482
 31
0.0
  0
LINE
  5
3C
330
A
100
AcDbEntity
  8
CK_LEVEL_1
  6
CONTINUOUS
 62
     4
100
AcDbLine
 10
198.5
 20
8.414213562373097
 30
0.0
 11
152.3999999999999
 21
8.414213562373097
 31
0.0
  0
LINE
  5
3D
330
A
100
AcDbEntity
  8
CK_LEVEL_1
  6
CONTINUOUS
 62
     4
100
AcDbLine
 10
198.5
 20
0.8000000000000007
 30
0.0
 11
48.5
 21
0.8000000000000007
 31
0.0
  0
LINE
  5
3E
330
A
100
AcDbEntity
  8
CK_LEVEL_1
  6
CONTINUOUS
 62
     4
100
AcDbLine
 10
198.5
 20
9.5
 30
0.0
 11
152.3999999999999
 21
9.5
 31
0.0
  0
LINE
  5
3F
330
A
100
AcDbEntity
  8
CK_LEVEL_1
  6
CONTINUOUS
 62
     4
100
AcDbLine
 10
48.5
 20
0.5
 30
0.0
 11
49.0
 21
0.0
 31
0.0
  0
LINE
  5
40
330
A
100
AcDbEntity
  8
CK_LEVEL_1
  6
CONTINUOUS
 62
     4
100
AcDbLine
 10
49.0
 20
10.0
 30
0.0
 11
48.5
 21
9.5
 31
0.0
  0
LINE
  5
41
330
A
100
AcDbEntity
  8
CK_LEVEL_1
  6
CONTINUOUS
 62
     4
100
AcDbLine
 10
198.5
 20
0.5
 30
0.0
 11
198.0
 21
0.0
 31
0.0
  0
LINE
  5
42
330
A
100
AcDbEntity
  8
CK_LEVEL_1
  6
CONTINUOUS
 62
     4
100
AcDbLine
 10
198.0
 20
10.0
 30
0.0
 11
198.5
 21
9.5
 31
0.0
  0
LINE
  5
43
330
A
100
AcDbEntity
  8
CK_LEVEL_1
  6
CONTINUOUS
 62
     4
100
AcDbLine
 10
198.5
 20
57.0
 30
0.0
 11
198.0
 21
56.5
 31
0.0
  0
LINE
  5
44
330
A
100
AcDbEntity
  8
CK_LEVEL_1
  6
CONTINUOUS
 62
     4
100
AcDbLine
 10
198.0
 20
71.5
 30
0.0
 11
198.5
 21
71.0
 31
0.0
  0
LINE
  5
45
330
A
100
AcDbEntity
  8
CK_LEVEL_1
  6
CONTINUOUS
 62
     4
100
AcDbLine
 10
48.5
 20
57.0
 30
0.0
 11
49.0
 21
56.5
 31
0.0
  0
LINE
  5
46
330
A
100
AcDbEntity
  8
CK_LEVEL_1
  6
CONTINUOUS
 62
     4
100
AcDbLine
 10
49.0
 20
71.5
 30
0.0
 11
48.5
 21
71.0
 31
0.0
  0
LINE
  5
57
330
A
100
AcDbEntity
  8
CK_LEVEL_1
  6
DASHED
 62
   252
100
AcDbLine
 10
65.25
 20
0.5
 30
0.0
 11
65.74999999999999
 21
0.0
 31
0.0
  0
LINE
  5
58
330
A
100
AcDbEntity
  8
CK_LEVEL_1
  6
DASHED
 62
   252
100
AcDbLine
 10
61.75
 20
0.5
 30
0.0
 11
61.25
 21
0.0
 31
0.0
  0
LINE
  5
59
330
A
100
AcDbEntity
  8
CK_LEVEL_1
  6
DASHED
 62
   252
100
AcDbLine
 10
65.25
 20
0.5
 30
0.0
 11
61.75
 21
0.5
 31
0.0
  0
LINE
  5
5A
330
A
100
AcDbEntity
  8
CK_LEVEL_1
  6
CENTER
 62
   252
100
AcDbLine
 10
63.5
 20
-1.285397913702372
 30
0.0
 11
63.5
 21
11.47664139328447
 31
0.0
  0
LINE
  5
5B
330
A
100
AcDbEntity
  8
CK_LEVEL_1
  6
DASHED
 62
   252
100
AcDbLine
 10
61.75
 20
0.5
 30
0.0
 11
61.75
 21
5.499999999999996
 31
0.0
  0
LINE
  5
5C
330
A
100
AcDbEntity
  8
CK_LEVEL_1
  6
DASHED
 62
   252
100
AcDbLine
 10
65.25
 20
0.5
 30
0.0
 11
65.25
 21
5.499999999999996
 31
0.0
  0
LINE
  5
5D
330
A
100
AcDbEntity
  8
CK_LEVEL_1
  6
DASHED
 62
   252
100
AcDbLine
 10
66.5
 20
5.499999999999996
 30
0.0
 11
60.5
 21
5.499999999999996
 31
0.0
  0
LINE
  5
5E
330
A
100
AcDbEntity
  8
CK_LEVEL_1
  6
DASHED
 62
   252
100
AcDbLine
 10
66.5
 20
5.499999999999996
 30
0.0
 11
66.5
 21
9.5
 31
0.0
  0
LINE
  5
5F
330
A
100
AcDbEntity
  8
CK_LEVEL_1
  6
DASHED
 62
   252
100
AcDbLine
 10
66.5
 20
9.5
 30
0.0
 11
67.0
 21
10.0
 31
0.0
  0
LINE
  5
60
330
A
100
AcDbEntity
  8
CK_LEVEL_1
  6
DASHED
 62
   252
100
AcDbLine
 10
60.5
 20
5.499999999999996
 30
0.0
 11
60.5
 21
9.5
 31
0.0
  0
LINE
  5
61
330
A
100
AcDbEntity
  8
CK_LEVEL_1
  6
DASHED
 62
   252
100
AcDbLine
 10
66.5
 20
9.5
 30
0.0
 11
60.5
 21
9.5
 31
0.0
  0
LINE
  5
62
330
A
100
AcDbEntity
  8
CK_LEVEL_1
  6
DASHED
 62
   252
100
AcDbLine
 10
60.0
 20
10.0
 30
0.0
 11
60.5
 21
9.5
 31
0.0
  0
ARC
  5
6A
330
A
100
AcDbEntity
  8
CK_LEVEL_1
  6
CONTINUOUS
 62
     4
100
AcDbCircle
 10
1.699999999999974
 20
6.651585141594882
 30
0.0
 40
0.2
100
AcDbArc
 50
275.0000000000005
 51
360.0
  0
ARC
  5
6B
330
A
100
AcDbEntity
  8
CK_LEVEL_1
  6
CONTINUOUS
 62
     4
100
AcDbCircle
 10
1.699999999999974
 20
7.348414858405121
 30
0.0
 40
0.2
100
AcDbArc
 50
0.0
 51
84.99999999999934
  0
ARC
  5
6C
330
A
100
AcDbEntity
  8
CK_LEVEL_1
  6
CONTINUOUS
 62
     4
100
AcDbCircle
 10
13.30000000000002
 20
6.651585141594882
 30
0.0
 40
0.2
100
AcDbArc
 50
180.0
 51
264.9999999999993
  0
ARC
  5
6D
330
A
100
AcDbEntity
  8
CK_LEVEL_1
  6
CONTINUOUS
 62
     4
100
AcDbCircle
 10
13.30000000000002
 20
7.348414858405121
 30
0.0
 40
0.2
100
AcDbArc
 50
95.00000000000071
 51
180.0
  0
LINE
  5
6E
330
A
100
AcDbEntity
  8
CK_LEVEL_1
  6
CONTINUOUS
 62
     4
100
AcDbLine
 10
0.9762494924962442
 20
6.387501209458494
 30
0.0
 11
1.717431148549508
 21
6.452346201976531
 31
0.0
  0
LINE
  5
6F
330
A
100
AcDbEntity
  8
CK_LEVEL_1
  6
DASHED
 62
   252
100
AcDbLine
 10
9.25
 20
0.5
 30
0.0
 11
9.749999999999991
 21
0.0
 31
0.0
  0
LINE
  5
70
330
A
100
AcDbEntity
  8
CK_LEVEL_1
  6
DASHED
 62
   252
100
AcDbLine
 10
5.75
 20
0.5
 30
0.0
 11
5.548071199583001
 21
0.2980711995830016
 31
0.0
  0
LINE
  5
71
330
A
100
AcDbEntity
  8
CK_LEVEL_1
  6
DASHED
 62
   252
100
AcDbLine
 10
9.25
 20
0.5
 30
0.0
 11
5.75
 21
0.5
 31
0.0
  0
LINE
  5
72
330
A
100
AcDbEntity
  8
CK_LEVEL_1
  6
DASHED
 62
   252
100
AcDbLine
 10
10.5
 20
5.499999999999996
 30
0.0
 11
10.5
 21
9.5
 31
0.0
  0
LINE
  5
73
330
A
100
AcDbEntity
  8
CK_LEVEL_1
  6
DASHED
 62
   252
100
AcDbLine
 10
4.5
 20
5.499999999999996
 30
0.0
 11
4.5
 21
9.5
 31
0.0
  0
LINE
  5
74
330
A
100
AcDbEntity
  8
CK_LEVEL_1
  6
DASHED
 62
   252
100
AcDbLine
 10
9.25
 20
0.5
 30
0.0
 11
9.25
 21
5.499999999999996
 31
0.0
  0
LINE
  5
75
330
A
100
AcDbEntity
  8
CK_LEVEL_1
  6
DASHED
 62
   252
100
AcDbLine
 10
5.75
 20
0.5
 30
0.0
 11
5.75
 21
5.499999999999996
 31
0.0
  0
LINE
  5
76
330
A
100
AcDbEntity
  8
CK_LEVEL_1
  6
DASHED
 62
   252
100
AcDbLine
 10
10.5
 20
5.499999999999996
 30
0.0
 11
4.5
 21
5.499999999999996
 31
0.0
  0
LINE
  5
77
330
A
100
AcDbEntity
  8
CK_LEVEL_1
  6
CONTINUOUS
 62
     4
100
AcDbLine
 10
4.980384757729336
 20
0.0
 30
0.0
 11
0.7999999999999972
 21
0.0
 31
0.0
  0
LINE
  5
78
330
A
100
AcDbEntity
  8
CK_LEVEL_1
  6
CONTINUOUS
 62
     4
100
AcDbLine
 10
0.0
 20
9.5
 30
0.0
 11
0.5
 21
10.0
 31
0.0
  0
LINE
  5
79
330
A
100
AcDbEntity
  8
CK_LEVEL_1
  6
CONTINUOUS
 62
     4
100
AcDbLine
 10
15.0
 20
9.5
 30
0.0
 11
14.5
 21
10.0
 31
0.0
  0
LINE
  5
80
330
A
100
AcDbEntity
  8
CK_LEVEL_1
  6
CONTINUOUS
 62
     4
100
AcDbLine
 10
15.0
 20
0.8000000000000007
 30
0.0
 11
15.0
 21
5.450806661517034
 31
0.0
  0
LINE
  5
81
330
A
100
AcDbEntity
  8
CK_LEVEL_1
  6
CONTINUOUS
 62
     4
100
AcDbLine
 10
0.0
 20
8.549193338482966
 30
0.0
 11
0.0
 21
9.5
 31
0.0
  0
LINE
  5
82
330
A
100
AcDbEntity
  8
CK_LEVEL_1
  6
CONTINUOUS
 62
     4
100
AcDbLine
 10
14.5
 20
10.0
 30
0.0
 11
0.5
 21
10.0
 31
0.0
  0
LINE
  5
83
330
A
100
AcDbEntity
  8
CK_LEVEL_1
  6
CONTINUOUS
 62
     4
100
AcDbLine
 10
14.2
 20
0.0
 30
0.0
 11
6.019615242270662
 21
0.0
 31
0.0
  0
LINE
  5
86
330
A
100
AcDbEntity
  8
CK_LEVEL_1
  6
CENTER
 62
   252
100
AcDbLine
 10
7.5
 20
-2.0
 30
0.0
 11
7.5
 21
11.59871330562509
 31
0.0
  0
LINE
  5
87
330
A
100
AcDbEntity
  8
CK_LEVEL_1
  6
CONTINUOUS
 62
     4
100
AcDbLine
 10
0.0
 20
0.8000000000000007
 30
0.0
 11
0.0
 21
5.450806661517034
 31
0.0
  0
LINE
  5
88
330
A
100
AcDbEntity
  8
CK_LEVEL_1
  6
CONTINUOUS
 62
     4
100
AcDbLine
 10
15.0
 20
8.549193338482968
 30
0.0
 11
15.0
 21
9.5
 31
0.0
  0
LINE
  5
89
330
A
100
AcDbEntity
  8
CK_LEVEL_1
  6
CONTINUOUS
 62
     4
100
AcDbLine
 10
1.899999999999977
 20
6.651585141594882
 30
0.0
 11
1.899999999999977
 21
7.348414858405121
 31
0.0
  0
LINE
  5
8A
330
A
100
AcDbEntity
  8
CK_LEVEL_1
  6
CONTINUOUS
 62
     4
100
AcDbLine
 10
0.9762494924962616
 20
7.612498790541486
 30
0.0
 11
1.717431148549508
 21
7.547653798023468
 31
0.0
  0
LINE
  5
8B
330
A
100
AcDbEntity
  8
CK_LEVEL_1
  6
CONTINUOUS
 62
     4
100
AcDbLine
 10
0.0
 20
0.8000000000000007
 30
0.0
 11
0.7999999999999972
 21
0.0
 31
0.0
  0
LINE
  5
8C
330
A
100
AcDbEntity
  8
CK_LEVEL_1
  6
CONTINUOUS
 62
     4
100
AcDbLine
 10
15.0
 20
0.8000000000000007
 30
0.0
 11
14.2
 21
0.0
 31
0.0
  0
ARC
  5
8D
330
A
100
AcDbEntity
  8
CK_LEVEL_1
  6
CONTINUOUS
 62
     4
100
AcDbCircle
 10
5.5
 20
-0.3000000000000007
 30
0.0
 40
0.6
100
AcDbArc
 50
30.00000000000006
 51
149.9999999999999
  0
LINE
  5
9E
330
A
100
AcDbEntity
  8
CK_LEVEL_1
  6
CONTINUOUS
 62
     4
100
AcDbLine
 10
14.02375050750373
 20
7.612498790541486
 30
0.0
 11
13.28256885145049
 21
7.547653798023468
 31
0.0
  0
LINE
  5
9F
330
A
100
AcDbEntity
  8
CK_LEVEL_1
  6
CONTINUOUS
 62
     4
100
AcDbLine
 10
13.10000000000002
 20
6.651585141594882
 30
0.0
 11
13.10000000000002
 21
7.348414858405121
 31
0.0
  0
LINE
  5
A0
330
A
100
AcDbEntity
  8
CK_LEVEL_1
  6
CONTINUOUS
 62
     4
100
AcDbLine
 10
14.02375050750375
 20
6.387501209458494
 30
0.0
 11
13.28256885145049
 21
6.452346201976531
 31
0.0
  0
LINE
  5
A5
330
A
100
AcDbEntity
  8
CK_LEVEL_1
  6
DASHED
 62
   252
100
AcDbLine
 10
10.5
 20
9.5
 30
0.0
 11
4.5
 21
9.5
 31
0.0
  0
LINE
  5
A6
330
A
100
AcDbEntity
  8
CK_LEVEL_1
  6
DASHED
 62
   252
100
AcDbLine
 10
10.5
 20
9.5
 30
0.0
 11
11.0
 21
10.0
 31
0.0
  0
LINE
  5
A7
330
A
100
AcDbEntity
  8
CK_LEVEL_1
  6
DASHED
 62
   252
100
AcDbLine
 10
4.0
 20
10.0
 30
0.0
 11
4.5
 21
9.5
 31
0.0
  0
LINE
  5
A8
330
A
100
AcDbEntity
  8
CK_LEVEL_1
  6
CONTINUOUS
 62
     4
100
AcDbLine
 10
198.0
 20
0.0
 30
0.0
 11
49.0
 21
0.0
 31
0.0
  0
LINE
  5
A9
330
A
100
AcDbEntity
  8
CK_LEVEL_1
  6
CONTINUOUS
 62
     4
100
AcDbLine
 10
198.0
 20
10.0
 30
0.0
 11
152.4267826876426
 21
10.0
 31
0.0
  0
LINE
  5
B4
330
A
100
AcDbEntity
  8
CK_LEVEL_1
  6
CENTER
 62
   252
100
AcDbLine
 10
202.791574911945
 20
64.0
 30
0.0
 11
43.34273019309017
 21
64.0
 31
0.0
  0
LINE
  5
B5
330
A
100
AcDbEntity
  8
CK_LEVEL_1
  6
CONTINUOUS
 62
     4
100
AcDbLine
 10
198.0
 20
71.5
 30
0.0
 11
152.8999999999999
 21
71.5
 31
0.0
  0
LINE
  5
B6
330
A
100
AcDbEntity
  8
CK_LEVEL_1
  6
CONTINUOUS
 62
     4
100
AcDbLine
 10
198.0
 20
56.5
 30
0.0
 11
152.8999999999999
 21
56.5
 31
0.0
  0
LINE
  5
C2
330
A
100
AcDbEntity
  8
CK_LEVEL_1
  6
CONTINUOUS
 62
     4
100
AcDbLine
 10
48.5
 20
71.0
 30
0.0
 11
48.5
 21
57.0
 31
0.0
  0
LINE
  5
C3
330
A
100
AcDbEntity
  8
CK_LEVEL_1
  6
CONTINUOUS
 62
     4
100
AcDbLine
 10
198.5
 20
71.0
 30
0.0
 11
198.5
 21
57.0
 31
0.0
  0
LINE
  5
C4
330
A
100
AcDbEntity
  8
CK_LEVEL_1
  6
CONTINUOUS
 62
     4
100
AcDbLine
 10
48.5
 20
9.5
 30
0.0
 11
48.5
 21
0.5
 31
0.0
  0
LINE
  5
C5
330
A
100
AcDbEntity
  8
CK_LEVEL_1
  6
CONTINUOUS
 62
     4
100
AcDbLine
 10
198.5
 20
9.5
 30
0.0
 11
198.5
 21
0.5
 31
0.0
  0
LINE
  5
D0
330
A
100
AcDbEntity
  8
CK_LEVEL_1
  6
CONTINUOUS
 62
     4
100
AcDbLine
 10
152.8999999999999
 20
71.5
 30
0.0
 11
49.0
 21
71.5
 31
0.0
  0
LINE
  5
D1
330
A
100
AcDbEntity
  8
CK_LEVEL_1
  6
CONTINUOUS
 62
     4
100
AcDbLine
 10
152.8999999999999
 20
56.5
 30
0.0
 11
49.0
 21
56.5
 31
0.0
  0
LINE
  5
D2
330
A
100
AcDbEntity
  8
CK_LEVEL_1
  6
CONTINUOUS
 62
     4
100
AcDbLine
 10
152.4267826876426
 20
10.0
 30
0.0
 11
49.0
 21
10.0
 31
0.0
  0
LINE
  5
D4
330
A
100
AcDbEntity
  8
CK_LEVEL_1
  6
CENTER
 62
   252
100
AcDbLine
 10
63.5
 20
58.69432052001005
 30
0.0
 11
63.5
 21
69.82735313788407
 31
0.0
  0
CIRCLE
  5
D5
330
A
100
AcDbEntity
  8
CK_LEVEL_1
  6
CONTINUOUS
 62
     4
100
AcDbCircle
 10
63.5
 20
63.99999999999999
 30
0.0
 40
1.75
  0
ARC
  5
EA
330
A
100
AcDbEntity
  8
CK_LEVEL_1
  6
CONTINUOUS
 62
     4
100
AcDbCircle
 10
-0.5
 20
7.000000000000001
 30
0.0
 40
1.5
100
AcDbArc
 50
294.3157391711764
 51
331.478220682177
  0
ARC
  5
EB
330
A
100
AcDbEntity
  8
CK_LEVEL_1
  6
CONTINUOUS
 62
     4
100
AcDbCircle
 10
-0.5
 20
7.000000000000001
 30
0.0
 40
1.5
100
AcDbArc
 50
28.52177931782208
 51
65.68426082882353
  0
ARC
  5
EC
330
A
100
AcDbEntity
  8
CK_LEVEL_1
  6
CONTINUOUS
 62
     4
100
AcDbCircle
 10
0.2000000000000001
 20
8.549193338482968
 30
0.0
 40
0.2
100
AcDbArc
 50
180.0000000000005
 51
245.6842608288234
  0
ARC
  5
ED
330
A
100
AcDbEntity
  8
CK_LEVEL_1
  6
CONTINUOUS
 62
     4
100
AcDbCircle
 10
0.9936806410457901
 20
7.811737730159835
 30
0.0
 40
0.2
100
AcDbArc
 50
208.5217793178223
 51
265.0000000000009
  0
ARC
  5
EE
330
A
100
AcDbEntity
  8
CK_LEVEL_1
  6
CONTINUOUS
 62
     4
100
AcDbCircle
 10
0.9936806410457778
 20
6.188262269840144
 30
0.0
 40
0.2
100
AcDbArc
 50
95.00000000000053
 51
151.4782206821771
  0
ARC
  5
EF
330
A
100
AcDbEntity
  8
CK_LEVEL_1
  6
CONTINUOUS
 62
     4
100
AcDbCircle
 10
0.1999999999999998
 20
5.450806661517034
 30
0.0
 40
0.2
100
AcDbArc
 50
114.3157391711766
 51
180.0
  0
ARC
  5
F1
330
A
100
AcDbEntity
  8
CK_LEVEL_1
  6
CONTINUOUS
 62
     4
100
AcDbCircle
 10
14.8
 20
8.549193338482968
 30
0.0
 40
0.2
100
AcDbArc
 50
294.3157391711764
 51
359.9999999999994
  0
ARC
  5
F2
330
A
100
AcDbEntity
  8
CK_LEVEL_1
  6
CONTINUOUS
 62
     4
100
AcDbCircle
 10
15.5
 20
7.000000000000001
 30
0.0
 40
1.5
100
AcDbArc
 50
114.3157391711765
 51
151.4782206821779
  0
ARC
  5
F3
330
A
100
AcDbEntity
  8
CK_LEVEL_1
  6
CONTINUOUS
 62
     4
100
AcDbCircle
 10
14.00631935895421
 20
7.811737730159835
 30
0.0
 40
0.2
100
AcDbArc
 50
274.9999999999991
 51
331.4782206821775
  0
ARC
  5
F4
330
A
100
AcDbEntity
  8
CK_LEVEL_1
  6
CONTINUOUS
 62
     4
100
AcDbCircle
 10
14.00631935895422
 20
6.188262269840144
 30
0.0
 40
0.2
100
AcDbArc
 50
28.52177931782284
 51
84.9999999999995
  0
ARC
  5
F5
330
A
100
AcDbEntity
  8
CK_LEVEL_1
  6
CONTINUOUS
 62
     4
100
AcDbCircle
 10
15.5
 20
7.000000000000001
 30
0.0
 40
1.5
100
AcDbArc
 50
208.521779317823
 51
245.6842608288235
  0
ARC
  5
F6
330
A
100
AcDbEntity
  8
CK_LEVEL_1
  6
CONTINUOUS
 62
     4
100
AcDbCircle
 10
14.8
 20
5.450806661517034
 30
0.0
 40
0.2
100
AcDbArc
 50
0.0
 51
65.68426082882338
  0
CIRCLE
  5
114
330
A
100
AcDbEntity
  8
CK_LEVEL_1
  6
CONTINUOUS
 62
     4
100
AcDbCircle
 10
63.5
 20
63.99999999999999
 30
0.0
 40
3.0
  0
CIRCLE
  5
134
330
A
100
AcDbEntity
  8
CK_LEVEL_1
  6
CONTINUOUS
 62
     4
100
AcDbCircle
 10
103.4999999999999
 20
64.0
 30
0.0
 40
3.0
  0
CIRCLE
  5
135
330
A
100
AcDbEntity
  8
CK_LEVEL_1
  6
CONTINUOUS
 62
     4
100
AcDbCircle
 10
103.4999999999999
 20
64.0
 30
0.0
 40
1.75
  0
LINE
  5
136
330
A
100
AcDbEntity
  8
CK_LEVEL_1
  6
CENTER
 62
   252
100
AcDbLine
 10
103.4999999999999
 20
58.69432052001005
 30
0.0
 11
103.4999999999999
 21
69.82735313788407
 31
0.0
  0
CIRCLE
  5
13E
330
A
100
AcDbEntity
  8
CK_LEVEL_1
  6
CONTINUOUS
 62
     4
100
AcDbCircle
 10
143.5
 20
64.0
 30
0.0
 40
3.0
  0
CIRCLE
  5
13F
330
A
100
AcDbEntity
  8
CK_LEVEL_1
  6
CONTINUOUS
 62
     4
100
AcDbCircle
 10
143.5
 20
64.0
 30
0.0
 40
1.75
  0
LINE
  5
140
330
A
100
AcDbEntity
  8
CK_LEVEL_1
  6
CENTER
 62
   252
100
AcDbLine
 10
143.5
 20
58.69432052001005
 30
0.0
 11
143.5
 21
69.82735313788407
 31
0.0
  0
CIRCLE
  5
148
330
A
100
AcDbEntity
  8
CK_LEVEL_1
  6
CONTINUOUS
 62
     4
100
AcDbCircle
 10
183.4999999999999
 20
64.0
 30
0.0
 40
3.0
  0
CIRCLE
  5
149
330
A
100
AcDbEntity
  8
CK_LEVEL_1
  6
CONTINUOUS
 62
     4
100
AcDbCircle
 10
183.4999999999999
 20
64.0
 30
0.0
 40
1.75
  0
LINE
  5
14A
330
A
100
AcDbEntity
  8
CK_LEVEL_1
  6
CENTER
 62
   252
100
AcDbLine
 10
183.4999999999999
 20
58.69432052001005
 30
0.0
 11
183.4999999999999
 21
69.82735313788407
 31
0.0
  0
LINE
  5
15C
330
A
100
AcDbEntity
  8
CK_LEVEL_1
  6
DASHED
 62
   252
100
AcDbLine
 10
106.4999999999999
 20
9.5
 30
0.0
 11
100.5
 21
9.5
 31
0.0
  0
LINE
  5
15D
330
A
100
AcDbEntity
  8
CK_LEVEL_1
  6
DASHED
 62
   252
100
AcDbLine
 10
106.4999999999999
 20
5.499999999999996
 30
0.0
 11
100.5
 21
5.499999999999996
 31
0.0
  0
LINE
  5
15E
330
A
100
AcDbEntity
  8
CK_LEVEL_1
  6
DASHED
 62
   252
100
AcDbLine
 10
105.2499999999999
 20
0.5
 30
0.0
 11
101.75
 21
0.5
 31
0.0
  0
LINE
  5
15F
330
A
100
AcDbEntity
  8
CK_LEVEL_1
  6
DASHED
 62
   252
100
AcDbLine
 10
100.5
 20
5.499999999999996
 30
0.0
 11
100.5
 21
9.5
 31
0.0
  0
LINE
  5
160
330
A
100
AcDbEntity
  8
CK_LEVEL_1
  6
CENTER
 62
   252
100
AcDbLine
 10
103.4999999999999
 20
-1.285397913702372
 30
0.0
 11
103.4999999999999
 21
11.47664139328446
 31
0.0
  0
LINE
  5
161
330
A
100
AcDbEntity
  8
CK_LEVEL_1
  6
DASHED
 62
   252
100
AcDbLine
 10
101.75
 20
0.5
 30
0.0
 11
101.75
 21
5.499999999999996
 31
0.0
  0
LINE
  5
162
330
A
100
AcDbEntity
  8
CK_LEVEL_1
  6
DASHED
 62
   252
100
AcDbLine
 10
101.75
 20
0.5
 30
0.0
 11
101.2499999999999
 21
0.0
 31
0.0
  0
LINE
  5
163
330
A
100
AcDbEntity
  8
CK_LEVEL_1
  6
DASHED
 62
   252
100
AcDbLine
 10
100.0
 20
10.0
 30
0.0
 11
100.5
 21
9.5
 31
0.0
  0
LINE
  5
164
330
A
100
AcDbEntity
  8
CK_LEVEL_1
  6
DASHED
 62
   252
100
AcDbLine
 10
106.4999999999999
 20
5.499999999999996
 30
0.0
 11
106.4999999999999
 21
9.5
 31
0.0
  0
LINE
  5
165
330
A
100
AcDbEntity
  8
CK_LEVEL_1
  6
DASHED
 62
   252
100
AcDbLine
 10
105.2499999999999
 20
0.5
 30
0.0
 11
105.2499999999999
 21
5.499999999999996
 31
0.0
  0
LINE
  5
166
330
A
100
AcDbEntity
  8
CK_LEVEL_1
  6
DASHED
 62
   252
100
AcDbLine
 10
105.2499999999999
 20
0.5
 30
0.0
 11
105.7499999999999
 21
0.0
 31
0.0
  0
LINE
  5
167
330
A
100
AcDbEntity
  8
CK_LEVEL_1
  6
DASHED
 62
   252
100
AcDbLine
 10
106.4999999999999
 20
9.5
 30
0.0
 11
107.0
 21
10.0
 31
0.0
  0
LINE
  5
179
330
A
100
AcDbEntity
  8
CK_LEVEL_1
  6
DASHED
 62
   252
100
AcDbLine
 10
146.5
 20
9.5
 30
0.0
 11
140.5
 21
9.5
 31
0.0
  0
LINE
  5
17A
330
A
100
AcDbEntity
  8
CK_LEVEL_1
  6
DASHED
 62
   252
100
AcDbLine
 10
146.5
 20
5.499999999999996
 30
0.0
 11
140.5
 21
5.499999999999996
 31
0.0
  0
LINE
  5
17B
330
A
100
AcDbEntity
  8
CK_LEVEL_1
  6
DASHED
 62
   252
100
AcDbLine
 10
145.25
 20
0.5
 30
0.0
 11
141.7499999999999
 21
0.5
 31
0.0
  0
LINE
  5
17C
330
A
100
AcDbEntity
  8
CK_LEVEL_1
  6
DASHED
 62
   252
100
AcDbLine
 10
140.5
 20
5.499999999999996
 30
0.0
 11
140.5
 21
9.5
 31
0.0
  0
LINE
  5
17D
330
A
100
AcDbEntity
  8
CK_LEVEL_1
  6
CENTER
 62
   252
100
AcDbLine
 10
143.5
 20
-1.285397913702372
 30
0.0
 11
143.5
 21
11.47664139328446
 31
0.0
  0
LINE
  5
17E
330
A
100
AcDbEntity
  8
CK_LEVEL_1
  6
DASHED
 62
   252
100
AcDbLine
 10
141.7499999999999
 20
0.5
 30
0.0
 11
141.7499999999999
 21
5.499999999999996
 31
0.0
  0
LINE
  5
17F
330
A
100
AcDbEntity
  8
CK_LEVEL_1
  6
DASHED
 62
   252
100
AcDbLine
 10
141.7499999999999
 20
0.5
 30
0.0
 11
141.25
 21
0.0
 31
0.0
  0
LINE
  5
180
330
A
100
AcDbEntity
  8
CK_LEVEL_1
  6
DASHED
 62
   252
100
AcDbLine
 10
140.0
 20
10.0
 30
0.0
 11
140.5
 21
9.5
 31
0.0
  0
LINE
  5
181
330
A
100
AcDbEntity
  8
CK_LEVEL_1
  6
DASHED
 62
   252
100
AcDbLine
 10
146.5
 20
5.499999999999996
 30
0.0
 11
146.5
 21
9.5
 31
0.0
  0
LINE
  5
182
330
A
100
AcDbEntity
  8
CK_LEVEL_1
  6
DASHED
 62
   252
100
AcDbLine
 10
145.25
 20
0.5
 30
0.0
 11
145.25
 21
5.499999999999996
 31
0.0
  0
LINE
  5
183
330
A
100
AcDbEntity
  8
CK_LEVEL_1
  6
DASHED
 62
   252
100
AcDbLine
 10
145.25
 20
0.5
 30
0.0
 11
145.75
 21
0.0
 31
0.0
  0
LINE
  5
184
330
A
100
AcDbEntity
  8
CK_LEVEL_1
  6
DASHED
 62
   252
100
AcDbLine
 10
146.5
 20
9.5
 30
0.0
 11
147.0
 21
10.0
 31
0.0
  0
LINE
  5
196
330
A
100
AcDbEntity
  8
CK_LEVEL_1
  6
DASHED
 62
   252
100
AcDbLine
 10
186.5
 20
9.5
 30
0.0
 11
180.4999999999999
 21
9.5
 31
0.0
  0
LINE
  5
197
330
A
100
AcDbEntity
  8
CK_LEVEL_1
  6
DASHED
 62
   252
100
AcDbLine
 10
186.5
 20
5.5
 30
0.0
 11
180.4999999999999
 21
5.5
 31
0.0
  0
LINE
  5
198
330
A
100
AcDbEntity
  8
CK_LEVEL_1
  6
DASHED
 62
   252
100
AcDbLine
 10
185.25
 20
0.5
 30
0.0
 11
181.75
 21
0.5
 31
0.0
  0
LINE
  5
199
330
A
100
AcDbEntity
  8
CK_LEVEL_1
  6
DASHED
 62
   252
100
AcDbLine
 10
180.4999999999999
 20
5.5
 30
0.0
 11
180.4999999999999
 21
9.5
 31
0.0
  0
LINE
  5
19A
330
A
100
AcDbEntity
  8
CK_LEVEL_1
  6
CENTER
 62
   252
100
AcDbLine
 10
183.4999999999999
 20
-1.285397913702372
 30
0.0
 11
183.4999999999999
 21
11.47664139328446
 31
0.0
  0
LINE
  5
19B
330
A
100
AcDbEntity
  8
CK_LEVEL_1
  6
DASHED
 62
   252
100
AcDbLine
 10
181.75
 20
0.5
 30
0.0
 11
181.75
 21
5.5
 31
0.0
  0
LINE
  5
19C
330
A
100
AcDbEntity
  8
CK_LEVEL_1
  6
DASHED
 62
   252
100
AcDbLine
 10
181.75
 20
0.5
 30
0.0
 11
181.25
 21
0.0
 31
0.0
  0
LINE
  5
19D
330
A
100
AcDbEntity
  8
CK_LEVEL_1
  6
DASHED
 62
   252
100
AcDbLine
 10
180.0
 20
10.0
 30
0.0
 11
180.4999999999999
 21
9.5
 31
0.0
  0
LINE
  5
19E
330
A
100
AcDbEntity
  8
CK_LEVEL_1
  6
DASHED
 62
   252
100
AcDbLine
 10
186.5
 20
5.5
 30
0.0
 11
186.5
 21
9.5
 31
0.0
  0
LINE
  5
19F
330
A
100
AcDbEntity
  8
CK_LEVEL_1
  6
DASHED
 62
   252
100
AcDbLine
 10
185.25
 20
0.5
 30
0.0
 11
185.25
 21
5.5
 31
0.0
  0
LINE
  5
1A0
330
A
100
AcDbEntity
  8
CK_LEVEL_1
  6
DASHED
 62
   252
100
AcDbLine
 10
185.25
 20
0.5
 30
0.0
 11
185.7499999999999
 21
0.0
 31
0.0
  0
LINE
  5
1A1
330
A
100
AcDbEntity
  8
CK_LEVEL_1
  6
DASHED
 62
   252
100
AcDbLine
 10
186.5
 20
9.5
 30
0.0
 11
187.0
 21
10.0
 31
0.0
  0
ENDSEC
  0
SECTION
  2
OBJECTS
  0
DICTIONARY
  5
19
330
0
100
AcDbDictionary
  3
ACAD_GROUP
350
1A
  3
ACAD_LAYOUT
350
11F
  3
ACAD_MLINESTYLE
350
1B
  3
ACAD_PLOTSETTINGS
350
120
  3
ACAD_PLOTSTYLENAME
350
11D
  3
ACDBHEADERROUNDTRIPXREC
350
1AB
  0
DICTIONARY
  5
1CB
330
A
100
AcDbDictionary
280
     1
  3
ACAD_LAYOUTSELFREF
360
1CC
  0
DICTIONARY
  5
1CD
330
B
100
AcDbDictionary
280
     1
  3
ACAD_LAYOUTSELFREF
360
1CE
  0
DICTIONARY
  5
1A
102
{ACAD_REACTORS
330
19
102
}
330
19
100
AcDbDictionary
  0
DICTIONARY
  5
11F
102
{ACAD_REACTORS
330
19
102
}
330
19
100
AcDbDictionary
  0
DICTIONARY
  5
1B
102
{ACAD_REACTORS
330
19
102
}
330
19
100
AcDbDictionary
  3
STANDARD
350
1C
  0
DICTIONARY
  5
120
102
{ACAD_REACTORS
330
19
102
}
330
19
100
AcDbDictionary
  0
ACDBDICTIONARYWDFLT
  5
11D
102
{ACAD_REACTORS
330
19
102
}
330
19
100
AcDbDictionary
281
     1
  3
Normal
350
11E
100
AcDbDictionaryWithDefault
340
11E
  0
DICTIONARY
  5
1AB
102
{ACAD_REACTORS
330
19
102
}
330
19
100
AcDbDictionary
  3
CEPSNTYPE
350
1B5
  3
FINGERPRINTGUID
350
1B6
  3
HYPERLINKBASE
350
1AE
  3
INSUNITS
350
1B4
  3
LAYOUTDICT
350
1B0
  3
LWETCUNION
350
1B3
  3
PLOTSETDICT
350
1B1
  3
PLOTSTYLNAMDICT
350
1B2
  3
PSVPSCALE
350
1B8
  3
PUCSBASE
350
1BB
  3
PUCSORGBACK
350
1C1
  3
PUCSORGBOTTOM
350
1BD
  3
PUCSORGFRONT
350
1C0
  3
PUCSORGLEFT
350
1BE
  3
PUCSORGRIGHT
350
1BF
  3
PUCSORGTOP
350
1BC
  3
PUCSORTHOREF
350
1B9
  3
PUCSORTHOVIEW
350
1BA
  3
STYLESHEET
350
1AF
  3
TSTACKALIGN
350
1AC
  3
TSTACKSIZE
350
1AD
  3
UCSBASE
350
1C4
  3
UCSORGBACK
350
1CA
  3
UCSORGBOTTOM
350
1C6
  3
UCSORGFRONT
350
1C9
  3
UCSORGLEFT
350
1C7
  3
UCSORGRIGHT
350
1C8
  3
UCSORGTOP
350
1C5
  3
UCSORTHOREF
350
1C2
  3
UCSORTHOVIEW
350
1C3
  3
VERSIONGUID
350
1B7
  0
XRECORD
  5
1CC
102
{ACAD_REACTORS
330
1CB
102
}
330
1CB
100
AcDbXrecord
340
A
  0
XRECORD
  5
1CE
102
{ACAD_REACTORS
330
1CD
102
}
330
1CD
100
AcDbXrecord
340
B
  0
MLINESTYLE
  5
1C
102
{ACAD_REACTORS
330
1B
102
}
330
1B
100
AcDbMlineStyle
  2
STANDARD
 70
     0
  3

 62
     0
 51
90.00000000000019
 52
90.00000000000019
 71
     2
 49
0.5
 62
   256
  6
BYLAYER
 49
-0.5
 62
   256
  6
BYLAYER
  0
ACDBPLACEHOLDER
  5
11E
102
{ACAD_REACTORS
330
11D
102
}
330
11D
100
AcDbPlaceHolder
280
     0
  0
XRECORD
  5
1B5
102
{ACAD_REACTORS
330
1AB
102
}
330
1AB
100
AcDbXrecord
 90
        0
  0
XRECORD
  5
1B6
102
{ACAD_REACTORS
330
1AB
102
}
330
1AB
100
AcDbXrecord
  1
{63FD5C68-26AB-11D6-8687-00A024540C4A}
  0
XRECORD
  5
1AE
102
{ACAD_REACTORS
330
1AB
102
}
330
1AB
100
AcDbXrecord
  1

  0
XRECORD
  5
1B4
102
{ACAD_REACTORS
330
1AB
102
}
330
1AB
100
AcDbXrecord
 90
        0
  0
XRECORD
  5
1B0
102
{ACAD_REACTORS
330
1AB
102
}
330
1AB
100
AcDbXrecord
340
11F
  0
XRECORD
  5
1B3
102
{ACAD_REACTORS
330
1AB
102
}
330
1AB
100
AcDbXrecord
 90
    14877
  0
XRECORD
  5
1B1
102
{ACAD_REACTORS
330
1AB
102
}
330
1AB
100
AcDbXrecord
340
120
  0
XRECORD
  5
1B2
102
{ACAD_REACTORS
330
1AB
102
}
330
1AB
100
AcDbXrecord
340
11D
  0
XRECORD
  5
1B8
102
{ACAD_REACTORS
330
1AB
102
}
330
1AB
100
AcDbXrecord
 40
0.0
  0
XRECORD
  5
1BB
102
{ACAD_REACTORS
330
1AB
102
}
330
1AB
100
AcDbXrecord
340
0
  0
XRECORD
  5
1C1
102
{ACAD_REACTORS
330
1AB
102
}
330
1AB
100
AcDbXrecord
 10
0.0
 20
0.0
 30
0.0
  0
XRECORD
  5
1BD
102
{ACAD_REACTORS
330
1AB
102
}
330
1AB
100
AcDbXrecord
 10
0.0
 20
0.0
 30
0.0
  0
XRECORD
  5
1C0
102
{ACAD_REACTORS
330
1AB
102
}
330
1AB
100
AcDbXrecord
 10
0.0
 20
0.0
 30
0.0
  0
XRECORD
  5
1BE
102
{ACAD_REACTORS
330
1AB
102
}
330
1AB
100
AcDbXrecord
 10
0.0
 20
0.0
 30
0.0
  0
XRECORD
  5
1BF
102
{ACAD_REACTORS
330
1AB
102
}
330
1AB
100
AcDbXrecord
 10
0.0
 20
0.0
 30
0.0
  0
XRECORD
  5
1BC
102
{ACAD_REACTORS
330
1AB
102
}
330
1AB
100
AcDbXrecord
 10
0.0
 20
0.0
 30
0.0
  0
XRECORD
  5
1B9
102
{ACAD_REACTORS
330
1AB
102
}
330
1AB
100
AcDbXrecord
340
0
  0
XRECORD
  5
1BA
102
{ACAD_REACTORS
330
1AB
102
}
330
1AB
100
AcDbXrecord
 70
     0
  0
XRECORD
  5
1AF
102
{ACAD_REACTORS
330
1AB
102
}
330
1AB
100
AcDbXrecord
  1

  0
XRECORD
  5
1AC
102
{ACAD_REACTORS
330
1AB
102
}
330
1AB
100
AcDbXrecord
 90
        1
  0
XRECORD
  5
1AD
102
{ACAD_REACTORS
330
1AB
102
}
330
1AB
100
AcDbXrecord
 90
       70
  0
XRECORD
  5
1C4
102
{ACAD_REACTORS
330
1AB
102
}
330
1AB
100
AcDbXrecord
340
0
  0
XRECORD
  5
1CA
102
{ACAD_REACTORS
330
1AB
102
}
330
1AB
100
AcDbXrecord
 10
0.0
 20
0.0
 30
0.0
  0
XRECORD
  5
1C6
102
{ACAD_REACTORS
330
1AB
102
}
330
1AB
100
AcDbXrecord
 10
0.0
 20
0.0
 30
0.0
  0
XRECORD
  5
1C9
102
{ACAD_REACTORS
330
1AB
102
}
330
1AB
100
AcDbXrecord
 10
0.0
 20
0.0
 30
0.0
  0
XRECORD
  5
1C7
102
{ACAD_REACTORS
330
1AB
102
}
330
1AB
100
AcDbXrecord
 10
0.0
 20
0.0
 30
0.0
  0
XRECORD
  5
1C8
102
{ACAD_REACTORS
330
1AB
102
}
330
1AB
100
AcDbXrecord
 10
0.0
 20
0.0
 30
0.0
  0
XRECORD
  5
1C5
102
{ACAD_REACTORS
330
1AB
102
}
330
1AB
100
AcDbXrecord
 10
0.0
 20
0.0
 30
0.0
  0
XRECORD
  5
1C2
102
{ACAD_REACTORS
330
1AB
102
}
330
1AB
100
AcDbXrecord
340
0
  0
XRECORD
  5
1C3
102
{ACAD_REACTORS
330
1AB
102
}
330
1AB
100
AcDbXrecord
 70
     0
  0
XRECORD
  5
1B7
102
{ACAD_REACTORS
330
1AB
102
}
330
1AB
100
AcDbXrecord
  1
{03A9FC4E-7F5F-11D6-86EB-00A024540C4A}
  0
ENDSEC
  0
EOF
