  0
SECTION
  2
HEADER
  9
$ACADVER
  1
AC1014
  9
$ACADMAINTVER
 70
     9
  9
$DWGCODEPAGE
  3
ANSI_1252
  9
$INSBASE
 10
0.0
 20
0.0
 30
0.0
  9
$EXTMIN
 10
-0.0201428546213445
 20
-1.0
 30
0.0
  9
$EXTMAX
 10
78.9877507108215
 20
37.0
 30
0.0
  9
$LIMMIN
 10
0.0
 20
0.0
  9
$LIMMAX
 10
0.0
 20
0.0
  9
$ORTHOMODE
 70
     1
  9
$REGENMODE
 70
     1
  9
$FILLMODE
 70
     1
  9
$QTEXTMODE
 70
     0
  9
$MIRRTEXT
 70
     1
  9
$DRAGMODE
 70
     2
  9
$LTSCALE
 40
1.0
  9
$OSMODE
 70
    37
  9
$ATTMODE
 70
     1
  9
$TEXTSIZE
 40
0.0
  9
$TRACEWID
 40
0.05
  9
$TEXTSTYLE
  7
STANDARD
  9
$CLAYER
  8
0
  9
$CELTYPE
  6
DASHED
  9
$CECOLOR
 62
     7
  9
$CELTSCALE
 40
1.0
  9
$DELOBJ
 70
     1
  9
$DISPSILH
 70
     0
  9
$DIMSCALE
 40
1.0
  9
$DIMASZ
 40
0.18
  9
$DIMEXO
 40
0.0625
  9
$DIMDLI
 40
0.38
  9
$DIMRND
 40
0.0
  9
$DIMDLE
 40
0.0
  9
$DIMEXE
 40
0.25
  9
$DIMTP
 40
0.01
  9
$DIMTM
 40
-0.01
  9
$DIMTXT
 40
0.125
  9
$DIMCEN
 40
0.09
  9
$DIMTSZ
 40
0.0
  9
$DIMTOL
 70
     0
  9
$DIMLIM
 70
     0
  9
$DIMTIH
 70
     1
  9
$DIMTOH
 70
     1
  9
$DIMSE1
 70
     0
  9
$DIMSE2
 70
     0
  9
$DIMTAD
 70
     0
  9
$DIMZIN
 70
     0
  9
$DIMBLK
  1

  9
$DIMASO
 70
     1
  9
$DIMSHO
 70
     1
  9
$DIMPOST
  1

  9
$DIMAPOST
  1

  9
$DIMALT
 70
     0
  9
$DIMALTD
 70
     2
  9
$DIMALTF
 40
25.4
  9
$DIMLFAC
 40
1.0
  9
$DIMTOFL
 70
     0
  9
$DIMTVP
 40
0.0
  9
$DIMTIX
 70
     0
  9
$DIMSOXD
 70
     0
  9
$DIMSAH
 70
     0
  9
$DIMBLK1
  1

  9
$DIMBLK2
  1

  9
$DIMSTYLE
  2
STANDARD
  9
$DIMCLRD
 70
     0
  9
$DIMCLRE
 70
     0
  9
$DIMCLRT
 70
     4
  9
$DIMTFAC
 40
1.0
  9
$DIMGAP
 40
0.09
  9
$DIMJUST
 70
     0
  9
$DIMSD1
 70
     0
  9
$DIMSD2
 70
     0
  9
$DIMTOLJ
 70
     1
  9
$DIMTZIN
 70
     0
  9
$DIMALTZ
 70
     0
  9
$DIMALTTZ
 70
     0
  9
$DIMFIT
 70
     3
  9
$DIMUPT
 70
     0
  9
$DIMUNIT
 70
     2
  9
$DIMDEC
 70
     4
  9
$DIMTDEC
 70
     4
  9
$DIMALTU
 70
     2
  9
$DIMALTTD
 70
     2
  9
$DIMTXSTY
  7
STANDARD
  9
$DIMAUNIT
 70
     0
  9
$LUNITS
 70
     2
  9
$LUPREC
 70
    10
  9
$SKETCHINC
 40
0.1
  9
$FILLETRAD
 40
0.0
  9
$AUNITS
 70
     0
  9
$AUPREC
 70
     0
  9
$MENU
  1
acad
  9
$ELEVATION
 40
0.0
  9
$PELEVATION
 40
0.0
  9
$THICKNESS
 40
0.0
  9
$LIMCHECK
 70
     0
  9
$BLIPMODE
 70
     0
  9
$CHAMFERA
 40
0.0
  9
$CHAMFERB
 40
0.0
  9
$CHAMFERC
 40
0.0
  9
$CHAMFERD
 40
0.0
  9
$SKPOLY
 70
     0
  9
$TDCREATE
 40
2444972.083333333
  9
$TDUPDATE
 40
2452443.351881886
  9
$TDINDWG
 40
0.0095927315
  9
$TDUSRTIMER
 40
0.0095927315
  9
$USRTIMER
 70
     1
  9
$ANGBASE
 50
0.0
  9
$ANGDIR
 70
     0
  9
$PDMODE
 70
     2
  9
$PDSIZE
 40
0.0
  9
$PLINEWID
 40
0.0
  9
$COORDS
 70
     1
  9
$SPLFRAME
 70
     0
  9
$SPLINETYPE
 70
     6
  9
$SPLINESEGS
 70
     8
  9
$ATTDIA
 70
     0
  9
$ATTREQ
 70
     1
  9
$HANDLING
 70
-16383
  9
$HANDSEED
  5
1B8
  9
$SURFTAB1
 70
     6
  9
$SURFTAB2
 70
     6
  9
$SURFTYPE
 70
     6
  9
$SURFU
 70
     6
  9
$SURFV
 70
     6
  9
$UCSNAME
  2

  9
$UCSORG
 10
0.0
 20
0.0
 30
0.0
  9
$UCSXDIR
 10
1.0
 20
0.0
 30
0.0
  9
$UCSYDIR
 10
0.0
 20
1.0
 30
0.0
  9
$PUCSNAME
  2

  9
$PUCSORG
 10
0.0
 20
0.0
 30
0.0
  9
$PUCSXDIR
 10
1.0
 20
0.0
 30
0.0
  9
$PUCSYDIR
 10
0.0
 20
1.0
 30
0.0
  9
$USERI1
 70
     0
  9
$USERI2
 70
     0
  9
$USERI3
 70
     0
  9
$USERI4
 70
     0
  9
$USERI5
 70
     0
  9
$USERR1
 40
0.0
  9
$USERR2
 40
0.0
  9
$USERR3
 40
0.0
  9
$USERR4
 40
0.0
  9
$USERR5
 40
0.0
  9
$WORLDVIEW
 70
     1
  9
$SHADEDGE
 70
     3
  9
$SHADEDIF
 70
    70
  9
$TILEMODE
 70
     1
  9
$MAXACTVP
 70
    16
  9
$PINSBASE
 10
0.0
 20
0.0
 30
0.0
  9
$PLIMCHECK
 70
     0
  9
$PEXTMIN
 10
1.000000000000000E+20
 20
1.000000000000000E+20
 30
1.000000000000000E+20
  9
$PEXTMAX
 10
-1.000000000000000E+20
 20
-1.000000000000000E+20
 30
-1.000000000000000E+20
  9
$PLIMMIN
 10
0.0
 20
0.0
  9
$PLIMMAX
 10
12.0
 20
9.0
  9
$UNITMODE
 70
     0
  9
$VISRETAIN
 70
     0
  9
$PLINEGEN
 70
     1
  9
$PSLTSCALE
 70
     0
  9
$TREEDEPTH
 70
  3020
  9
$PICKSTYLE
 70
     1
  9
$CMLSTYLE
  2
STANDARD
  9
$CMLJUST
 70
     0
  9
$CMLSCALE
 40
1.0
  9
$PROXYGRAPHICS
 70
     1
  9
$MEASUREMENT
 70
     0
  0
ENDSEC
  0
SECTION
  2
CLASSES
  0
CLASS
  1
LWPOLYLINE
  2
AcDbPolyline
  3
AutoCAD 2000
 90
        0
280
     0
281
     1
  0
CLASS
  1
IMAGE
  2
AcDbRasterImage
  3
ISM
 90
      127
280
     0
281
     1
  0
CLASS
  1
OLE2FRAME
  2
AcDbOle2Frame
  3
AutoCAD 2000
 90
        0
280
     0
281
     1
  0
CLASS
  1
HATCH
  2
AcDbHatch
  3
AutoCAD 2000
 90
        0
280
     0
281
     1
  0
CLASS
  1
DICTIONARYVAR
  2
AcDbDictionaryVar
  3
AutoCAD 2000
 90
        0
280
     0
281
     0
  0
CLASS
  1
RASTERVARIABLES
  2
AcDbRasterVariables
  3
ISM
 90
        0
280
     0
281
     0
  0
CLASS
  1
IMAGEDEF
  2
AcDbRasterImageDef
  3
ISM
 90
        0
280
     0
281
     0
  0
CLASS
  1
IMAGEDEF_REACTOR
  2
AcDbRasterImageDefReactor
  3
ISM
 90
        1
280
     0
281
     0
  0
CLASS
  1
IDBUFFER
  2
AcDbIdBuffer
  3
AutoCAD 2000
 90
        0
280
     0
281
     0
  0
CLASS
  1
SPATIAL_FILTER
  2
AcDbSpatialFilter
  3
AutoCAD 2000
 90
        0
280
     0
281
     0
  0
CLASS
  1
XRECORD
  2
AcDbXrecord
  3
AutoCAD 2000
 90
        0
280
     0
281
     0
  0
CLASS
  1
SORTENTSTABLE
  2
AcDbSortentsTable
  3
AutoCAD 2000
 90
        0
280
     0
281
     0
  0
CLASS
  1
LAYER_INDEX
  2
AcDbLayerIndex
  3
AutoCAD 2000
 90
        0
280
     0
281
     0
  0
CLASS
  1
SPATIAL_INDEX
  2
AcDbSpatialIndex
  3
AutoCAD 2000
 90
        0
280
     0
281
     0
  0
CLASS
  1
OBJECT_PTR
  2
CAseDLPNTableRecord
  3
"ASE-LPNTableRecord"
 90
        0
280
     0
281
     0
  0
CLASS
  1
ACDBDICTIONARYWDFLT
  2
AcDbDictionaryWithDefault
  3
AutoCAD 2000
 90
        0
280
     0
281
     0
  0
CLASS
  1
ACDBPLACEHOLDER
  2
AcDbPlaceHolder
  3
AutoCAD 2000
 90
        0
280
     0
281
     0
  0
CLASS
  1
LAYOUT
  2
AcDbLayout
  3
AutoCAD 2000
 90
        0
280
     0
281
     0
  0
CLASS
  1
LONG_TRANSACTION
  2
AcDbLongTransaction
  3
AutoCAD 2000
 90
        0
280
     0
281
     0
  0
CLASS
  1
LWPOLYLINE
  2
AcDbPolyline
  3
AutoCAD 2000
 90
        0
280
     0
281
     1
  0
CLASS
  1
HATCH
  2
AcDbHatch
  3
AutoCAD 2000
 90
        0
280
     0
281
     1
  0
CLASS
  1
XRECORD
  2
AcDbXrecord
  3
AutoCAD 2000
 90
        0
280
     0
281
     0
  0
ENDSEC
  0
SECTION
  2
TABLES
  0
TABLE
  2
VPORT
  5
7
330
0
100
AcDbSymbolTable
 70
     2
  0
VPORT
  5
193
330
7
100
AcDbSymbolTableRecord
100
AcDbViewportTableRecord
  2
*ACTIVE
 70
     0
 10
0.0
 20
0.0
 11
1.0
 21
1.0
 12
39.48328909383256
 22
18.00074947053957
 13
0.0
 23
0.0
 14
1.0
 24
1.0
 15
0.0
 25
0.0
 16
0.0
 26
0.0
 36
1.0
 17
0.0
 27
0.0
 37
0.0
 40
46.35999334127716
 41
1.714285714285714
 42
50.0
 43
0.0
 44
0.0
 50
0.0
 51
0.0
 71
     0
 72
   100
 73
     1
 74
     1
 75
     0
 76
     0
 77
     0
 78
     0
  0
ENDTAB
  0
TABLE
  2
LTYPE
  5
4
330
0
100
AcDbSymbolTable
 70
     4
  0
LTYPE
  5
11
330
4
100
AcDbSymbolTableRecord
100
AcDbLinetypeTableRecord
  2
BYBLOCK
 70
     0
  3

 72
    65
 73
     0
 40
0.0
  0
LTYPE
  5
12
330
4
100
AcDbSymbolTableRecord
100
AcDbLinetypeTableRecord
  2
BYLAYER
 70
     0
  3

 72
    65
 73
     0
 40
0.0
  0
LTYPE
  5
13
330
4
100
AcDbSymbolTableRecord
100
AcDbLinetypeTableRecord
  2
CONTINUOUS
 70
     0
  3
Solid line
 72
    65
 73
     0
 40
0.0
  0
LTYPE
  5
1D
330
4
100
AcDbSymbolTableRecord
100
AcDbLinetypeTableRecord
  2
DASHED
 70
     0
  3
_ _ _ _ _ _ _ _ _ _ _ _ _ _ _ _
 72
    65
 73
     2
 40
0.2
 49
0.1
 74
     0
 49
-0.1
 74
     0
  0
LTYPE
  5
1E
330
4
100
AcDbSymbolTableRecord
100
AcDbLinetypeTableRecord
  2
CENTER
 70
     0
  3
___ _ ___ _ ___ _ ___ _ ___ _ ___ _ ___ _ ___ _
 72
    65
 73
     4
 40
0.95
 49
0.625
 74
     0
 49
-0.125
 74
     0
 49
0.075
 74
     0
 49
-0.125
 74
     0
  0
LTYPE
  5
1F
330
4
100
AcDbSymbolTableRecord
100
AcDbLinetypeTableRecord
  2
PHANTOM
 70
     0
  3
______  __  __  ______  __  __  ______  __  __  
 72
    65
 73
     6
 40
1.024999999999999
 49
0.625
 74
     0
 49
-0.125
 74
     0
 49
0.075
 74
     0
 49
-0.125
 74
     0
 49
0.075
 74
     0
 49
-0.125
 74
     0
  0
ENDTAB
  0
TABLE
  2
LAYER
  5
2
330
0
100
AcDbSymbolTable
 70
     2
  0
LAYER
  5
14
330
2
100
AcDbSymbolTableRecord
100
AcDbLayerTableRecord
  2
0
 70
     0
 62
     7
  6
CONTINUOUS
  0
LAYER
  5
21
330
2
100
AcDbSymbolTableRecord
100
AcDbLayerTableRecord
  2
CK_LEVEL_1
 70
     0
 62
     7
  6
CONTINUOUS
  0
ENDTAB
  0
TABLE
  2
STYLE
  5
3
330
0
100
AcDbSymbolTable
 70
     1
  0
STYLE
  5
17
330
3
100
AcDbSymbolTableRecord
100
AcDbTextStyleTableRecord
  2
STANDARD
 70
     0
 40
0.0
 41
1.0
 50
0.0
 71
     0
 42
0.0
  3
txt
  4

  0
ENDTAB
  0
TABLE
  2
VIEW
  5
5
330
0
100
AcDbSymbolTable
 70
     0
  0
ENDTAB
  0
TABLE
  2
UCS
  5
6
330
0
100
AcDbSymbolTable
 70
     1
  0
UCS
  5
20
330
6
100
AcDbSymbolTableRecord
100
AcDbUCSTableRecord
  2
CK_VIEW_1
 70
     0
 10
0.0
 20
0.0
 30
1.0
 11
1.0
 21
0.0
 31
0.0
 12
0.0
 22
1.0
 32
0.0
  0
ENDTAB
  0
TABLE
  2
APPID
  5
8
330
0
100
AcDbSymbolTable
 70
     1
  0
APPID
  5
16
330
8
100
AcDbSymbolTableRecord
100
AcDbRegAppTableRecord
  2
ACAD
 70
     0
  0
ENDTAB
  0
TABLE
  2
DIMSTYLE
  5
9
330
0
100
AcDbSymbolTable
 70
     1
  0
DIMSTYLE
105
18
330
9
100
AcDbSymbolTableRecord
100
AcDbDimStyleTableRecord
  2
STANDARD
 70
     0
  3

  4

  5

  6

  7

 40
1.0
 41
0.18
 42
0.0625
 43
0.38
 44
0.18
 45
0.0
 46
0.0
 47
0.0
 48
0.0
140
0.18
141
0.09
142
0.0
143
25.4
144
1.0
145
0.0
146
1.0
147
0.09
 71
     0
 72
     0
 73
     1
 74
     1
 75
     0
 76
     0
 77
     0
 78
     0
170
     0
171
     2
172
     0
173
     0
174
     0
175
     0
176
     0
177
     0
178
     0
270
     2
271
     4
272
     4
273
     2
274
     2
340
17
275
     0
280
     0
281
     0
282
     0
283
     1
284
     0
285
     0
286
     0
287
     0
288
     0
  0
ENDTAB
  0
TABLE
  2
BLOCK_RECORD
  5
1
330
0
100
AcDbSymbolTable
 70
     0
  0
BLOCK_RECORD
  5
A
102
{ACAD_XDICTIONARY
360
1B4
102
}
330
1
100
AcDbSymbolTableRecord
100
AcDbBlockTableRecord
  2
*MODEL_SPACE
  0
BLOCK_RECORD
  5
B
102
{ACAD_XDICTIONARY
360
1B6
102
}
330
1
100
AcDbSymbolTableRecord
100
AcDbBlockTableRecord
  2
*PAPER_SPACE
  0
ENDTAB
  0
ENDSEC
  0
SECTION
  2
BLOCKS
  0
BLOCK
  5
D
330
A
100
AcDbEntity
  8
0
100
AcDbBlockBegin
  2
*MODEL_SPACE
 70
     0
 10
0.0
 20
0.0
 30
0.0
  3
*MODEL_SPACE
  1

  0
ENDBLK
  5
E
330
A
100
AcDbEntity
  8
0
100
AcDbBlockEnd
  0
BLOCK
  5
F
330
B
100
AcDbEntity
 67
     1
  8
0
100
AcDbBlockBegin
  2
*PAPER_SPACE
 70
     0
 10
0.0
 20
0.0
 30
0.0
  3
*PAPER_SPACE
  1

  0
ENDBLK
  5
10
330
B
100
AcDbEntity
 67
     1
  8
0
100
AcDbBlockEnd
  0
ENDSEC
  0
SECTION
  2
ENTITIES
  0
LINE
  5
22
330
A
100
AcDbEntity
  8
CK_LEVEL_1
  6
CONTINUOUS
 62
     4
100
AcDbLine
 10
22.0
 20
30.3
 30
0.0
 11
22.29999999999999
 21
30.0
 31
0.0
  0
LINE
  5
23
330
A
100
AcDbEntity
  8
CK_LEVEL_1
  6
CONTINUOUS
 62
     4
100
AcDbLine
 10
22.29999999999999
 20
37.0
 30
0.0
 11
22.0
 21
36.7
 31
0.0
  0
LINE
  5
24
330
A
100
AcDbEntity
  8
CK_LEVEL_1
  6
CONTINUOUS
 62
     4
100
AcDbLine
 10
77.0
 20
30.3
 30
0.0
 11
76.7
 21
30.0
 31
0.0
  0
LINE
  5
25
330
A
100
AcDbEntity
  8
CK_LEVEL_1
  6
CONTINUOUS
 62
     4
100
AcDbLine
 10
76.7
 20
37.0
 30
0.0
 11
77.0
 21
36.7
 31
0.0
  0
LINE
  5
26
330
A
100
AcDbEntity
  8
CK_LEVEL_1
  6
CONTINUOUS
 62
     4
100
AcDbLine
 10
77.0
 20
0.2999999999999998
 30
0.0
 11
76.7
 21
0.0
 31
0.0
  0
LINE
  5
27
330
A
100
AcDbEntity
  8
CK_LEVEL_1
  6
CONTINUOUS
 62
     4
100
AcDbLine
 10
76.7
 20
4.8
 30
0.0
 11
77.0
 21
4.5
 31
0.0
  0
LINE
  5
28
330
A
100
AcDbEntity
  8
CK_LEVEL_1
  6
CONTINUOUS
 62
     4
100
AcDbLine
 10
22.0
 20
0.2999999999999998
 30
0.0
 11
22.29999999999999
 21
0.0
 31
0.0
  0
LINE
  5
29
330
A
100
AcDbEntity
  8
CK_LEVEL_1
  6
CONTINUOUS
 62
     4
100
AcDbLine
 10
22.29999999999999
 20
4.8
 30
0.0
 11
22.0
 21
4.5
 31
0.0
  0
LINE
  5
30
330
A
100
AcDbEntity
  8
CK_LEVEL_1
  6
DASHED
 62
   252
100
AcDbLine
 10
29.39999999999999
 20
4.8
 30
0.0
 11
29.1
 21
4.5
 31
0.0
  0
LINE
  5
31
330
A
100
AcDbEntity
  8
CK_LEVEL_1
  6
DASHED
 62
   252
100
AcDbLine
 10
29.1
 20
4.5
 30
0.0
 11
24.9
 21
4.5
 31
0.0
  0
LINE
  5
32
330
A
100
AcDbEntity
  8
CK_LEVEL_1
  6
DASHED
 62
   252
100
AcDbLine
 10
24.6
 20
4.8
 30
0.0
 11
24.9
 21
4.5
 31
0.0
  0
LINE
  5
33
330
A
100
AcDbEntity
  8
CK_LEVEL_1
  6
DASHED
 62
   252
100
AcDbLine
 10
5.899999999999999
 20
4.8
 30
0.0
 11
5.599999999999999
 21
4.5
 31
0.0
  0
LINE
  5
34
330
A
100
AcDbEntity
  8
CK_LEVEL_1
  6
DASHED
 62
   252
100
AcDbLine
 10
1.1
 20
4.8
 30
0.0
 11
1.4
 21
4.5
 31
0.0
  0
LINE
  5
35
330
A
100
AcDbEntity
  8
CK_LEVEL_1
  6
DASHED
 62
   252
100
AcDbLine
 10
5.599999999999999
 20
4.5
 30
0.0
 11
1.4
 21
4.5
 31
0.0
  0
LINE
  5
38
330
A
100
AcDbEntity
  8
CK_LEVEL_1
  6
CONTINUOUS
 62
     4
100
AcDbLine
 10
60.75
 20
2.429179606750063
 30
0.0
 11
22.0
 21
2.429179606750063
 31
0.0
  0
LINE
  5
39
330
A
100
AcDbEntity
  8
CK_LEVEL_1
  6
CONTINUOUS
 62
     4
100
AcDbLine
 10
60.75
 20
2.756135530262893
 30
0.0
 11
22.0
 21
2.756135530262893
 31
0.0
  0
LINE
  5
3A
330
A
100
AcDbEntity
  8
CK_LEVEL_1
  6
CONTINUOUS
 62
     4
100
AcDbLine
 10
60.75
 20
3.443864469737113
 30
0.0
 11
22.0
 21
3.443864469737113
 31
0.0
  0
LINE
  5
3B
330
A
100
AcDbEntity
  8
CK_LEVEL_1
  6
CONTINUOUS
 62
     4
100
AcDbLine
 10
60.75
 20
3.770820393249936
 30
0.0
 11
22.0
 21
3.770820393249936
 31
0.0
  0
LINE
  5
3C
330
A
100
AcDbEntity
  8
CK_LEVEL_1
  6
CONTINUOUS
 62
     4
100
AcDbLine
 10
77.0
 20
2.429179606750063
 30
0.0
 11
60.75
 21
2.429179606750063
 31
0.0
  0
LINE
  5
3D
330
A
100
AcDbEntity
  8
CK_LEVEL_1
  6
CONTINUOUS
 62
     4
100
AcDbLine
 10
77.0
 20
2.756135530262893
 30
0.0
 11
60.75
 21
2.756135530262893
 31
0.0
  0
LINE
  5
3E
330
A
100
AcDbEntity
  8
CK_LEVEL_1
  6
CONTINUOUS
 62
     4
100
AcDbLine
 10
77.0
 20
3.443864469737113
 30
0.0
 11
60.75
 21
3.443864469737113
 31
0.0
  0
LINE
  5
3F
330
A
100
AcDbEntity
  8
CK_LEVEL_1
  6
CONTINUOUS
 62
     4
100
AcDbLine
 10
77.0
 20
3.770820393249936
 30
0.0
 11
60.75
 21
3.770820393249936
 31
0.0
  0
ARC
  5
48
330
A
100
AcDbEntity
  8
CK_LEVEL_1
  6
CONTINUOUS
 62
     4
100
AcDbCircle
 10
6.85
 20
2.325403330758516
 30
0.0
 40
0.15
100
AcDbArc
 50
0.0
 51
65.68426082882329
  0
ARC
  5
49
330
A
100
AcDbEntity
  8
CK_LEVEL_1
  6
CONTINUOUS
 62
     4
100
AcDbCircle
 10
7.200000000000001
 20
3.1
 30
0.0
 40
0.7
100
AcDbArc
 50
214.9408064339187
 51
245.6842608288233
  0
ARC
  5
4A
330
A
100
AcDbEntity
  8
CK_LEVEL_1
  6
CONTINUOUS
 62
     4
100
AcDbCircle
 10
6.503217445453993
 20
2.613179630992768
 30
0.0
 40
0.15
100
AcDbArc
 50
34.94080643391876
 51
85.00000000000021
  0
LINE
  5
4B
330
A
100
AcDbEntity
  8
CK_LEVEL_1
  6
CONTINUOUS
 62
     4
100
AcDbLine
 10
6.086926638587851
 20
2.800173332955116
 30
0.0
 11
6.516290806866141
 21
2.76260883570653
 31
0.0
  0
ARC
  5
4C
330
A
100
AcDbEntity
  8
CK_LEVEL_1
  6
CONTINUOUS
 62
     4
100
AcDbCircle
 10
6.099999999999999
 20
2.949602537668878
 30
0.0
 40
0.15
100
AcDbArc
 50
180.0
 51
265.0000000000001
  0
LINE
  5
4D
330
A
100
AcDbEntity
  8
CK_LEVEL_1
  6
CONTINUOUS
 62
     4
100
AcDbLine
 10
5.95
 20
2.949602537668878
 30
0.0
 11
5.95
 21
3.250397462331128
 31
0.0
  0
ARC
  5
4E
330
A
100
AcDbEntity
  8
CK_LEVEL_1
  6
CONTINUOUS
 62
     4
100
AcDbCircle
 10
6.099999999999999
 20
3.250397462331128
 30
0.0
 40
0.15
100
AcDbArc
 50
94.99999999999985
 51
180.0
  0
LINE
  5
4F
330
A
100
AcDbEntity
  8
CK_LEVEL_1
  6
CONTINUOUS
 62
     4
100
AcDbLine
 10
6.086926638587851
 20
3.39982666704489
 30
0.0
 11
6.516290806866145
 21
3.437391164293476
 31
0.0
  0
ARC
  5
50
330
A
100
AcDbEntity
  8
CK_LEVEL_1
  6
CONTINUOUS
 62
     4
100
AcDbCircle
 10
6.503217445453996
 20
3.586820369007237
 30
0.0
 40
0.15
100
AcDbArc
 50
274.9999999999998
 51
325.0591935660809
  0
ARC
  5
51
330
A
100
AcDbEntity
  8
CK_LEVEL_1
  6
CONTINUOUS
 62
     4
100
AcDbCircle
 10
7.200000000000001
 20
3.1
 30
0.0
 40
0.7
100
AcDbArc
 50
114.3157391711766
 51
145.0591935660808
  0
ARC
  5
52
330
A
100
AcDbEntity
  8
CK_LEVEL_1
  6
CONTINUOUS
 62
     4
100
AcDbCircle
 10
6.849999999999999
 20
3.874596669241482
 30
0.0
 40
0.15
100
AcDbArc
 50
294.3157391711766
 51
360.0
  0
ARC
  5
55
330
A
100
AcDbEntity
  8
CK_LEVEL_1
  6
CONTINUOUS
 62
     4
100
AcDbCircle
 10
0.4967825545460033
 20
3.586820369007237
 30
0.0
 40
0.15
100
AcDbArc
 50
214.940806433919
 51
265.0000000000001
  0
ARC
  5
56
330
A
100
AcDbEntity
  8
CK_LEVEL_1
  6
CONTINUOUS
 62
     4
100
AcDbCircle
 10
0.4967825545460072
 20
2.613179630992768
 30
0.0
 40
0.15
100
AcDbArc
 50
94.9999999999998
 51
145.0591935660812
  0
ARC
  5
57
330
A
100
AcDbEntity
  8
CK_LEVEL_1
  6
CONTINUOUS
 62
     4
100
AcDbCircle
 10
0.1499999999999998
 20
2.325403330758516
 30
0.0
 40
0.15
100
AcDbArc
 50
114.3157391711767
 51
180.0
  0
ARC
  5
58
330
A
100
AcDbEntity
  8
CK_LEVEL_1
  6
CONTINUOUS
 62
     4
100
AcDbCircle
 10
0.15
 20
3.874596669241482
 30
0.0
 40
0.15
100
AcDbArc
 50
180.0
 51
245.6842608288233
  0
ARC
  5
59
330
A
100
AcDbEntity
  8
CK_LEVEL_1
  6
CONTINUOUS
 62
     4
100
AcDbCircle
 10
-0.2000000000000021
 20
3.1
 30
0.0
 40
0.7
100
AcDbArc
 50
34.94080643391919
 51
65.68426082882337
  0
ARC
  5
5A
330
A
100
AcDbEntity
  8
CK_LEVEL_1
  6
CONTINUOUS
 62
     4
100
AcDbCircle
 10
-0.2000000000000021
 20
3.1
 30
0.0
 40
0.7
100
AcDbArc
 50
294.3157391711766
 51
325.0591935660813
  0
ARC
  5
6F
330
A
100
AcDbEntity
  8
CK_LEVEL_1
  6
CONTINUOUS
 62
     4
100
AcDbCircle
 10
2.299999999999999
 20
-0.2
 30
0.0
 40
0.4
100
AcDbArc
 50
29.99999999999996
 51
150.0
  0
LINE
  5
70
330
A
100
AcDbEntity
  8
CK_LEVEL_1
  6
CONTINUOUS
 62
     4
100
AcDbLine
 10
1.953589838486224
 20
0.0
 30
0.0
 11
0.3999999999999999
 21
0.0
 31
0.0
  0
LINE
  5
71
330
A
100
AcDbEntity
  8
CK_LEVEL_1
  6
CONTINUOUS
 62
     4
100
AcDbLine
 10
0.0
 20
3.874596669241482
 30
0.0
 11
0.0
 21
4.5
 31
0.0
  0
LINE
  5
72
330
A
100
AcDbEntity
  8
CK_LEVEL_1
  6
CONTINUOUS
 62
     4
100
AcDbLine
 10
0.913073361412148
 20
3.39982666704489
 30
0.0
 11
0.483709193133855
 21
3.437391164293476
 31
0.0
  0
LINE
  5
73
330
A
100
AcDbEntity
  8
CK_LEVEL_1
  6
DASHED
 62
   252
100
AcDbLine
 10
4.999999999999997
 20
0.0
 30
0.0
 11
4.7
 21
0.3000000000000005
 31
0.0
  0
LINE
  5
74
330
A
100
AcDbEntity
  8
CK_LEVEL_1
  6
DASHED
 62
   252
100
AcDbLine
 10
2.182287565553228
 20
0.1822875655532294
 30
0.0
 11
2.299999999999999
 21
0.3000000000000005
 31
0.0
  0
LINE
  5
75
330
A
100
AcDbEntity
  8
CK_LEVEL_1
  6
DASHED
 62
   252
100
AcDbLine
 10
4.7
 20
0.3
 30
0.0
 11
2.299999999999999
 21
0.3
 31
0.0
  0
LINE
  5
76
330
A
100
AcDbEntity
  8
CK_LEVEL_1
  6
DASHED
 62
   252
100
AcDbLine
 10
5.599999999999999
 20
2.5
 30
0.0
 11
5.599999999999999
 21
4.5
 31
0.0
  0
LINE
  5
77
330
A
100
AcDbEntity
  8
CK_LEVEL_1
  6
DASHED
 62
   252
100
AcDbLine
 10
1.399999999999999
 20
2.5
 30
0.0
 11
1.399999999999999
 21
4.500000000000001
 31
0.0
  0
LINE
  5
78
330
A
100
AcDbEntity
  8
CK_LEVEL_1
  6
DASHED
 62
   252
100
AcDbLine
 10
4.7
 20
0.2999999999999996
 30
0.0
 11
4.7
 21
2.5
 31
0.0
  0
LINE
  5
79
330
A
100
AcDbEntity
  8
CK_LEVEL_1
  6
DASHED
 62
   252
100
AcDbLine
 10
2.299999999999999
 20
0.3
 30
0.0
 11
2.299999999999999
 21
2.5
 31
0.0
  0
LINE
  5
7A
330
A
100
AcDbEntity
  8
CK_LEVEL_1
  6
DASHED
 62
   252
100
AcDbLine
 10
5.599999999999999
 20
2.5
 30
0.0
 11
1.4
 21
2.5
 31
0.0
  0
LINE
  5
7F
330
A
100
AcDbEntity
  8
CK_LEVEL_1
  6
CONTINUOUS
 62
     4
100
AcDbLine
 10
0.0
 20
4.5
 30
0.0
 11
0.2999999999999998
 21
4.8
 31
0.0
  0
LINE
  5
80
330
A
100
AcDbEntity
  8
CK_LEVEL_1
  6
CONTINUOUS
 62
     4
100
AcDbLine
 10
7.0
 20
4.5
 30
0.0
 11
6.7
 21
4.8
 31
0.0
  0
LINE
  5
81
330
A
100
AcDbEntity
  8
CK_LEVEL_1
  6
CONTINUOUS
 62
     4
100
AcDbLine
 10
7.0
 20
0.3999999999999999
 30
0.0
 11
7.0
 21
2.31640590675584
 31
0.0
  0
LINE
  5
82
330
A
100
AcDbEntity
  8
CK_LEVEL_1
  6
CONTINUOUS
 62
     4
100
AcDbLine
 10
6.7
 20
4.8
 30
0.0
 11
0.2999999999999998
 21
4.8
 31
0.0
  0
LINE
  5
83
330
A
100
AcDbEntity
  8
CK_LEVEL_1
  6
CONTINUOUS
 62
     4
100
AcDbLine
 10
6.599999999999999
 20
0.0
 30
0.0
 11
2.646410161513775
 21
0.0
 31
0.0
  0
LINE
  5
84
330
A
100
AcDbEntity
  8
CK_LEVEL_1
  6
CONTINUOUS
 62
     4
100
AcDbLine
 10
0.0
 20
0.3999999999999999
 30
0.0
 11
0.0
 21
2.325403330758517
 31
0.0
  0
LINE
  5
85
330
A
100
AcDbEntity
  8
CK_LEVEL_1
  6
CONTINUOUS
 62
     4
100
AcDbLine
 10
7.0
 20
3.883594093244165
 30
0.0
 11
7.0
 21
4.5
 31
0.0
  0
LINE
  5
8A
330
A
100
AcDbEntity
  8
CK_LEVEL_1
  6
CONTINUOUS
 62
     4
100
AcDbLine
 10
1.049999999999999
 20
2.949602537668878
 30
0.0
 11
1.049999999999999
 21
3.250397462331128
 31
0.0
  0
LINE
  5
8B
330
A
100
AcDbEntity
  8
CK_LEVEL_1
  6
CONTINUOUS
 62
     4
100
AcDbLine
 10
0.9130733614121485
 20
2.800173332955116
 30
0.0
 11
0.4837091931338589
 21
2.76260883570653
 31
0.0
  0
ARC
  5
93
330
A
100
AcDbEntity
  8
CK_LEVEL_1
  6
CONTINUOUS
 62
     4
100
AcDbCircle
 10
0.9
 20
3.250397462331128
 30
0.0
 40
0.15
100
AcDbArc
 50
0.0
 51
85.00000000000015
  0
ARC
  5
94
330
A
100
AcDbEntity
  8
CK_LEVEL_1
  6
CONTINUOUS
 62
     4
100
AcDbCircle
 10
0.9
 20
2.949602537668878
 30
0.0
 40
0.15
100
AcDbArc
 50
274.9999999999998
 51
360.0
  0
LINE
  5
95
330
A
100
AcDbEntity
  8
CK_LEVEL_1
  6
CONTINUOUS
 62
     4
100
AcDbLine
 10
0.0
 20
0.3999999999999999
 30
0.0
 11
0.3999999999999999
 21
0.0
 31
0.0
  0
LINE
  5
96
330
A
100
AcDbEntity
  8
CK_LEVEL_1
  6
CONTINUOUS
 62
     4
100
AcDbLine
 10
7.0
 20
0.3999999999999999
 30
0.0
 11
6.599999999999999
 21
0.0
 31
0.0
  0
LINE
  5
9F
330
A
100
AcDbEntity
  8
CK_LEVEL_1
  6
CENTER
 62
   252
100
AcDbLine
 10
3.5
 20
-1.0
 30
0.0
 11
3.5
 21
5.343262714523547
 31
0.0
  0
LINE
  5
A0
330
A
100
AcDbEntity
  8
CK_LEVEL_1
  6
CONTINUOUS
 62
     4
100
AcDbLine
 10
22.0
 20
0.2999999999999998
 30
0.0
 11
22.0
 21
4.5
 31
0.0
  0
LINE
  5
A1
330
A
100
AcDbEntity
  8
CK_LEVEL_1
  6
CONTINUOUS
 62
     4
100
AcDbLine
 10
77.0
 20
0.2999999999999998
 30
0.0
 11
77.0
 21
4.5
 31
0.0
  0
LINE
  5
A2
330
A
100
AcDbEntity
  8
CK_LEVEL_1
  6
CONTINUOUS
 62
     4
100
AcDbLine
 10
76.7
 20
0.0
 30
0.0
 11
22.29999999999999
 21
0.0
 31
0.0
  0
LINE
  5
A3
330
A
100
AcDbEntity
  8
CK_LEVEL_1
  6
CONTINUOUS
 62
     4
100
AcDbLine
 10
77.0
 20
0.3999999999999999
 30
0.0
 11
22.0
 21
0.3999999999999999
 31
0.0
  0
LINE
  5
A4
330
A
100
AcDbEntity
  8
CK_LEVEL_1
  6
CONTINUOUS
 62
     4
100
AcDbLine
 10
76.7
 20
4.8
 30
0.0
 11
60.75
 21
4.8
 31
0.0
  0
LINE
  5
A5
330
A
100
AcDbEntity
  8
CK_LEVEL_1
  6
CENTER
 62
   252
100
AcDbLine
 10
27.0
 20
-0.5
 30
0.0
 11
27.0
 21
5.3
 31
0.0
  0
LINE
  5
B4
330
A
100
AcDbEntity
  8
CK_LEVEL_1
  6
CENTER
 62
   252
100
AcDbLine
 10
78.9877507108215
 20
33.5
 30
0.0
 11
20.01076857760966
 21
33.5
 31
0.0
  0
LINE
  5
B5
330
A
100
AcDbEntity
  8
CK_LEVEL_1
  6
CONTINUOUS
 62
     4
100
AcDbLine
 10
76.7
 20
37.0
 30
0.0
 11
60.75
 21
37.0
 31
0.0
  0
LINE
  5
B6
330
A
100
AcDbEntity
  8
CK_LEVEL_1
  6
CONTINUOUS
 62
     4
100
AcDbLine
 10
76.7
 20
30.0
 30
0.0
 11
60.75
 21
30.0
 31
0.0
  0
LINE
  5
B7
330
A
100
AcDbEntity
  8
CK_LEVEL_1
  6
CONTINUOUS
 62
     4
100
AcDbLine
 10
22.0
 20
36.7
 30
0.0
 11
22.0
 21
30.3
 31
0.0
  0
LINE
  5
B8
330
A
100
AcDbEntity
  8
CK_LEVEL_1
  6
CONTINUOUS
 62
     4
100
AcDbLine
 10
77.0
 20
36.7
 30
0.0
 11
77.0
 21
30.3
 31
0.0
  0
LINE
  5
C1
330
A
100
AcDbEntity
  8
CK_LEVEL_1
  6
CONTINUOUS
 62
     4
100
AcDbLine
 10
60.75
 20
4.8
 30
0.0
 11
22.29999999999999
 21
4.8
 31
0.0
  0
LINE
  5
C2
330
A
100
AcDbEntity
  8
CK_LEVEL_1
  6
CONTINUOUS
 62
     4
100
AcDbLine
 10
60.75
 20
37.0
 30
0.0
 11
22.29999999999999
 21
37.0
 31
0.0
  0
LINE
  5
C3
330
A
100
AcDbEntity
  8
CK_LEVEL_1
  6
CONTINUOUS
 62
     4
100
AcDbLine
 10
60.75
 20
30.0
 30
0.0
 11
22.29999999999999
 21
30.0
 31
0.0
  0
LINE
  5
C7
330
A
100
AcDbEntity
  8
CK_LEVEL_1
  6
DASHED
 62
   252
100
AcDbLine
 10
24.9
 20
2.5
 30
0.0
 11
24.9
 21
4.5
 31
0.0
  0
LINE
  5
C8
330
A
100
AcDbEntity
  8
CK_LEVEL_1
  6
DASHED
 62
   252
100
AcDbLine
 10
29.1
 20
2.5
 30
0.0
 11
24.9
 21
2.5
 31
0.0
  0
LINE
  5
C9
330
A
100
AcDbEntity
  8
CK_LEVEL_1
  6
DASHED
 62
   252
100
AcDbLine
 10
29.1
 20
2.5
 30
0.0
 11
29.1
 21
4.5
 31
0.0
  0
LINE
  5
CA
330
A
100
AcDbEntity
  8
CK_LEVEL_1
  6
DASHED
 62
   252
100
AcDbLine
 10
28.2
 20
0.2999999999999996
 30
0.0
 11
28.2
 21
2.5
 31
0.0
  0
LINE
  5
CB
330
A
100
AcDbEntity
  8
CK_LEVEL_1
  6
DASHED
 62
   252
100
AcDbLine
 10
25.8
 20
0.3
 30
0.0
 11
25.8
 21
2.5
 31
0.0
  0
LINE
  5
CC
330
A
100
AcDbEntity
  8
CK_LEVEL_1
  6
DASHED
 62
   252
100
AcDbLine
 10
28.2
 20
0.3
 30
0.0
 11
25.8
 21
0.3
 31
0.0
  0
LINE
  5
CD
330
A
100
AcDbEntity
  8
CK_LEVEL_1
  6
DASHED
 62
   252
100
AcDbLine
 10
25.5
 20
0.0
 30
0.0
 11
25.8
 21
0.3000000000000005
 31
0.0
  0
LINE
  5
CE
330
A
100
AcDbEntity
  8
CK_LEVEL_1
  6
DASHED
 62
   252
100
AcDbLine
 10
28.49999999999999
 20
0.0
 30
0.0
 11
28.2
 21
0.3000000000000005
 31
0.0
  0
LINE
  5
CF
330
A
100
AcDbEntity
  8
CK_LEVEL_1
  6
CENTER
 62
   252
100
AcDbLine
 10
27.0
 20
30.65652567099285
 30
0.0
 11
27.0
 21
36.33871162427634
 31
0.0
  0
LINE
  5
D0
330
A
100
AcDbEntity
  8
CK_LEVEL_1
  6
CENTER
 62
   252
100
AcDbLine
 10
72.0
 20
30.65652567099285
 30
0.0
 11
72.0
 21
36.33871162427634
 31
0.0
  0
CIRCLE
  5
D1
330
A
100
AcDbEntity
  8
CK_LEVEL_1
  6
CONTINUOUS
 62
     4
100
AcDbCircle
 10
27.0
 20
33.5
 30
0.0
 40
2.1
  0
CIRCLE
  5
D2
330
A
100
AcDbEntity
  8
CK_LEVEL_1
  6
CONTINUOUS
 62
     4
100
AcDbCircle
 10
27.0
 20
33.5
 30
0.0
 40
1.199999999999999
  0
LINE
  5
128
330
A
100
AcDbEntity
  8
CK_LEVEL_1
  6
CENTER
 62
   252
100
AcDbLine
 10
42.0
 20
-0.5
 30
0.0
 11
42.0
 21
5.3
 31
0.0
  0
LINE
  5
129
330
A
100
AcDbEntity
  8
CK_LEVEL_1
  6
DASHED
 62
   252
100
AcDbLine
 10
43.2
 20
0.2999999999999998
 30
0.0
 11
40.8
 21
0.2999999999999998
 31
0.0
  0
LINE
  5
12A
330
A
100
AcDbEntity
  8
CK_LEVEL_1
  6
DASHED
 62
   252
100
AcDbLine
 10
44.1
 20
2.5
 30
0.0
 11
39.9
 21
2.5
 31
0.0
  0
LINE
  5
12B
330
A
100
AcDbEntity
  8
CK_LEVEL_1
  6
DASHED
 62
   252
100
AcDbLine
 10
44.1
 20
4.5
 30
0.0
 11
39.9
 21
4.5
 31
0.0
  0
LINE
  5
12C
330
A
100
AcDbEntity
  8
CK_LEVEL_1
  6
DASHED
 62
   252
100
AcDbLine
 10
40.8
 20
0.2999999999999998
 30
0.0
 11
40.8
 21
2.5
 31
0.0
  0
LINE
  5
12D
330
A
100
AcDbEntity
  8
CK_LEVEL_1
  6
DASHED
 62
   252
100
AcDbLine
 10
40.49999999999999
 20
0.0
 30
0.0
 11
40.8
 21
0.3000000000000007
 31
0.0
  0
LINE
  5
12E
330
A
100
AcDbEntity
  8
CK_LEVEL_1
  6
DASHED
 62
   252
100
AcDbLine
 10
39.9
 20
2.5
 30
0.0
 11
39.9
 21
4.5
 31
0.0
  0
LINE
  5
12F
330
A
100
AcDbEntity
  8
CK_LEVEL_1
  6
DASHED
 62
   252
100
AcDbLine
 10
39.6
 20
4.8
 30
0.0
 11
39.9
 21
4.5
 31
0.0
  0
LINE
  5
130
330
A
100
AcDbEntity
  8
CK_LEVEL_1
  6
DASHED
 62
   252
100
AcDbLine
 10
43.2
 20
0.2999999999999998
 30
0.0
 11
43.2
 21
2.5
 31
0.0
  0
LINE
  5
131
330
A
100
AcDbEntity
  8
CK_LEVEL_1
  6
DASHED
 62
   252
100
AcDbLine
 10
43.5
 20
0.0
 30
0.0
 11
43.2
 21
0.3000000000000007
 31
0.0
  0
LINE
  5
132
330
A
100
AcDbEntity
  8
CK_LEVEL_1
  6
DASHED
 62
   252
100
AcDbLine
 10
44.1
 20
2.5
 30
0.0
 11
44.1
 21
4.5
 31
0.0
  0
LINE
  5
133
330
A
100
AcDbEntity
  8
CK_LEVEL_1
  6
DASHED
 62
   252
100
AcDbLine
 10
44.4
 20
4.8
 30
0.0
 11
44.1
 21
4.5
 31
0.0
  0
LINE
  5
145
330
A
100
AcDbEntity
  8
CK_LEVEL_1
  6
CENTER
 62
   252
100
AcDbLine
 10
57.0
 20
-0.5
 30
0.0
 11
57.0
 21
5.3
 31
0.0
  0
LINE
  5
146
330
A
100
AcDbEntity
  8
CK_LEVEL_1
  6
DASHED
 62
   252
100
AcDbLine
 10
58.2
 20
0.2999999999999998
 30
0.0
 11
55.8
 21
0.2999999999999998
 31
0.0
  0
LINE
  5
147
330
A
100
AcDbEntity
  8
CK_LEVEL_1
  6
DASHED
 62
   252
100
AcDbLine
 10
59.1
 20
2.5
 30
0.0
 11
54.9
 21
2.5
 31
0.0
  0
LINE
  5
148
330
A
100
AcDbEntity
  8
CK_LEVEL_1
  6
DASHED
 62
   252
100
AcDbLine
 10
59.1
 20
4.5
 30
0.0
 11
54.9
 21
4.5
 31
0.0
  0
LINE
  5
149
330
A
100
AcDbEntity
  8
CK_LEVEL_1
  6
DASHED
 62
   252
100
AcDbLine
 10
55.8
 20
0.2999999999999998
 30
0.0
 11
55.8
 21
2.5
 31
0.0
  0
LINE
  5
14A
330
A
100
AcDbEntity
  8
CK_LEVEL_1
  6
DASHED
 62
   252
100
AcDbLine
 10
55.5
 20
0.0
 30
0.0
 11
55.8
 21
0.3000000000000007
 31
0.0
  0
LINE
  5
14B
330
A
100
AcDbEntity
  8
CK_LEVEL_1
  6
DASHED
 62
   252
100
AcDbLine
 10
54.9
 20
2.5
 30
0.0
 11
54.9
 21
4.5
 31
0.0
  0
LINE
  5
14C
330
A
100
AcDbEntity
  8
CK_LEVEL_1
  6
DASHED
 62
   252
100
AcDbLine
 10
54.6
 20
4.8
 30
0.0
 11
54.9
 21
4.5
 31
0.0
  0
LINE
  5
14D
330
A
100
AcDbEntity
  8
CK_LEVEL_1
  6
DASHED
 62
   252
100
AcDbLine
 10
58.2
 20
0.2999999999999998
 30
0.0
 11
58.2
 21
2.5
 31
0.0
  0
LINE
  5
14E
330
A
100
AcDbEntity
  8
CK_LEVEL_1
  6
DASHED
 62
   252
100
AcDbLine
 10
58.5
 20
0.0
 30
0.0
 11
58.2
 21
0.3000000000000007
 31
0.0
  0
LINE
  5
14F
330
A
100
AcDbEntity
  8
CK_LEVEL_1
  6
DASHED
 62
   252
100
AcDbLine
 10
59.1
 20
2.5
 30
0.0
 11
59.1
 21
4.5
 31
0.0
  0
LINE
  5
150
330
A
100
AcDbEntity
  8
CK_LEVEL_1
  6
DASHED
 62
   252
100
AcDbLine
 10
59.4
 20
4.8
 30
0.0
 11
59.1
 21
4.5
 31
0.0
  0
LINE
  5
162
330
A
100
AcDbEntity
  8
CK_LEVEL_1
  6
CENTER
 62
   252
100
AcDbLine
 10
72.0
 20
-0.5
 30
0.0
 11
72.0
 21
5.3
 31
0.0
  0
LINE
  5
163
330
A
100
AcDbEntity
  8
CK_LEVEL_1
  6
DASHED
 62
   252
100
AcDbLine
 10
73.2
 20
0.3000000000000007
 30
0.0
 11
70.8
 21
0.3000000000000007
 31
0.0
  0
LINE
  5
164
330
A
100
AcDbEntity
  8
CK_LEVEL_1
  6
DASHED
 62
   252
100
AcDbLine
 10
74.1
 20
2.5
 30
0.0
 11
69.90000000000001
 21
2.5
 31
0.0
  0
LINE
  5
165
330
A
100
AcDbEntity
  8
CK_LEVEL_1
  6
DASHED
 62
   252
100
AcDbLine
 10
74.1
 20
4.5
 30
0.0
 11
69.90000000000001
 21
4.5
 31
0.0
  0
LINE
  5
166
330
A
100
AcDbEntity
  8
CK_LEVEL_1
  6
DASHED
 62
   252
100
AcDbLine
 10
70.8
 20
0.3000000000000007
 30
0.0
 11
70.8
 21
2.5
 31
0.0
  0
LINE
  5
167
330
A
100
AcDbEntity
  8
CK_LEVEL_1
  6
DASHED
 62
   252
100
AcDbLine
 10
70.5
 20
0.0
 30
0.0
 11
70.8
 21
0.3000000000000007
 31
0.0
  0
LINE
  5
168
330
A
100
AcDbEntity
  8
CK_LEVEL_1
  6
DASHED
 62
   252
100
AcDbLine
 10
69.90000000000001
 20
2.5
 30
0.0
 11
69.90000000000001
 21
4.5
 31
0.0
  0
LINE
  5
169
330
A
100
AcDbEntity
  8
CK_LEVEL_1
  6
DASHED
 62
   252
100
AcDbLine
 10
69.59999999999999
 20
4.8
 30
0.0
 11
69.90000000000001
 21
4.5
 31
0.0
  0
LINE
  5
16A
330
A
100
AcDbEntity
  8
CK_LEVEL_1
  6
DASHED
 62
   252
100
AcDbLine
 10
73.2
 20
0.2999999999999989
 30
0.0
 11
73.2
 21
2.5
 31
0.0
  0
LINE
  5
16B
330
A
100
AcDbEntity
  8
CK_LEVEL_1
  6
DASHED
 62
   252
100
AcDbLine
 10
73.5
 20
0.0
 30
0.0
 11
73.2
 21
0.3000000000000007
 31
0.0
  0
LINE
  5
16C
330
A
100
AcDbEntity
  8
CK_LEVEL_1
  6
DASHED
 62
   252
100
AcDbLine
 10
74.1
 20
2.5
 30
0.0
 11
74.1
 21
4.5
 31
0.0
  0
LINE
  5
16D
330
A
100
AcDbEntity
  8
CK_LEVEL_1
  6
DASHED
 62
   252
100
AcDbLine
 10
74.40000000000001
 20
4.8
 30
0.0
 11
74.1
 21
4.5
 31
0.0
  0
CIRCLE
  5
177
330
A
100
AcDbEntity
  8
CK_LEVEL_1
  6
CONTINUOUS
 62
     4
100
AcDbCircle
 10
42.0
 20
33.5
 30
0.0
 40
1.199999999999999
  0
CIRCLE
  5
178
330
A
100
AcDbEntity
  8
CK_LEVEL_1
  6
CONTINUOUS
 62
     4
100
AcDbCircle
 10
42.0
 20
33.5
 30
0.0
 40
2.1
  0
LINE
  5
179
330
A
100
AcDbEntity
  8
CK_LEVEL_1
  6
CENTER
 62
   252
100
AcDbLine
 10
42.0
 20
30.65652567099285
 30
0.0
 11
42.0
 21
36.33871162427634
 31
0.0
  0
CIRCLE
  5
181
330
A
100
AcDbEntity
  8
CK_LEVEL_1
  6
CONTINUOUS
 62
     4
100
AcDbCircle
 10
57.0
 20
33.5
 30
0.0
 40
1.199999999999999
  0
CIRCLE
  5
182
330
A
100
AcDbEntity
  8
CK_LEVEL_1
  6
CONTINUOUS
 62
     4
100
AcDbCircle
 10
57.0
 20
33.5
 30
0.0
 40
2.1
  0
LINE
  5
183
330
A
100
AcDbEntity
  8
CK_LEVEL_1
  6
CENTER
 62
   252
100
AcDbLine
 10
57.0
 20
30.65652567099285
 30
0.0
 11
57.0
 21
36.33871162427634
 31
0.0
  0
CIRCLE
  5
18B
330
A
100
AcDbEntity
  8
CK_LEVEL_1
  6
CONTINUOUS
 62
     4
100
AcDbCircle
 10
72.0
 20
33.5
 30
0.0
 40
1.199999999999999
  0
CIRCLE
  5
18C
330
A
100
AcDbEntity
  8
CK_LEVEL_1
  6
CONTINUOUS
 62
     4
100
AcDbCircle
 10
72.0
 20
33.5
 30
0.0
 40
2.1
  0
LINE
  5
18D
330
A
100
AcDbEntity
  8
CK_LEVEL_1
  6
CENTER
 62
   252
100
AcDbLine
 10
72.0
 20
30.65652567099285
 30
0.0
 11
72.0
 21
36.33871162427634
 31
0.0
  0
ENDSEC
  0
SECTION
  2
OBJECTS
  0
DICTIONARY
  5
19
330
0
100
AcDbDictionary
  3
ACAD_GROUP
350
1A
  3
ACAD_LAYOUT
350
EB
  3
ACAD_MLINESTYLE
350
1B
  3
ACAD_PLOTSETTINGS
350
EC
  3
ACAD_PLOTSTYLENAME
350
E9
  3
ACDBHEADERROUNDTRIPXREC
350
194
  0
DICTIONARY
  5
1B4
330
A
100
AcDbDictionary
280
     1
  3
ACAD_LAYOUTSELFREF
360
1B5
  0
DICTIONARY
  5
1B6
330
B
100
AcDbDictionary
280
     1
  3
ACAD_LAYOUTSELFREF
360
1B7
  0
DICTIONARY
  5
1A
102
{ACAD_REACTORS
330
19
102
}
330
19
100
AcDbDictionary
  0
DICTIONARY
  5
EB
102
{ACAD_REACTORS
330
19
102
}
330
19
100
AcDbDictionary
  0
DICTIONARY
  5
1B
102
{ACAD_REACTORS
330
19
102
}
330
19
100
AcDbDictionary
  3
STANDARD
350
1C
  0
DICTIONARY
  5
EC
102
{ACAD_REACTORS
330
19
102
}
330
19
100
AcDbDictionary
  0
ACDBDICTIONARYWDFLT
  5
E9
102
{ACAD_REACTORS
330
19
102
}
330
19
100
AcDbDictionary
281
     1
  3
Normal
350
EA
100
AcDbDictionaryWithDefault
340
EA
  0
DICTIONARY
  5
194
102
{ACAD_REACTORS
330
19
102
}
330
19
100
AcDbDictionary
  3
CEPSNTYPE
350
19E
  3
FINGERPRINTGUID
350
19F
  3
HYPERLINKBASE
350
197
  3
INSUNITS
350
19D
  3
LAYOUTDICT
350
199
  3
LWETCUNION
350
19C
  3
PLOTSETDICT
350
19A
  3
PLOTSTYLNAMDICT
350
19B
  3
PSVPSCALE
350
1A1
  3
PUCSBASE
350
1A4
  3
PUCSORGBACK
350
1AA
  3
PUCSORGBOTTOM
350
1A6
  3
PUCSORGFRONT
350
1A9
  3
PUCSORGLEFT
350
1A7
  3
PUCSORGRIGHT
350
1A8
  3
PUCSORGTOP
350
1A5
  3
PUCSORTHOREF
350
1A2
  3
PUCSORTHOVIEW
350
1A3
  3
STYLESHEET
350
198
  3
TSTACKALIGN
350
195
  3
TSTACKSIZE
350
196
  3
UCSBASE
350
1AD
  3
UCSORGBACK
350
1B3
  3
UCSORGBOTTOM
350
1AF
  3
UCSORGFRONT
350
1B2
  3
UCSORGLEFT
350
1B0
  3
UCSORGRIGHT
350
1B1
  3
UCSORGTOP
350
1AE
  3
UCSORTHOREF
350
1AB
  3
UCSORTHOVIEW
350
1AC
  3
VERSIONGUID
350
1A0
  0
XRECORD
  5
1B5
102
{ACAD_REACTORS
330
1B4
102
}
330
1B4
100
AcDbXrecord
340
A
  0
XRECORD
  5
1B7
102
{ACAD_REACTORS
330
1B6
102
}
330
1B6
100
AcDbXrecord
340
B
  0
MLINESTYLE
  5
1C
102
{ACAD_REACTORS
330
1B
102
}
330
1B
100
AcDbMlineStyle
  2
STANDARD
 70
     0
  3

 62
     0
 51
90.00000000000019
 52
90.00000000000019
 71
     2
 49
0.5
 62
   256
  6
BYLAYER
 49
-0.5
 62
   256
  6
BYLAYER
  0
ACDBPLACEHOLDER
  5
EA
102
{ACAD_REACTORS
330
E9
102
}
330
E9
100
AcDbPlaceHolder
280
     0
  0
XRECORD
  5
19E
102
{ACAD_REACTORS
330
194
102
}
330
194
100
AcDbXrecord
 90
        0
  0
XRECORD
  5
19F
102
{ACAD_REACTORS
330
194
102
}
330
194
100
AcDbXrecord
  1
{63FD5C70-26AB-11D6-8687-00A024540C4A}
  0
XRECORD
  5
197
102
{ACAD_REACTORS
330
194
102
}
330
194
100
AcDbXrecord
  1

  0
XRECORD
  5
19D
102
{ACAD_REACTORS
330
194
102
}
330
194
100
AcDbXrecord
 90
        0
  0
XRECORD
  5
199
102
{ACAD_REACTORS
330
194
102
}
330
194
100
AcDbXrecord
340
EB
  0
XRECORD
  5
19C
102
{ACAD_REACTORS
330
194
102
}
330
194
100
AcDbXrecord
 90
    14877
  0
XRECORD
  5
19A
102
{ACAD_REACTORS
330
194
102
}
330
194
100
AcDbXrecord
340
EC
  0
XRECORD
  5
19B
102
{ACAD_REACTORS
330
194
102
}
330
194
100
AcDbXrecord
340
E9
  0
XRECORD
  5
1A1
102
{ACAD_REACTORS
330
194
102
}
330
194
100
AcDbXrecord
 40
0.0
  0
XRECORD
  5
1A4
102
{ACAD_REACTORS
330
194
102
}
330
194
100
AcDbXrecord
340
0
  0
XRECORD
  5
1AA
102
{ACAD_REACTORS
330
194
102
}
330
194
100
AcDbXrecord
 10
0.0
 20
0.0
 30
0.0
  0
XRECORD
  5
1A6
102
{ACAD_REACTORS
330
194
102
}
330
194
100
AcDbXrecord
 10
0.0
 20
0.0
 30
0.0
  0
XRECORD
  5
1A9
102
{ACAD_REACTORS
330
194
102
}
330
194
100
AcDbXrecord
 10
0.0
 20
0.0
 30
0.0
  0
XRECORD
  5
1A7
102
{ACAD_REACTORS
330
194
102
}
330
194
100
AcDbXrecord
 10
0.0
 20
0.0
 30
0.0
  0
XRECORD
  5
1A8
102
{ACAD_REACTORS
330
194
102
}
330
194
100
AcDbXrecord
 10
0.0
 20
0.0
 30
0.0
  0
XRECORD
  5
1A5
102
{ACAD_REACTORS
330
194
102
}
330
194
100
AcDbXrecord
 10
0.0
 20
0.0
 30
0.0
  0
XRECORD
  5
1A2
102
{ACAD_REACTORS
330
194
102
}
330
194
100
AcDbXrecord
340
0
  0
XRECORD
  5
1A3
102
{ACAD_REACTORS
330
194
102
}
330
194
100
AcDbXrecord
 70
     0
  0
XRECORD
  5
198
102
{ACAD_REACTORS
330
194
102
}
330
194
100
AcDbXrecord
  1

  0
XRECORD
  5
195
102
{ACAD_REACTORS
330
194
102
}
330
194
100
AcDbXrecord
 90
        1
  0
XRECORD
  5
196
102
{ACAD_REACTORS
330
194
102
}
330
194
100
AcDbXrecord
 90
       70
  0
XRECORD
  5
1AD
102
{ACAD_REACTORS
330
194
102
}
330
194
100
AcDbXrecord
340
0
  0
XRECORD
  5
1B3
102
{ACAD_REACTORS
330
194
102
}
330
194
100
AcDbXrecord
 10
0.0
 20
0.0
 30
0.0
  0
XRECORD
  5
1AF
102
{ACAD_REACTORS
330
194
102
}
330
194
100
AcDbXrecord
 10
0.0
 20
0.0
 30
0.0
  0
XRECORD
  5
1B2
102
{ACAD_REACTORS
330
194
102
}
330
194
100
AcDbXrecord
 10
0.0
 20
0.0
 30
0.0
  0
XRECORD
  5
1B0
102
{ACAD_REACTORS
330
194
102
}
330
194
100
AcDbXrecord
 10
0.0
 20
0.0
 30
0.0
  0
XRECORD
  5
1B1
102
{ACAD_REACTORS
330
194
102
}
330
194
100
AcDbXrecord
 10
0.0
 20
0.0
 30
0.0
  0
XRECORD
  5
1AE
102
{ACAD_REACTORS
330
194
102
}
330
194
100
AcDbXrecord
 10
0.0
 20
0.0
 30
0.0
  0
XRECORD
  5
1AB
102
{ACAD_REACTORS
330
194
102
}
330
194
100
AcDbXrecord
340
0
  0
XRECORD
  5
1AC
102
{ACAD_REACTORS
330
194
102
}
330
194
100
AcDbXrecord
 70
     0
  0
XRECORD
  5
1A0
102
{ACAD_REACTORS
330
194
102
}
330
194
100
AcDbXrecord
  1
{0BF3F7DE-7EAB-11D6-86EA-00A024540C4A}
  0
ENDSEC
  0
EOF
