  0
SECTION
  2
HEADER
  9
$ACADVER
  1
AC1015
  9
$ACADMAINTVER
 70
    10
  9
$DWGCODEPAGE
  3
ANSI_1252
  9
$INSBASE
 10
0.0
 20
0.0
 30
0.0
  9
$EXTMIN
 10
-73.89952451186211
 20
116.888108523253
 30
-0.0005000000000308
  9
$EXTMAX
 10
46.10047548813794
 20
174.4461402941378
 30
0.0000000000000142
  9
$LIMMIN
 10
0.0
 20
0.0
  9
$LIMMAX
 10
0.0
 20
0.0
  9
$ORTHOMODE
 70
     0
  9
$REGENMODE
 70
     1
  9
$FILLMODE
 70
     1
  9
$QTEXTMODE
 70
     0
  9
$MIRRTEXT
 70
     1
  9
$LTSCALE
 40
1.0
  9
$ATTMODE
 70
     1
  9
$TEXTSIZE
 40
0.0
  9
$TRACEWID
 40
0.05
  9
$TEXTSTYLE
  7
STANDARD
  9
$CLAYER
  8
0
  9
$CELTYPE
  6
CONTINUOUS
  9
$CECOLOR
 62
    15
  9
$CELTSCALE
 40
1.0
  9
$DISPSILH
 70
     0
  9
$DIMSCALE
 40
1.0
  9
$DIMASZ
 40
0.18
  9
$DIMEXO
 40
0.0625
  9
$DIMDLI
 40
0.38
  9
$DIMRND
 40
0.0
  9
$DIMDLE
 40
0.0
  9
$DIMEXE
 40
0.25
  9
$DIMTP
 40
0.05
  9
$DIMTM
 40
-0.05
  9
$DIMTXT
 40
2.5
  9
$DIMCEN
 40
0.09
  9
$DIMTSZ
 40
0.0
  9
$DIMTOL
 70
     0
  9
$DIMLIM
 70
     0
  9
$DIMTIH
 70
     1
  9
$DIMTOH
 70
     1
  9
$DIMSE1
 70
     0
  9
$DIMSE2
 70
     0
  9
$DIMTAD
 70
     0
  9
$DIMZIN
 70
     0
  9
$DIMBLK
  1

  9
$DIMASO
 70
     1
  9
$DIMSHO
 70
     1
  9
$DIMPOST
  1

  9
$DIMAPOST
  1

  9
$DIMALT
 70
     0
  9
$DIMALTD
 70
     2
  9
$DIMALTF
 40
25.4
  9
$DIMLFAC
 40
1.0
  9
$DIMTOFL
 70
     0
  9
$DIMTVP
 40
0.0
  9
$DIMTIX
 70
     0
  9
$DIMSOXD
 70
     0
  9
$DIMSAH
 70
     0
  9
$DIMBLK1
  1

  9
$DIMBLK2
  1

  9
$DIMSTYLE
  2
STANDARD
  9
$DIMCLRD
 70
     0
  9
$DIMCLRE
 70
     0
  9
$DIMCLRT
 70
    15
  9
$DIMTFAC
 40
0.7000000000000001
  9
$DIMGAP
 40
0.09
  9
$DIMJUST
 70
     0
  9
$DIMSD1
 70
     0
  9
$DIMSD2
 70
     0
  9
$DIMTOLJ
 70
     1
  9
$DIMTZIN
 70
     0
  9
$DIMALTZ
 70
     0
  9
$DIMALTTZ
 70
     0
  9
$DIMUPT
 70
     0
  9
$DIMDEC
 70
     4
  9
$DIMTDEC
 70
     4
  9
$DIMALTU
 70
     2
  9
$DIMALTTD
 70
     2
  9
$DIMTXSTY
  7
STANDARD
  9
$DIMAUNIT
 70
     0
  9
$DIMADEC
 70
     0
  9
$DIMALTRND
 40
0.0
  9
$DIMAZIN
 70
     0
  9
$DIMDSEP
 70
    46
  9
$DIMATFIT
 70
     3
  9
$DIMFRAC
 70
     0
  9
$DIMLDRBLK
  1

  9
$DIMLUNIT
 70
     2
  9
$DIMLWD
 70
    -2
  9
$DIMLWE
 70
    -2
  9
$DIMTMOVE
 70
     0
  9
$LUNITS
 70
     2
  9
$LUPREC
 70
    10
  9
$SKETCHINC
 40
0.1
  9
$FILLETRAD
 40
0.0
  9
$AUNITS
 70
     0
  9
$AUPREC
 70
     0
  9
$MENU
  1
acad
  9
$ELEVATION
 40
0.0
  9
$PELEVATION
 40
0.0
  9
$THICKNESS
 40
0.0
  9
$LIMCHECK
 70
     0
  9
$CHAMFERA
 40
0.0
  9
$CHAMFERB
 40
0.0
  9
$CHAMFERC
 40
0.0
  9
$CHAMFERD
 40
0.0
  9
$SKPOLY
 70
     0
  9
$TDCREATE
 40
2444972.041666666
  9
$TDUCREATE
 40
2444972.000000000
  9
$TDUPDATE
 40
2452327.407997395
  9
$TDUUPDATE
 40
2452327.366330729
  9
$TDINDWG
 40
0.0006080556
  9
$TDUSRTIMER
 40
0.0006080556
  9
$USRTIMER
 70
     1
  9
$ANGBASE
 50
0.0
  9
$ANGDIR
 70
     0
  9
$PDMODE
 70
     2
  9
$PDSIZE
 40
0.0
  9
$PLINEWID
 40
0.0
  9
$SPLFRAME
 70
     0
  9
$SPLINETYPE
 70
     6
  9
$SPLINESEGS
 70
     8
  9
$HANDSEED
  5
148
  9
$SURFTAB1
 70
     6
  9
$SURFTAB2
 70
     6
  9
$SURFTYPE
 70
     6
  9
$SURFU
 70
     6
  9
$SURFV
 70
     6
  9
$UCSBASE
  2

  9
$UCSNAME
  2

  9
$UCSORG
 10
0.0
 20
0.0
 30
0.0
  9
$UCSXDIR
 10
1.0
 20
0.0
 30
0.0
  9
$UCSYDIR
 10
0.0
 20
1.0
 30
0.0
  9
$UCSORTHOREF
  2

  9
$UCSORTHOVIEW
 70
     0
  9
$UCSORGTOP
 10
0.0
 20
0.0
 30
0.0
  9
$UCSORGBOTTOM
 10
0.0
 20
0.0
 30
0.0
  9
$UCSORGLEFT
 10
0.0
 20
0.0
 30
0.0
  9
$UCSORGRIGHT
 10
0.0
 20
0.0
 30
0.0
  9
$UCSORGFRONT
 10
0.0
 20
0.0
 30
0.0
  9
$UCSORGBACK
 10
0.0
 20
0.0
 30
0.0
  9
$PUCSBASE
  2

  9
$PUCSNAME
  2

  9
$PUCSORG
 10
0.0
 20
0.0
 30
0.0
  9
$PUCSXDIR
 10
1.0
 20
0.0
 30
0.0
  9
$PUCSYDIR
 10
0.0
 20
1.0
 30
0.0
  9
$PUCSORTHOREF
  2

  9
$PUCSORTHOVIEW
 70
     0
  9
$PUCSORGTOP
 10
0.0
 20
0.0
 30
0.0
  9
$PUCSORGBOTTOM
 10
0.0
 20
0.0
 30
0.0
  9
$PUCSORGLEFT
 10
0.0
 20
0.0
 30
0.0
  9
$PUCSORGRIGHT
 10
0.0
 20
0.0
 30
0.0
  9
$PUCSORGFRONT
 10
0.0
 20
0.0
 30
0.0
  9
$PUCSORGBACK
 10
0.0
 20
0.0
 30
0.0
  9
$USERI1
 70
     0
  9
$USERI2
 70
     0
  9
$USERI3
 70
     0
  9
$USERI4
 70
     0
  9
$USERI5
 70
     0
  9
$USERR1
 40
0.0
  9
$USERR2
 40
0.0
  9
$USERR3
 40
0.0
  9
$USERR4
 40
0.0
  9
$USERR5
 40
0.0
  9
$WORLDVIEW
 70
     1
  9
$SHADEDGE
 70
     3
  9
$SHADEDIF
 70
    70
  9
$TILEMODE
 70
     1
  9
$MAXACTVP
 70
    16
  9
$PINSBASE
 10
0.0
 20
0.0
 30
0.0
  9
$PLIMCHECK
 70
     0
  9
$PEXTMIN
 10
1.000000000000000E+20
 20
1.000000000000000E+20
 30
1.000000000000000E+20
  9
$PEXTMAX
 10
-1.000000000000000E+20
 20
-1.000000000000000E+20
 30
-1.000000000000000E+20
  9
$PLIMMIN
 10
0.0
 20
0.0
  9
$PLIMMAX
 10
12.0
 20
9.0
  9
$UNITMODE
 70
     0
  9
$VISRETAIN
 70
     0
  9
$PLINEGEN
 70
     1
  9
$PSLTSCALE
 70
     0
  9
$TREEDEPTH
 70
  3020
  9
$CMLSTYLE
  2
STANDARD
  9
$CMLJUST
 70
     0
  9
$CMLSCALE
 40
1.0
  9
$PROXYGRAPHICS
 70
     1
  9
$MEASUREMENT
 70
     0
  9
$CELWEIGHT
370
    -1
  9
$ENDCAPS
280
     0
  9
$JOINSTYLE
280
     0
  9
$LWDISPLAY
290
     0
  9
$INSUNITS
 70
     0
  9
$HYPERLINKBASE
  1

  9
$STYLESHEET
  1

  9
$XEDIT
290
     1
  9
$CEPSNTYPE
380
     0
  9
$PSTYLEMODE
290
     1
  9
$FINGERPRINTGUID
  2
{2F04B08E-26A7-11D6-8687-00A024540C4A}
  9
$VERSIONGUID
  2
{2F04B093-26A7-11D6-8687-00A024540C4A}
  9
$EXTNAMES
290
     1
  9
$PSVPSCALE
 40
0.0
  9
$OLESTARTUP
290
     0
  0
ENDSEC
  0
SECTION
  2
CLASSES
  0
CLASS
  1
LWPOLYLINE
  2
AcDbPolyline
  3
AutoCAD 2000
 90
    32768
280
     0
281
     1
  0
CLASS
  1
IMAGE
  2
AcDbRasterImage
  3
ISM
 90
    32895
280
     0
281
     1
  0
CLASS
  1
OLE2FRAME
  2
AcDbOle2Frame
  3
AutoCAD 2000
 90
    32768
280
     0
281
     1
  0
CLASS
  1
HATCH
  2
AcDbHatch
  3
AutoCAD 2000
 90
    32768
280
     0
281
     1
  0
CLASS
  1
DICTIONARYVAR
  2
AcDbDictionaryVar
  3
AutoCAD 2000
 90
    32768
280
     0
281
     0
  0
CLASS
  1
RASTERVARIABLES
  2
AcDbRasterVariables
  3
ISM
 90
    32768
280
     0
281
     0
  0
CLASS
  1
IMAGEDEF
  2
AcDbRasterImageDef
  3
ISM
 90
    32768
280
     0
281
     0
  0
CLASS
  1
IMAGEDEF_REACTOR
  2
AcDbRasterImageDefReactor
  3
ISM
 90
    32769
280
     0
281
     0
  0
CLASS
  1
IDBUFFER
  2
AcDbIdBuffer
  3
AutoCAD 2000
 90
    32768
280
     0
281
     0
  0
CLASS
  1
SPATIAL_FILTER
  2
AcDbSpatialFilter
  3
AutoCAD 2000
 90
    32768
280
     0
281
     0
  0
CLASS
  1
XRECORD
  2
AcDbXrecord
  3
AutoCAD 2000
 90
    32768
280
     0
281
     0
  0
CLASS
  1
SORTENTSTABLE
  2
AcDbSortentsTable
  3
AutoCAD 2000
 90
    32768
280
     0
281
     0
  0
CLASS
  1
LAYER_INDEX
  2
AcDbLayerIndex
  3
AutoCAD 2000
 90
    32768
280
     0
281
     0
  0
CLASS
  1
SPATIAL_INDEX
  2
AcDbSpatialIndex
  3
AutoCAD 2000
 90
    32768
280
     0
281
     0
  0
CLASS
  1
OBJECT_PTR
  2
CAseDLPNTableRecord
  3
"ASE-LPNTableRecord"
 90
    32768
280
     0
281
     0
  0
CLASS
  1
ACDBDICTIONARYWDFLT
  2
AcDbDictionaryWithDefault
  3
AutoCAD 2000
 90
        0
280
     0
281
     0
  0
CLASS
  1
ACDBPLACEHOLDER
  2
AcDbPlaceHolder
  3
AutoCAD 2000
 90
        0
280
     0
281
     0
  0
CLASS
  1
LAYOUT
  2
AcDbLayout
  3
AutoCAD 2000
 90
        0
280
     0
281
     0
  0
ENDSEC
  0
SECTION
  2
TABLES
  0
TABLE
  2
VPORT
  5
7
330
0
100
AcDbSymbolTable
 70
     2
  0
VPORT
  5
147
330
7
100
AcDbSymbolTableRecord
100
AcDbViewportTableRecord
  2
*Active
 70
     0
 10
0.0
 20
0.0
 11
1.0
 21
1.0
 12
-2.542068642984006
 22
127.0098238407783
 13
0.0
 23
0.0
 14
1.0
 24
1.0
 15
0.0
 25
0.0
 16
0.0
 26
0.0
 36
1.0
 17
0.0
 27
0.0
 37
0.0
 40
104.4082847563122
 41
1.672360248447204
 42
50.0
 43
0.0
 44
0.0
 50
0.0
 51
0.0
 71
     0
 72
   100
 73
     1
 74
     1
 75
     0
 76
     0
 77
     0
 78
     0
281
     0
 65
     1
110
0.0
120
0.0
130
0.0
111
1.0
121
0.0
131
0.0
112
0.0
122
1.0
132
0.0
 79
     0
146
0.0
  0
ENDTAB
  0
TABLE
  2
LTYPE
  5
4
330
0
100
AcDbSymbolTable
 70
     4
  0
LTYPE
  5
11
330
4
100
AcDbSymbolTableRecord
100
AcDbLinetypeTableRecord
  2
BYBLOCK
 70
     0
  3

 72
    65
 73
     0
 40
0.0
  0
LTYPE
  5
12
330
4
100
AcDbSymbolTableRecord
100
AcDbLinetypeTableRecord
  2
BYLAYER
 70
     0
  3

 72
    65
 73
     0
 40
0.0
  0
LTYPE
  5
13
330
4
100
AcDbSymbolTableRecord
100
AcDbLinetypeTableRecord
  2
CONTINUOUS
 70
     0
  3
Solid line
 72
    65
 73
     0
 40
0.0
  0
LTYPE
  5
1D
330
4
100
AcDbSymbolTableRecord
100
AcDbLinetypeTableRecord
  2
DASHED
 70
     0
  3
_ _ _ _ _ _ _ _ _ _ _ _ _ _ _ _
 72
    65
 73
     2
 40
0.2
 49
0.1
 74
     0
 49
-0.1
 74
     0
  0
LTYPE
  5
1E
330
4
100
AcDbSymbolTableRecord
100
AcDbLinetypeTableRecord
  2
CENTER
 70
     0
  3
___ _ ___ _ ___ _ ___ _ ___ _ ___ _ ___ _ ___ _
 72
    65
 73
     4
 40
0.95
 49
0.625
 74
     0
 49
-0.125
 74
     0
 49
0.075
 74
     0
 49
-0.125
 74
     0
  0
LTYPE
  5
1F
330
4
100
AcDbSymbolTableRecord
100
AcDbLinetypeTableRecord
  2
PHANTOM
 70
     0
  3
______  __  __  ______  __  __  ______  __  __  
 72
    65
 73
     6
 40
1.024999999999999
 49
0.625
 74
     0
 49
-0.125
 74
     0
 49
0.075
 74
     0
 49
-0.125
 74
     0
 49
0.075
 74
     0
 49
-0.125
 74
     0
  0
ENDTAB
  0
TABLE
  2
LAYER
  5
2
330
0
100
AcDbSymbolTable
 70
    10
  0
LAYER
  5
14
330
2
100
AcDbSymbolTableRecord
100
AcDbLayerTableRecord
  2
0
 70
     0
 62
     7
  6
CONTINUOUS
370
    -3
390
13C
  0
LAYER
  5
21
330
2
100
AcDbSymbolTableRecord
100
AcDbLayerTableRecord
  2
CK_LEVEL_1
 70
     0
 62
     7
  6
CONTINUOUS
370
    -3
390
13C
  0
LAYER
  5
22
330
2
100
AcDbSymbolTableRecord
100
AcDbLayerTableRecord
  2
ES
 70
     0
 62
     7
  6
CONTINUOUS
370
    -3
390
13C
  0
LAYER
  5
23
330
2
100
AcDbSymbolTableRecord
100
AcDbLayerTableRecord
  2
CK_LEVEL_3
 70
     0
 62
     7
  6
CONTINUOUS
370
    -3
390
13C
  0
LAYER
  5
24
330
2
100
AcDbSymbolTableRecord
100
AcDbLayerTableRecord
  2
CK_LEVEL_4
 70
     0
 62
     7
  6
CONTINUOUS
370
    -3
390
13C
  0
LAYER
  5
25
330
2
100
AcDbSymbolTableRecord
100
AcDbLayerTableRecord
  2
CK_LEVEL_5
 70
     0
 62
     7
  6
CONTINUOUS
370
    -3
390
13C
  0
LAYER
  5
26
330
2
100
AcDbSymbolTableRecord
100
AcDbLayerTableRecord
  2
CK_LEVEL_6
 70
     0
 62
     7
  6
CONTINUOUS
370
    -3
390
13C
  0
LAYER
  5
27
330
2
100
AcDbSymbolTableRecord
100
AcDbLayerTableRecord
  2
CK_LEVEL_7
 70
     0
 62
     7
  6
CONTINUOUS
370
    -3
390
13C
  0
LAYER
  5
28
330
2
100
AcDbSymbolTableRecord
100
AcDbLayerTableRecord
  2
CK_LEVEL_8
 70
     0
 62
     7
  6
CONTINUOUS
370
    -3
390
13C
  0
LAYER
  5
29
330
2
100
AcDbSymbolTableRecord
100
AcDbLayerTableRecord
  2
MGW9
 70
     0
 62
     7
  6
CONTINUOUS
370
    -3
390
13C
  0
ENDTAB
  0
TABLE
  2
STYLE
  5
3
330
0
100
AcDbSymbolTable
 70
     1
  0
STYLE
  5
17
330
3
100
AcDbSymbolTableRecord
100
AcDbTextStyleTableRecord
  2
STANDARD
 70
     0
 40
0.0
 41
1.0
 50
0.0
 71
     0
 42
0.0
  3
txt
  4

  0
ENDTAB
  0
TABLE
  2
VIEW
  5
5
330
0
100
AcDbSymbolTable
 70
     0
  0
ENDTAB
  0
TABLE
  2
UCS
  5
6
330
0
100
AcDbSymbolTable
 70
     1
  0
UCS
  5
20
330
6
100
AcDbSymbolTableRecord
100
AcDbUCSTableRecord
  2
CK_VIEW_1
 70
     0
 10
0.0
 20
0.0
 30
1.0
 11
1.0
 21
0.0
 31
0.0
 12
0.0
 22
1.0
 32
0.0
 79
     0
146
0.0
  0
ENDTAB
  0
TABLE
  2
APPID
  5
8
330
0
100
AcDbSymbolTable
 70
     1
  0
APPID
  5
16
330
8
100
AcDbSymbolTableRecord
100
AcDbRegAppTableRecord
  2
ACAD
 70
     0
  0
ENDTAB
  0
TABLE
  2
DIMSTYLE
  5
9
330
0
100
AcDbSymbolTable
 70
     1
100
AcDbDimStyleTable
 71
     0
  0
DIMSTYLE
105
18
330
9
100
AcDbSymbolTableRecord
100
AcDbDimStyleTableRecord
  2
STANDARD
 70
     0
289
     0
340
17
  0
ENDTAB
  0
TABLE
  2
BLOCK_RECORD
  5
1
330
0
100
AcDbSymbolTable
 70
     0
  0
BLOCK_RECORD
  5
A
330
1
100
AcDbSymbolTableRecord
100
AcDbBlockTableRecord
  2
*MODEL_SPACE
340
13F
  0
BLOCK_RECORD
  5
B
330
1
100
AcDbSymbolTableRecord
100
AcDbBlockTableRecord
  2
*PAPER_SPACE
340
140
  0
ENDTAB
  0
ENDSEC
  0
SECTION
  2
BLOCKS
  0
BLOCK
  5
D
330
A
100
AcDbEntity
  8
0
100
AcDbBlockBegin
  2
*MODEL_SPACE
 70
     0
 10
0.0
 20
0.0
 30
0.0
  3
*MODEL_SPACE
  1

  0
ENDBLK
  5
E
330
A
100
AcDbEntity
  8
0
100
AcDbBlockEnd
  0
BLOCK
  5
F
330
B
100
AcDbEntity
 67
     1
  8
0
100
AcDbBlockBegin
  2
*PAPER_SPACE
 70
     0
 10
0.0
 20
0.0
 30
0.0
  3
*PAPER_SPACE
  1

  0
ENDBLK
  5
10
330
B
100
AcDbEntity
 67
     1
  8
0
100
AcDbBlockEnd
  0
ENDSEC
  0
SECTION
  2
ENTITIES
  0
ARC
  5
2A
330
A
100
AcDbEntity
  8
MGW9
  6
Continuous
 62
     4
100
AcDbCircle
 10
-50.0495245118621
 20
121.4191455257885
 30
0.0000000000000142
 40
0.15
100
AcDbArc
 50
359.9999999999943
 51
418.851437227483
  0
ARC
  5
2B
330
A
100
AcDbEntity
  8
MGW9
  6
Continuous
 62
     4
100
AcDbCircle
 10
-50.46804431840342
 20
121.8461402941378
 30
0.0000000000000142
 40
0.15
100
AcDbArc
 50
30.00000000000488
 51
89.99999999999472
  0
ARC
  5
2C
330
A
100
AcDbEntity
  8
MGW9
  6
Continuous
 62
     4
100
AcDbCircle
 10
-50.46804431840342
 20
123.0461402941378
 30
0.0000000000000142
 40
0.15
100
AcDbArc
 50
270.0
 51
330.000000000002
  0
ARC
  5
2D
330
A
100
AcDbEntity
  8
MGW9
  6
Continuous
 62
     4
100
AcDbCircle
 10
-50.04952451186206
 20
123.4731350624871
 30
0.0000000000000142
 40
0.15
100
AcDbArc
 50
301.1485627725122
 51
360.0000000000056
  0
ARC
  5
2E
330
A
100
AcDbEntity
  8
MGW9
  6
Continuous
 62
     4
100
AcDbCircle
 10
-49.42881383386207
 20
122.4461402941378
 30
0.0000000000000142
 40
1.05
100
AcDbArc
 50
121.14856277251
 51
150.0000000000007
  0
ARC
  5
2F
330
A
100
AcDbEntity
  8
MGW9
  6
Continuous
 62
     4
100
AcDbCircle
 10
-49.42881383386207
 20
122.4461402941378
 30
0.0000000000000142
 40
1.05
100
AcDbArc
 50
209.999999999998
 51
238.851437227488
  0
ARC
  5
30
330
A
100
AcDbEntity
  8
MGW9
  6
Continuous
 62
     4
100
AcDbCircle
 10
-67.74952451186212
 20
121.4191455257885
 30
0.0000000000000142
 40
0.15
100
AcDbArc
 50
121.1485627725169
 51
180.0000000000057
  0
ARC
  5
31
330
A
100
AcDbEntity
  8
MGW9
  6
Continuous
 62
     4
100
AcDbCircle
 10
-67.33100470532079
 20
121.8461402941378
 30
0.0000000000000142
 40
0.15
100
AcDbArc
 50
90.0000000000057
 51
149.9999999999951
  0
ARC
  5
32
330
A
100
AcDbEntity
  8
MGW9
  6
Continuous
 62
     4
100
AcDbCircle
 10
-67.33100470532079
 20
123.0461402941378
 30
0.0000000000000142
 40
0.15
100
AcDbArc
 50
209.9999999999979
 51
270.0
  0
ARC
  5
33
330
A
100
AcDbEntity
  8
MGW9
  6
Continuous
 62
     4
100
AcDbCircle
 10
-67.74952451186216
 20
123.4731350624871
 30
0.0000000000000142
 40
0.15
100
AcDbArc
 50
179.9999999999942
 51
238.8514372274877
  0
ARC
  5
34
330
A
100
AcDbEntity
  8
MGW9
  6
Continuous
 62
     4
100
AcDbCircle
 10
-68.37023518986214
 20
122.4461402941378
 30
0.0000000000000142
 40
1.05
100
AcDbArc
 50
29.99999999999902
 51
58.85143722748957
  0
ARC
  5
35
330
A
100
AcDbEntity
  8
MGW9
  6
Continuous
 62
     4
100
AcDbCircle
 10
-68.37023518986214
 20
122.4461402941378
 30
0.0000000000000142
 40
1.05
100
AcDbArc
 50
301.1485627725115
 51
330.000000000002
  0
ARC
  5
36
330
A
100
AcDbEntity
  8
MGW9
  6
Continuous
 62
     4
100
AcDbCircle
 10
-12.54952451186208
 20
169.2961402941378
 30
0.0000000000000047
 40
1.0
100
AcDbArc
 50
180.0
 51
233.1301023541562
  0
ARC
  5
37
330
A
100
AcDbEntity
  8
MGW9
  6
Continuous
 62
     4
100
AcDbCircle
 10
-12.54952451186208
 20
170.7961402941378
 30
-0.0000000000002167
 40
1.0
100
AcDbArc
 50
126.8698976458437
 51
180.0
  0
LINE
  5
38
330
A
100
AcDbEntity
  8
MGW9
  6
Continuous
 62
     4
100
AcDbLine
 10
-13.54952451186208
 20
169.2961402941378
 30
0.0
 11
-13.54952451186208
 21
170.7961402941378
 31
0.0
  0
ARC
  5
39
330
A
100
AcDbEntity
  8
MGW9
  6
Continuous
 62
     4
100
AcDbCircle
 10
-12.54952451186208
 20
148.0961402941378
 30
0.0000000000000047
 40
1.0
100
AcDbArc
 50
180.0
 51
233.1301023541562
  0
ARC
  5
3A
330
A
100
AcDbEntity
  8
MGW9
  6
Continuous
 62
     4
100
AcDbCircle
 10
-12.54952451186208
 20
149.5961402941378
 30
-0.0000000000002167
 40
1.0
100
AcDbArc
 50
126.8698976458437
 51
180.0
  0
LINE
  5
3B
330
A
100
AcDbEntity
  8
MGW9
  6
Continuous
 62
     4
100
AcDbLine
 10
-13.54952451186208
 20
148.0961402941378
 30
0.0
 11
-13.54952451186208
 21
149.5961402941378
 31
0.0
  0
ARC
  5
3C
330
A
100
AcDbEntity
  8
MGW9
  6
Continuous
 62
     4
100
AcDbCircle
 10
24.75047548813793
 20
169.2961402941378
 30
0.0000000000000047
 40
1.0
100
AcDbArc
 50
306.8698976458437
 51
360.0
  0
ARC
  5
3D
330
A
100
AcDbEntity
  8
MGW9
  6
Continuous
 62
     4
100
AcDbCircle
 10
24.75047548813793
 20
170.7961402941378
 30
-0.0000000000002167
 40
1.0
100
AcDbArc
 50
0.0
 51
53.13010235415631
  0
LINE
  5
3E
330
A
100
AcDbEntity
  8
MGW9
  6
Continuous
 62
     4
100
AcDbLine
 10
25.75047548813793
 20
169.2961402941378
 30
0.0
 11
25.75047548813793
 21
170.7961402941378
 31
0.0
  0
ARC
  5
3F
330
A
100
AcDbEntity
  8
MGW9
  6
Continuous
 62
     4
100
AcDbCircle
 10
24.75047548813793
 20
148.0961402941378
 30
0.0000000000000047
 40
1.0
100
AcDbArc
 50
306.8698976458437
 51
360.0
  0
ARC
  5
40
330
A
100
AcDbEntity
  8
MGW9
  6
Continuous
 62
     4
100
AcDbCircle
 10
24.75047548813793
 20
149.5961402941378
 30
-0.0000000000002167
 40
1.0
100
AcDbArc
 50
0.0
 51
53.13010235415631
  0
LINE
  5
41
330
A
100
AcDbEntity
  8
MGW9
  6
Continuous
 62
     4
100
AcDbLine
 10
25.75047548813793
 20
148.0961402941378
 30
0.0
 11
25.75047548813793
 21
149.5961402941378
 31
0.0
  0
ARC
  5
42
330
A
100
AcDbEntity
  8
MGW9
  6
Continuous
 62
     4
100
AcDbCircle
 10
-12.54952451186206
 20
125.8461402941378
 30
0.000000000000005
 40
1.0
100
AcDbArc
 50
180.0
 51
233.1301023541559
  0
ARC
  5
43
330
A
100
AcDbEntity
  8
MGW9
  6
Continuous
 62
     4
100
AcDbCircle
 10
-12.54952451186206
 20
127.3461402941378
 30
0.000000000000005
 40
1.0
100
AcDbArc
 50
126.8698976458435
 51
180.0
  0
LINE
  5
44
330
A
100
AcDbEntity
  8
MGW9
  6
Continuous
 62
     4
100
AcDbLine
 10
-13.54952451186205
 20
125.8461402941378
 30
0.0
 11
-13.54952451186205
 21
127.3461402941378
 31
0.0
  0
ARC
  5
45
330
A
100
AcDbEntity
  8
MGW9
  6
Continuous
 62
     4
100
AcDbCircle
 10
24.75047548813793
 20
125.8461402941378
 30
0.0000000000000047
 40
1.0
100
AcDbArc
 50
306.8698976458441
 51
360.0
  0
ARC
  5
46
330
A
100
AcDbEntity
  8
MGW9
  6
Continuous
 62
     4
100
AcDbCircle
 10
24.75047548813793
 20
127.3461402941378
 30
-0.0000000000002167
 40
1.0
100
AcDbArc
 50
0.0
 51
53.13010235415631
  0
LINE
  5
47
330
A
100
AcDbEntity
  8
MGW9
  6
Continuous
 62
     4
100
AcDbLine
 10
25.75047548813793
 20
125.8461402941378
 30
0.0
 11
25.75047548813793
 21
127.3461402941378
 31
0.0
  0
ARC
  5
48
330
A
100
AcDbEntity
  8
ES
  6
Continuous
 62
     4
100
AcDbCircle
 10
-48.29952451186206
 20
126.5961402941378
 30
0.0000000000000142
 40
1.1
100
AcDbArc
 50
124.5243183036099
 51
145.4756816963897
  0
ARC
  5
49
330
A
100
AcDbEntity
  8
ES
  6
Continuous
 62
     4
100
AcDbCircle
 10
-48.29952451186206
 20
126.5961402941378
 30
0.0000000000000142
 40
1.1
100
AcDbArc
 50
34.52431830361049
 51
55.47568169639121
  0
ARC
  5
4A
330
A
100
AcDbEntity
  8
ES
  6
Continuous
 62
     4
100
AcDbCircle
 10
-48.29952451186206
 20
126.5961402941378
 30
0.0000000000000142
 40
1.1
100
AcDbArc
 50
214.5243183036084
 51
235.47568169639
  0
ARC
  5
4B
330
A
100
AcDbEntity
  8
ES
  6
Continuous
 62
     4
100
AcDbCircle
 10
-48.29952451186206
 20
126.5961402941378
 30
0.0000000000000142
 40
1.1
100
AcDbArc
 50
304.5243183036099
 51
325.4756816963897
  0
CIRCLE
  5
4C
330
A
100
AcDbEntity
  8
ES
  6
Continuous
 62
     4
100
AcDbCircle
 10
-48.29952451186206
 20
126.5961402941378
 30
0.0000000000000142
 40
1.75
  0
LINE
  5
4D
330
A
100
AcDbEntity
  8
ES
  6
Continuous
 62
     4
100
AcDbLine
 10
-48.29952451186206
 20
126.8789830066124
 30
0.0
 11
-48.92295608266366
 21
127.502414577414
 31
0.0
  0
LINE
  5
4E
330
A
100
AcDbEntity
  8
ES
  6
Continuous
 62
     4
100
AcDbLine
 10
-48.58236722433668
 20
126.5961402941378
 30
0.0
 11
-49.20579879513829
 21
127.2195718649394
 31
0.0
  0
LINE
  5
4F
330
A
100
AcDbEntity
  8
ES
  6
Continuous
 62
     4
100
AcDbLine
 10
-48.58236722433669
 20
126.5961402941378
 30
0.0
 11
-49.2057987951383
 21
125.9727087233362
 31
0.0
  0
LINE
  5
50
330
A
100
AcDbEntity
  8
ES
  6
Continuous
 62
     4
100
AcDbLine
 10
-48.29952451186206
 20
126.3132975816632
 30
0.0
 11
-48.92295608266366
 21
125.6898660108616
 31
0.0
  0
LINE
  5
51
330
A
100
AcDbEntity
  8
ES
  6
Continuous
 62
     4
100
AcDbLine
 10
-47.67609294106047
 20
127.502414577414
 30
0.0
 11
-48.29952451186206
 21
126.8789830066124
 31
0.0
  0
LINE
  5
52
330
A
100
AcDbEntity
  8
ES
  6
Continuous
 62
     4
100
AcDbLine
 10
-47.39325022858584
 20
127.2195718649394
 30
0.0
 11
-48.01668179938744
 21
126.5961402941378
 31
0.0
  0
LINE
  5
53
330
A
100
AcDbEntity
  8
ES
  6
Continuous
 62
     4
100
AcDbLine
 10
-47.67609294106046
 20
125.6898660108616
 30
0.0
 11
-48.29952451186206
 21
126.3132975816632
 31
0.0
  0
LINE
  5
54
330
A
100
AcDbEntity
  8
ES
  6
Continuous
 62
     4
100
AcDbLine
 10
-47.39325022858582
 20
125.9727087233362
 30
0.0
 11
-48.01668179938744
 21
126.5961402941378
 31
0.0
  0
ARC
  5
55
330
A
100
AcDbEntity
  8
ES
  6
Continuous
 62
     4
100
AcDbCircle
 10
-69.49952451186216
 20
126.5961402941378
 30
0.0000000000000142
 40
1.1
100
AcDbArc
 50
34.52431830360959
 51
55.47568169638974
  0
ARC
  5
56
330
A
100
AcDbEntity
  8
ES
  6
Continuous
 62
     4
100
AcDbCircle
 10
-69.49952451186216
 20
126.5961402941378
 30
0.0000000000000142
 40
1.1
100
AcDbArc
 50
304.5243183036102
 51
325.4756816963908
  0
ARC
  5
57
330
A
100
AcDbEntity
  8
ES
  6
Continuous
 62
     4
100
AcDbCircle
 10
-69.49952451186216
 20
126.5961402941378
 30
0.0000000000000142
 40
1.1
100
AcDbArc
 50
124.5243183036084
 51
145.4756816963904
  0
ARC
  5
58
330
A
100
AcDbEntity
  8
ES
  6
Continuous
 62
     4
100
AcDbCircle
 10
-69.49952451186216
 20
126.5961402941378
 30
0.0000000000000142
 40
1.1
100
AcDbArc
 50
214.5243183036095
 51
235.4756816963897
  0
CIRCLE
  5
59
330
A
100
AcDbEntity
  8
ES
  6
Continuous
 62
     4
100
AcDbCircle
 10
-69.49952451186216
 20
126.5961402941378
 30
0.0000000000000142
 40
1.75
  0
LINE
  5
5A
330
A
100
AcDbEntity
  8
ES
  6
Continuous
 62
     4
100
AcDbLine
 10
-69.2166817993875
 20
126.5961402941378
 30
0.0
 11
-68.59325022858593
 21
127.2195718649394
 31
0.0
  0
LINE
  5
5B
330
A
100
AcDbEntity
  8
ES
  6
Continuous
 62
     4
100
AcDbLine
 10
-69.49952451186216
 20
126.8789830066124
 30
0.0
 11
-68.87609294106055
 21
127.502414577414
 31
0.0
  0
LINE
  5
5C
330
A
100
AcDbEntity
  8
ES
  6
Continuous
 62
     4
100
AcDbLine
 10
-69.49952451186216
 20
126.8789830066124
 30
0.0
 11
-70.12295608266374
 21
127.502414577414
 31
0.0
  0
LINE
  5
5D
330
A
100
AcDbEntity
  8
ES
  6
Continuous
 62
     4
100
AcDbLine
 10
-69.78236722433677
 20
126.5961402941378
 30
0.0
 11
-70.40579879513839
 21
127.2195718649394
 31
0.0
  0
LINE
  5
5E
330
A
100
AcDbEntity
  8
ES
  6
Continuous
 62
     4
100
AcDbLine
 10
-68.59325022858591
 20
125.9727087233362
 30
0.0
 11
-69.2166817993875
 21
126.5961402941378
 31
0.0
  0
LINE
  5
5F
330
A
100
AcDbEntity
  8
ES
  6
Continuous
 62
     4
100
AcDbLine
 10
-68.87609294106055
 20
125.6898660108616
 30
0.0
 11
-69.49952451186215
 21
126.3132975816632
 31
0.0
  0
LINE
  5
60
330
A
100
AcDbEntity
  8
ES
  6
Continuous
 62
     4
100
AcDbLine
 10
-70.40579879513839
 20
125.9727087233362
 30
0.0
 11
-69.78236722433677
 21
126.5961402941378
 31
0.0
  0
LINE
  5
61
330
A
100
AcDbEntity
  8
ES
  6
Continuous
 62
     4
100
AcDbLine
 10
-70.12295608266376
 20
125.6898660108616
 30
0.0
 11
-69.49952451186215
 21
126.3132975816632
 31
0.0
  0
LINE
  5
62
330
A
100
AcDbEntity
  8
MGW9
  6
CENTER
 62
   252
100
AcDbLine
 10
12.10047548813794
 20
129.9461402941378
 30
0.0
 11
12.10047548813791
 21
124.4744524576508
 31
0.0
  0
LINE
  5
63
330
A
100
AcDbEntity
  8
MGW9
  6
DASHED
 62
   252
100
AcDbLine
 10
1.600475488138002
 20
129.1461402941378
 30
0.0
 11
-1.399524511862054
 21
129.1461402941378
 31
0.0
  0
LINE
  5
64
330
A
100
AcDbEntity
  8
MGW9
  6
DASHED
 62
   252
100
AcDbLine
 10
-1.149524511862082
 20
125.6461402941378
 30
0.0
 11
0.1004754881379455
 21
124.9244524576508
 31
0.0
  0
LINE
  5
65
330
A
100
AcDbEntity
  8
MGW9
  6
DASHED
 62
   252
100
AcDbLine
 10
1.350475488137945
 20
125.6461402941378
 30
0.0
 11
0.1004754881379455
 21
124.9244524576508
 31
0.0
  0
LINE
  5
66
330
A
100
AcDbEntity
  8
MGW9
  6
DASHED
 62
   252
100
AcDbLine
 10
1.350475488137945
 20
125.6461402941378
 30
0.0
 11
-1.149524511862082
 21
125.6461402941378
 31
0.0
  0
LINE
  5
67
330
A
100
AcDbEntity
  8
MGW9
  6
DASHED
 62
   252
100
AcDbLine
 10
-1.149524511862082
 20
129.1461402941378
 30
0.0
 11
-1.149524511862082
 21
125.6461402941378
 31
0.0
  0
LINE
  5
68
330
A
100
AcDbEntity
  8
MGW9
  6
DASHED
 62
   252
100
AcDbLine
 10
1.350475488137917
 20
129.1461402941378
 30
0.0
 11
1.350475488137945
 21
125.6461402941378
 31
0.0
  0
LINE
  5
69
330
A
100
AcDbEntity
  8
MGW9
  6
DASHED
 62
   252
100
AcDbLine
 10
1.600475488137945
 20
126.4461402941378
 30
0.0
 11
-1.399524511862054
 21
126.4461402941378
 31
0.0
  0
LINE
  5
6A
330
A
100
AcDbEntity
  8
MGW9
  6
DASHED
 62
   252
100
AcDbLine
 10
-1.399524511862054
 20
129.1461402941378
 30
0.0
 11
-1.399524511862054
 21
126.4461402941378
 31
0.0
  0
LINE
  5
6B
330
A
100
AcDbEntity
  8
MGW9
  6
DASHED
 62
   252
100
AcDbLine
 10
1.600475488138002
 20
129.1461402941378
 30
0.0
 11
1.600475488137945
 21
126.4461402941378
 31
0.0
  0
LINE
  5
6C
330
A
100
AcDbEntity
  8
MGW9
  6
CENTER
 62
   252
100
AcDbLine
 10
0.1004754881379455
 20
129.9461402941378
 30
0.0
 11
0.1004754881379171
 21
124.4744524576508
 31
0.0
  0
LINE
  5
6D
330
A
100
AcDbEntity
  8
MGW9
  6
DASHED
 62
   252
100
AcDbLine
 10
1.900475488137928
 20
129.4461402941378
 30
0.0
 11
1.600475488138002
 21
129.1461402941378
 31
0.0
  0
LINE
  5
6E
330
A
100
AcDbEntity
  8
MGW9
  6
DASHED
 62
   252
100
AcDbLine
 10
-1.399524511862054
 20
129.1461402941378
 30
0.0
 11
-1.699524511862094
 21
129.4461402941378
 31
0.0
  0
LINE
  5
6F
330
A
100
AcDbEntity
  8
MGW9
  6
Continuous
 62
     4
100
AcDbLine
 10
25.35047548813793
 20
129.1961402941378
 30
0.0
 11
24.15047548813793
 21
129.1961402941378
 31
0.0
  0
LINE
  5
70
330
A
100
AcDbEntity
  8
MGW9
  6
Continuous
 62
     4
100
AcDbLine
 10
24.15047548813793
 20
129.2961402941378
 30
0.0
 11
19.85047548813793
 21
129.2961402941378
 31
0.0
  0
LINE
  5
71
330
A
100
AcDbEntity
  8
MGW9
  6
Continuous
 62
     4
100
AcDbLine
 10
-13.14952451186205
 20
129.1961402941378
 30
0.0
 11
-11.94952451186205
 21
129.1961402941378
 31
0.0
  0
LINE
  5
72
330
A
100
AcDbEntity
  8
MGW9
  6
Continuous
 62
     4
100
AcDbLine
 10
-11.94952451186205
 20
129.2961402941378
 30
0.0
 11
-7.649524511862056
 21
129.2961402941378
 31
0.0
  0
LINE
  5
73
330
A
100
AcDbEntity
  8
MGW9
  6
Continuous
 62
     4
100
AcDbLine
 10
-13.14952451186205
 20
121.5296251551467
 30
0.0
 11
-33.89952451186207
 21
121.5296251551467
 31
0.0
  0
LINE
  5
74
330
A
100
AcDbEntity
  8
MGW9
  6
Continuous
 62
     4
100
AcDbLine
 10
-13.14952451186205
 20
123.362655433129
 30
0.0
 11
-33.89952451186207
 21
123.362655433129
 31
0.0
  0
LINE
  5
75
330
A
100
AcDbEntity
  8
MGW9
  6
Continuous
 62
     4
100
AcDbLine
 10
-13.14952451186205
 20
123.8461402941378
 30
0.0
 11
-33.89952451186207
 21
123.8461402941378
 31
0.0
  0
LINE
  5
76
330
A
100
AcDbEntity
  8
MGW9
  6
Continuous
 62
     4
100
AcDbLine
 10
-13.14952451186205
 20
124.4461402941378
 30
0.0
 11
-33.89952451186207
 21
124.4461402941378
 31
0.0
  0
LINE
  5
77
330
A
100
AcDbEntity
  8
MGW9
  6
Continuous
 62
     4
100
AcDbLine
 10
25.35047548813793
 20
120.3461402941378
 30
0.0
 11
-13.14952451186205
 21
120.3461402941378
 31
0.0
  0
LINE
  5
78
330
A
100
AcDbEntity
  8
MGW9
  6
Continuous
 62
     4
100
AcDbLine
 10
-7.649524511862056
 20
129.4461402941378
 30
0.0
 11
19.85047548813793
 21
129.4461402941378
 31
0.0
  0
LINE
  5
79
330
A
100
AcDbEntity
  8
MGW9
  6
Continuous
 62
     4
100
AcDbLine
 10
25.35047548813793
 20
120.3461402941378
 30
0.0
 11
25.35047548813793
 21
129.1961402941378
 31
0.0
  0
LINE
  5
7A
330
A
100
AcDbEntity
  8
MGW9
  6
Continuous
 62
     4
100
AcDbLine
 10
24.15047548813793
 20
120.3461402941378
 30
0.0
 11
24.15047548813793
 21
129.2961402941378
 31
0.0
  0
LINE
  5
7B
330
A
100
AcDbEntity
  8
MGW9
  6
Continuous
 62
     4
100
AcDbLine
 10
19.85047548813793
 20
120.3461402941378
 30
0.0
 11
19.85047548813793
 21
129.4461402941378
 31
0.0
  0
LINE
  5
7C
330
A
100
AcDbEntity
  8
MGW9
  6
Continuous
 62
     4
100
AcDbLine
 10
-7.649524511862058
 20
120.3461402941378
 30
0.0
 11
-7.649524511862058
 21
129.4461402941378
 31
0.0
  0
LINE
  5
7D
330
A
100
AcDbEntity
  8
MGW9
  6
Continuous
 62
     4
100
AcDbLine
 10
-11.94952451186205
 20
120.3461402941378
 30
0.0
 11
-11.94952451186205
 21
129.2961402941378
 31
0.0
  0
LINE
  5
7E
330
A
100
AcDbEntity
  8
MGW9
  6
Continuous
 62
     4
100
AcDbLine
 10
-13.14952451186205
 20
120.3461402941378
 30
0.0
 11
-13.14952451186205
 21
129.1961402941378
 31
0.0
  0
CIRCLE
  5
7F
330
A
100
AcDbEntity
  8
MGW9
  6
Continuous
 62
     4
100
AcDbCircle
 10
36.10047548813793
 20
159.4461402941378
 30
0.0
 40
1.75
  0
CIRCLE
  5
80
330
A
100
AcDbEntity
  8
MGW9
  6
Continuous
 62
     4
100
AcDbCircle
 10
36.10047548813793
 20
159.4461402941378
 30
0.0
 40
3.0
  0
LINE
  5
81
330
A
100
AcDbEntity
  8
MGW9
  6
CENTER
 62
   252
100
AcDbLine
 10
36.10047548813793
 20
155.6961402941378
 30
0.0
 11
36.10047548813793
 21
163.1961402941378
 31
0.0
  0
LINE
  5
82
330
A
100
AcDbEntity
  8
MGW9
  6
CENTER
 62
   252
100
AcDbLine
 10
32.35047548813793
 20
159.4461402941378
 30
0.0
 11
39.85047548813793
 21
159.4461402941378
 31
0.0
  0
CIRCLE
  5
83
330
A
100
AcDbEntity
  8
MGW9
  6
Continuous
 62
     4
100
AcDbCircle
 10
-23.89952451186207
 20
159.4461402941378
 30
0.0
 40
1.75
  0
CIRCLE
  5
84
330
A
100
AcDbEntity
  8
MGW9
  6
Continuous
 62
     4
100
AcDbCircle
 10
-23.89952451186207
 20
159.4461402941378
 30
0.0
 40
3.0
  0
LINE
  5
85
330
A
100
AcDbEntity
  8
MGW9
  6
CENTER
 62
   252
100
AcDbLine
 10
-23.89952451186207
 20
155.6961402941378
 30
0.0
 11
-23.89952451186207
 21
163.1961402941378
 31
0.0
  0
LINE
  5
86
330
A
100
AcDbEntity
  8
MGW9
  6
CENTER
 62
   252
100
AcDbLine
 10
-27.64952451186207
 20
159.4461402941378
 30
0.0
 11
-20.14952451186207
 21
159.4461402941378
 31
0.0
  0
LINE
  5
87
330
A
100
AcDbEntity
  8
MGW9
  6
Continuous
 62
     4
100
AcDbLine
 10
25.35047548813793
 20
144.6961402941378
 30
0.0
 11
24.15047548813792
 21
144.6961402941378
 31
0.0
  0
LINE
  5
88
330
A
100
AcDbEntity
  8
MGW9
  6
Continuous
 62
     4
100
AcDbLine
 10
24.15047548813793
 20
144.5961402941378
 30
0.0
 11
19.85047548813791
 21
144.5961402941378
 31
0.0
  0
LINE
  5
89
330
A
100
AcDbEntity
  8
MGW9
  6
Continuous
 62
     4
100
AcDbLine
 10
-13.14952451186205
 20
144.6961402941378
 30
0.0
 11
-11.94952451186207
 21
144.6961402941378
 31
0.0
  0
LINE
  5
8A
330
A
100
AcDbEntity
  8
MGW9
  6
Continuous
 62
     4
100
AcDbLine
 10
-11.94952451186205
 20
144.5961402941378
 30
0.0
 11
-7.649524511862068
 21
144.5961402941378
 31
0.0
  0
LINE
  5
8B
330
A
100
AcDbEntity
  8
MGW9
  6
Continuous
 62
     4
100
AcDbLine
 10
25.35047548813791
 20
174.1961402941378
 30
0.0
 11
24.15047548813792
 21
174.1961402941378
 31
0.0
  0
LINE
  5
8C
330
A
100
AcDbEntity
  8
MGW9
  6
Continuous
 62
     4
100
AcDbLine
 10
24.15047548813792
 20
174.2961402941378
 30
0.0
 11
19.85047548813791
 21
174.2961402941378
 31
0.0
  0
LINE
  5
8D
330
A
100
AcDbEntity
  8
MGW9
  6
Continuous
 62
     4
100
AcDbLine
 10
-13.14952451186206
 20
174.1961402941378
 30
0.0
 11
-11.94952451186207
 21
174.1961402941378
 31
0.0
  0
LINE
  5
8E
330
A
100
AcDbEntity
  8
MGW9
  6
Continuous
 62
     4
100
AcDbLine
 10
-11.94952451186207
 20
174.2961402941378
 30
0.0
 11
-7.649524511862068
 21
174.2961402941378
 31
0.0
  0
LINE
  5
8F
330
A
100
AcDbEntity
  8
MGW9
  6
Continuous
 62
     4
100
AcDbLine
 10
-13.14952451186206
 20
150.4461402941378
 30
0.0
 11
-33.89952451186205
 21
150.4461402941378
 31
0.0
  0
LINE
  5
90
330
A
100
AcDbEntity
  8
MGW9
  6
Continuous
 62
     4
100
AcDbLine
 10
-13.14952451186207
 20
168.4461402941378
 30
0.0
 11
-33.89952451186207
 21
168.4461402941378
 31
0.0
  0
LINE
  5
91
330
A
100
AcDbEntity
  8
MGW9
  6
Continuous
 62
     4
100
AcDbLine
 10
25.35047548813791
 20
174.1961402941378
 30
0.0
 11
25.35047548813793
 21
144.6961402941378
 31
0.0
  0
LINE
  5
92
330
A
100
AcDbEntity
  8
MGW9
  6
Continuous
 62
     4
100
AcDbLine
 10
-13.14952451186206
 20
174.1961402941378
 30
0.0
 11
-13.14952451186205
 21
144.6961402941378
 31
0.0
  0
LINE
  5
93
330
A
100
AcDbEntity
  8
MGW9
  6
Continuous
 62
     4
100
AcDbLine
 10
24.15047548813792
 20
174.2961402941378
 30
0.0
 11
24.15047548813793
 21
144.5961402941378
 31
0.0
  0
LINE
  5
94
330
A
100
AcDbEntity
  8
MGW9
  6
Continuous
 62
     4
100
AcDbLine
 10
-11.94952451186207
 20
174.2961402941378
 30
0.0
 11
-11.94952451186205
 21
144.5961402941378
 31
0.0
  0
LINE
  5
95
330
A
100
AcDbEntity
  8
MGW9
  6
CENTER
 62
   252
100
AcDbLine
 10
13.90047548813793
 20
169.9461402941378
 30
0.0
 11
10.30047548813791
 21
169.9461402941378
 31
0.0
  0
LINE
  5
96
330
A
100
AcDbEntity
  8
MGW9
  6
CENTER
 62
   252
100
AcDbLine
 10
12.10047548813792
 20
168.1461402941378
 30
0.0
 11
12.10047548813792
 21
171.7461402941378
 31
0.0
  0
LINE
  5
97
330
A
100
AcDbEntity
  8
MGW9
  6
CENTER
 62
   252
100
AcDbLine
 10
1.900475488137938
 20
169.9461402941378
 30
0.0
 11
-1.699524511862084
 21
169.9461402941378
 31
0.0
  0
LINE
  5
98
330
A
100
AcDbEntity
  8
MGW9
  6
CENTER
 62
   252
100
AcDbLine
 10
0.1004754881379277
 20
168.1461402941378
 30
0.0
 11
0.1004754881379268
 21
171.7461402941378
 31
0.0
  0
LINE
  5
99
330
A
100
AcDbEntity
  8
MGW9
  6
CENTER
 62
   252
100
AcDbLine
 10
13.90047548813794
 20
148.9461402941378
 30
0.0
 11
10.30047548813792
 21
148.9461402941378
 31
0.0
  0
LINE
  5
9A
330
A
100
AcDbEntity
  8
MGW9
  6
CENTER
 62
   252
100
AcDbLine
 10
12.10047548813793
 20
147.1461402941379
 30
0.0
 11
12.10047548813793
 21
150.7461402941378
 31
0.0
  0
LINE
  5
9B
330
A
100
AcDbEntity
  8
MGW9
  6
CENTER
 62
   252
100
AcDbLine
 10
1.900475488137947
 20
148.9461402941378
 30
0.0
 11
-1.699524511862075
 21
148.9461402941378
 31
0.0
  0
LINE
  5
9C
330
A
100
AcDbEntity
  8
MGW9
  6
CENTER
 62
   252
100
AcDbLine
 10
0.1004754881379357
 20
147.1461402941378
 30
0.0
 11
0.1004754881379348
 21
150.7461402941378
 31
0.0
  0
LINE
  5
9D
330
A
100
AcDbEntity
  8
MGW9
  6
CENTER
 62
   252
100
AcDbLine
 10
28.05047548813791
 20
159.4461402941378
 30
0.0
 11
-15.84952451186205
 21
159.4461402941378
 31
0.0
  0
CIRCLE
  5
9E
330
A
100
AcDbEntity
  8
MGW9
  6
Continuous
 62
     4
100
AcDbCircle
 10
0.1004754881379357
 20
148.9461402941378
 30
0.0
 40
1.25
  0
ARC
  5
9F
330
A
100
AcDbEntity
  8
MGW9
  6
Continuous
 62
   252
100
AcDbCircle
 10
0.1004754881379357
 20
148.9461402941378
 30
0.0
 40
1.5
100
AcDbArc
 50
349.9999999999998
 51
640.0000000000001
  0
CIRCLE
  5
A0
330
A
100
AcDbEntity
  8
MGW9
  6
Continuous
 62
     4
100
AcDbCircle
 10
12.10047548813793
 20
148.9461402941378
 30
0.0
 40
1.25
  0
ARC
  5
A1
330
A
100
AcDbEntity
  8
MGW9
  6
Continuous
 62
   252
100
AcDbCircle
 10
12.10047548813793
 20
148.9461402941378
 30
0.0
 40
1.5
100
AcDbArc
 50
349.9999999999998
 51
640.0000000000001
  0
CIRCLE
  5
A2
330
A
100
AcDbEntity
  8
MGW9
  6
Continuous
 62
     4
100
AcDbCircle
 10
12.10047548813792
 20
169.9461402941378
 30
0.0
 40
1.25
  0
ARC
  5
A3
330
A
100
AcDbEntity
  8
MGW9
  6
Continuous
 62
   252
100
AcDbCircle
 10
12.10047548813792
 20
169.9461402941378
 30
0.0
 40
1.5
100
AcDbArc
 50
349.9999999999998
 51
640.0000000000001
  0
CIRCLE
  5
A4
330
A
100
AcDbEntity
  8
MGW9
  6
Continuous
 62
     4
100
AcDbCircle
 10
0.1004754881379268
 20
169.9461402941378
 30
0.0
 40
1.25
  0
ARC
  5
A5
330
A
100
AcDbEntity
  8
MGW9
  6
Continuous
 62
   252
100
AcDbCircle
 10
0.1004754881379268
 20
169.9461402941378
 30
0.0
 40
1.5
100
AcDbArc
 50
349.9999999999998
 51
640.0000000000001
  0
LINE
  5
A6
330
A
100
AcDbEntity
  8
MGW9
  6
Continuous
 62
     4
100
AcDbLine
 10
19.85047548813791
 20
174.4461402941378
 30
0.0
 11
-7.649524511862068
 21
174.4461402941378
 31
0.0
  0
LINE
  5
A7
330
A
100
AcDbEntity
  8
MGW9
  6
Continuous
 62
     4
100
AcDbLine
 10
19.85047548813793
 20
144.4461402941378
 30
0.0
 11
-7.649524511862058
 21
144.4461402941378
 31
0.0
  0
LINE
  5
A8
330
A
100
AcDbEntity
  8
MGW9
  6
Continuous
 62
     4
100
AcDbLine
 10
-7.649524511862068
 20
174.4461402941378
 30
0.0
 11
-7.649524511862058
 21
144.4461402941378
 31
0.0
  0
LINE
  5
A9
330
A
100
AcDbEntity
  8
MGW9
  6
Continuous
 62
     4
100
AcDbLine
 10
19.85047548813791
 20
174.4461402941378
 30
0.0
 11
19.85047548813793
 21
144.4461402941378
 31
0.0
  0
LINE
  5
AA
330
A
100
AcDbEntity
  8
MGW9
  6
Continuous
 62
     4
100
AcDbLine
 10
46.10047548813793
 20
168.4461402941378
 30
0.0
 11
46.10047548813793
 21
150.4461402941378
 31
0.0
  0
LINE
  5
AB
330
A
100
AcDbEntity
  8
MGW9
  6
Continuous
 62
     4
100
AcDbLine
 10
-33.89952451186207
 20
124.4461402941378
 30
0.0
 11
-33.89952451186207
 21
117.4461402941378
 31
0.0
  0
LINE
  5
AC
330
A
100
AcDbEntity
  8
MGW9
  6
Continuous
 62
     4
100
AcDbLine
 10
46.10047548813793
 20
168.4461402941378
 30
0.0
 11
25.35047548813792
 21
168.4461402941378
 31
0.0
  0
LINE
  5
AD
330
A
100
AcDbEntity
  8
MGW9
  6
Continuous
 62
     4
100
AcDbLine
 10
46.10047548813793
 20
150.4461402941378
 30
0.0
 11
25.35047548813793
 21
150.4461402941378
 31
0.0
  0
LINE
  5
AE
330
A
100
AcDbEntity
  8
MGW9
  6
Continuous
 62
     4
100
AcDbLine
 10
46.10047548813793
 20
117.4461402941378
 30
0.0
 11
46.10047548813793
 21
124.4461402941378
 31
0.0
  0
LINE
  5
AF
330
A
100
AcDbEntity
  8
MGW9
  6
CENTER
 62
   252
100
AcDbLine
 10
36.10047548813793
 20
116.888108523253
 30
0.0
 11
36.10047548813793
 21
125.0041720650226
 31
0.0
  0
LINE
  5
B0
330
A
100
AcDbEntity
  8
MGW9
  6
CENTER
 62
   252
100
AcDbLine
 10
6.100475488137931
 20
116.888108523253
 30
0.0
 11
6.100475488137931
 21
125.0041720650226
 31
0.0
  0
LINE
  5
B1
330
A
100
AcDbEntity
  8
MGW9
  6
DASHED
 62
   252
100
AcDbLine
 10
-26.89952451186205
 20
119.9461402941378
 30
0.0
 11
-20.89952451186205
 21
119.9461402941378
 31
0.0
  0
LINE
  5
B2
330
A
100
AcDbEntity
  8
MGW9
  6
Continuous
 62
     4
100
AcDbLine
 10
46.10047548813793
 20
117.4461402941378
 30
0.0
 11
-33.89952451186207
 21
117.4461402941378
 31
0.0
  0
LINE
  5
B3
330
A
100
AcDbEntity
  8
MGW9
  6
Continuous
 62
     4
100
AcDbLine
 10
46.10047548813794
 20
118.2461402941378
 30
0.0
 11
-33.89952451186207
 21
118.2461402941378
 31
0.0
  0
LINE
  5
B4
330
A
100
AcDbEntity
  8
MGW9
  6
Continuous
 62
     4
100
AcDbLine
 10
46.10047548813793
 20
121.5296251551467
 30
0.0
 11
25.35047548813793
 21
121.5296251551467
 31
0.0
  0
LINE
  5
B5
330
A
100
AcDbEntity
  8
MGW9
  6
Continuous
 62
     4
100
AcDbLine
 10
46.10047548813793
 20
123.362655433129
 30
0.0
 11
25.35047548813793
 21
123.362655433129
 31
0.0
  0
LINE
  5
B6
330
A
100
AcDbEntity
  8
MGW9
  6
Continuous
 62
     4
100
AcDbLine
 10
46.10047548813793
 20
123.8461402941378
 30
0.0
 11
25.35047548813793
 21
123.8461402941378
 31
0.0
  0
LINE
  5
B7
330
A
100
AcDbEntity
  8
MGW9
  6
Continuous
 62
     4
100
AcDbLine
 10
46.10047548813793
 20
124.4461402941378
 30
0.0
 11
25.35047548813793
 21
124.4461402941378
 31
0.0
  0
LINE
  5
B8
330
A
100
AcDbEntity
  8
MGW9
  6
DASHED
 62
   252
100
AcDbLine
 10
-20.78405445802414
 20
124.4461402941378
 30
0.0
 11
-20.89952451186205
 21
124.2461402941378
 31
0.0
  0
LINE
  5
B9
330
A
100
AcDbEntity
  8
MGW9
  6
DASHED
 62
   252
100
AcDbLine
 10
-27.01499456569996
 20
124.4461402941378
 30
0.0
 11
-26.89952451186205
 21
124.2461402941378
 31
0.0
  0
LINE
  5
BA
330
A
100
AcDbEntity
  8
MGW9
  6
DASHED
 62
   252
100
AcDbLine
 10
-26.89952451186205
 20
124.2461402941378
 30
0.0
 11
-20.89952451186205
 21
124.2461402941378
 31
0.0
  0
LINE
  5
BB
330
A
100
AcDbEntity
  8
MGW9
  6
DASHED
 62
   252
100
AcDbLine
 10
-26.89952451186205
 20
124.2461402941378
 30
0.0
 11
-26.89952451186205
 21
119.9461402941378
 31
0.0
  0
LINE
  5
BC
330
A
100
AcDbEntity
  8
MGW9
  6
DASHED
 62
   252
100
AcDbLine
 10
-20.89952451186205
 20
124.2461402941378
 30
0.0
 11
-20.89952451186205
 21
119.9461402941378
 31
0.0
  0
LINE
  5
BD
330
A
100
AcDbEntity
  8
MGW9
  6
DASHED
 62
   252
100
AcDbLine
 10
-21.84952451186206
 20
117.4461402941378
 30
0.0
 11
-22.14952451186205
 21
117.7461402941378
 31
0.0
  0
LINE
  5
BE
330
A
100
AcDbEntity
  8
MGW9
  6
DASHED
 62
   252
100
AcDbLine
 10
-22.14952451186205
 20
119.9461402941378
 30
0.0
 11
-22.14952451186205
 21
117.7461402941378
 31
0.0
  0
LINE
  5
BF
330
A
100
AcDbEntity
  8
MGW9
  6
DASHED
 62
   252
100
AcDbLine
 10
-25.94952451186205
 20
117.4461402941378
 30
0.0
 11
-25.64952451186205
 21
117.7461402941378
 31
0.0
  0
LINE
  5
C0
330
A
100
AcDbEntity
  8
MGW9
  6
DASHED
 62
   252
100
AcDbLine
 10
-25.64952451186205
 20
117.7461402941378
 30
0.0
 11
-22.14952451186205
 21
117.7461402941378
 31
0.0
  0
LINE
  5
C1
330
A
100
AcDbEntity
  8
MGW9
  6
DASHED
 62
   252
100
AcDbLine
 10
-25.64952451186205
 20
119.9461402941378
 30
0.0
 11
-25.64952451186205
 21
117.7461402941378
 31
0.0
  0
LINE
  5
C2
330
A
100
AcDbEntity
  8
MGW9
  6
CENTER
 62
   252
100
AcDbLine
 10
-23.89952451186207
 20
116.888108523253
 30
0.0
 11
-23.89952451186207
 21
125.0041720650226
 31
0.0
  0
LINE
  5
C3
330
A
100
AcDbEntity
  8
MGW9
  6
Continuous
 62
     4
100
AcDbLine
 10
-33.89952451186207
 20
168.4461402941378
 30
0.0
 11
-33.89952451186207
 21
150.4461402941378
 31
0.0
  0
LINE
  5
C4
330
A
100
AcDbEntity
  8
ES
  6
CENTER
 62
   252
100
AcDbLine
 10
-59.77579106564714
 20
127.0461402941378
 30
0.0
 11
-57.714237240381
 21
127.0461402941378
 31
0.0
  0
ARC
  5
C5
330
A
100
AcDbEntity
  8
ES
  6
Continuous
 62
     4
100
AcDbCircle
 10
-49.94952451186211
 20
121.4771922099678
 30
0.0
 40
0.6000000000000001
100
AcDbArc
 50
0.0000000000016284
 51
61.7465086652075
  0
ARC
  5
C6
330
A
100
AcDbEntity
  8
ES
  6
Continuous
 62
     4
100
AcDbCircle
 10
-49.94952451186211
 20
123.4150883783078
 30
0.0
 40
0.6000000000000001
100
AcDbArc
 50
298.2534913347917
 51
360.0000000000016
  0
ARC
  5
C7
330
A
100
AcDbEntity
  8
ES
  6
Continuous
 62
     4
100
AcDbCircle
 10
-49.42881383386207
 20
122.4461402941378
 30
0.0
 40
0.5
100
AcDbArc
 50
118.2534913347946
 51
241.746508665206
  0
ARC
  5
C8
330
A
100
AcDbEntity
  8
ES
  6
Continuous
 62
     4
100
AcDbCircle
 10
-67.84952451186211
 20
121.4771922099678
 30
0.0
 40
0.6000000000000001
100
AcDbArc
 50
118.2534913347925
 51
179.9999999999983
  0
ARC
  5
C9
330
A
100
AcDbEntity
  8
ES
  6
Continuous
 62
     4
100
AcDbCircle
 10
-67.84952451186211
 20
123.4150883783078
 30
0.0
 40
0.6000000000000001
100
AcDbArc
 50
179.9999999999983
 51
241.7465086652085
  0
ARC
  5
CA
330
A
100
AcDbEntity
  8
ES
  6
Continuous
 62
     4
100
AcDbCircle
 10
-68.37023518986214
 20
122.4461402941378
 30
0.0
 40
0.5
100
AcDbArc
 50
298.2534913347943
 51
421.7465086652056
  0
LINE
  5
CB
330
A
100
AcDbEntity
  8
ES
  6
Continuous
 62
     4
100
AcDbLine
 10
-49.34952451186217
 20
121.4771922099678
 30
0.0
 11
-49.34952451186217
 21
120.4461402941378
 31
0.0
  0
LINE
  5
CC
330
A
100
AcDbEntity
  8
ES
  6
Continuous
 62
     4
100
AcDbLine
 10
-49.34952451186217
 20
124.373957753443
 30
0.0
 11
-49.34952451186217
 21
123.4150883783078
 31
0.0
  0
LINE
  5
CD
330
A
100
AcDbEntity
  8
ES
  6
Continuous
 62
     4
100
AcDbLine
 10
-49.97170705255698
 20
124.9961402941378
 30
0.0
 11
-49.34952451186217
 21
124.373957753443
 31
0.0
  0
LINE
  5
CE
330
A
100
AcDbEntity
  8
ES
  6
Continuous
 62
     4
100
AcDbLine
 10
-67.82734197116728
 20
124.9961402941378
 30
0.0
 11
-49.97170705255698
 21
124.9961402941378
 31
0.0
  0
LINE
  5
CF
330
A
100
AcDbEntity
  8
ES
  6
Continuous
 62
     4
100
AcDbLine
 10
-68.44952451186211
 20
124.373957753443
 30
0.0
 11
-67.82734197116728
 21
124.9961402941378
 31
0.0
  0
LINE
  5
D0
330
A
100
AcDbEntity
  8
ES
  6
Continuous
 62
     4
100
AcDbLine
 10
-68.44952451186211
 20
123.4150883783078
 30
0.0
 11
-68.44952451186211
 21
124.373957753443
 31
0.0
  0
LINE
  5
D1
330
A
100
AcDbEntity
  8
ES
  6
Continuous
 62
     4
100
AcDbLine
 10
-68.44952451186211
 20
120.4461402941378
 30
0.0
 11
-68.44952451186211
 21
121.4771922099678
 31
0.0
  0
LINE
  5
D2
330
A
100
AcDbEntity
  8
ES
  6
Continuous
 62
     4
100
AcDbLine
 10
-49.84952451186217
 20
121.4435165967744
 30
0.0
 11
-49.84952451186217
 21
120.4461402941378
 31
0.0
  0
ARC
  5
D3
330
A
100
AcDbEntity
  8
ES
  6
Continuous
 62
     4
100
AcDbCircle
 10
-50.02952451186212
 20
121.4435165967744
 30
0.0
 40
0.1799999999999959
100
AcDbArc
 50
359.9999999999983
 51
420.7656658341447
  0
ARC
  5
D4
330
A
100
AcDbEntity
  8
ES
  6
Continuous
 62
     4
100
AcDbCircle
 10
-49.42881383386214
 20
122.5168509721378
 30
0.0
 40
1.049999999999995
100
AcDbArc
 50
211.9401466217423
 51
240.7656658341436
  0
ARC
  5
D5
330
A
100
AcDbEntity
  8
ES
  6
Continuous
 62
     4
100
AcDbCircle
 10
-50.47259331897226
 20
121.8661402941378
 30
0.0
 40
0.1799999999999926
100
AcDbArc
 50
31.94014662174236
 51
90.0
  0
LINE
  5
D6
330
A
100
AcDbEntity
  8
ES
  6
Continuous
 62
     4
100
AcDbLine
 10
-50.74952451186216
 20
122.0461402941378
 30
0.0
 11
-50.4725933189723
 21
122.0461402941378
 31
0.0
  0
ARC
  5
D7
330
A
100
AcDbEntity
  8
ES
  6
Continuous
 62
     4
100
AcDbCircle
 10
-50.74952451186212
 20
122.4461402941378
 30
0.0
 40
0.4000000000000057
100
AcDbArc
 50
90.0
 51
270.0
  0
LINE
  5
D8
330
A
100
AcDbEntity
  8
ES
  6
Continuous
 62
     4
100
AcDbLine
 10
-50.4725933189723
 20
122.8461402941378
 30
0.0
 11
-50.74952451186216
 21
122.8461402941378
 31
0.0
  0
ARC
  5
D9
330
A
100
AcDbEntity
  8
ES
  6
Continuous
 62
     4
100
AcDbCircle
 10
-50.47259331897222
 20
123.0261402941378
 30
0.0
 40
0.1800000000000021
100
AcDbArc
 50
270.0
 51
328.0598533782576
  0
ARC
  5
DA
330
A
100
AcDbEntity
  8
ES
  6
Continuous
 62
     4
100
AcDbCircle
 10
-49.42881383386214
 20
122.3754296161378
 30
0.0
 40
1.05
100
AcDbArc
 50
119.234334165856
 51
148.0598533782576
  0
ARC
  5
DB
330
A
100
AcDbEntity
  8
ES
  6
Continuous
 62
     4
100
AcDbCircle
 10
-50.02952451186212
 20
123.4487639915012
 30
0.0
 40
0.1799999999999997
100
AcDbArc
 50
299.2343341658571
 51
360.0
  0
LINE
  5
DC
330
A
100
AcDbEntity
  8
ES
  6
Continuous
 62
     4
100
AcDbLine
 10
-49.84952451186217
 20
124.1668509722565
 30
0.0
 11
-49.84952451186211
 21
123.4487639915012
 31
0.0
  0
LINE
  5
DD
330
A
100
AcDbEntity
  8
ES
  6
Continuous
 62
     4
100
AcDbLine
 10
-50.17881383374352
 20
124.4961402941378
 30
0.0
 11
-49.84952451186217
 21
124.1668509722565
 31
0.0
  0
LINE
  5
DE
330
A
100
AcDbEntity
  8
ES
  6
Continuous
 62
     4
100
AcDbLine
 10
-67.62023518998074
 20
124.4961402941378
 30
0.0
 11
-50.17881383374352
 21
124.4961402941378
 31
0.0
  0
LINE
  5
DF
330
A
100
AcDbEntity
  8
ES
  6
Continuous
 62
     4
100
AcDbLine
 10
-67.94952451186211
 20
124.1668509722564
 30
0.0
 11
-67.62023518998074
 21
124.4961402941378
 31
0.0
  0
LINE
  5
E0
330
A
100
AcDbEntity
  8
ES
  6
Continuous
 62
     4
100
AcDbLine
 10
-67.94952451186216
 20
123.4487639915012
 30
0.0
 11
-67.94952451186211
 21
124.1668509722564
 31
0.0
  0
ARC
  5
E1
330
A
100
AcDbEntity
  8
ES
  6
Continuous
 62
     4
100
AcDbCircle
 10
-67.76952451186216
 20
123.4487639915012
 30
0.0
 40
0.1800000000000028
100
AcDbArc
 50
180.0
 51
240.7656658341428
  0
ARC
  5
E2
330
A
100
AcDbEntity
  8
ES
  6
Continuous
 62
     4
100
AcDbCircle
 10
-68.37023518986214
 20
122.3754296161378
 30
0.0
 40
1.049999999999989
100
AcDbArc
 50
31.94014662174236
 51
60.765665834144
  0
ARC
  5
E3
330
A
100
AcDbEntity
  8
ES
  6
Continuous
 62
     4
100
AcDbCircle
 10
-67.32645570475205
 20
123.0261402941378
 30
0.0
 40
0.1799999999999926
100
AcDbArc
 50
211.9401466217423
 51
270.0
  0
LINE
  5
E4
330
A
100
AcDbEntity
  8
ES
  6
Continuous
 62
     4
100
AcDbLine
 10
-67.04952451186212
 20
122.8461402941378
 30
0.0
 11
-67.32645570475198
 21
122.8461402941378
 31
0.0
  0
ARC
  5
E5
330
A
100
AcDbEntity
  8
ES
  6
Continuous
 62
     4
100
AcDbCircle
 10
-67.04952451186215
 20
122.4461402941378
 30
0.0
 40
0.4000000000000057
100
AcDbArc
 50
270.0
 51
450.0
  0
LINE
  5
E6
330
A
100
AcDbEntity
  8
ES
  6
Continuous
 62
     4
100
AcDbLine
 10
-67.32645570475198
 20
122.0461402941378
 30
0.0
 11
-67.04952451186212
 21
122.0461402941378
 31
0.0
  0
ARC
  5
E7
330
A
100
AcDbEntity
  8
ES
  6
Continuous
 62
     4
100
AcDbCircle
 10
-67.32645570475202
 20
121.8661402941378
 30
0.0
 40
0.1800000000000081
100
AcDbArc
 50
90.0
 51
148.0598533782576
  0
ARC
  5
E8
330
A
100
AcDbEntity
  8
ES
  6
Continuous
 62
     4
100
AcDbCircle
 10
-68.37023518986214
 20
122.5168509721378
 30
0.0
 40
1.05
100
AcDbArc
 50
299.234334165856
 51
328.0598533782576
  0
ARC
  5
E9
330
A
100
AcDbEntity
  8
ES
  6
Continuous
 62
     4
100
AcDbCircle
 10
-67.76952451186216
 20
121.4435165967744
 30
0.0
 40
0.1799999999999926
100
AcDbArc
 50
119.2343341658553
 51
180.0000000000016
  0
LINE
  5
EA
330
A
100
AcDbEntity
  8
ES
  6
Continuous
 62
     4
100
AcDbLine
 10
-67.94952451186211
 20
120.4461402941378
 30
0.0
 11
-67.94952451186211
 21
121.4435165967744
 31
0.0
  0
LINE
  5
EB
330
A
100
AcDbEntity
  8
ES
  6
CENTER
 62
   252
100
AcDbLine
 10
-58.89952451186211
 20
123.8211597162534
 30
0.0
 11
-58.89952451186211
 21
129.90748214767
 31
0.0
  0
CIRCLE
  5
EC
330
A
100
AcDbEntity
  8
ES
  6
Continuous
 62
     4
100
AcDbCircle
 10
-48.29952451186206
 20
126.5961402941378
 30
0.0000000000000142
 40
1.85
  0
CIRCLE
  5
ED
330
A
100
AcDbEntity
  8
ES
  6
Continuous
 62
     4
100
AcDbCircle
 10
-69.49952451186216
 20
126.5961402941378
 30
0.0000000000000142
 40
1.85
  0
LINE
  5
EE
330
A
100
AcDbEntity
  8
MGW9
  6
Continuous
 62
     4
100
AcDbLine
 10
-43.89952451186205
 20
122.9925504556516
 30
0.0
 11
-43.89952451186211
 21
128.9461402941378
 31
0.0
  0
LINE
  5
EF
330
A
100
AcDbEntity
  8
MGW9
  6
Continuous
 62
     4
100
AcDbLine
 10
-43.89952451186208
 20
120.9461402941378
 30
0.0
 11
-43.89952451186208
 21
122.299730132624
 31
0.0
  0
LINE
  5
F0
330
A
100
AcDbEntity
  8
MGW9
  6
Continuous
 62
     4
100
AcDbLine
 10
-73.89952451186211
 20
120.9461402941378
 30
0.0
 11
-73.89952451186211
 21
128.9461402941378
 31
0.0
  0
LINE
  5
F1
330
A
100
AcDbEntity
  8
MGW9
  6
CENTER
 62
   252
100
AcDbLine
 10
-58.89952451186208
 20
116.9461402941378
 30
0.0
 11
-58.89952451186208
 21
124.9461402941378
 31
0.0
  0
LINE
  5
F2
330
A
100
AcDbEntity
  8
MGW9
  6
Continuous
 62
     4
100
AcDbLine
 10
-49.89952451186211
 20
121.4435165967744
 30
0.0
 11
-49.89952451186214
 21
117.9461402941378
 31
0.0
  0
LINE
  5
F3
330
A
100
AcDbEntity
  8
MGW9
  6
Continuous
 62
     4
100
AcDbLine
 10
-49.89952451186211
 20
124.1461402941378
 30
0.0
 11
-49.89952451186211
 21
123.4487639915012
 31
0.0
  0
LINE
  5
F4
330
A
100
AcDbEntity
  8
MGW9
  6
Continuous
 62
     4
100
AcDbLine
 10
-50.39952451186214
 20
117.4461402941378
 30
0.0
 11
-52.69952451186206
 21
117.4461402941378
 31
0.0
  0
LINE
  5
F5
330
A
100
AcDbEntity
  8
MGW9
  6
Continuous
 62
     4
100
AcDbLine
 10
-53.49952451186211
 20
117.4461402941378
 30
0.0
 11
-67.39952451186209
 21
117.4461402941378
 31
0.0
  0
LINE
  5
F6
330
A
100
AcDbEntity
  8
MGW9
  6
Continuous
 62
     4
100
AcDbLine
 10
-67.5995245118621
 20
124.4461402941378
 30
0.0
 11
-50.19952451186212
 21
124.4461402941378
 31
0.0
  0
LINE
  5
F7
330
A
100
AcDbEntity
  8
MGW9
  6
Continuous
 62
     4
100
AcDbLine
 10
-67.89952451186211
 20
121.4191455257885
 30
0.0
 11
-67.89952451186211
 21
117.9461402941378
 31
0.0
  0
LINE
  5
F8
330
A
100
AcDbEntity
  8
MGW9
  6
DASHED
 62
   252
100
AcDbLine
 10
-60.64952451186211
 20
120.0461402941378
 30
0.0
 11
-60.64952451186211
 21
117.7461402941378
 31
0.0
  0
LINE
  5
F9
330
A
100
AcDbEntity
  8
MGW9
  6
DASHED
 62
   252
100
AcDbLine
 10
-60.64952451186211
 20
117.7461402941378
 30
0.0
 11
-57.14952451186211
 21
117.7461402941378
 31
0.0
  0
LINE
  5
FA
330
A
100
AcDbEntity
  8
MGW9
  6
DASHED
 62
   252
100
AcDbLine
 10
-60.94952451186212
 20
117.4461402941378
 30
0.0
 11
-60.64952451186211
 21
117.7461402941378
 31
0.0
  0
LINE
  5
FB
330
A
100
AcDbEntity
  8
MGW9
  6
DASHED
 62
   252
100
AcDbLine
 10
-57.14952451186213
 20
120.0461402941378
 30
0.0
 11
-57.14952451186211
 21
117.7461402941378
 31
0.0
  0
LINE
  5
FC
330
A
100
AcDbEntity
  8
MGW9
  6
DASHED
 62
   252
100
AcDbLine
 10
-56.84952451186212
 20
117.4461402941378
 30
0.0
 11
-57.14952451186211
 21
117.7461402941378
 31
0.0
  0
LINE
  5
FD
330
A
100
AcDbEntity
  8
MGW9
  6
DASHED
 62
   252
100
AcDbLine
 10
-61.89952451186214
 20
120.0461402941378
 30
0.0
 11
-55.89952451186211
 21
120.0461402941378
 31
0.0
  0
LINE
  5
FE
330
A
100
AcDbEntity
  8
MGW9
  6
DASHED
 62
   252
100
AcDbLine
 10
-55.89952451186211
 20
124.2461402941378
 30
0.0
 11
-55.89952451186211
 21
120.0461402941378
 31
0.0
  0
LINE
  5
FF
330
A
100
AcDbEntity
  8
MGW9
  6
DASHED
 62
   252
100
AcDbLine
 10
-61.89952451186211
 20
124.2461402941378
 30
0.0
 11
-61.89952451186214
 21
120.0461402941378
 31
0.0
  0
LINE
  5
100
330
A
100
AcDbEntity
  8
MGW9
  6
Continuous
 62
     4
100
AcDbLine
 10
-67.89952451186211
 20
120.3461402941378
 30
0.0
 11
-73.29952451186212
 21
120.3461402941378
 31
0.0
  0
LINE
  5
101
330
A
100
AcDbEntity
  8
MGW9
  6
Continuous
 62
     4
100
AcDbLine
 10
-44.49952451186211
 20
120.3461402941378
 30
0.0
 11
-49.89952451186212
 21
120.3461402941378
 31
0.0
  0
LINE
  5
102
330
A
100
AcDbEntity
  8
MGW9
  6
DASHED
 62
   252
100
AcDbLine
 10
-70.89952451186211
 20
129.1461402941378
 30
0.0
 11
-71.19952451186215
 21
129.4461402941378
 31
0.0
  0
LINE
  5
103
330
A
100
AcDbEntity
  8
MGW9
  6
DASHED
 62
   252
100
AcDbLine
 10
-67.59952451186213
 20
129.4461402941378
 30
0.0
 11
-67.89952451186206
 21
129.1461402941378
 31
0.0
  0
LINE
  5
104
330
A
100
AcDbEntity
  8
MGW9
  6
Continuous
 62
     4
100
AcDbLine
 10
-67.89952451186216
 20
123.4731350624871
 30
0.0
 11
-67.89952451186211
 21
124.1461402941378
 31
0.0
  0
LINE
  5
105
330
A
100
AcDbEntity
  8
MGW9
  6
Continuous
 62
     4
100
AcDbLine
 10
-73.39952451186211
 20
129.4461402941378
 30
0.0
 11
-73.89952451186211
 21
128.9461402941378
 31
0.0
  0
LINE
  5
106
330
A
100
AcDbEntity
  8
MGW9
  6
Continuous
 62
     4
100
AcDbLine
 10
-73.89952451186211
 20
120.9461402941378
 30
0.0
 11
-73.29952451186212
 21
120.3461402941378
 31
0.0
  0
LINE
  5
107
330
A
100
AcDbEntity
  8
MGW9
  6
Continuous
 62
     4
100
AcDbLine
 10
-43.89952451186208
 20
120.9461402941378
 30
0.0
 11
-44.49952451186211
 21
120.3461402941378
 31
0.0
  0
LINE
  5
108
330
A
100
AcDbEntity
  8
MGW9
  6
Continuous
 62
     4
100
AcDbLine
 10
-44.3995245118621
 20
129.4461402941378
 30
0.0
 11
-43.89952451186211
 21
128.9461402941378
 31
0.0
  0
LINE
  5
109
330
A
100
AcDbEntity
  8
MGW9
  6
Continuous
 62
     4
100
AcDbLine
 10
-44.3995245118621
 20
129.4461402941378
 30
0.0
 11
-73.39952451186211
 21
129.4461402941378
 31
0.0
  0
LINE
  5
10A
330
A
100
AcDbEntity
  8
MGW9
  6
Continuous
 62
     4
100
AcDbLine
 10
-50.74952451186208
 20
121.9961402941378
 30
0.0
 11
-50.47259331897224
 21
121.9961402941378
 31
0.0
  0
LINE
  5
10B
330
A
100
AcDbEntity
  8
MGW9
  6
Continuous
 62
     4
100
AcDbLine
 10
-50.74952451186208
 20
122.8961402941378
 30
0.0
 11
-50.47259331897224
 21
122.8961402941378
 31
0.0
  0
ARC
  5
10C
330
A
100
AcDbEntity
  8
MGW9
  6
Continuous
 62
     4
100
AcDbCircle
 10
-50.74952451186215
 20
122.4461402941378
 30
0.0
 40
0.4499999999999993
100
AcDbArc
 50
90.0
 51
270.0
  0
ARC
  5
10D
330
A
100
AcDbEntity
  8
MGW9
  6
Continuous
 62
     4
100
AcDbCircle
 10
-67.04952451186215
 20
122.4461402941378
 30
0.0000000000000142
 40
0.4499999999999993
100
AcDbArc
 50
270.0
 51
450.0
  0
LINE
  5
10E
330
A
100
AcDbEntity
  8
MGW9
  6
Continuous
 62
     4
100
AcDbLine
 10
-67.04952451186212
 20
122.8961402941378
 30
0.0
 11
-67.33100470532079
 21
122.8961402941378
 31
0.0
  0
LINE
  5
10F
330
A
100
AcDbEntity
  8
MGW9
  6
Continuous
 62
     4
100
AcDbLine
 10
-67.04952451186212
 20
121.9961402941378
 30
0.0
 11
-67.33100470532081
 21
121.9961402941378
 31
0.0
  0
LINE
  5
110
330
A
100
AcDbEntity
  8
MGW9
  6
Continuous
 62
     4
100
AcDbLine
 10
-67.89952451186211
 20
124.1461402941378
 30
0.0
 11
-67.5995245118621
 21
124.4461402941378
 31
0.0
  0
LINE
  5
111
330
A
100
AcDbEntity
  8
MGW9
  6
Continuous
 62
     4
100
AcDbLine
 10
-50.19952451186212
 20
124.4461402941378
 30
0.0
 11
-49.89952451186211
 21
124.1461402941378
 31
0.0
  0
LINE
  5
112
330
A
100
AcDbEntity
  8
MGW9
  6
Continuous
 62
   252
100
AcDbLine
 10
-69.39952451186214
 20
129.4461402941378
 30
0.0
 11
-69.39952451186211
 21
129.4461402941378
 31
-0.0005000000000308
  0
LINE
  5
113
330
A
100
AcDbEntity
  8
MGW9
  6
CENTER
 62
   252
100
AcDbLine
 10
-69.39952451186211
 20
129.9461402941378
 30
0.0
 11
-69.39952451186214
 21
124.4744524576508
 31
0.0
  0
LINE
  5
114
330
A
100
AcDbEntity
  8
MGW9
  6
DASHED
 62
   252
100
AcDbLine
 10
-67.89952451186206
 20
129.1461402941378
 30
0.0
 11
-67.89952451186211
 21
126.4461402941378
 31
0.0
  0
LINE
  5
115
330
A
100
AcDbEntity
  8
MGW9
  6
DASHED
 62
   252
100
AcDbLine
 10
-70.89952451186211
 20
129.1461402941378
 30
0.0
 11
-70.89952451186211
 21
126.4461402941378
 31
0.0
  0
LINE
  5
116
330
A
100
AcDbEntity
  8
MGW9
  6
DASHED
 62
   252
100
AcDbLine
 10
-67.89952451186211
 20
126.4461402941378
 30
0.0
 11
-70.89952451186211
 21
126.4461402941378
 31
0.0
  0
LINE
  5
117
330
A
100
AcDbEntity
  8
MGW9
  6
DASHED
 62
   252
100
AcDbLine
 10
-68.14952451186214
 20
129.1461402941378
 30
0.0
 11
-68.14952451186211
 21
125.6461402941378
 31
0.0
  0
LINE
  5
118
330
A
100
AcDbEntity
  8
MGW9
  6
DASHED
 62
   252
100
AcDbLine
 10
-70.64952451186214
 20
129.1461402941378
 30
0.0
 11
-70.64952451186214
 21
125.6461402941378
 31
0.0
  0
LINE
  5
119
330
A
100
AcDbEntity
  8
MGW9
  6
DASHED
 62
   252
100
AcDbLine
 10
-68.14952451186211
 20
125.6461402941378
 30
0.0
 11
-70.64952451186214
 21
125.6461402941378
 31
0.0
  0
LINE
  5
11A
330
A
100
AcDbEntity
  8
MGW9
  6
DASHED
 62
   252
100
AcDbLine
 10
-68.14952451186211
 20
125.6461402941378
 30
0.0
 11
-69.39952451186211
 21
124.9244524576508
 31
0.0
  0
LINE
  5
11B
330
A
100
AcDbEntity
  8
MGW9
  6
DASHED
 62
   252
100
AcDbLine
 10
-70.64952451186214
 20
125.6461402941378
 30
0.0
 11
-69.39952451186211
 21
124.9244524576508
 31
0.0
  0
LINE
  5
11C
330
A
100
AcDbEntity
  8
MGW9
  6
DASHED
 62
   252
100
AcDbLine
 10
-67.89952451186206
 20
129.1461402941378
 30
0.0
 11
-70.89952451186211
 21
129.1461402941378
 31
0.0
  0
LINE
  5
11D
330
A
100
AcDbEntity
  8
MGW9
  6
CENTER
 62
   252
100
AcDbLine
 10
-48.39952451186211
 20
129.9461402941378
 30
0.0
 11
-48.39952451186211
 21
124.4744524576508
 31
0.0
  0
LINE
  5
11E
330
A
100
AcDbEntity
  8
MGW9
  6
Continuous
 62
     4
100
AcDbLine
 10
-67.89952451186211
 20
117.9461402941378
 30
0.0
 11
-67.39952451186209
 21
117.4461402941378
 31
0.0
  0
LINE
  5
11F
330
A
100
AcDbEntity
  8
MGW9
  6
Continuous
 62
     4
100
AcDbLine
 10
-49.89952451186214
 20
117.9461402941378
 30
0.0
 11
-50.39952451186214
 21
117.4461402941378
 31
0.0
  0
LINE
  5
120
330
A
100
AcDbEntity
  8
MGW9
  6
DASHED
 62
   252
100
AcDbLine
 10
-61.89952451186211
 20
124.2461402941378
 30
0.0
 11
-55.89952451186211
 21
124.2461402941378
 31
0.0
  0
LINE
  5
121
330
A
100
AcDbEntity
  8
MGW9
  6
DASHED
 62
   252
100
AcDbLine
 10
-62.01499456570006
 20
124.4461402941378
 30
0.0
 11
-61.89952451186211
 21
124.2461402941378
 31
0.0
  0
LINE
  5
122
330
A
100
AcDbEntity
  8
MGW9
  6
DASHED
 62
   252
100
AcDbLine
 10
-55.78405445802419
 20
124.4461402941378
 30
0.0
 11
-55.89952451186211
 21
124.2461402941378
 31
0.0
  0
ARC
  5
123
330
A
100
AcDbEntity
  8
MGW9
  6
Continuous
 62
     4
100
AcDbCircle
 10
-53.09952451186214
 20
117.1461402941378
 30
-0.0000000000000142
 40
0.5
100
AcDbArc
 50
36.86989764584565
 51
143.1301023541543
  0
ARC
  5
124
330
A
100
AcDbEntity
  8
MGW9
  6
Continuous
 62
     4
100
AcDbCircle
 10
-43.6995245118621
 20
122.6461402941378
 30
0.0
 40
0.4
100
AcDbArc
 50
120.0000000000005
 51
239.9999999999995
  0
LINE
  5
125
330
A
100
AcDbEntity
  8
ES
  6
Continuous
 62
     4
100
AcDbLine
 10
-44.94952451186214
 20
129.1461402941378
 30
0.0
 11
-72.84952451186214
 21
129.1461402941378
 31
0.0
  0
LINE
  5
126
330
A
100
AcDbEntity
  8
ES
  6
Continuous
 62
     4
100
AcDbLine
 10
-73.64952451186209
 20
121.0461402941378
 30
0.0
 11
-73.64952451186209
 21
128.3461402941378
 31
0.0
  0
LINE
  5
127
330
A
100
AcDbEntity
  8
ES
  6
Continuous
 62
     4
100
AcDbLine
 10
-73.64952451186209
 20
121.0461402941378
 30
0.0
 11
-73.04952451186213
 21
120.4461402941378
 31
0.0
  0
LINE
  5
128
330
A
100
AcDbEntity
  8
ES
  6
Continuous
 62
     4
100
AcDbLine
 10
-73.64952451186209
 20
128.3461402941378
 30
0.0
 11
-72.84952451186214
 21
129.1461402941378
 31
0.0
  0
LINE
  5
129
330
A
100
AcDbEntity
  8
ES
  6
Continuous
 62
     4
100
AcDbLine
 10
-67.94952451186211
 20
120.4461402941378
 30
0.0
 11
-73.04952451186213
 21
120.4461402941378
 31
0.0
  0
LINE
  5
12A
330
A
100
AcDbEntity
  8
ES
  6
Continuous
 62
     4
100
AcDbLine
 10
-44.14952451186219
 20
121.0461402941378
 30
0.0
 11
-44.14952451186219
 21
128.3461402941378
 31
0.0
  0
LINE
  5
12B
330
A
100
AcDbEntity
  8
ES
  6
Continuous
 62
     4
100
AcDbLine
 10
-44.14952451186219
 20
121.0461402941378
 30
0.0
 11
-44.74952451186215
 21
120.4461402941378
 31
0.0
  0
LINE
  5
12C
330
A
100
AcDbEntity
  8
ES
  6
Continuous
 62
     4
100
AcDbLine
 10
-44.14952451186219
 20
128.3461402941378
 30
0.0
 11
-44.94952451186214
 21
129.1461402941378
 31
0.0
  0
LINE
  5
12D
330
A
100
AcDbEntity
  8
ES
  6
Continuous
 62
     4
100
AcDbLine
 10
-49.84952451186217
 20
120.4461402941378
 30
0.0
 11
-44.74952451186215
 21
120.4461402941378
 31
0.0
  0
LINE
  5
12E
330
A
100
AcDbEntity
  8
ES
  6
Continuous
 62
     4
100
AcDbLine
 10
-69.0495245118621
 20
120.4461402941378
 30
0.0
 11
-69.0495245118621
 21
124.8017044496452
 31
0.0
  0
LINE
  5
12F
330
A
100
AcDbEntity
  8
ES
  6
Continuous
 62
     4
100
AcDbLine
 10
-67.94308627023482
 20
125.5961402941378
 30
0.0
 11
-49.85596275348941
 21
125.5961402941378
 31
0.0
  0
LINE
  5
130
330
A
100
AcDbEntity
  8
ES
  6
Continuous
 62
     4
100
AcDbLine
 10
-48.74952451186217
 20
124.8017044496452
 30
0.0
 11
-48.74952451186217
 21
120.4461402941378
 31
0.0
  0
CIRCLE
  5
131
330
A
100
AcDbEntity
  8
ES
  6
Continuous
 62
     4
100
AcDbCircle
 10
-58.89952451186217
 20
127.0461402941378
 30
-0.0000000000000142
 40
0.5
  0
ENDSEC
  0
SECTION
  2
OBJECTS
  0
DICTIONARY
  5
19
330
0
100
AcDbDictionary
281
     1
  3
ACAD_GROUP
350
1A
  3
ACAD_LAYOUT
350
13D
  3
ACAD_MLINESTYLE
350
1B
  3
ACAD_PLOTSETTINGS
350
13E
  3
ACAD_PLOTSTYLENAME
350
13B
  0
DICTIONARY
  5
1A
102
{ACAD_REACTORS
330
19
102
}
330
19
100
AcDbDictionary
281
     1
  0
DICTIONARY
  5
13D
102
{ACAD_REACTORS
330
19
102
}
330
19
100
AcDbDictionary
281
     1
  3
Layout1
350
140
  3
Model
350
13F
  0
DICTIONARY
  5
1B
102
{ACAD_REACTORS
330
19
102
}
330
19
100
AcDbDictionary
281
     1
  3
STANDARD
350
1C
  0
DICTIONARY
  5
13E
102
{ACAD_REACTORS
330
19
102
}
330
19
100
AcDbDictionary
281
     1
  0
ACDBDICTIONARYWDFLT
  5
13B
102
{ACAD_REACTORS
330
19
102
}
330
19
100
AcDbDictionary
281
     1
  3
Normal
350
13C
100
AcDbDictionaryWithDefault
340
13C
  0
LAYOUT
  5
140
102
{ACAD_REACTORS
330
13D
102
}
330
13D
100
AcDbPlotSettings
  1

  2
HPLJ2100_Technik_S3
  4

  6

 40
0.0
 41
0.0
 42
0.0
 43
0.0
 44
0.0
 45
0.0
 46
0.0
 47
0.0
 48
0.0
 49
0.0
140
0.0
141
0.0
142
1.0
143
1.0
 70
   688
 72
     0
 73
     0
 74
     5
  7

 75
    16
147
1.0
148
0.0
149
0.0
100
AcDbLayout
  1
Layout1
 70
     0
 71
     1
 10
0.0
 20
0.0
 11
12.0
 21
9.0
 12
0.0
 22
0.0
 32
0.0
 14
1.000000000000000E+20
 24
1.000000000000000E+20
 34
1.000000000000000E+20
 15
-1.000000000000000E+20
 25
-1.000000000000000E+20
 35
-1.000000000000000E+20
146
0.0
 13
0.0
 23
0.0
 33
0.0
 16
1.0
 26
0.0
 36
0.0
 17
0.0
 27
1.0
 37
0.0
 76
     0
330
B
  0
LAYOUT
  5
13F
102
{ACAD_REACTORS
330
13D
102
}
330
13D
100
AcDbPlotSettings
  1

  2
HPLJ2100_Technik_S3
  4

  6

 40
0.0
 41
0.0
 42
0.0
 43
0.0
 44
0.0
 45
0.0
 46
0.0
 47
0.0
 48
0.0
 49
0.0
140
0.0
141
0.0
142
1.0
143
1.0
 70
  1712
 72
     0
 73
     0
 74
     0
  7

 75
     0
147
1.0
148
0.0
149
0.0
100
AcDbLayout
  1
Model
 70
     1
 71
     0
 10
0.0
 20
0.0
 11
12.0
 21
9.0
 12
0.0
 22
0.0
 32
0.0
 14
0.0
 24
0.0
 34
0.0
 15
0.0
 25
0.0
 35
0.0
146
0.0
 13
0.0
 23
0.0
 33
0.0
 16
1.0
 26
0.0
 36
0.0
 17
0.0
 27
1.0
 37
0.0
 76
     0
330
A
  0
MLINESTYLE
  5
1C
102
{ACAD_REACTORS
330
1B
102
}
330
1B
100
AcDbMlineStyle
  2
STANDARD
 70
     0
  3

 62
     0
 51
90.00000000000019
 52
90.00000000000019
 71
     2
 49
0.5
 62
   256
  6
BYLAYER
 49
-0.5
 62
   256
  6
BYLAYER
  0
ACDBPLACEHOLDER
  5
13C
102
{ACAD_REACTORS
330
13B
102
}
330
13B
  0
ENDSEC
  0
EOF
