  0
SECTION
  2
HEADER
  9
$ACADVER
  1
AC1014
  9
$ACADMAINTVER
 70
     9
  9
$DWGCODEPAGE
  3
ANSI_1252
  9
$INSBASE
 10
0.0
 20
0.0
 30
0.0
  9
$EXTMIN
 10
-30.97407630220047
 20
100.0772094033084
 30
0.0
  9
$EXTMAX
 10
140.0521410815097
 20
183.5888444033083
 30
0.0
  9
$LIMMIN
 10
0.0
 20
0.0
  9
$LIMMAX
 10
0.0
 20
0.0
  9
$ORTHOMODE
 70
     1
  9
$REGENMODE
 70
     1
  9
$FILLMODE
 70
     1
  9
$QTEXTMODE
 70
     0
  9
$MIRRTEXT
 70
     1
  9
$DRAGMODE
 70
     2
  9
$LTSCALE
 40
1.0
  9
$OSMODE
 70
    37
  9
$ATTMODE
 70
     1
  9
$TEXTSIZE
 40
0.0
  9
$TRACEWID
 40
0.05
  9
$TEXTSTYLE
  7
STANDARD
  9
$CLAYER
  8
0
  9
$CELTYPE
  6
CONTINUOUS
  9
$CECOLOR
 62
    15
  9
$CELTSCALE
 40
1.0
  9
$DELOBJ
 70
     1
  9
$DISPSILH
 70
     0
  9
$DIMSCALE
 40
1.0
  9
$DIMASZ
 40
0.18
  9
$DIMEXO
 40
0.0625
  9
$DIMDLI
 40
0.38
  9
$DIMRND
 40
0.0
  9
$DIMDLE
 40
0.0
  9
$DIMEXE
 40
0.25
  9
$DIMTP
 40
0.05
  9
$DIMTM
 40
-0.05
  9
$DIMTXT
 40
2.5
  9
$DIMCEN
 40
0.09
  9
$DIMTSZ
 40
0.0
  9
$DIMTOL
 70
     0
  9
$DIMLIM
 70
     0
  9
$DIMTIH
 70
     1
  9
$DIMTOH
 70
     1
  9
$DIMSE1
 70
     0
  9
$DIMSE2
 70
     0
  9
$DIMTAD
 70
     0
  9
$DIMZIN
 70
     0
  9
$DIMBLK
  1

  9
$DIMASO
 70
     1
  9
$DIMSHO
 70
     1
  9
$DIMPOST
  1

  9
$DIMAPOST
  1

  9
$DIMALT
 70
     0
  9
$DIMALTD
 70
     2
  9
$DIMALTF
 40
25.4
  9
$DIMLFAC
 40
1.0
  9
$DIMTOFL
 70
     0
  9
$DIMTVP
 40
0.0
  9
$DIMTIX
 70
     0
  9
$DIMSOXD
 70
     0
  9
$DIMSAH
 70
     0
  9
$DIMBLK1
  1

  9
$DIMBLK2
  1

  9
$DIMSTYLE
  2
STANDARD
  9
$DIMCLRD
 70
     0
  9
$DIMCLRE
 70
     0
  9
$DIMCLRT
 70
    15
  9
$DIMTFAC
 40
0.7000000000000001
  9
$DIMGAP
 40
0.09
  9
$DIMJUST
 70
     0
  9
$DIMSD1
 70
     0
  9
$DIMSD2
 70
     0
  9
$DIMTOLJ
 70
     1
  9
$DIMTZIN
 70
     0
  9
$DIMALTZ
 70
     0
  9
$DIMALTTZ
 70
     0
  9
$DIMFIT
 70
     3
  9
$DIMUPT
 70
     0
  9
$DIMUNIT
 70
     2
  9
$DIMDEC
 70
     4
  9
$DIMTDEC
 70
     4
  9
$DIMALTU
 70
     2
  9
$DIMALTTD
 70
     2
  9
$DIMTXSTY
  7
STANDARD
  9
$DIMAUNIT
 70
     0
  9
$LUNITS
 70
     2
  9
$LUPREC
 70
    10
  9
$SKETCHINC
 40
0.1
  9
$FILLETRAD
 40
0.0
  9
$AUNITS
 70
     0
  9
$AUPREC
 70
     0
  9
$MENU
  1
acad
  9
$ELEVATION
 40
0.0
  9
$PELEVATION
 40
0.0
  9
$THICKNESS
 40
0.0
  9
$LIMCHECK
 70
     0
  9
$BLIPMODE
 70
     0
  9
$CHAMFERA
 40
0.0
  9
$CHAMFERB
 40
0.0
  9
$CHAMFERC
 40
0.0
  9
$CHAMFERD
 40
0.0
  9
$SKPOLY
 70
     0
  9
$TDCREATE
 40
2444972.083333333
  9
$TDUPDATE
 40
2452443.352624734
  9
$TDINDWG
 40
0.0138943866
  9
$TDUSRTIMER
 40
0.0138943866
  9
$USRTIMER
 70
     1
  9
$ANGBASE
 50
0.0
  9
$ANGDIR
 70
     0
  9
$PDMODE
 70
     2
  9
$PDSIZE
 40
0.0
  9
$PLINEWID
 40
0.0
  9
$COORDS
 70
     1
  9
$SPLFRAME
 70
     0
  9
$SPLINETYPE
 70
     6
  9
$SPLINESEGS
 70
     8
  9
$ATTDIA
 70
     0
  9
$ATTREQ
 70
     1
  9
$HANDLING
 70
-16383
  9
$HANDSEED
  5
1FE
  9
$SURFTAB1
 70
     6
  9
$SURFTAB2
 70
     6
  9
$SURFTYPE
 70
     6
  9
$SURFU
 70
     6
  9
$SURFV
 70
     6
  9
$UCSNAME
  2

  9
$UCSORG
 10
0.0
 20
0.0
 30
0.0
  9
$UCSXDIR
 10
1.0
 20
0.0
 30
0.0
  9
$UCSYDIR
 10
0.0
 20
1.0
 30
0.0
  9
$PUCSNAME
  2

  9
$PUCSORG
 10
0.0
 20
0.0
 30
0.0
  9
$PUCSXDIR
 10
1.0
 20
0.0
 30
0.0
  9
$PUCSYDIR
 10
0.0
 20
1.0
 30
0.0
  9
$USERI1
 70
     0
  9
$USERI2
 70
     0
  9
$USERI3
 70
     0
  9
$USERI4
 70
     0
  9
$USERI5
 70
     0
  9
$USERR1
 40
0.0
  9
$USERR2
 40
0.0
  9
$USERR3
 40
0.0
  9
$USERR4
 40
0.0
  9
$USERR5
 40
0.0
  9
$WORLDVIEW
 70
     1
  9
$SHADEDGE
 70
     3
  9
$SHADEDIF
 70
    70
  9
$TILEMODE
 70
     1
  9
$MAXACTVP
 70
    16
  9
$PINSBASE
 10
0.0
 20
0.0
 30
0.0
  9
$PLIMCHECK
 70
     0
  9
$PEXTMIN
 10
1.000000000000000E+20
 20
1.000000000000000E+20
 30
1.000000000000000E+20
  9
$PEXTMAX
 10
-1.000000000000000E+20
 20
-1.000000000000000E+20
 30
-1.000000000000000E+20
  9
$PLIMMIN
 10
0.0
 20
0.0
  9
$PLIMMAX
 10
12.0
 20
9.0
  9
$UNITMODE
 70
     0
  9
$VISRETAIN
 70
     0
  9
$PLINEGEN
 70
     1
  9
$PSLTSCALE
 70
     0
  9
$TREEDEPTH
 70
  3020
  9
$PICKSTYLE
 70
     1
  9
$CMLSTYLE
  2
STANDARD
  9
$CMLJUST
 70
     0
  9
$CMLSCALE
 40
1.0
  9
$PROXYGRAPHICS
 70
     1
  9
$MEASUREMENT
 70
     0
  0
ENDSEC
  0
SECTION
  2
CLASSES
  0
CLASS
  1
LWPOLYLINE
  2
AcDbPolyline
  3
AutoCAD 2000
 90
        0
280
     0
281
     1
  0
CLASS
  1
IMAGE
  2
AcDbRasterImage
  3
ISM
 90
      127
280
     0
281
     1
  0
CLASS
  1
OLE2FRAME
  2
AcDbOle2Frame
  3
AutoCAD 2000
 90
        0
280
     0
281
     1
  0
CLASS
  1
HATCH
  2
AcDbHatch
  3
AutoCAD 2000
 90
        0
280
     0
281
     1
  0
CLASS
  1
DICTIONARYVAR
  2
AcDbDictionaryVar
  3
AutoCAD 2000
 90
        0
280
     0
281
     0
  0
CLASS
  1
RASTERVARIABLES
  2
AcDbRasterVariables
  3
ISM
 90
        0
280
     0
281
     0
  0
CLASS
  1
IMAGEDEF
  2
AcDbRasterImageDef
  3
ISM
 90
        0
280
     0
281
     0
  0
CLASS
  1
IMAGEDEF_REACTOR
  2
AcDbRasterImageDefReactor
  3
ISM
 90
        1
280
     0
281
     0
  0
CLASS
  1
IDBUFFER
  2
AcDbIdBuffer
  3
AutoCAD 2000
 90
        0
280
     0
281
     0
  0
CLASS
  1
SPATIAL_FILTER
  2
AcDbSpatialFilter
  3
AutoCAD 2000
 90
        0
280
     0
281
     0
  0
CLASS
  1
XRECORD
  2
AcDbXrecord
  3
AutoCAD 2000
 90
        0
280
     0
281
     0
  0
CLASS
  1
SORTENTSTABLE
  2
AcDbSortentsTable
  3
AutoCAD 2000
 90
        0
280
     0
281
     0
  0
CLASS
  1
LAYER_INDEX
  2
AcDbLayerIndex
  3
AutoCAD 2000
 90
        0
280
     0
281
     0
  0
CLASS
  1
SPATIAL_INDEX
  2
AcDbSpatialIndex
  3
AutoCAD 2000
 90
        0
280
     0
281
     0
  0
CLASS
  1
OBJECT_PTR
  2
CAseDLPNTableRecord
  3
"ASE-LPNTableRecord"
 90
        0
280
     0
281
     0
  0
CLASS
  1
ACDBDICTIONARYWDFLT
  2
AcDbDictionaryWithDefault
  3
AutoCAD 2000
 90
        0
280
     0
281
     0
  0
CLASS
  1
ACDBPLACEHOLDER
  2
AcDbPlaceHolder
  3
AutoCAD 2000
 90
        0
280
     0
281
     0
  0
CLASS
  1
LAYOUT
  2
AcDbLayout
  3
AutoCAD 2000
 90
        0
280
     0
281
     0
  0
CLASS
  1
LONG_TRANSACTION
  2
AcDbLongTransaction
  3
AutoCAD 2000
 90
        0
280
     0
281
     0
  0
CLASS
  1
LWPOLYLINE
  2
AcDbPolyline
  3
AutoCAD 2000
 90
        0
280
     0
281
     1
  0
CLASS
  1
HATCH
  2
AcDbHatch
  3
AutoCAD 2000
 90
        0
280
     0
281
     1
  0
CLASS
  1
XRECORD
  2
AcDbXrecord
  3
AutoCAD 2000
 90
        0
280
     0
281
     0
  0
ENDSEC
  0
SECTION
  2
TABLES
  0
TABLE
  2
VPORT
  5
7
330
0
100
AcDbSymbolTable
 70
     2
  0
VPORT
  5
1D9
330
7
100
AcDbSymbolTableRecord
100
AcDbViewportTableRecord
  2
*ACTIVE
 70
     0
 10
0.0
 20
0.0
 11
1.0
 21
1.0
 12
54.53593667184027
 22
141.8365005860777
 13
0.0
 23
0.0
 14
1.0
 24
1.0
 15
0.0
 25
0.0
 16
0.0
 26
0.0
 36
1.0
 17
0.0
 27
0.0
 37
0.0
 40
100.3929312852015
 41
1.714285714285714
 42
50.0
 43
0.0
 44
0.0
 50
0.0
 51
0.0
 71
     0
 72
   100
 73
     1
 74
     1
 75
     0
 76
     0
 77
     0
 78
     0
  0
ENDTAB
  0
TABLE
  2
LTYPE
  5
4
330
0
100
AcDbSymbolTable
 70
     4
  0
LTYPE
  5
11
330
4
100
AcDbSymbolTableRecord
100
AcDbLinetypeTableRecord
  2
BYBLOCK
 70
     0
  3

 72
    65
 73
     0
 40
0.0
  0
LTYPE
  5
12
330
4
100
AcDbSymbolTableRecord
100
AcDbLinetypeTableRecord
  2
BYLAYER
 70
     0
  3

 72
    65
 73
     0
 40
0.0
  0
LTYPE
  5
13
330
4
100
AcDbSymbolTableRecord
100
AcDbLinetypeTableRecord
  2
CONTINUOUS
 70
     0
  3
Solid line
 72
    65
 73
     0
 40
0.0
  0
LTYPE
  5
1D
330
4
100
AcDbSymbolTableRecord
100
AcDbLinetypeTableRecord
  2
DASHED
 70
     0
  3
_ _ _ _ _ _ _ _ _ _ _ _ _ _ _ _
 72
    65
 73
     2
 40
0.2
 49
0.1
 74
     0
 49
-0.1
 74
     0
  0
LTYPE
  5
1E
330
4
100
AcDbSymbolTableRecord
100
AcDbLinetypeTableRecord
  2
CENTER
 70
     0
  3
___ _ ___ _ ___ _ ___ _ ___ _ ___ _ ___ _ ___ _
 72
    65
 73
     4
 40
0.95
 49
0.625
 74
     0
 49
-0.125
 74
     0
 49
0.075
 74
     0
 49
-0.125
 74
     0
  0
LTYPE
  5
1F
330
4
100
AcDbSymbolTableRecord
100
AcDbLinetypeTableRecord
  2
PHANTOM
 70
     0
  3
______  __  __  ______  __  __  ______  __  __  
 72
    65
 73
     6
 40
1.024999999999999
 49
0.625
 74
     0
 49
-0.125
 74
     0
 49
0.075
 74
     0
 49
-0.125
 74
     0
 49
0.075
 74
     0
 49
-0.125
 74
     0
  0
ENDTAB
  0
TABLE
  2
LAYER
  5
2
330
0
100
AcDbSymbolTable
 70
    10
  0
LAYER
  5
14
330
2
100
AcDbSymbolTableRecord
100
AcDbLayerTableRecord
  2
0
 70
     0
 62
     7
  6
CONTINUOUS
  0
LAYER
  5
21
330
2
100
AcDbSymbolTableRecord
100
AcDbLayerTableRecord
  2
CK_LEVEL_1
 70
     0
 62
     7
  6
CONTINUOUS
  0
LAYER
  5
22
330
2
100
AcDbSymbolTableRecord
100
AcDbLayerTableRecord
  2
CK_LEVEL_2
 70
     0
 62
     7
  6
CONTINUOUS
  0
LAYER
  5
23
330
2
100
AcDbSymbolTableRecord
100
AcDbLayerTableRecord
  2
CK_LEVEL_3
 70
     0
 62
     7
  6
CONTINUOUS
  0
LAYER
  5
24
330
2
100
AcDbSymbolTableRecord
100
AcDbLayerTableRecord
  2
CK_LEVEL_4
 70
     0
 62
     7
  6
CONTINUOUS
  0
LAYER
  5
25
330
2
100
AcDbSymbolTableRecord
100
AcDbLayerTableRecord
  2
CK_LEVEL_5
 70
     0
 62
     7
  6
CONTINUOUS
  0
LAYER
  5
26
330
2
100
AcDbSymbolTableRecord
100
AcDbLayerTableRecord
  2
CK_LEVEL_6
 70
     0
 62
     7
  6
CONTINUOUS
  0
LAYER
  5
27
330
2
100
AcDbSymbolTableRecord
100
AcDbLayerTableRecord
  2
CK_LEVEL_7
 70
     0
 62
     7
  6
CONTINUOUS
  0
LAYER
  5
28
330
2
100
AcDbSymbolTableRecord
100
AcDbLayerTableRecord
  2
CK_LEVEL_8
 70
     0
 62
     7
  6
CONTINUOUS
  0
LAYER
  5
29
330
2
100
AcDbSymbolTableRecord
100
AcDbLayerTableRecord
  2
MGW15
 70
     0
 62
     7
  6
CONTINUOUS
  0
ENDTAB
  0
TABLE
  2
STYLE
  5
3
330
0
100
AcDbSymbolTable
 70
     1
  0
STYLE
  5
17
330
3
100
AcDbSymbolTableRecord
100
AcDbTextStyleTableRecord
  2
STANDARD
 70
     0
 40
0.0
 41
1.0
 50
0.0
 71
     0
 42
0.0
  3
txt
  4

  0
ENDTAB
  0
TABLE
  2
VIEW
  5
5
330
0
100
AcDbSymbolTable
 70
     0
  0
ENDTAB
  0
TABLE
  2
UCS
  5
6
330
0
100
AcDbSymbolTable
 70
     1
  0
UCS
  5
20
330
6
100
AcDbSymbolTableRecord
100
AcDbUCSTableRecord
  2
CK_VIEW_1
 70
     0
 10
0.0
 20
0.0
 30
1.0
 11
1.0
 21
0.0
 31
0.0
 12
0.0
 22
1.0
 32
0.0
  0
ENDTAB
  0
TABLE
  2
APPID
  5
8
330
0
100
AcDbSymbolTable
 70
     1
  0
APPID
  5
16
330
8
100
AcDbSymbolTableRecord
100
AcDbRegAppTableRecord
  2
ACAD
 70
     0
  0
ENDTAB
  0
TABLE
  2
DIMSTYLE
  5
9
330
0
100
AcDbSymbolTable
 70
     1
  0
DIMSTYLE
105
18
330
9
100
AcDbSymbolTableRecord
100
AcDbDimStyleTableRecord
  2
STANDARD
 70
     0
  3

  4

  5

  6

  7

 40
1.0
 41
0.18
 42
0.0625
 43
0.38
 44
0.18
 45
0.0
 46
0.0
 47
0.0
 48
0.0
140
0.18
141
0.09
142
0.0
143
25.4
144
1.0
145
0.0
146
1.0
147
0.09
 71
     0
 72
     0
 73
     1
 74
     1
 75
     0
 76
     0
 77
     0
 78
     0
170
     0
171
     2
172
     0
173
     0
174
     0
175
     0
176
     0
177
     0
178
     0
270
     2
271
     4
272
     4
273
     2
274
     2
340
17
275
     0
280
     0
281
     0
282
     0
283
     1
284
     0
285
     0
286
     0
287
     0
288
     0
  0
ENDTAB
  0
TABLE
  2
BLOCK_RECORD
  5
1
330
0
100
AcDbSymbolTable
 70
     0
  0
BLOCK_RECORD
  5
A
102
{ACAD_XDICTIONARY
360
1FA
102
}
330
1
100
AcDbSymbolTableRecord
100
AcDbBlockTableRecord
  2
*MODEL_SPACE
  0
BLOCK_RECORD
  5
B
102
{ACAD_XDICTIONARY
360
1FC
102
}
330
1
100
AcDbSymbolTableRecord
100
AcDbBlockTableRecord
  2
*PAPER_SPACE
  0
ENDTAB
  0
ENDSEC
  0
SECTION
  2
BLOCKS
  0
BLOCK
  5
D
330
A
100
AcDbEntity
  8
0
100
AcDbBlockBegin
  2
*MODEL_SPACE
 70
     0
 10
0.0
 20
0.0
 30
0.0
  3
*MODEL_SPACE
  1

  0
ENDBLK
  5
E
330
A
100
AcDbEntity
  8
0
100
AcDbBlockEnd
  0
BLOCK
  5
F
330
B
100
AcDbEntity
 67
     1
  8
0
100
AcDbBlockBegin
  2
*PAPER_SPACE
 70
     0
 10
0.0
 20
0.0
 30
0.0
  3
*PAPER_SPACE
  1

  0
ENDBLK
  5
10
330
B
100
AcDbEntity
 67
     1
  8
0
100
AcDbBlockEnd
  0
ENDSEC
  0
SECTION
  2
ENTITIES
  0
LINE
  5
2A
330
A
100
AcDbEntity
  8
MGW15
  6
CENTER
 62
   252
100
AcDbLine
 10
120.0521410815097
 20
174.0888444033084
 30
0.0
 11
130.0521410815097
 21
174.0888444033084
 31
0.0
  0
LINE
  5
2B
330
A
100
AcDbEntity
  8
MGW15
  6
CENTER
 62
   252
100
AcDbLine
 10
120.0521410815097
 20
151.0888444033084
 30
0.0
 11
130.0521410815097
 21
151.0888444033084
 31
0.0
  0
LINE
  5
2C
330
A
100
AcDbEntity
  8
MGW15
  6
CENTER
 62
   252
100
AcDbLine
 10
40.05214108150968
 20
151.0888444033084
 30
0.0
 11
50.05214108150969
 21
151.0888444033084
 31
0.0
  0
LINE
  5
2D
330
A
100
AcDbEntity
  8
MGW15
  6
CENTER
 62
   252
100
AcDbLine
 10
40.05214108150968
 20
174.0888444033084
 30
0.0
 11
50.05214108150969
 21
174.0888444033084
 31
0.0
  0
LINE
  5
30
330
A
100
AcDbEntity
  8
MGW15
  6
CONTINUOUS
 62
     4
100
AcDbLine
 10
111.9521410815097
 20
141.5888444033084
 30
0.0
 11
30.05214108150969
 21
141.5888444033084
 31
0.0
  0
LINE
  5
31
330
A
100
AcDbEntity
  8
MGW15
  6
CONTINUOUS
 62
     4
100
AcDbLine
 10
111.9521410815097
 20
183.5888444033083
 30
0.0
 11
30.05214108150969
 21
183.5888444033083
 31
0.0
  0
CIRCLE
  5
47
330
A
100
AcDbEntity
  8
MGW15
  6
CONTINUOUS
 62
     4
100
AcDbCircle
 10
125.0521410815097
 20
174.0888444033084
 30
0.0
 40
4.0
  0
CIRCLE
  5
48
330
A
100
AcDbEntity
  8
MGW15
  6
CONTINUOUS
 62
     4
100
AcDbCircle
 10
125.0521410815097
 20
151.0888444033084
 30
0.0
 40
4.0
  0
CIRCLE
  5
49
330
A
100
AcDbEntity
  8
MGW15
  6
CONTINUOUS
 62
     4
100
AcDbCircle
 10
45.05214108150968
 20
174.0888444033084
 30
0.0
 40
2.25
  0
CIRCLE
  5
4A
330
A
100
AcDbEntity
  8
MGW15
  6
CONTINUOUS
 62
     4
100
AcDbCircle
 10
45.05214108150968
 20
174.0888444033084
 30
0.0
 40
4.0
  0
CIRCLE
  5
4B
330
A
100
AcDbEntity
  8
MGW15
  6
CONTINUOUS
 62
     4
100
AcDbCircle
 10
45.05214108150968
 20
151.0888444033084
 30
0.0
 40
2.25
  0
CIRCLE
  5
4C
330
A
100
AcDbEntity
  8
MGW15
  6
CONTINUOUS
 62
     4
100
AcDbCircle
 10
45.05214108150968
 20
151.0888444033084
 30
0.0
 40
4.0
  0
LINE
  5
4D
330
A
100
AcDbEntity
  8
MGW15
  6
CENTER
 62
   252
100
AcDbLine
 10
45.05214108150968
 20
179.0888444033084
 30
0.0
 11
45.05214108150968
 21
169.0888444033084
 31
0.0
  0
LINE
  5
4E
330
A
100
AcDbEntity
  8
MGW15
  6
CONTINUOUS
 62
     4
100
AcDbLine
 10
140.0521410815097
 20
141.5888444033084
 30
0.0
 11
111.9521410815097
 21
141.5888444033084
 31
0.0
  0
LINE
  5
4F
330
A
100
AcDbEntity
  8
MGW15
  6
CONTINUOUS
 62
     4
100
AcDbLine
 10
140.0521410815097
 20
183.5888444033083
 30
0.0
 11
111.9521410815097
 21
183.5888444033083
 31
0.0
  0
LINE
  5
50
330
A
100
AcDbEntity
  8
MGW15
  6
CONTINUOUS
 62
     4
100
AcDbLine
 10
140.0521410815097
 20
141.5888444033084
 30
0.0
 11
140.0521410815097
 21
183.5888444033083
 31
0.0
  0
LINE
  5
51
330
A
100
AcDbEntity
  8
MGW15
  6
CONTINUOUS
 62
     4
100
AcDbLine
 10
30.05214108150969
 20
141.5888444033084
 30
0.0
 11
30.05214108150969
 21
183.5888444033083
 31
0.0
  0
LINE
  5
6D
330
A
100
AcDbEntity
  8
MGW15
  6
CONTINUOUS
 62
     4
100
AcDbLine
 10
-30.94785891849029
 20
105.0888444033084
 30
0.0
 11
-30.94785891849029
 21
106.3712167554664
 31
0.0
  0
LINE
  5
6E
330
A
100
AcDbEntity
  8
MGW15
  6
CONTINUOUS
 62
     4
100
AcDbLine
 10
-29.89333784607022
 20
107.3888444033084
 30
0.0
 11
-29.44785891849029
 21
107.3888444033084
 31
0.0
  0
ARC
  5
6F
330
A
100
AcDbEntity
  8
MGW15
  6
CONTINUOUS
 62
     4
100
AcDbCircle
 10
-29.44785891849029
 20
108.0888444033084
 30
0.0
 40
0.7000000000000029
100
AcDbArc
 50
270.0
 51
450.0000000000002
  0
LINE
  5
70
330
A
100
AcDbEntity
  8
MGW15
  6
CONTINUOUS
 62
     4
100
AcDbLine
 10
-29.44785891849029
 20
108.7888444033084
 30
0.0
 11
-29.89333784607022
 21
108.7888444033084
 31
0.0
  0
LINE
  5
71
330
A
100
AcDbEntity
  8
MGW15
  6
CONTINUOUS
 62
     4
100
AcDbLine
 10
-30.94785891849029
 20
109.8064720511504
 30
0.0
 11
-30.94785891849029
 21
110.6888444033084
 31
0.0
  0
LINE
  5
72
330
A
100
AcDbEntity
  8
MGW15
  6
CONTINUOUS
 62
     4
100
AcDbLine
 10
-30.94785891849029
 20
110.6888444033084
 30
0.0
 11
-30.54785891849029
 21
111.0888444033084
 31
0.0
  0
LINE
  5
73
330
A
100
AcDbEntity
  8
MGW15
  6
CONTINUOUS
 62
     4
100
AcDbLine
 10
-30.54785891849029
 20
111.0888444033084
 30
0.0
 11
10.65214108150971
 21
111.0888444033084
 31
0.0
  0
LINE
  5
74
330
A
100
AcDbEntity
  8
MGW15
  6
CONTINUOUS
 62
     4
100
AcDbLine
 10
10.65214108150971
 20
111.0888444033084
 30
0.0
 11
11.05214108150972
 21
110.6888444033084
 31
0.0
  0
LINE
  5
75
330
A
100
AcDbEntity
  8
MGW15
  6
CONTINUOUS
 62
     4
100
AcDbLine
 10
11.0521410815097
 20
110.6888444033084
 30
0.0
 11
11.05214108150972
 21
109.8064720511504
 31
0.0
  0
LINE
  5
76
330
A
100
AcDbEntity
  8
MGW15
  6
CONTINUOUS
 62
     4
100
AcDbLine
 10
9.997620009089647
 20
108.7888444033084
 30
0.0
 11
9.55214108150972
 21
108.7888444033084
 31
0.0
  0
ARC
  5
77
330
A
100
AcDbEntity
  8
MGW15
  6
CONTINUOUS
 62
     4
100
AcDbCircle
 10
9.55214108150972
 20
108.0888444033084
 30
0.0
 40
0.7000000000000029
100
AcDbArc
 50
90.0000000000001
 51
270.0000000000001
  0
LINE
  5
78
330
A
100
AcDbEntity
  8
MGW15
  6
CONTINUOUS
 62
     4
100
AcDbLine
 10
9.55214108150972
 20
107.3888444033084
 30
0.0
 11
9.997620009089647
 21
107.3888444033084
 31
0.0
  0
LINE
  5
79
330
A
100
AcDbEntity
  8
MGW15
  6
CONTINUOUS
 62
     4
100
AcDbLine
 10
11.05214108150972
 20
106.3712167554664
 30
0.0
 11
11.05214108150972
 21
105.0888444033084
 31
0.0
  0
LINE
  5
9B
330
A
100
AcDbEntity
  8
MGW15
  6
CONTINUOUS
 62
     4
100
AcDbLine
 10
11.0521410815097
 20
102.1888444033084
 30
0.0
 11
10.45214108150971
 21
101.5888444033084
 31
0.0
  0
ARC
  5
9C
330
A
100
AcDbEntity
  8
MGW15
  6
CONTINUOUS
 62
     4
100
AcDbCircle
 10
7.348491914199345
 20
101.2888444033084
 30
0.0
 40
0.5
100
AcDbArc
 50
36.86989764584561
 51
143.1301023541543
  0
LINE
  5
9D
330
A
100
AcDbEntity
  8
MGW15
  6
CONTINUOUS
 62
     4
100
AcDbLine
 10
-3.447858918490308
 20
102.0888444033084
 30
0.0
 11
-16.4478589184903
 21
102.0888444033084
 31
0.0
  0
LINE
  5
9E
330
A
100
AcDbEntity
  8
MGW15
  6
CONTINUOUS
 62
     4
100
AcDbLine
 10
-3.447858918490308
 20
102.0888444033084
 30
0.0
 11
-2.947858918490322
 21
101.5888444033084
 31
0.0
  0
LINE
  5
9F
330
A
100
AcDbEntity
  8
MGW15
  6
CONTINUOUS
 62
     4
100
AcDbLine
 10
-16.4478589184903
 20
102.0888444033084
 30
0.0
 11
-16.94785891849029
 21
101.5888444033084
 31
0.0
  0
LINE
  5
A0
330
A
100
AcDbEntity
  8
MGW15
  6
CONTINUOUS
 62
     4
100
AcDbLine
 10
-30.94785891849029
 20
102.1888444033084
 30
0.0
 11
-30.34785891849033
 21
101.5888444033084
 31
0.0
  0
LINE
  5
A1
330
A
100
AcDbEntity
  8
MGW15
  6
CONTINUOUS
 62
     4
100
AcDbLine
 10
-16.94785891849029
 20
101.5888444033084
 30
0.0
 11
-30.34785891849033
 21
101.5888444033084
 31
0.0
  0
LINE
  5
A2
330
A
100
AcDbEntity
  8
MGW15
  6
CONTINUOUS
 62
     4
100
AcDbLine
 10
6.948491914199354
 20
101.5888444033084
 30
0.0
 11
-2.947858918490322
 21
101.5888444033084
 31
0.0
  0
LINE
  5
A3
330
A
100
AcDbEntity
  8
MGW15
  6
CONTINUOUS
 62
     4
100
AcDbLine
 10
10.45214108150971
 20
101.5888444033084
 30
0.0
 11
7.748491914199337
 21
101.5888444033084
 31
0.0
  0
LINE
  5
A4
330
A
100
AcDbEntity
  8
MGW15
  6
CONTINUOUS
 62
     4
100
AcDbLine
 10
10.6521410815097
 20
111.0888444033084
 30
0.0
 11
-30.54785891849032
 21
111.0888444033084
 31
0.0
  0
LINE
  5
A5
330
A
100
AcDbEntity
  8
MGW15
  6
CONTINUOUS
 62
     4
100
AcDbLine
 10
-30.94785891849029
 20
110.6888444033084
 30
0.0
 11
-30.54785891849031
 21
111.0888444033084
 31
0.0
  0
LINE
  5
A6
330
A
100
AcDbEntity
  8
MGW15
  6
CONTINUOUS
 62
     4
100
AcDbLine
 10
10.6521410815097
 20
111.0888444033084
 30
0.0
 11
11.0521410815097
 21
110.6888444033084
 31
0.0
  0
LINE
  5
A7
330
A
100
AcDbEntity
  8
MGW15
  6
CENTER
 62
   252
100
AcDbLine
 10
-9.947858918490293
 20
100.8888444033084
 30
0.0
 11
-9.947858918490293
 21
112.2888444033084
 31
0.0
  0
LINE
  5
A8
330
A
100
AcDbEntity
  8
MGW15
  6
DASHED
 62
   252
100
AcDbLine
 10
-25.44785891849029
 20
106.5888444033084
 30
0.0
 11
-17.44785891849029
 21
106.5888444033084
 31
0.0
  0
LINE
  5
A9
330
A
100
AcDbEntity
  8
MGW15
  6
DASHED
 62
   252
100
AcDbLine
 10
-25.44785891849029
 20
110.7888444033084
 30
0.0
 11
-25.44785891849029
 21
106.5888444033084
 31
0.0
  0
LINE
  5
AA
330
A
100
AcDbEntity
  8
MGW15
  6
DASHED
 62
   252
100
AcDbLine
 10
-17.44785891849029
 20
110.7888444033084
 30
0.0
 11
-17.44785891849029
 21
106.5888444033084
 31
0.0
  0
LINE
  5
AB
330
A
100
AcDbEntity
  8
MGW15
  6
DASHED
 62
   252
100
AcDbLine
 10
-19.19785891849029
 20
106.5888444033084
 30
0.0
 11
-19.19785891849029
 21
101.9888444033084
 31
0.0
  0
LINE
  5
AC
330
A
100
AcDbEntity
  8
MGW15
  6
DASHED
 62
   252
100
AcDbLine
 10
-23.69785891849029
 20
106.5888444033084
 30
0.0
 11
-23.69785891849029
 21
101.9888444033084
 31
0.0
  0
LINE
  5
AD
330
A
100
AcDbEntity
  8
MGW15
  6
DASHED
 62
   252
100
AcDbLine
 10
-23.69784791849029
 20
101.9888444033084
 30
0.0
 11
-19.19784791849029
 21
101.9888444033084
 31
0.0
  0
LINE
  5
AE
330
A
100
AcDbEntity
  8
MGW15
  6
DASHED
 62
   252
100
AcDbLine
 10
-24.09784791849031
 20
101.5888444033084
 30
0.0
 11
-23.69784791849029
 21
101.9888444033084
 31
0.0
  0
LINE
  5
AF
330
A
100
AcDbEntity
  8
MGW15
  6
DASHED
 62
   252
100
AcDbLine
 10
-19.19784791849029
 20
101.9888444033084
 30
0.0
 11
-18.79784791849028
 21
101.5888444033084
 31
0.0
  0
LINE
  5
B0
330
A
100
AcDbEntity
  8
MGW15
  6
CENTER
 62
   252
100
AcDbLine
 10
-21.44785891849029
 20
112.2388464033084
 30
0.0
 11
-21.44785891849029
 21
100.0772094033084
 31
0.0
  0
LINE
  5
B1
330
A
100
AcDbEntity
  8
MGW15
  6
DASHED
 62
   252
100
AcDbLine
 10
-17.44785891849029
 20
110.7888444033084
 30
0.0
 11
-25.44785891849029
 21
110.7888444033084
 31
0.0
  0
LINE
  5
B2
330
A
100
AcDbEntity
  8
MGW15
  6
DASHED
 62
   252
100
AcDbLine
 10
-25.62106399924716
 20
111.0888444033084
 30
0.0
 11
-25.44785891849029
 21
110.7888444033084
 31
0.0
  0
LINE
  5
B3
330
A
100
AcDbEntity
  8
MGW15
  6
DASHED
 62
   252
100
AcDbLine
 10
-17.27465383773342
 20
111.0888444033084
 30
0.0
 11
-17.44785891849029
 21
110.7888444033084
 31
0.0
  0
LINE
  5
B4
330
A
100
AcDbEntity
  8
MGW15
  6
DASHED
 62
   252
100
AcDbLine
 10
5.552141081509705
 20
106.5888444033084
 30
0.0
 11
-2.447858918490294
 21
106.5888444033084
 31
0.0
  0
LINE
  5
B5
330
A
100
AcDbEntity
  8
MGW15
  6
DASHED
 62
   252
100
AcDbLine
 10
5.552141081509705
 20
110.7888444033084
 30
0.0
 11
5.552141081509705
 21
106.5888444033084
 31
0.0
  0
LINE
  5
B6
330
A
100
AcDbEntity
  8
MGW15
  6
DASHED
 62
   252
100
AcDbLine
 10
-2.447858918490294
 20
110.7888444033084
 30
0.0
 11
-2.447858918490294
 21
106.5888444033084
 31
0.0
  0
LINE
  5
B7
330
A
100
AcDbEntity
  8
MGW15
  6
DASHED
 62
   252
100
AcDbLine
 10
-0.6978589184902946
 20
106.5888444033084
 30
0.0
 11
-0.6978589184902946
 21
101.9888444033084
 31
0.0
  0
LINE
  5
B8
330
A
100
AcDbEntity
  8
MGW15
  6
DASHED
 62
   252
100
AcDbLine
 10
3.802141081509705
 20
106.5888444033084
 30
0.0
 11
3.802141081509705
 21
101.9888444033084
 31
0.0
  0
LINE
  5
B9
330
A
100
AcDbEntity
  8
MGW15
  6
DASHED
 62
   252
100
AcDbLine
 10
3.802130081509704
 20
101.9888444033084
 30
0.0
 11
-0.6978699184902953
 21
101.9888444033084
 31
0.0
  0
LINE
  5
BA
330
A
100
AcDbEntity
  8
MGW15
  6
DASHED
 62
   252
100
AcDbLine
 10
4.202130081509724
 20
101.5888444033084
 30
0.0
 11
3.802130081509704
 21
101.9888444033084
 31
0.0
  0
LINE
  5
BB
330
A
100
AcDbEntity
  8
MGW15
  6
DASHED
 62
   252
100
AcDbLine
 10
-0.6978699184902953
 20
101.9888444033084
 30
0.0
 11
-1.0978699184903
 21
101.5888444033084
 31
0.0
  0
LINE
  5
BC
330
A
100
AcDbEntity
  8
MGW15
  6
CENTER
 62
   252
100
AcDbLine
 10
1.552141081509705
 20
112.2388464033084
 30
0.0
 11
1.552141081509705
 21
100.0772094033084
 31
0.0
  0
LINE
  5
BD
330
A
100
AcDbEntity
  8
MGW15
  6
DASHED
 62
   252
100
AcDbLine
 10
-2.447858918490294
 20
110.7888444033084
 30
0.0
 11
5.552141081509705
 21
110.7888444033084
 31
0.0
  0
LINE
  5
BE
330
A
100
AcDbEntity
  8
MGW15
  6
DASHED
 62
   252
100
AcDbLine
 10
5.725346162266577
 20
111.0888444033084
 30
0.0
 11
5.552141081509705
 21
110.7888444033084
 31
0.0
  0
LINE
  5
BF
330
A
100
AcDbEntity
  8
MGW15
  6
DASHED
 62
   252
100
AcDbLine
 10
-2.621063999247167
 20
111.0888444033084
 30
0.0
 11
-2.447858918490294
 21
110.7888444033084
 31
0.0
  0
LINE
  5
C0
330
A
100
AcDbEntity
  8
MGW15
  6
CONTINUOUS
 62
     4
100
AcDbLine
 10
30.05214108150969
 20
111.0888444033084
 30
0.0
 11
30.05214108150969
 21
101.5888444033084
 31
0.0
  0
LINE
  5
C1
330
A
100
AcDbEntity
  8
MGW15
  6
DASHED
 62
   252
100
AcDbLine
 10
49.05214108150969
 20
106.4888444033084
 30
0.0
 11
41.05214108150969
 21
106.4888444033084
 31
0.0
  0
LINE
  5
C2
330
A
100
AcDbEntity
  8
MGW15
  6
DASHED
 62
   252
100
AcDbLine
 10
49.05214108150969
 20
110.7888444033084
 30
0.0
 11
49.05214108150969
 21
106.5888444033084
 31
0.0
  0
LINE
  5
C3
330
A
100
AcDbEntity
  8
MGW15
  6
DASHED
 62
   252
100
AcDbLine
 10
41.05214108150969
 20
110.7888444033084
 30
0.0
 11
41.05214108150969
 21
106.5888444033084
 31
0.0
  0
LINE
  5
C4
330
A
100
AcDbEntity
  8
MGW15
  6
DASHED
 62
   252
100
AcDbLine
 10
42.80214108150969
 20
106.5888444033084
 30
0.0
 11
42.80214108150969
 21
101.9888444033084
 31
0.0
  0
LINE
  5
C5
330
A
100
AcDbEntity
  8
MGW15
  6
DASHED
 62
   252
100
AcDbLine
 10
47.30214108150969
 20
106.5888444033084
 30
0.0
 11
47.30214108150969
 21
101.9888444033084
 31
0.0
  0
LINE
  5
C6
330
A
100
AcDbEntity
  8
MGW15
  6
DASHED
 62
   252
100
AcDbLine
 10
47.30213008150968
 20
101.9888444033084
 30
0.0
 11
42.80213008150968
 21
101.9888444033084
 31
0.0
  0
LINE
  5
C7
330
A
100
AcDbEntity
  8
MGW15
  6
DASHED
 62
   252
100
AcDbLine
 10
47.7021300815097
 20
101.5888444033084
 30
0.0
 11
47.30213008150968
 21
101.9888444033084
 31
0.0
  0
LINE
  5
C8
330
A
100
AcDbEntity
  8
MGW15
  6
DASHED
 62
   252
100
AcDbLine
 10
42.80213008150968
 20
101.9888444033084
 30
0.0
 11
42.40213008150968
 21
101.5888444033084
 31
0.0
  0
LINE
  5
C9
330
A
100
AcDbEntity
  8
MGW15
  6
CENTER
 62
   252
100
AcDbLine
 10
45.05214108150968
 20
112.2388464033084
 30
0.0
 11
45.05214108150968
 21
100.0772094033084
 31
0.0
  0
LINE
  5
CA
330
A
100
AcDbEntity
  8
MGW15
  6
DASHED
 62
   252
100
AcDbLine
 10
41.05214108150969
 20
110.7888444033084
 30
0.0
 11
49.05214108150969
 21
110.7888444033084
 31
0.0
  0
LINE
  5
CB
330
A
100
AcDbEntity
  8
MGW15
  6
DASHED
 62
   252
100
AcDbLine
 10
49.22534616226656
 20
111.0888444033084
 30
0.0
 11
49.05214108150969
 21
110.7888444033084
 31
0.0
  0
LINE
  5
CC
330
A
100
AcDbEntity
  8
MGW15
  6
DASHED
 62
   252
100
AcDbLine
 10
40.87893600075282
 20
111.0888444033084
 30
0.0
 11
41.05214108150969
 21
110.7888444033084
 31
0.0
  0
LINE
  5
CD
330
A
100
AcDbEntity
  8
MGW15
  6
CONTINUOUS
 62
     4
100
AcDbLine
 10
140.0521410815097
 20
111.0888444033084
 30
0.0
 11
140.0521410815097
 21
101.5888444033084
 31
0.0
  0
LINE
  5
CE
330
A
100
AcDbEntity
  8
MGW15
  6
CONTINUOUS
 62
     4
100
AcDbLine
 10
140.0521410815097
 20
111.0888444033084
 30
0.0
 11
111.9521410815097
 21
111.0888444033084
 31
0.0
  0
LINE
  5
CF
330
A
100
AcDbEntity
  8
MGW15
  6
CONTINUOUS
 62
     4
100
AcDbLine
 10
140.0521410815097
 20
110.3888444033084
 30
0.0
 11
111.9521410815097
 21
110.3888444033084
 31
0.0
  0
LINE
  5
D0
330
A
100
AcDbEntity
  8
MGW15
  6
CONTINUOUS
 62
     4
100
AcDbLine
 10
140.0521410815097
 20
109.59134232344
 30
0.0
 11
111.9521410815097
 21
109.59134232344
 31
0.0
  0
LINE
  5
D1
330
A
100
AcDbEntity
  8
MGW15
  6
CONTINUOUS
 62
     4
100
AcDbLine
 10
140.0521410815097
 20
106.5863464831767
 30
0.0
 11
111.9521410815097
 21
106.5863464831767
 31
0.0
  0
LINE
  5
D2
330
A
100
AcDbEntity
  8
MGW15
  6
CONTINUOUS
 62
     4
100
AcDbLine
 10
140.0521410815097
 20
102.4888444033084
 30
0.0
 11
30.05214108150969
 21
102.4888444033084
 31
0.0
  0
LINE
  5
D3
330
A
100
AcDbEntity
  8
MGW15
  6
CONTINUOUS
 62
     4
100
AcDbLine
 10
140.0521410815097
 20
101.5888444033084
 30
0.0
 11
30.05214108150969
 21
101.5888444033084
 31
0.0
  0
LINE
  5
D4
330
A
100
AcDbEntity
  8
MGW15
  6
CONTINUOUS
 62
     4
100
AcDbLine
 10
-30.94785891849029
 20
106.3712167554664
 30
0.0
 11
-30.94785891849029
 21
102.1888444033084
 31
0.0
  0
LINE
  5
D5
330
A
100
AcDbEntity
  8
MGW15
  6
CONTINUOUS
 62
     4
100
AcDbLine
 10
-30.94785891849029
 20
110.6888444033084
 30
0.0
 11
-30.94785891849029
 21
109.8064720511504
 31
0.0
  0
LINE
  5
D6
330
A
100
AcDbEntity
  8
MGW15
  6
CONTINUOUS
 62
     4
100
AcDbLine
 10
11.05214108150972
 20
106.3712167554664
 30
0.0
 11
11.0521410815097
 21
102.1888444033084
 31
0.0
  0
LINE
  5
D7
330
A
100
AcDbEntity
  8
MGW15
  6
CONTINUOUS
 62
     4
100
AcDbLine
 10
11.0521410815097
 20
110.6888444033084
 30
0.0
 11
11.05214108150972
 21
109.8064720511504
 31
0.0
  0
LINE
  5
D8
330
A
100
AcDbEntity
  8
MGW15
  6
CONTINUOUS
 62
     4
100
AcDbLine
 10
9.552141081509706
 20
108.7888444033084
 30
0.0
 11
9.997620009089633
 21
108.7888444033084
 31
0.0
  0
LINE
  5
D9
330
A
100
AcDbEntity
  8
MGW15
  6
CONTINUOUS
 62
     4
100
AcDbLine
 10
9.552141081509706
 20
107.3888444033084
 30
0.0
 11
9.997620009089647
 21
107.3888444033084
 31
0.0
  0
ARC
  5
DA
330
A
100
AcDbEntity
  8
MGW15
  6
CONTINUOUS
 62
     4
100
AcDbCircle
 10
9.552141081509706
 20
108.0888444033084
 30
0.0
 40
0.7000000000000001
100
AcDbArc
 50
90.0
 51
270.0
  0
LINE
  5
DB
330
A
100
AcDbEntity
  8
MGW15
  6
CONTINUOUS
 62
     4
100
AcDbLine
 10
-29.44785891849029
 20
108.7888444033084
 30
0.0
 11
-29.88679206693552
 21
108.7888444033084
 31
0.0
  0
LINE
  5
DC
330
A
100
AcDbEntity
  8
MGW15
  6
CONTINUOUS
 62
     4
100
AcDbLine
 10
-29.44785891849029
 20
107.3888444033084
 30
0.0
 11
-29.88679206693549
 21
107.3888444033084
 31
0.0
  0
ARC
  5
DD
330
A
100
AcDbEntity
  8
MGW15
  6
CONTINUOUS
 62
     4
100
AcDbCircle
 10
-29.44785891849029
 20
108.0888444033084
 30
0.0
 40
0.7000000000000001
100
AcDbArc
 50
270.0
 51
450.0
  0
CIRCLE
  5
E8
330
A
100
AcDbEntity
  8
MGW15
  6
CONTINUOUS
 62
     4
100
AcDbCircle
 10
125.0521410815097
 20
151.0888444033084
 30
0.0
 40
2.25
  0
CIRCLE
  5
E9
330
A
100
AcDbEntity
  8
MGW15
  6
CONTINUOUS
 62
     4
100
AcDbCircle
 10
125.0521410815097
 20
174.0888444033084
 30
0.0
 40
2.25
  0
LINE
  5
EA
330
A
100
AcDbEntity
  8
MGW15
  6
CENTER
 62
   252
100
AcDbLine
 10
45.05214108150968
 20
156.0888444033084
 30
0.0
 11
45.05214108150968
 21
146.0888444033083
 31
0.0
  0
LINE
  5
EB
330
A
100
AcDbEntity
  8
MGW15
  6
CENTER
 62
   252
100
AcDbLine
 10
125.0521410815097
 20
179.0888444033084
 30
0.0
 11
125.0521410815097
 21
169.0888444033084
 31
0.0
  0
LINE
  5
EC
330
A
100
AcDbEntity
  8
MGW15
  6
CENTER
 62
   252
100
AcDbLine
 10
125.0521410815097
 20
156.0888444033084
 30
0.0
 11
125.0521410815097
 21
146.0888444033083
 31
0.0
  0
LINE
  5
F9
330
A
100
AcDbEntity
  8
MGW15
  6
CONTINUOUS
 62
     4
100
AcDbLine
 10
111.9521410815097
 20
111.0888444033084
 30
0.0
 11
30.05214108150969
 21
111.0888444033084
 31
0.0
  0
LINE
  5
FA
330
A
100
AcDbEntity
  8
MGW15
  6
CONTINUOUS
 62
     4
100
AcDbLine
 10
111.9521410815097
 20
109.59134232344
 30
0.0
 11
30.05214108150969
 21
109.59134232344
 31
0.0
  0
LINE
  5
FB
330
A
100
AcDbEntity
  8
MGW15
  6
CONTINUOUS
 62
     4
100
AcDbLine
 10
111.9521410815097
 20
110.3888444033084
 30
0.0
 11
30.05214108150969
 21
110.3888444033084
 31
0.0
  0
LINE
  5
FC
330
A
100
AcDbEntity
  8
MGW15
  6
CONTINUOUS
 62
     4
100
AcDbLine
 10
111.9521410815097
 20
106.5863464831767
 30
0.0
 11
30.05214108150969
 21
106.5863464831767
 31
0.0
  0
LINE
  5
10A
330
A
100
AcDbEntity
  8
MGW15
  6
CENTER
 62
   252
100
AcDbLine
 10
85.05214108150969
 20
112.2388464033084
 30
0.0
 11
85.05214108150969
 21
100.0772094033084
 31
0.0
  0
LINE
  5
10B
330
A
100
AcDbEntity
  8
MGW15
  6
CENTER
 62
   252
100
AcDbLine
 10
125.0521410815096
 20
112.2388464033084
 30
0.0
 11
125.0521410815096
 21
100.0772094033084
 31
0.0
  0
ARC
  5
15A
330
A
100
AcDbEntity
  8
MGW15
  6
CONTINUOUS
 62
     4
100
AcDbCircle
 10
-31.56011212000367
 20
108.0888444033084
 30
0.0
 40
1.7
100
AcDbArc
 50
295.3091149660024
 51
331.7262863686369
  0
ARC
  5
15B
330
A
100
AcDbEntity
  8
MGW15
  6
CONTINUOUS
 62
     4
100
AcDbCircle
 10
-31.56011212000367
 20
108.0888444033084
 30
0.0
 40
1.7
100
AcDbArc
 50
28.27371363136495
 51
64.69088503399759
  0
ARC
  5
15C
330
A
100
AcDbEntity
  8
MGW15
  6
CONTINUOUS
 62
     4
100
AcDbCircle
 10
-30.74785891849028
 20
109.8064720511504
 30
0.0
 40
0.2
100
AcDbArc
 50
180.0
 51
244.6908850339981
  0
ARC
  5
15D
330
A
100
AcDbEntity
  8
MGW15
  6
CONTINUOUS
 62
     4
100
AcDbCircle
 10
-29.88679206693552
 20
108.9888444033084
 30
0.0
 40
0.2
100
AcDbArc
 50
208.2737136313648
 51
270.0
  0
ARC
  5
15E
330
A
100
AcDbEntity
  8
MGW15
  6
CONTINUOUS
 62
     4
100
AcDbCircle
 10
-29.8867920669355
 20
107.1888444033084
 30
0.0
 40
0.2
100
AcDbArc
 50
89.99999999999797
 51
151.7262863686285
  0
ARC
  5
15F
330
A
100
AcDbEntity
  8
MGW15
  6
CONTINUOUS
 62
     4
100
AcDbCircle
 10
-30.74785891849028
 20
106.3712167554664
 30
0.0
 40
0.2
100
AcDbArc
 50
115.3091149660034
 51
180.0
  0
ARC
  5
160
330
A
100
AcDbEntity
  8
MGW15
  6
CONTINUOUS
 62
     4
100
AcDbCircle
 10
11.66439428302308
 20
108.0888444033084
 30
0.0
 40
1.7
100
AcDbArc
 50
208.273713631363
 51
244.6908850339976
  0
ARC
  5
161
330
A
100
AcDbEntity
  8
MGW15
  6
CONTINUOUS
 62
     4
100
AcDbCircle
 10
11.66439428302308
 20
108.0888444033084
 30
0.0
 40
1.7
100
AcDbArc
 50
115.3091149660023
 51
151.726286368635
  0
ARC
  5
162
330
A
100
AcDbEntity
  8
MGW15
  6
CONTINUOUS
 62
     4
100
AcDbCircle
 10
10.8521410815097
 20
109.8064720511504
 30
0.0
 40
0.2
100
AcDbArc
 50
295.3091149660018
 51
360.0
  0
ARC
  5
163
330
A
100
AcDbEntity
  8
MGW15
  6
CONTINUOUS
 62
     4
100
AcDbCircle
 10
9.991074229954932
 20
108.9888444033084
 30
0.0
 40
0.2
100
AcDbArc
 50
270.0
 51
331.7262863686351
  0
ARC
  5
164
330
A
100
AcDbEntity
  8
MGW15
  6
CONTINUOUS
 62
     4
100
AcDbCircle
 10
9.991074229954911
 20
107.1888444033084
 30
0.0
 40
0.2
100
AcDbArc
 50
28.27371363137142
 51
90.00000000000204
  0
ARC
  5
165
330
A
100
AcDbEntity
  8
MGW15
  6
CONTINUOUS
 62
     4
100
AcDbCircle
 10
10.8521410815097
 20
106.3712167554664
 30
0.0
 40
0.2
100
AcDbArc
 50
0.0
 51
64.69088503399641
  0
CIRCLE
  5
188
330
A
100
AcDbEntity
  8
MGW15
  6
CONTINUOUS
 62
     4
100
AcDbCircle
 10
85.05214108150969
 20
174.0888444033084
 30
0.0
 40
4.0
  0
CIRCLE
  5
189
330
A
100
AcDbEntity
  8
MGW15
  6
CONTINUOUS
 62
     4
100
AcDbCircle
 10
85.05214108150969
 20
174.0888444033084
 30
0.0
 40
2.25
  0
LINE
  5
18A
330
A
100
AcDbEntity
  8
MGW15
  6
CENTER
 62
   252
100
AcDbLine
 10
80.05214108150969
 20
174.0888444033084
 30
0.0
 11
90.05214108150969
 21
174.0888444033084
 31
0.0
  0
LINE
  5
18B
330
A
100
AcDbEntity
  8
MGW15
  6
CENTER
 62
   252
100
AcDbLine
 10
85.05214108150969
 20
179.0888444033084
 30
0.0
 11
85.05214108150969
 21
169.0888444033084
 31
0.0
  0
CIRCLE
  5
194
330
A
100
AcDbEntity
  8
MGW15
  6
CONTINUOUS
 62
     4
100
AcDbCircle
 10
85.05214108150969
 20
151.0888444033084
 30
0.0
 40
4.0
  0
CIRCLE
  5
195
330
A
100
AcDbEntity
  8
MGW15
  6
CONTINUOUS
 62
     4
100
AcDbCircle
 10
85.05214108150969
 20
151.0888444033084
 30
0.0
 40
2.25
  0
LINE
  5
196
330
A
100
AcDbEntity
  8
MGW15
  6
CENTER
 62
   252
100
AcDbLine
 10
80.05214108150969
 20
151.0888444033084
 30
0.0
 11
90.05214108150969
 21
151.0888444033084
 31
0.0
  0
LINE
  5
197
330
A
100
AcDbEntity
  8
MGW15
  6
CENTER
 62
   252
100
AcDbLine
 10
85.05214108150969
 20
156.0888444033084
 30
0.0
 11
85.05214108150969
 21
146.0888444033083
 31
0.0
  0
LINE
  5
1A9
330
A
100
AcDbEntity
  8
MGW15
  6
CENTER
 62
   252
100
AcDbLine
 10
85.05214108150969
 20
112.2388464033084
 30
0.0
 11
85.05214108150969
 21
100.0772094033084
 31
0.0
  0
LINE
  5
1AA
330
A
100
AcDbEntity
  8
MGW15
  6
DASHED
 62
   252
100
AcDbLine
 10
81.05214108150969
 20
110.7888444033084
 30
0.0
 11
89.05214108150969
 21
110.7888444033084
 31
0.0
  0
LINE
  5
1AB
330
A
100
AcDbEntity
  8
MGW15
  6
DASHED
 62
   252
100
AcDbLine
 10
87.30213008150968
 20
101.9888444033084
 30
0.0
 11
82.80213008150969
 21
101.9888444033084
 31
0.0
  0
LINE
  5
1AC
330
A
100
AcDbEntity
  8
MGW15
  6
DASHED
 62
   252
100
AcDbLine
 10
89.05214108150969
 20
106.4888444033084
 30
0.0
 11
81.05214108150969
 21
106.4888444033084
 31
0.0
  0
LINE
  5
1AD
330
A
100
AcDbEntity
  8
MGW15
  6
DASHED
 62
   252
100
AcDbLine
 10
82.80214108150969
 20
106.5888444033084
 30
0.0
 11
82.80214108150969
 21
101.9888444033084
 31
0.0
  0
LINE
  5
1AE
330
A
100
AcDbEntity
  8
MGW15
  6
DASHED
 62
   252
100
AcDbLine
 10
82.80213008150969
 20
101.9888444033084
 30
0.0
 11
82.40213008150968
 21
101.5888444033084
 31
0.0
  0
LINE
  5
1AF
330
A
100
AcDbEntity
  8
MGW15
  6
DASHED
 62
   252
100
AcDbLine
 10
81.05214108150969
 20
110.7888444033084
 30
0.0
 11
81.05214108150969
 21
106.5888444033084
 31
0.0
  0
LINE
  5
1B0
330
A
100
AcDbEntity
  8
MGW15
  6
DASHED
 62
   252
100
AcDbLine
 10
80.87893600075281
 20
111.0888444033084
 30
0.0
 11
81.05214108150969
 21
110.7888444033084
 31
0.0
  0
LINE
  5
1B1
330
A
100
AcDbEntity
  8
MGW15
  6
DASHED
 62
   252
100
AcDbLine
 10
87.30214108150969
 20
106.5888444033084
 30
0.0
 11
87.30214108150969
 21
101.9888444033084
 31
0.0
  0
LINE
  5
1B2
330
A
100
AcDbEntity
  8
MGW15
  6
DASHED
 62
   252
100
AcDbLine
 10
87.70213008150971
 20
101.5888444033084
 30
0.0
 11
87.30213008150968
 21
101.9888444033084
 31
0.0
  0
LINE
  5
1B3
330
A
100
AcDbEntity
  8
MGW15
  6
DASHED
 62
   252
100
AcDbLine
 10
89.05214108150969
 20
110.7888444033084
 30
0.0
 11
89.05214108150969
 21
106.5888444033084
 31
0.0
  0
LINE
  5
1B4
330
A
100
AcDbEntity
  8
MGW15
  6
DASHED
 62
   252
100
AcDbLine
 10
89.22534616226656
 20
111.0888444033084
 30
0.0
 11
89.05214108150969
 21
110.7888444033084
 31
0.0
  0
LINE
  5
1C6
330
A
100
AcDbEntity
  8
MGW15
  6
CENTER
 62
   252
100
AcDbLine
 10
125.0521410815096
 20
112.2388464033084
 30
0.0
 11
125.0521410815096
 21
100.0772094033084
 31
0.0
  0
LINE
  5
1C7
330
A
100
AcDbEntity
  8
MGW15
  6
DASHED
 62
   252
100
AcDbLine
 10
121.0521410815097
 20
110.7888444033084
 30
0.0
 11
129.0521410815096
 21
110.7888444033084
 31
0.0
  0
LINE
  5
1C8
330
A
100
AcDbEntity
  8
MGW15
  6
DASHED
 62
   252
100
AcDbLine
 10
127.3021300815097
 20
101.9888444033084
 30
0.0
 11
122.8021300815096
 21
101.9888444033084
 31
0.0
  0
LINE
  5
1C9
330
A
100
AcDbEntity
  8
MGW15
  6
DASHED
 62
   252
100
AcDbLine
 10
129.0521410815096
 20
106.4888444033084
 30
0.0
 11
121.0521410815097
 21
106.4888444033084
 31
0.0
  0
LINE
  5
1CA
330
A
100
AcDbEntity
  8
MGW15
  6
DASHED
 62
   252
100
AcDbLine
 10
122.8021410815096
 20
106.5888444033084
 30
0.0
 11
122.8021410815096
 21
101.9888444033084
 31
0.0
  0
LINE
  5
1CB
330
A
100
AcDbEntity
  8
MGW15
  6
DASHED
 62
   252
100
AcDbLine
 10
122.8021300815096
 20
101.9888444033084
 30
0.0
 11
122.4021300815096
 21
101.5888444033084
 31
0.0
  0
LINE
  5
1CC
330
A
100
AcDbEntity
  8
MGW15
  6
DASHED
 62
   252
100
AcDbLine
 10
121.0521410815097
 20
110.7888444033084
 30
0.0
 11
121.0521410815097
 21
106.5888444033084
 31
0.0
  0
LINE
  5
1CD
330
A
100
AcDbEntity
  8
MGW15
  6
DASHED
 62
   252
100
AcDbLine
 10
120.8789360007528
 20
111.0888444033084
 30
0.0
 11
121.0521410815097
 21
110.7888444033084
 31
0.0
  0
LINE
  5
1CE
330
A
100
AcDbEntity
  8
MGW15
  6
DASHED
 62
   252
100
AcDbLine
 10
127.3021410815097
 20
106.5888444033084
 30
0.0
 11
127.3021410815097
 21
101.9888444033084
 31
0.0
  0
LINE
  5
1CF
330
A
100
AcDbEntity
  8
MGW15
  6
DASHED
 62
   252
100
AcDbLine
 10
127.7021300815097
 20
101.5888444033084
 30
0.0
 11
127.3021300815097
 21
101.9888444033084
 31
0.0
  0
LINE
  5
1D0
330
A
100
AcDbEntity
  8
MGW15
  6
DASHED
 62
   252
100
AcDbLine
 10
129.0521410815096
 20
110.7888444033084
 30
0.0
 11
129.0521410815096
 21
106.5888444033084
 31
0.0
  0
LINE
  5
1D1
330
A
100
AcDbEntity
  8
MGW15
  6
DASHED
 62
   252
100
AcDbLine
 10
129.2253461622665
 20
111.0888444033084
 30
0.0
 11
129.0521410815096
 21
110.7888444033084
 31
0.0
  0
ENDSEC
  0
SECTION
  2
OBJECTS
  0
DICTIONARY
  5
19
330
0
100
AcDbDictionary
  3
ACAD_GROUP
350
1A
  3
ACAD_LAYOUT
350
171
  3
ACAD_MLINESTYLE
350
1B
  3
ACAD_PLOTSETTINGS
350
172
  3
ACAD_PLOTSTYLENAME
350
16F
  3
ACDBHEADERROUNDTRIPXREC
350
1DA
  0
DICTIONARY
  5
1FA
330
A
100
AcDbDictionary
280
     1
  3
ACAD_LAYOUTSELFREF
360
1FB
  0
DICTIONARY
  5
1FC
330
B
100
AcDbDictionary
280
     1
  3
ACAD_LAYOUTSELFREF
360
1FD
  0
DICTIONARY
  5
1A
102
{ACAD_REACTORS
330
19
102
}
330
19
100
AcDbDictionary
  0
DICTIONARY
  5
171
102
{ACAD_REACTORS
330
19
102
}
330
19
100
AcDbDictionary
  0
DICTIONARY
  5
1B
102
{ACAD_REACTORS
330
19
102
}
330
19
100
AcDbDictionary
  3
STANDARD
350
1C
  0
DICTIONARY
  5
172
102
{ACAD_REACTORS
330
19
102
}
330
19
100
AcDbDictionary
  0
ACDBDICTIONARYWDFLT
  5
16F
102
{ACAD_REACTORS
330
19
102
}
330
19
100
AcDbDictionary
281
     1
  3
Normal
350
170
100
AcDbDictionaryWithDefault
340
170
  0
DICTIONARY
  5
1DA
102
{ACAD_REACTORS
330
19
102
}
330
19
100
AcDbDictionary
  3
CEPSNTYPE
350
1E4
  3
FINGERPRINTGUID
350
1E5
  3
HYPERLINKBASE
350
1DD
  3
INSUNITS
350
1E3
  3
LAYOUTDICT
350
1DF
  3
LWETCUNION
350
1E2
  3
PLOTSETDICT
350
1E0
  3
PLOTSTYLNAMDICT
350
1E1
  3
PSVPSCALE
350
1E7
  3
PUCSBASE
350
1EA
  3
PUCSORGBACK
350
1F0
  3
PUCSORGBOTTOM
350
1EC
  3
PUCSORGFRONT
350
1EF
  3
PUCSORGLEFT
350
1ED
  3
PUCSORGRIGHT
350
1EE
  3
PUCSORGTOP
350
1EB
  3
PUCSORTHOREF
350
1E8
  3
PUCSORTHOVIEW
350
1E9
  3
STYLESHEET
350
1DE
  3
TSTACKALIGN
350
1DB
  3
TSTACKSIZE
350
1DC
  3
UCSBASE
350
1F3
  3
UCSORGBACK
350
1F9
  3
UCSORGBOTTOM
350
1F5
  3
UCSORGFRONT
350
1F8
  3
UCSORGLEFT
350
1F6
  3
UCSORGRIGHT
350
1F7
  3
UCSORGTOP
350
1F4
  3
UCSORTHOREF
350
1F1
  3
UCSORTHOVIEW
350
1F2
  3
VERSIONGUID
350
1E6
  0
XRECORD
  5
1FB
102
{ACAD_REACTORS
330
1FA
102
}
330
1FA
100
AcDbXrecord
340
A
  0
XRECORD
  5
1FD
102
{ACAD_REACTORS
330
1FC
102
}
330
1FC
100
AcDbXrecord
340
B
  0
MLINESTYLE
  5
1C
102
{ACAD_REACTORS
330
1B
102
}
330
1B
100
AcDbMlineStyle
  2
STANDARD
 70
     0
  3

 62
     0
 51
90.00000000000019
 52
90.00000000000019
 71
     2
 49
0.5
 62
   256
  6
BYLAYER
 49
-0.5
 62
   256
  6
BYLAYER
  0
ACDBPLACEHOLDER
  5
170
102
{ACAD_REACTORS
330
16F
102
}
330
16F
100
AcDbPlaceHolder
280
     0
  0
XRECORD
  5
1E4
102
{ACAD_REACTORS
330
1DA
102
}
330
1DA
100
AcDbXrecord
 90
        0
  0
XRECORD
  5
1E5
102
{ACAD_REACTORS
330
1DA
102
}
330
1DA
100
AcDbXrecord
  1
{2F04B086-26A7-11D6-8687-00A024540C4A}
  0
XRECORD
  5
1DD
102
{ACAD_REACTORS
330
1DA
102
}
330
1DA
100
AcDbXrecord
  1

  0
XRECORD
  5
1E3
102
{ACAD_REACTORS
330
1DA
102
}
330
1DA
100
AcDbXrecord
 90
        0
  0
XRECORD
  5
1DF
102
{ACAD_REACTORS
330
1DA
102
}
330
1DA
100
AcDbXrecord
340
171
  0
XRECORD
  5
1E2
102
{ACAD_REACTORS
330
1DA
102
}
330
1DA
100
AcDbXrecord
 90
    14877
  0
XRECORD
  5
1E0
102
{ACAD_REACTORS
330
1DA
102
}
330
1DA
100
AcDbXrecord
340
172
  0
XRECORD
  5
1E1
102
{ACAD_REACTORS
330
1DA
102
}
330
1DA
100
AcDbXrecord
340
16F
  0
XRECORD
  5
1E7
102
{ACAD_REACTORS
330
1DA
102
}
330
1DA
100
AcDbXrecord
 40
0.0
  0
XRECORD
  5
1EA
102
{ACAD_REACTORS
330
1DA
102
}
330
1DA
100
AcDbXrecord
340
0
  0
XRECORD
  5
1F0
102
{ACAD_REACTORS
330
1DA
102
}
330
1DA
100
AcDbXrecord
 10
0.0
 20
0.0
 30
0.0
  0
XRECORD
  5
1EC
102
{ACAD_REACTORS
330
1DA
102
}
330
1DA
100
AcDbXrecord
 10
0.0
 20
0.0
 30
0.0
  0
XRECORD
  5
1EF
102
{ACAD_REACTORS
330
1DA
102
}
330
1DA
100
AcDbXrecord
 10
0.0
 20
0.0
 30
0.0
  0
XRECORD
  5
1ED
102
{ACAD_REACTORS
330
1DA
102
}
330
1DA
100
AcDbXrecord
 10
0.0
 20
0.0
 30
0.0
  0
XRECORD
  5
1EE
102
{ACAD_REACTORS
330
1DA
102
}
330
1DA
100
AcDbXrecord
 10
0.0
 20
0.0
 30
0.0
  0
XRECORD
  5
1EB
102
{ACAD_REACTORS
330
1DA
102
}
330
1DA
100
AcDbXrecord
 10
0.0
 20
0.0
 30
0.0
  0
XRECORD
  5
1E8
102
{ACAD_REACTORS
330
1DA
102
}
330
1DA
100
AcDbXrecord
340
0
  0
XRECORD
  5
1E9
102
{ACAD_REACTORS
330
1DA
102
}
330
1DA
100
AcDbXrecord
 70
     0
  0
XRECORD
  5
1DE
102
{ACAD_REACTORS
330
1DA
102
}
330
1DA
100
AcDbXrecord
  1

  0
XRECORD
  5
1DB
102
{ACAD_REACTORS
330
1DA
102
}
330
1DA
100
AcDbXrecord
 90
        1
  0
XRECORD
  5
1DC
102
{ACAD_REACTORS
330
1DA
102
}
330
1DA
100
AcDbXrecord
 90
       70
  0
XRECORD
  5
1F3
102
{ACAD_REACTORS
330
1DA
102
}
330
1DA
100
AcDbXrecord
340
0
  0
XRECORD
  5
1F9
102
{ACAD_REACTORS
330
1DA
102
}
330
1DA
100
AcDbXrecord
 10
0.0
 20
0.0
 30
0.0
  0
XRECORD
  5
1F5
102
{ACAD_REACTORS
330
1DA
102
}
330
1DA
100
AcDbXrecord
 10
0.0
 20
0.0
 30
0.0
  0
XRECORD
  5
1F8
102
{ACAD_REACTORS
330
1DA
102
}
330
1DA
100
AcDbXrecord
 10
0.0
 20
0.0
 30
0.0
  0
XRECORD
  5
1F6
102
{ACAD_REACTORS
330
1DA
102
}
330
1DA
100
AcDbXrecord
 10
0.0
 20
0.0
 30
0.0
  0
XRECORD
  5
1F7
102
{ACAD_REACTORS
330
1DA
102
}
330
1DA
100
AcDbXrecord
 10
0.0
 20
0.0
 30
0.0
  0
XRECORD
  5
1F4
102
{ACAD_REACTORS
330
1DA
102
}
330
1DA
100
AcDbXrecord
 10
0.0
 20
0.0
 30
0.0
  0
XRECORD
  5
1F1
102
{ACAD_REACTORS
330
1DA
102
}
330
1DA
100
AcDbXrecord
340
0
  0
XRECORD
  5
1F2
102
{ACAD_REACTORS
330
1DA
102
}
330
1DA
100
AcDbXrecord
 70
     0
  0
XRECORD
  5
1E6
102
{ACAD_REACTORS
330
1DA
102
}
330
1DA
100
AcDbXrecord
  1
{C384AAB9-7F65-11D6-86EB-00A024540C4A}
  0
ENDSEC
  0
EOF
