  0
SECTION
  2
HEADER
  9
$ACADVER
  1
AC1015
  9
$ACADMAINTVER
 70
    20
  9
$DWGCODEPAGE
  3
ANSI_950
  9
$INSBASE
 10
0.0
 20
0.0
 30
0.0
  9
$EXTMIN
 10
1456.140448034109
 20
165.2752130502766
 30
0.0
  9
$EXTMAX
 10
1959.180699617569
 20
461.440877834618
 30
0.0
  9
$LIMMIN
 10
-10.0
 20
-15.0
  9
$LIMMAX
 10
120.0
 20
90.0
  9
$ORTHOMODE
 70
     1
  9
$REGENMODE
 70
     0
  9
$FILLMODE
 70
     1
  9
$QTEXTMODE
 70
     0
  9
$MIRRTEXT
 70
     0
  9
$LTSCALE
 40
3.0
  9
$ATTMODE
 70
     1
  9
$TEXTSIZE
 40
3.0
  9
$TRACEWID
 40
1.0
  9
$TEXTSTYLE
  7
STANDARD
  9
$CLAYER
  8
0
  9
$CELTYPE
  6
ByLayer
  9
$CECOLOR
 62
   256
  9
$CELTSCALE
 40
1.0
  9
$DISPSILH
 70
     0
  9
$DIMSCALE
 40
1.0
  9
$DIMASZ
 40
3.0
  9
$DIMEXO
 40
1.0
  9
$DIMDLI
 40
6.0
  9
$DIMRND
 40
0.0
  9
$DIMDLE
 40
0.0
  9
$DIMEXE
 40
1.0
  9
$DIMTP
 40
0.0
  9
$DIMTM
 40
0.0
  9
$DIMTXT
 40
3.0
  9
$DIMCEN
 40
1.5
  9
$DIMTSZ
 40
0.0
  9
$DIMTOL
 70
     0
  9
$DIMLIM
 70
     0
  9
$DIMTIH
 70
     1
  9
$DIMTOH
 70
     1
  9
$DIMSE1
 70
     0
  9
$DIMSE2
 70
     0
  9
$DIMTAD
 70
     0
  9
$DIMZIN
 70
     0
  9
$DIMBLK
  1

  9
$DIMASO
 70
     1
  9
$DIMSHO
 70
     0
  9
$DIMPOST
  1

  9
$DIMAPOST
  1

  9
$DIMALT
 70
     0
  9
$DIMALTD
 70
     2
  9
$DIMALTF
 40
25.4
  9
$DIMLFAC
 40
1.0
  9
$DIMTOFL
 70
     1
  9
$DIMTVP
 40
0.0
  9
$DIMTIX
 70
     0
  9
$DIMSOXD
 70
     0
  9
$DIMSAH
 70
     0
  9
$DIMBLK1
  1

  9
$DIMBLK2
  1

  9
$DIMSTYLE
  2
Standard
  9
$DIMCLRD
 70
     0
  9
$DIMCLRE
 70
     0
  9
$DIMCLRT
 70
     0
  9
$DIMTFAC
 40
1.0
  9
$DIMGAP
 40
0.09
  9
$DIMJUST
 70
     0
  9
$DIMSD1
 70
     0
  9
$DIMSD2
 70
     0
  9
$DIMTOLJ
 70
     1
  9
$DIMTZIN
 70
     0
  9
$DIMALTZ
 70
     0
  9
$DIMALTTZ
 70
     0
  9
$DIMUPT
 70
     0
  9
$DIMDEC
 70
     4
  9
$DIMTDEC
 70
     8
  9
$DIMALTU
 70
     2
  9
$DIMALTTD
 70
     2
  9
$DIMTXSTY
  7
STANDARD
  9
$DIMAUNIT
 70
     0
  9
$DIMADEC
 70
     0
  9
$DIMALTRND
 40
0.0
  9
$DIMAZIN
 70
     0
  9
$DIMDSEP
 70
    46
  9
$DIMATFIT
 70
     3
  9
$DIMFRAC
 70
     0
  9
$DIMLDRBLK
  1

  9
$DIMLUNIT
 70
     2
  9
$DIMLWD
 70
    -2
  9
$DIMLWE
 70
    -2
  9
$DIMTMOVE
 70
     2
  9
$LUNITS
 70
     2
  9
$LUPREC
 70
     4
  9
$SKETCHINC
 40
0.5
  9
$FILLETRAD
 40
0.0
  9
$AUNITS
 70
     0
  9
$AUPREC
 70
     0
  9
$MENU
  1
ACAD
  9
$ELEVATION
 40
0.0
  9
$PELEVATION
 40
0.0
  9
$THICKNESS
 40
0.0
  9
$LIMCHECK
 70
     0
  9
$CHAMFERA
 40
0.0
  9
$CHAMFERB
 40
0.0
  9
$CHAMFERC
 40
0.0
  9
$CHAMFERD
 40
0.0
  9
$SKPOLY
 70
     0
  9
$TDCREATE
 40
2444975.333333334
  9
$TDUCREATE
 40
2444975.000000000
  9
$TDUPDATE
 40
2454042.440224560
  9
$TDUUPDATE
 40
2454042.106891227
  9
$TDINDWG
 40
0.3141189815
  9
$TDUSRTIMER
 40
0.0000000000
  9
$USRTIMER
 70
     0
  9
$ANGBASE
 50
0.0
  9
$ANGDIR
 70
     0
  9
$PDMODE
 70
     0
  9
$PDSIZE
 40
0.001
  9
$PLINEWID
 40
0.0
  9
$SPLFRAME
 70
     0
  9
$SPLINETYPE
 70
     6
  9
$SPLINESEGS
 70
  8000
  9
$HANDSEED
  5
EAD4
  9
$SURFTAB1
 70
     6
  9
$SURFTAB2
 70
     6
  9
$SURFTYPE
 70
     6
  9
$SURFU
 70
     6
  9
$SURFV
 70
     6
  9
$UCSBASE
  2

  9
$UCSNAME
  2

  9
$UCSORG
 10
0.0
 20
0.0
 30
0.0
  9
$UCSXDIR
 10
1.0
 20
0.0
 30
0.0
  9
$UCSYDIR
 10
0.0
 20
1.0
 30
0.0
  9
$UCSORTHOREF
  2

  9
$UCSORTHOVIEW
 70
     0
  9
$UCSORGTOP
 10
0.0
 20
0.0
 30
0.0
  9
$UCSORGBOTTOM
 10
0.0
 20
0.0
 30
0.0
  9
$UCSORGLEFT
 10
0.0
 20
0.0
 30
0.0
  9
$UCSORGRIGHT
 10
0.0
 20
0.0
 30
0.0
  9
$UCSORGFRONT
 10
0.0
 20
0.0
 30
0.0
  9
$UCSORGBACK
 10
0.0
 20
0.0
 30
0.0
  9
$PUCSBASE
  2

  9
$PUCSNAME
  2

  9
$PUCSORG
 10
0.0
 20
0.0
 30
0.0
  9
$PUCSXDIR
 10
1.0
 20
0.0
 30
0.0
  9
$PUCSYDIR
 10
0.0
 20
1.0
 30
0.0
  9
$PUCSORTHOREF
  2

  9
$PUCSORTHOVIEW
 70
     0
  9
$PUCSORGTOP
 10
0.0
 20
0.0
 30
0.0
  9
$PUCSORGBOTTOM
 10
0.0
 20
0.0
 30
0.0
  9
$PUCSORGLEFT
 10
0.0
 20
0.0
 30
0.0
  9
$PUCSORGRIGHT
 10
0.0
 20
0.0
 30
0.0
  9
$PUCSORGFRONT
 10
0.0
 20
0.0
 30
0.0
  9
$PUCSORGBACK
 10
0.0
 20
0.0
 30
0.0
  9
$USERI1
 70
     0
  9
$USERI2
 70
     0
  9
$USERI3
 70
     0
  9
$USERI4
 70
     0
  9
$USERI5
 70
     0
  9
$USERR1
 40
0.0
  9
$USERR2
 40
0.0
  9
$USERR3
 40
0.0
  9
$USERR4
 40
0.0
  9
$USERR5
 40
0.0
  9
$WORLDVIEW
 70
     1
  9
$SHADEDGE
 70
     3
  9
$SHADEDIF
 70
    70
  9
$TILEMODE
 70
     1
  9
$MAXACTVP
 70
    48
  9
$PINSBASE
 10
0.0
 20
0.0
 30
0.0
  9
$PLIMCHECK
 70
     0
  9
$PEXTMIN
 10
1.000000000000000E+20
 20
1.000000000000000E+20
 30
1.000000000000000E+20
  9
$PEXTMAX
 10
-1.000000000000000E+20
 20
-1.000000000000000E+20
 30
-1.000000000000000E+20
  9
$PLIMMIN
 10
0.0
 20
0.0
  9
$PLIMMAX
 10
12.0
 20
9.0
  9
$UNITMODE
 70
     0
  9
$VISRETAIN
 70
     1
  9
$PLINEGEN
 70
     0
  9
$PSLTSCALE
 70
     0
  9
$TREEDEPTH
 70
  3020
  9
$CMLSTYLE
  2
Standard
  9
$CMLJUST
 70
     0
  9
$CMLSCALE
 40
1.0
  9
$PROXYGRAPHICS
 70
     1
  9
$MEASUREMENT
 70
     0
  9
$CELWEIGHT
370
    -1
  9
$ENDCAPS
280
     0
  9
$JOINSTYLE
280
     0
  9
$LWDISPLAY
290
     0
  9
$INSUNITS
 70
     0
  9
$HYPERLINKBASE
  1

  9
$STYLESHEET
  1

  9
$XEDIT
290
     1
  9
$CEPSNTYPE
380
     0
  9
$PSTYLEMODE
290
     1
  9
$FINGERPRINTGUID
  2
{77095E5F-9CE7-11D7-970D-0040F4541FA8}
  9
$VERSIONGUID
  2
{B8116D03-CC57-4691-BE40-AD41B308AAAF}
  9
$EXTNAMES
290
     1
  9
$PSVPSCALE
 40
0.0
  9
$OLESTARTUP
290
     0
  0
ENDSEC
  0
SECTION
  2
CLASSES
  0
CLASS
  1
ACDBDICTIONARYWDFLT
  2
AcDbDictionaryWithDefault
  3
ObjectDBX Classes
 90
        0
280
     0
281
     0
  0
CLASS
  1
ACDBPLACEHOLDER
  2
AcDbPlaceHolder
  3
ObjectDBX Classes
 90
        0
280
     0
281
     0
  0
CLASS
  1
LAYOUT
  2
AcDbLayout
  3
ObjectDBX Classes
 90
        0
280
     0
281
     0
  0
CLASS
  1
LONG_TRANSACTION
  2
AcDbLongTransaction
  3
ObjectDBX Classes
 90
    32768
280
     0
281
     0
  0
CLASS
  1
LWPOLYLINE
  2
AcDbPolyline
  3
ObjectDBX Classes
 90
        0
280
     0
281
     1
  0
CLASS
  1
HATCH
  2
AcDbHatch
  3
ObjectDBX Classes
 90
    32768
280
     0
281
     1
  0
CLASS
  1
XRECORD
  2
AcDbXrecord
  3
ObjectDBX Classes
 90
        0
280
     0
281
     0
  0
CLASS
  1
LONG_TRANSACTION
  2
AcDbLongTransaction
  3
ObjectDBX Classes
 90
    32768
280
     0
281
     0
  0
CLASS
  1
LWPOLYLINE
  2
AcDbPolyline
  3
ObjectDBX Classes
 90
        0
280
     0
281
     1
  0
CLASS
  1
HATCH
  2
AcDbHatch
  3
ObjectDBX Classes
 90
    32768
280
     0
281
     1
  0
CLASS
  1
XRECORD
  2
AcDbXrecord
  3
ObjectDBX Classes
 90
        0
280
     0
281
     0
  0
CLASS
  1
DICTIONARYVAR
  2
AcDbDictionaryVar
  3
ObjectDBX Classes
 90
        0
280
     0
281
     0
  0
CLASS
  1
PLOTSETTINGS
  2
AcDbPlotSettings
  3
ObjectDBX Classes
 90
        0
280
     0
281
     0
  0
CLASS
  1
SORTENTSTABLE
  2
AcDbSortentsTable
  3
ObjectDBX Classes
 90
        0
280
     0
281
     0
  0
CLASS
  1
TABLESTYLE
  2
AcDbTableStyle
  3
ObjectDBX Classes
 90
     2047
280
     0
281
     0
  0
ENDSEC
  0
SECTION
  2
TABLES
  0
TABLE
  2
VPORT
  5
8
330
0
100
AcDbSymbolTable
 70
     4
  0
VPORT
  5
EACA
330
8
100
AcDbSymbolTableRecord
100
AcDbViewportTableRecord
  2
*Active
 70
     0
 10
0.0
 20
0.0
 11
1.0
 21
1.0
 12
1714.467146439362
 22
322.2179415731549
 13
457.9999999999997
 23
1082.0
 14
10.0
 24
10.0
 15
10.0
 25
10.0
 16
0.0
 26
0.0
 36
1.0
 17
0.0
 27
0.0
 37
0.0
 40
348.1317218419392
 41
1.530456852791878
 42
1.0
 43
0.0
 44
0.0
 50
0.0
 51
0.0
 71
     0
 72
  2000
 73
     1
 74
     1
 75
     0
 76
     0
 77
     0
 78
     0
281
     0
 65
     1
110
0.0
120
0.0
130
0.0
111
1.0
121
0.0
131
0.0
112
0.0
122
1.0
132
0.0
 79
     0
146
0.0
  0
ENDTAB
  0
TABLE
  2
LTYPE
  5
5
330
0
100
AcDbSymbolTable
 70
     6
  0
LTYPE
  5
13
330
5
100
AcDbSymbolTableRecord
100
AcDbLinetypeTableRecord
  2
ByBlock
 70
     0
  3

 72
    65
 73
     0
 40
0.0
  0
LTYPE
  5
14
330
5
100
AcDbSymbolTableRecord
100
AcDbLinetypeTableRecord
  2
ByLayer
 70
     0
  3

 72
    65
 73
     0
 40
0.0
  0
LTYPE
  5
15
330
5
100
AcDbSymbolTableRecord
100
AcDbLinetypeTableRecord
  2
CONTINUOUS
 70
     0
  3
連續線 ________________________
 72
    65
 73
     0
 40
0.0
  0
LTYPE
  5
225
330
5
100
AcDbSymbolTableRecord
100
AcDbLinetypeTableRecord
  2
BYBLOCK
 70
     0
  3
Solid line
 72
    65
 73
     0
 40
0.0
  0
LTYPE
  5
226
330
5
100
AcDbSymbolTableRecord
100
AcDbLinetypeTableRecord
  2
BYLAYER
 70
     0
  3
Solid line
 72
    65
 73
     0
 40
0.0
  0
LTYPE
  5
413C
330
5
100
AcDbSymbolTableRecord
100
AcDbLinetypeTableRecord
  2
CENTER2
 70
     0
  3
Center (.5x) ___ _ ___ _ ___ _ ___ _ ___ _ ___
 72
    65
 73
     4
 40
28.575
 49
19.05
 74
     0
 49
-3.174999999999999
 74
     0
 49
3.174999999999999
 74
     0
 49
-3.174999999999999
 74
     0
  0
LTYPE
  5
413D
330
5
100
AcDbSymbolTableRecord
100
AcDbLinetypeTableRecord
  2
DASHED2
 70
     0
  3
Dashed (.5x) _ _ _ _ _ _ _ _ _ _ _ _ _ _ _ _ _
 72
    65
 73
     2
 40
9.524999999999998
 49
6.349999999999999
 74
     0
 49
-3.174999999999999
 74
     0
  0
LTYPE
  5
69DC
330
5
100
AcDbSymbolTableRecord
100
AcDbLinetypeTableRecord
  2
DASHED
 70
     0
  3
__ __ __ __ __ __ __ __ __ __ __ __ __ __ __
 72
    65
 73
     2
 40
4.0
 49
3.0
 74
     0
 49
-1.0
 74
     0
  0
ENDTAB
  0
TABLE
  2
LAYER
  5
2
102
{ACAD_XDICTIONARY
360
43C2
102
}
330
0
100
AcDbSymbolTable
 70
     7
  0
LAYER
  5
10
330
2
100
AcDbSymbolTableRecord
100
AcDbLayerTableRecord
  2
0
 70
     0
 62
     7
  6
CONTINUOUS
370
    -3
390
F
  0
LAYER
  5
413E
330
2
100
AcDbSymbolTableRecord
100
AcDbLayerTableRecord
  2
指線
 70
     0
 62
     3
  6
CONTINUOUS
370
    15
390
F
  0
LAYER
  5
413F
330
2
100
AcDbSymbolTableRecord
100
AcDbLayerTableRecord
  2
中心線
 70
     0
 62
     4
  6
CENTER2
370
    20
390
F
  0
LAYER
  5
4140
330
2
100
AcDbSymbolTableRecord
100
AcDbLayerTableRecord
  2
虛線
 70
     0
 62
     6
  6
DASHED2
290
     0
370
    -3
390
F
  0
LAYER
  5
43B4
330
2
100
AcDbSymbolTableRecord
100
AcDbLayerTableRecord
  2
建構線
 70
     0
 62
     1
  6
CONTINUOUS
370
    -3
390
F
  0
LAYER
  5
69DF
330
2
100
AcDbSymbolTableRecord
100
AcDbLayerTableRecord
  2
標註線
 70
     0
 62
     3
  6
CONTINUOUS
370
    13
390
F
  0
LAYER
  5
C701
330
2
100
AcDbSymbolTableRecord
100
AcDbLayerTableRecord
  2
Defpoints
 70
     0
 62
     7
  6
CONTINUOUS
290
     0
370
    -3
390
F
  0
ENDTAB
  0
TABLE
  2
STYLE
  5
3
330
0
100
AcDbSymbolTable
 70
     1
  0
STYLE
  5
11
330
3
100
AcDbSymbolTableRecord
100
AcDbTextStyleTableRecord
  2
STANDARD
 70
     0
 40
0.0
 41
1.0
 50
0.0
 71
     0
 42
3.0
  3

  4

  0
ENDTAB
  0
TABLE
  2
VIEW
  5
6
330
0
100
AcDbSymbolTable
 70
     0
  0
ENDTAB
  0
TABLE
  2
UCS
  5
7
330
0
100
AcDbSymbolTable
 70
     0
  0
ENDTAB
  0
TABLE
  2
APPID
  5
9
330
0
100
AcDbSymbolTable
 70
     4
  0
APPID
  5
12
330
9
100
AcDbSymbolTableRecord
100
AcDbRegAppTableRecord
  2
ACAD
 70
     0
  0
APPID
  5
230
330
9
100
AcDbSymbolTableRecord
100
AcDbRegAppTableRecord
  2
TCAD
 70
     0
  0
APPID
  5
4142
330
9
100
AcDbSymbolTableRecord
100
AcDbRegAppTableRecord
  2
CONTENTBLOCKICON
 70
     0
  0
APPID
  5
5D91
330
9
100
AcDbSymbolTableRecord
100
AcDbRegAppTableRecord
  2
pntflag
 70
     0
  0
ENDTAB
  0
TABLE
  2
DIMSTYLE
  5
A
330
0
100
AcDbSymbolTable
 70
     1
100
AcDbDimStyleTable
 71
     1
340
3C9D
  0
DIMSTYLE
105
3C9D
330
A
100
AcDbSymbolTableRecord
100
AcDbDimStyleTableRecord
  2
Standard
 70
     0
340
11
  0
ENDTAB
  0
TABLE
  2
BLOCK_RECORD
  5
1
330
0
100
AcDbSymbolTable
 70
     2
  0
BLOCK_RECORD
  5
1E
102
{ACAD_XDICTIONARY
360
3D1E
102
}
330
1
100
AcDbSymbolTableRecord
100
AcDbBlockTableRecord
  2
*Model_Space
340
21
  0
BLOCK_RECORD
  5
1A
102
{ACAD_XDICTIONARY
360
3D20
102
}
330
1
100
AcDbSymbolTableRecord
100
AcDbBlockTableRecord
  2
*Paper_Space
340
1D
  0
BLOCK_RECORD
  5
69B7
102
{ACAD_XDICTIONARY
360
69B8
102
}
330
1
100
AcDbSymbolTableRecord
100
AcDbBlockTableRecord
  2
A$C51E2538E
340
0
  0
BLOCK_RECORD
  5
69CB
102
{ACAD_XDICTIONARY
360
69CC
102
}
330
1
100
AcDbSymbolTableRecord
100
AcDbBlockTableRecord
  2
A$C3310154B
340
0
  0
ENDTAB
  0
ENDSEC
  0
SECTION
  2
BLOCKS
  0
BLOCK
  5
254
330
1E
100
AcDbEntity
  8
0
100
AcDbBlockBegin
  2
*Model_Space
 70
     0
 10
0.0
 20
0.0
 30
0.0
  3
*Model_Space
  1

  0
ENDBLK
  5
255
330
1E
100
AcDbEntity
  8
0
100
AcDbBlockEnd
  0
BLOCK
  5
252
330
1A
100
AcDbEntity
 67
     1
  8
0
100
AcDbBlockBegin
  2
*Paper_Space
 70
     0
 10
0.0
 20
0.0
 30
0.0
  3
*Paper_Space
  1

  0
ENDBLK
  5
253
330
1A
100
AcDbEntity
 67
     1
  8
0
100
AcDbBlockEnd
  0
BLOCK
  5
69BA
330
69B7
100
AcDbEntity
  8
0
 62
     1
 48
0.27
100
AcDbBlockBegin
  2
A$C51E2538E
 70
     0
 10
0.0
 20
0.0
 30
0.0
  3
A$C51E2538E
  1

  0
LINE
  5
69BB
330
69B7
100
AcDbEntity
  8
虛線
 48
0.25
100
AcDbLine
 10
9.230939415452212
 20
1.99838789798423
 30
0.0
 11
2.230939415459943
 21
1.998387897983548
 31
0.0
  0
LINE
  5
69BC
330
69B7
100
AcDbEntity
  8
虛線
 48
0.25
100
AcDbLine
 10
9.230939415453576
 20
15.79841841556197
 30
0.0
 11
9.230939415452212
 21
1.99838789798423
 31
0.0
  0
LINE
  5
69BD
330
69B7
100
AcDbEntity
  8
虛線
 48
0.25
100
AcDbLine
 10
0.2309394154581241
 20
24.698418415562
 30
0.0
 11
0.2309394154590336
 21
16.09842604495623
 31
0.0
  0
LINE
  5
69BE
330
69B7
100
AcDbEntity
  8
虛線
 48
0.25
100
AcDbLine
 10
2.230939415453576
 20
15.79841841556191
 30
0.0
 11
2.230939415459943
 21
1.998387897983576
 31
0.0
  0
LINE
  5
69BF
330
69B7
100
AcDbEntity
  8
虛線
 48
0.25
100
AcDbLine
 10
0.2309394154590336
 20
16.09835738040544
 30
0.0
 11
11.23093941545221
 21
16.09835738040573
 31
0.0
  0
LINE
  5
69C0
330
69B7
100
AcDbEntity
  8
中心線
 48
0.25
100
AcDbLine
 10
5.730939415455679
 20
27.09841841556201
 30
0.0
 11
5.730939415449938
 21
0.0
 31
0.0
  0
LINE
  5
69C1
330
69B7
100
AcDbEntity
  8
虛線
 48
0.25
100
AcDbLine
 10
2.230939415459943
 20
1.998387897983548
 30
0.0
 11
1.730939415460852
 21
1.498387897984002
 31
0.0
  0
LINE
  5
69C2
330
69B7
100
AcDbEntity
  8
虛線
 48
0.25
100
AcDbLine
 10
9.230939415452212
 20
1.99838789798423
 30
0.0
 11
9.730939415451302
 21
1.498387897984287
 31
0.0
  0
LINE
  5
69C3
330
69B7
100
AcDbEntity
  8
虛線
 48
0.25
100
AcDbLine
 10
11.23093941545358
 20
24.698418415562
 30
0.0
 11
11.23093941545221
 21
16.09835738040573
 31
0.0
  0
LINE
  5
69C4
330
69B7
100
AcDbEntity
  8
虛線
 48
0.25
100
AcDbLine
 10
0.2309394154535767
 20
24.698418415562
 30
0.0
 11
11.23093941545358
 21
24.698418415562
 31
0.0
  0
LINE
  5
69C5
330
69B7
100
AcDbEntity
  8
虛線
 48
0.25
100
AcDbLine
 10
2.230939415453576
 20
15.79841841556197
 30
0.0
 11
9.230939415453576
 21
15.79841841556197
 31
0.0
  0
LINE
  5
69C6
330
69B7
100
AcDbEntity
  8
虛線
 48
0.25
100
AcDbLine
 10
1.930939415453394
 20
16.09841841556192
 30
0.0
 11
2.230939415453576
 21
15.79841841556191
 31
0.0
  0
LINE
  5
69C7
330
69B7
100
AcDbEntity
  8
虛線
 48
0.25
100
AcDbLine
 10
0.2309394154535767
 20
24.698418415562
 30
0.0
 11
-0.0000006922223292
 21
25.09841841556204
 31
0.0
  0
LINE
  5
69C8
330
69B7
100
AcDbEntity
  8
虛線
 48
0.25
100
AcDbLine
 10
9.230939415453576
 20
15.79841841556197
 30
0.0
 11
9.530939415453758
 21
16.09841841556198
 31
0.0
  0
LINE
  5
69C9
330
69B7
100
AcDbEntity
  8
虛線
 48
0.25
100
AcDbLine
 10
11.23093941545358
 20
24.698418415562
 30
0.0
 11
11.46187952312948
 21
25.09841841556204
 31
0.0
  0
ENDBLK
  5
69CA
330
69B7
100
AcDbEntity
  8
0
 62
     1
 48
0.27
100
AcDbBlockEnd
  0
BLOCK
  5
69CE
330
69CB
100
AcDbEntity
  8
0
 62
     1
 48
0.27
100
AcDbBlockBegin
  2
A$C3310154B
 70
     0
 10
0.0
 20
0.0
 30
0.0
  3
A$C3310154B
  1

  0
LINE
  5
69CF
330
69CB
100
AcDbEntity
  8
虛線
 48
0.2
100
AcDbLine
 10
0.4999707651827521
 20
12.80115016654724
 30
0.0
 11
0.4999707651836616
 21
5.30113016654775
 31
0.0
  0
LINE
  5
69D0
330
69CB
100
AcDbEntity
  8
虛線
 48
0.2
100
AcDbLine
 10
6.499970765181842
 20
12.80111016654831
 30
0.0
 11
6.499970765183661
 21
5.301130166548432
 31
0.0
  0
LINE
  5
69D1
330
69CB
100
AcDbEntity
  8
虛線
 48
0.2
100
AcDbLine
 10
6.499970765183661
 20
5.301130166548432
 30
0.0
 11
0.4999707651836616
 21
5.30113016654775
 31
0.0
  0
LINE
  5
69D2
330
69CB
100
AcDbEntity
  8
中心線
 48
0.25
100
AcDbLine
 10
3.49999076518344
 20
15.30112016654811
 30
0.0
 11
3.499990765177699
 21
0.000000166540076
 31
0.0
  0
LINE
  5
69D3
330
69CB
100
AcDbEntity
  8
虛線
 48
0.2
100
AcDbLine
 10
5.999980765182044
 20
12.30112016654846
 30
0.0
 11
5.999980765187501
 21
2.30113016655747
 31
0.0
  0
LINE
  5
69D4
330
69CB
100
AcDbEntity
  8
虛線
 48
0.2
100
AcDbLine
 10
1.000000765181994
 20
12.30112016654812
 30
0.0
 11
1.000000765187905
 21
2.301130166554685
 31
0.0
  0
LINE
  5
69D5
330
69CB
100
AcDbEntity
  8
虛線
 48
0.2
100
AcDbLine
 10
5.999980765187501
 20
2.30113016655747
 30
0.0
 11
1.000000765187905
 21
2.301130166554685
 31
0.0
  0
LINE
  5
69D6
330
69CB
100
AcDbEntity
  8
虛線
 48
0.2
100
AcDbLine
 10
5.999980765182499
 20
12.3011201665484
 30
0.0
 11
1.000000765181994
 21
12.30112016654817
 31
0.0
  0
LINE
  5
69D7
330
69CB
100
AcDbEntity
  8
虛線
 48
0.2
100
AcDbLine
 10
5.999980765182044
 20
12.3011201665484
 30
0.0
 11
6.999980765182499
 21
13.30112016654863
 31
0.0
  0
LINE
  5
69D8
330
69CB
100
AcDbEntity
  8
虛線
 48
0.2
100
AcDbLine
 10
5.999980765187956
 20
2.301130166557413
 30
0.0
 11
3.499990765183611
 21
0.801130166544965
 31
0.0
  0
LINE
  5
69D9
330
69CB
100
AcDbEntity
  8
虛線
 48
0.2
100
AcDbLine
 10
1.000000765187905
 20
2.30113016657259
 30
0.0
 11
3.499990765178154
 21
0.801130166544965
 31
0.0
  0
LINE
  5
69DA
330
69CB
100
AcDbEntity
  8
虛線
 48
0.2
100
AcDbLine
 10
1.00000076518495
 20
12.30112016654834
 30
0.0
 11
0.0000007651844385
 21
13.30112016654854
 31
0.0
  0
ENDBLK
  5
69DB
330
69CB
100
AcDbEntity
  8
0
 62
     1
 48
0.27
100
AcDbBlockEnd
  0
ENDSEC
  0
SECTION
  2
ENTITIES
  0
LINE
  5
A204
330
1E
100
AcDbEntity
  8
0
100
AcDbLine
 10
1701.180699625269
 20
268.2806499992587
 30
0.0
 11
1701.180699625269
 21
278.2806499992587
 31
0.0
  0
LINE
  5
A205
330
1E
100
AcDbEntity
  8
中心線
 48
0.27
100
AcDbLine
 10
1687.508817125269
 20
273.2806499992587
 30
0.0
 11
1703.578895736067
 21
273.2806258353837
 31
0.0
  0
LINE
  5
A206
330
1E
100
AcDbEntity
  8
0
 48
0.27
100
AcDbLine
 10
1696.495274625269
 20
268.2806499992587
 30
0.0
 11
1702.580699625269
 21
268.2806499992587
 31
0.0
  0
LINE
  5
A207
330
1E
100
AcDbEntity
  8
0
 48
0.27
100
AcDbLine
 10
1702.580699625269
 20
278.2806499992587
 30
0.0
 11
1696.495274625269
 21
278.2806499992587
 31
0.0
  0
ARC
  5
A208
330
1E
100
AcDbEntity
  8
0
 48
0.27
100
AcDbCircle
 10
1696.495274625269
 20
273.2806499992587
 30
0.0
 40
4.99999999999996
100
AcDbArc
 50
90.0
 51
131.4096219995944
  0
LWPOLYLINE
  5
A209
330
1E
100
AcDbEntity
  8
0
 48
0.27
100
AcDbPolyline
 90
       31
 70
     0
 43
0.0
 10
1692.019803375269
 20
273.2806499992587
 10
1691.978780875269
 20
273.5434687492587
 10
1691.923597125269
 20
273.6753274992586
 10
1691.844805875269
 20
273.7975512492587
 10
1691.745460875269
 20
273.9026924992588
 10
1691.631097125269
 20
273.9850337492587
 10
1691.508697125269
 20
274.0416349992586
 10
1691.342902125269
 20
274.0778112492587
 10
1691.189140875269
 20
274.0744874992588
 10
1691.055485875269
 20
274.0426049992586
 10
1690.910229625269
 20
273.9728949992586
 10
1690.772017125269
 20
273.8610337492587
 10
1690.661729625269
 20
273.7178462492586
 10
1690.590937125269
 20
273.5680474992589
 10
1690.556123375269
 20
273.4384774992589
 10
1690.541597125269
 20
273.2806499992587
 10
1690.582619625269
 20
273.0178312492587
 10
1690.637804625269
 20
272.8859712492588
 10
1690.716594625269
 20
272.7637487492586
 10
1690.815939625269
 20
272.6586074992588
 10
1690.930303375269
 20
272.5762662492587
 10
1691.052703375269
 20
272.5196649992588
 10
1691.218498375269
 20
272.4834874992587
 10
1691.372259625269
 20
272.4868124992588
 10
1691.505914625269
 20
272.5186937492588
 10
1691.651170875269
 20
272.5884037492587
 10
1691.789383375269
 20
272.7002662492587
 10
1691.899670875269
 20
272.8434524992588
 10
1691.970463375269
 20
272.9932512492587
 10
1692.005278375269
 20
273.122822499259
 10
1692.019803375269
 20
273.2806499992587
  0
ARC
  5
A20A
330
1E
100
AcDbEntity
  8
0
 48
0.27
100
AcDbCircle
 10
1696.495274625269
 20
273.2806499992587
 30
0.0
 40
4.99999999999996
100
AcDbArc
 50
228.5903779972973
 51
270.0
  0
LINE
  5
A20B
330
1E
100
AcDbEntity
  8
0
 48
0.27
100
AcDbLine
 10
1692.085978375269
 20
277.0306499992587
 30
0.0
 11
1696.960698375269
 21
277.0306499992587
 31
0.0
  0
LINE
  5
A20C
330
1E
100
AcDbEntity
  8
0
 48
0.27
100
AcDbLine
 10
1691.777987125269
 20
270.1080587492588
 30
0.0
 11
1692.085978375269
 21
269.5306499992589
 31
0.0
  0
LINE
  5
A20D
330
1E
100
AcDbEntity
  8
0
 48
0.27
100
AcDbLine
 10
1692.085978375269
 20
277.0306499992587
 30
0.0
 11
1691.777987125269
 21
276.4532412492588
 31
0.0
  0
LINE
  5
A20E
330
1E
100
AcDbEntity
  8
0
 48
0.27
100
AcDbLine
 10
1698.086750875269
 20
273.2806499992587
 30
0.0
 11
1698.960955875269
 21
273.2806499992587
 31
0.0
  0
LINE
  5
A20F
330
1E
100
AcDbEntity
  8
0
 48
0.27
100
AcDbLine
 10
1696.960698375269
 20
277.0306499992587
 30
0.0
 11
1698.960955875269
 21
273.2806499992587
 31
0.0
  0
LINE
  5
A210
330
1E
100
AcDbEntity
  8
0
 48
0.27
100
AcDbLine
 10
1696.960698375269
 20
269.5306499992589
 30
0.0
 11
1692.085978375269
 21
269.5306499992589
 31
0.0
  0
LINE
  5
A211
330
1E
100
AcDbEntity
  8
0
 48
0.27
100
AcDbLine
 10
1698.960955875269
 20
273.2806499992587
 30
0.0
 11
1696.960698375269
 21
269.5306499992589
 31
0.0
  0
LINE
  5
A212
330
1E
100
AcDbEntity
  8
0
 48
0.27
100
AcDbLine
 10
1692.237327125269
 20
276.4425674992588
 30
0.0
 11
1692.760410875269
 21
276.7451974992586
 31
0.0
  0
LINE
  5
A213
330
1E
100
AcDbEntity
  8
0
 48
0.27
100
AcDbLine
 10
1692.237327125269
 20
270.1187312492589
 30
0.0
 11
1692.760410875269
 21
269.8161012492587
 31
0.0
  0
LINE
  5
A214
330
1E
100
AcDbEntity
  8
0
 48
0.27
100
AcDbLine
 10
1692.760410875269
 20
276.7451974992586
 30
0.0
 11
1693.410335875269
 21
276.9585949992586
 31
0.0
  0
LINE
  5
A215
330
1E
100
AcDbEntity
  8
0
 48
0.27
100
AcDbLine
 10
1692.760410875269
 20
269.8161012492587
 30
0.0
 11
1693.410335875269
 21
269.6027049992588
 31
0.0
  0
LINE
  5
A216
330
1E
100
AcDbEntity
  8
0
 48
0.27
100
AcDbLine
 10
1693.410335875269
 20
276.9585949992586
 30
0.0
 11
1694.086235875269
 21
277.0306499992587
 31
0.0
  0
LINE
  5
A217
330
1E
100
AcDbEntity
  8
0
 48
0.27
100
AcDbLine
 10
1693.410335875269
 20
269.6027049992588
 30
0.0
 11
1694.086235875269
 21
269.5306499992589
 31
0.0
  0
LINE
  5
A218
330
1E
100
AcDbEntity
  8
0
 48
0.27
100
AcDbLine
 10
1694.086235875269
 20
277.0306499992587
 30
0.0
 11
1694.762135875269
 21
276.9585949992586
 31
0.0
  0
LINE
  5
A219
330
1E
100
AcDbEntity
  8
0
 48
0.27
100
AcDbLine
 10
1694.086235875269
 20
269.5306499992589
 30
0.0
 11
1694.762135875269
 21
269.6027049992588
 31
0.0
  0
LINE
  5
A21A
330
1E
100
AcDbEntity
  8
0
 48
0.27
100
AcDbLine
 10
1694.762135875269
 20
276.9585949992586
 30
0.0
 11
1695.412060875269
 21
276.7451974992586
 31
0.0
  0
LINE
  5
A21B
330
1E
100
AcDbEntity
  8
0
 48
0.27
100
AcDbLine
 10
1694.762135875269
 20
269.6027049992588
 30
0.0
 11
1695.412060875269
 21
269.8161012492587
 31
0.0
  0
LINE
  5
A21C
330
1E
100
AcDbEntity
  8
0
 48
0.27
100
AcDbLine
 10
1695.412060875269
 20
276.7451974992586
 30
0.0
 11
1696.011035875269
 21
276.3986612492588
 31
0.0
  0
LINE
  5
A21D
330
1E
100
AcDbEntity
  8
0
 48
0.27
100
AcDbLine
 10
1695.412060875269
 20
269.8161012492587
 30
0.0
 11
1696.011035875269
 21
270.1626387492588
 31
0.0
  0
LINE
  5
A21E
330
1E
100
AcDbEntity
  8
0
 48
0.27
100
AcDbLine
 10
1696.011035875269
 20
276.3986612492588
 30
0.0
 11
1696.536040875269
 21
275.9322999992587
 31
0.0
  0
LINE
  5
A21F
330
1E
100
AcDbEntity
  8
0
 48
0.27
100
AcDbLine
 10
1696.011035875269
 20
270.1626387492588
 30
0.0
 11
1696.536040875269
 21
270.6289987492587
 31
0.0
  0
LINE
  5
A220
330
1E
100
AcDbEntity
  8
0
 48
0.27
100
AcDbLine
 10
1696.086493375269
 20
277.0306499992587
 30
0.0
 11
1698.086750875269
 21
273.2806499992587
 31
0.0
  0
LINE
  5
A221
330
1E
100
AcDbEntity
  8
0
 48
0.27
100
AcDbLine
 10
1698.086750875269
 20
273.2806499992587
 30
0.0
 11
1696.086493375269
 21
269.5306499992589
 31
0.0
  0
LINE
  5
A222
330
1E
100
AcDbEntity
  8
0
 48
0.27
100
AcDbLine
 10
1696.536040875269
 20
275.9322999992587
 30
0.0
 11
1696.966902125269
 21
275.3640374992587
 31
0.0
  0
LINE
  5
A223
330
1E
100
AcDbEntity
  8
0
 48
0.27
100
AcDbLine
 10
1696.966902125269
 20
271.1972612492589
 30
0.0
 11
1696.536040875269
 21
270.6289987492587
 31
0.0
  0
LINE
  5
A224
330
1E
100
AcDbEntity
  8
0
 48
0.27
100
AcDbLine
 10
1696.966902125269
 20
275.3640374992587
 30
0.0
 11
1697.287060875269
 21
274.7157124992589
 31
0.0
  0
LINE
  5
A225
330
1E
100
AcDbEntity
  8
0
 48
0.27
100
AcDbLine
 10
1697.287060875269
 20
271.8455862492588
 30
0.0
 11
1696.966902125269
 21
271.1972612492589
 31
0.0
  0
LINE
  5
A226
330
1E
100
AcDbEntity
  8
0
 48
0.27
100
AcDbLine
 10
1697.287060875269
 20
274.7157124992589
 30
0.0
 11
1697.484213375269
 21
274.0122387492588
 31
0.0
  0
LINE
  5
A227
330
1E
100
AcDbEntity
  8
0
 48
0.27
100
AcDbLine
 10
1697.484213375269
 20
272.5490612492588
 30
0.0
 11
1697.287060875269
 21
271.8455862492588
 31
0.0
  0
LINE
  5
A228
330
1E
100
AcDbEntity
  8
0
 48
0.27
100
AcDbLine
 10
1697.484213375269
 20
274.0122387492588
 30
0.0
 11
1697.550783375269
 21
273.2806499992587
 31
0.0
  0
LINE
  5
A229
330
1E
100
AcDbEntity
  8
0
 48
0.27
100
AcDbLine
 10
1697.550783375269
 20
273.2806499992587
 30
0.0
 11
1697.484213375269
 21
272.5490612492588
 31
0.0
  0
LINE
  5
A22A
330
1E
100
AcDbEntity
  8
0
 48
0.27
100
AcDbLine
 10
1690.456364625269
 20
275.3309337492587
 30
0.0
 11
1690.460078375269
 21
275.3289149992588
 31
0.0
  0
LINE
  5
A22B
330
1E
100
AcDbEntity
  8
0
 48
0.27
100
AcDbLine
 10
1690.456364625269
 20
271.2303649992589
 30
0.0
 11
1690.460078375269
 21
271.2323849992588
 31
0.0
  0
LINE
  5
A22C
330
1E
100
AcDbEntity
  8
0
 48
0.27
100
AcDbLine
 10
1689.065477125269
 20
273.9033274992587
 30
0.0
 11
1689.008817125269
 21
273.2806499992587
 31
0.0
  0
LINE
  5
A22D
330
1E
100
AcDbEntity
  8
0
 48
0.27
100
AcDbLine
 10
1689.233279625269
 20
274.5020749992589
 30
0.0
 11
1689.065477125269
 21
273.9033274992587
 31
0.0
  0
LINE
  5
A22E
330
1E
100
AcDbEntity
  8
0
 48
0.27
100
AcDbLine
 10
1689.008817125269
 20
273.2806499992587
 30
0.0
 11
1689.065477125269
 21
272.6579724992587
 31
0.0
  0
LINE
  5
A22F
330
1E
100
AcDbEntity
  8
0
 48
0.27
100
AcDbLine
 10
1689.505775875269
 20
275.0538849992588
 30
0.0
 11
1689.233279625269
 21
274.5020749992589
 31
0.0
  0
LINE
  5
A230
330
1E
100
AcDbEntity
  8
0
 48
0.27
100
AcDbLine
 10
1689.065477125269
 20
272.6579724992587
 30
0.0
 11
1689.233279625269
 21
272.0592237492588
 31
0.0
  0
LINE
  5
A231
330
1E
100
AcDbEntity
  8
0
 48
0.27
100
AcDbLine
 10
1689.872495875269
 20
275.5375499992588
 30
0.0
 11
1689.505775875269
 21
275.0538849992588
 31
0.0
  0
LINE
  5
A232
330
1E
100
AcDbEntity
  8
0
 48
0.27
100
AcDbLine
 10
1689.233279625269
 20
272.0592237492588
 30
0.0
 11
1689.505775875269
 21
271.5074149992588
 31
0.0
  0
LINE
  5
A233
330
1E
100
AcDbEntity
  8
0
 48
0.27
100
AcDbLine
 10
1689.872495875269
 20
275.5375499992588
 30
0.0
 11
1690.319343375269
 21
275.9344837492588
 31
0.0
  0
LINE
  5
A234
330
1E
100
AcDbEntity
  8
0
 48
0.27
100
AcDbLine
 10
1689.505775875269
 20
271.5074149992588
 30
0.0
 11
1689.872495875269
 21
271.0237499992588
 31
0.0
  0
LINE
  5
A235
330
1E
100
AcDbEntity
  8
0
 48
0.27
100
AcDbLine
 10
1689.251355875269
 20
273.7175699992588
 30
0.0
 11
1689.211598375269
 21
273.2806499992587
 31
0.0
  0
LINE
  5
A236
330
1E
100
AcDbEntity
  8
0
 48
0.27
100
AcDbLine
 10
1689.369099625269
 20
274.1376999992588
 30
0.0
 11
1689.251355875269
 21
273.7175699992588
 31
0.0
  0
LINE
  5
A237
330
1E
100
AcDbEntity
  8
0
 48
0.27
100
AcDbLine
 10
1689.211598375269
 20
273.2806499992587
 30
0.0
 11
1689.251355875269
 21
272.8437299992588
 31
0.0
  0
LINE
  5
A238
330
1E
100
AcDbEntity
  8
0
 48
0.27
100
AcDbLine
 10
1689.560304625269
 20
274.5248937492588
 30
0.0
 11
1689.369099625269
 21
274.1376999992588
 31
0.0
  0
LINE
  5
A239
330
1E
100
AcDbEntity
  8
0
 48
0.27
100
AcDbLine
 10
1689.251355875269
 20
272.8437299992588
 30
0.0
 11
1689.369099625269
 21
272.4235999992588
 31
0.0
  0
LINE
  5
A23A
330
1E
100
AcDbEntity
  8
0
 48
0.27
100
AcDbLine
 10
1690.319343375269
 20
275.9344837492588
 30
0.0
 11
1690.829149625269
 21
276.2294324992588
 31
0.0
  0
LINE
  5
A23B
330
1E
100
AcDbEntity
  8
0
 48
0.27
100
AcDbLine
 10
1689.872495875269
 20
271.0237499992588
 30
0.0
 11
1690.319343375269
 21
270.6268162492588
 31
0.0
  0
LINE
  5
A23C
330
1E
100
AcDbEntity
  8
0
 48
0.27
100
AcDbLine
 10
1689.817624625269
 20
274.8642712492588
 30
0.0
 11
1689.560304625269
 21
274.5248937492588
 31
0.0
  0
LINE
  5
A23D
330
1E
100
AcDbEntity
  8
0
 48
0.27
100
AcDbLine
 10
1689.369099625269
 20
272.4235999992588
 30
0.0
 11
1689.560304625269
 21
272.0364062492588
 31
0.0
  0
LINE
  5
A23E
330
1E
100
AcDbEntity
  8
0
 48
0.27
100
AcDbLine
 10
1690.829149625269
 20
276.2294324992588
 30
0.0
 11
1691.382320875269
 21
276.4110599992587
 31
0.0
  0
LINE
  5
A23F
330
1E
100
AcDbEntity
  8
0
 48
0.27
100
AcDbLine
 10
1690.319343375269
 20
270.6268162492588
 30
0.0
 11
1690.829149625269
 21
270.3318674992588
 31
0.0
  0
LINE
  5
A240
330
1E
100
AcDbEntity
  8
0
 48
0.27
100
AcDbLine
 10
1689.817624625269
 20
274.8642712492588
 30
0.0
 11
1690.131168375269
 21
275.1427924992588
 31
0.0
  0
LINE
  5
A241
330
1E
100
AcDbEntity
  8
0
 48
0.27
100
AcDbLine
 10
1689.560304625269
 20
272.0364062492588
 30
0.0
 11
1689.817624625269
 21
271.6970274992589
 31
0.0
  0
LINE
  5
A242
330
1E
100
AcDbEntity
  8
0
 48
0.27
100
AcDbLine
 10
1691.382320875269
 20
276.4110599992587
 30
0.0
 11
1691.957599625269
 21
276.4723887492587
 31
0.0
  0
LINE
  5
A243
330
1E
100
AcDbEntity
  8
0
 48
0.27
100
AcDbLine
 10
1690.829149625269
 20
270.3318674992588
 30
0.0
 11
1691.382320875269
 21
270.1502387492587
 31
0.0
  0
LINE
  5
A244
330
1E
100
AcDbEntity
  8
0
 48
0.27
100
AcDbLine
 10
1690.131168375269
 20
275.1427924992588
 30
0.0
 11
1690.488889625269
 21
275.3497512492588
 31
0.0
  0
LINE
  5
A245
330
1E
100
AcDbEntity
  8
0
 48
0.27
100
AcDbLine
 10
1689.817624625269
 20
271.6970274992589
 30
0.0
 11
1690.131168375269
 21
271.4185074992588
 31
0.0
  0
LINE
  5
A246
330
1E
100
AcDbEntity
  8
0
 48
0.27
100
AcDbLine
 10
1692.713423375269
 20
276.3768762492589
 30
0.0
 11
1693.260553375269
 21
276.1972312492587
 31
0.0
  0
LINE
  5
A247
330
1E
100
AcDbEntity
  8
0
 48
0.27
100
AcDbLine
 10
1690.488889625269
 20
275.3497512492588
 30
0.0
 11
1690.877038375269
 21
275.4771962492589
 31
0.0
  0
LINE
  5
A248
330
1E
100
AcDbEntity
  8
0
 48
0.27
100
AcDbLine
 10
1690.131168375269
 20
271.4185074992588
 30
0.0
 11
1690.488889625269
 21
271.2115474992588
 31
0.0
  0
LINE
  5
A249
330
1E
100
AcDbEntity
  8
0
 48
0.27
100
AcDbLine
 10
1692.532878375269
 20
276.4110599992587
 30
0.0
 11
1692.713423375269
 21
276.3768762492589
 31
0.0
  0
LINE
  5
A24A
330
1E
100
AcDbEntity
  8
0
 48
0.27
100
AcDbLine
 10
1691.957599625269
 20
276.4723887492587
 30
0.0
 11
1692.532878375269
 21
276.4110599992587
 31
0.0
  0
LINE
  5
A24B
330
1E
100
AcDbEntity
  8
0
 48
0.27
100
AcDbLine
 10
1691.382320875269
 20
270.1502387492587
 30
0.0
 11
1691.957599625269
 21
270.0889112492589
 31
0.0
  0
LINE
  5
A24C
330
1E
100
AcDbEntity
  8
0
 48
0.27
100
AcDbLine
 10
1693.260553375269
 20
276.1972312492587
 30
0.0
 11
1693.764792125269
 21
275.9055037492587
 31
0.0
  0
LINE
  5
A24D
330
1E
100
AcDbEntity
  8
0
 48
0.27
100
AcDbLine
 10
1692.713423375269
 20
270.1844237492589
 30
0.0
 11
1693.260553375269
 21
270.3640687492589
 31
0.0
  0
LINE
  5
A24E
330
1E
100
AcDbEntity
  8
0
 48
0.27
100
AcDbLine
 10
1693.764792125269
 20
275.9055037492587
 30
0.0
 11
1694.206760875269
 21
275.5129049992588
 31
0.0
  0
LINE
  5
A24F
330
1E
100
AcDbEntity
  8
0
 48
0.27
100
AcDbLine
 10
1693.260553375269
 20
270.3640687492589
 30
0.0
 11
1693.764792125269
 21
270.6557962492588
 31
0.0
  0
LINE
  5
A250
330
1E
100
AcDbEntity
  8
0
 48
0.27
100
AcDbLine
 10
1690.877038375269
 20
275.4771962492589
 30
0.0
 11
1691.280700875269
 21
275.5202287492589
 31
0.0
  0
LINE
  5
A251
330
1E
100
AcDbEntity
  8
0
 48
0.27
100
AcDbLine
 10
1690.488889625269
 20
271.2115474992588
 30
0.0
 11
1690.877038375269
 21
271.0841024992587
 31
0.0
  0
LINE
  5
A252
330
1E
100
AcDbEntity
  8
0
 48
0.27
100
AcDbLine
 10
1692.532878375269
 20
276.4110599992587
 30
0.0
 11
1693.086049625269
 21
276.2294324992588
 31
0.0
  0
LINE
  5
A253
330
1E
100
AcDbEntity
  8
0
 48
0.27
100
AcDbLine
 10
1692.532878375269
 20
270.1502387492587
 30
0.0
 11
1692.713423375269
 21
270.1844237492589
 31
0.0
  0
LINE
  5
A254
330
1E
100
AcDbEntity
  8
0
 48
0.27
100
AcDbLine
 10
1691.957599625269
 20
270.0889112492589
 30
0.0
 11
1692.532878375269
 21
270.1502387492587
 31
0.0
  0
LINE
  5
A255
330
1E
100
AcDbEntity
  8
0
 48
0.27
100
AcDbLine
 10
1694.206760875269
 20
275.5129049992588
 30
0.0
 11
1694.569474625269
 21
275.0345212492586
 31
0.0
  0
LINE
  5
A256
330
1E
100
AcDbEntity
  8
0
 48
0.27
100
AcDbLine
 10
1693.764792125269
 20
270.6557962492588
 30
0.0
 11
1694.206760875269
 21
271.0483949992588
 31
0.0
  0
LINE
  5
A257
330
1E
100
AcDbEntity
  8
0
 48
0.27
100
AcDbLine
 10
1691.280700875269
 20
275.5202287492589
 30
0.0
 11
1691.684362125269
 21
275.4771962492589
 31
0.0
  0
LINE
  5
A258
330
1E
100
AcDbEntity
  8
0
 48
0.27
100
AcDbLine
 10
1690.877038375269
 20
271.0841024992587
 30
0.0
 11
1691.280700875269
 21
271.0410699992587
 31
0.0
  0
LINE
  5
A259
330
1E
100
AcDbEntity
  8
0
 48
0.27
100
AcDbLine
 10
1693.086049625269
 20
276.2294324992588
 30
0.0
 11
1693.595854625269
 21
275.9344837492588
 31
0.0
  0
LINE
  5
A25A
330
1E
100
AcDbEntity
  8
0
 48
0.27
100
AcDbLine
 10
1692.532878375269
 20
270.1502387492587
 30
0.0
 11
1693.086049625269
 21
270.3318674992588
 31
0.0
  0
LINE
  5
A25B
330
1E
100
AcDbEntity
  8
0
 48
0.27
100
AcDbLine
 10
1694.569474625269
 20
275.0345212492586
 30
0.0
 11
1694.838995875269
 21
274.4887374992588
 31
0.0
  0
LINE
  5
A25C
330
1E
100
AcDbEntity
  8
0
 48
0.27
100
AcDbLine
 10
1694.569474625269
 20
271.5267787492587
 30
0.0
 11
1694.206760875269
 21
271.0483949992588
 31
0.0
  0
LINE
  5
A25D
330
1E
100
AcDbEntity
  8
0
 48
0.27
100
AcDbLine
 10
1694.838995875269
 20
274.4887374992588
 30
0.0
 11
1695.004965875269
 21
273.8965274992588
 31
0.0
  0
LINE
  5
A25E
330
1E
100
AcDbEntity
  8
0
 48
0.27
100
AcDbLine
 10
1694.838995875269
 20
272.0725624992588
 30
0.0
 11
1694.569474625269
 21
271.5267787492587
 31
0.0
  0
LINE
  5
A25F
330
1E
100
AcDbEntity
  8
0
 48
0.27
100
AcDbLine
 10
1693.595854625269
 20
275.9344837492588
 30
0.0
 11
1694.042703375269
 21
275.5375499992588
 31
0.0
  0
LINE
  5
A260
330
1E
100
AcDbEntity
  8
0
 48
0.27
100
AcDbLine
 10
1693.086049625269
 20
270.3318674992588
 30
0.0
 11
1693.595854625269
 21
270.6268162492588
 31
0.0
  0
LINE
  5
A261
330
1E
100
AcDbEntity
  8
0
 48
0.27
100
AcDbLine
 10
1695.004965875269
 20
273.8965274992588
 30
0.0
 11
1695.061007125269
 21
273.2806499992587
 31
0.0
  0
LINE
  5
A262
330
1E
100
AcDbEntity
  8
0
 48
0.27
100
AcDbLine
 10
1695.004965875269
 20
272.6647724992588
 30
0.0
 11
1694.838995875269
 21
272.0725624992588
 31
0.0
  0
LINE
  5
A263
330
1E
100
AcDbEntity
  8
0
 48
0.27
100
AcDbLine
 10
1691.684362125269
 20
275.4771962492589
 30
0.0
 11
1692.072510875269
 21
275.3497512492588
 31
0.0
  0
LINE
  5
A264
330
1E
100
AcDbEntity
  8
0
 48
0.27
100
AcDbLine
 10
1691.280700875269
 20
271.0410699992587
 30
0.0
 11
1691.684362125269
 21
271.0841024992587
 31
0.0
  0
LINE
  5
A265
330
1E
100
AcDbEntity
  8
0
 48
0.27
100
AcDbLine
 10
1695.061007125269
 20
273.2806499992587
 30
0.0
 11
1695.004965875269
 21
272.6647724992588
 31
0.0
  0
LINE
  5
A266
330
1E
100
AcDbEntity
  8
0
 48
0.27
100
AcDbLine
 10
1694.042703375269
 20
275.5375499992588
 30
0.0
 11
1694.409422125269
 21
275.0538849992588
 31
0.0
  0
LINE
  5
A267
330
1E
100
AcDbEntity
  8
0
 48
0.27
100
AcDbLine
 10
1693.595854625269
 20
270.6268162492588
 30
0.0
 11
1694.042703375269
 21
271.0237499992588
 31
0.0
  0
LINE
  5
A268
330
1E
100
AcDbEntity
  8
0
 48
0.27
100
AcDbLine
 10
1692.072510875269
 20
275.3497512492588
 30
0.0
 11
1692.430232125269
 21
275.1427924992588
 31
0.0
  0
LINE
  5
A269
330
1E
100
AcDbEntity
  8
0
 48
0.27
100
AcDbLine
 10
1691.684362125269
 20
271.0841024992587
 30
0.0
 11
1692.072510875269
 21
271.2115474992588
 31
0.0
  0
LINE
  5
A26A
330
1E
100
AcDbEntity
  8
0
 48
0.27
100
AcDbLine
 10
1694.409422125269
 20
275.0538849992588
 30
0.0
 11
1694.681918375269
 21
274.5020749992589
 31
0.0
  0
LINE
  5
A26B
330
1E
100
AcDbEntity
  8
0
 48
0.27
100
AcDbLine
 10
1694.409422125269
 20
271.5074149992588
 30
0.0
 11
1694.042703375269
 21
271.0237499992588
 31
0.0
  0
LINE
  5
A26C
330
1E
100
AcDbEntity
  8
0
 48
0.27
100
AcDbLine
 10
1694.681918375269
 20
274.5020749992589
 30
0.0
 11
1694.849722125269
 21
273.9033274992587
 31
0.0
  0
LINE
  5
A26D
330
1E
100
AcDbEntity
  8
0
 48
0.27
100
AcDbLine
 10
1694.681918375269
 20
272.0592237492588
 30
0.0
 11
1694.409422125269
 21
271.5074149992588
 31
0.0
  0
LINE
  5
A26E
330
1E
100
AcDbEntity
  8
0
 48
0.27
100
AcDbLine
 10
1692.430232125269
 20
275.1427924992588
 30
0.0
 11
1692.743775875269
 21
274.8642712492588
 31
0.0
  0
LINE
  5
A26F
330
1E
100
AcDbEntity
  8
0
 48
0.27
100
AcDbLine
 10
1692.072510875269
 20
271.2115474992588
 30
0.0
 11
1692.430232125269
 21
271.4185074992588
 31
0.0
  0
LINE
  5
A270
330
1E
100
AcDbEntity
  8
0
 48
0.27
100
AcDbLine
 10
1694.849722125269
 20
273.9033274992587
 30
0.0
 11
1694.906382125269
 21
273.2806499992587
 31
0.0
  0
LINE
  5
A271
330
1E
100
AcDbEntity
  8
0
 48
0.27
100
AcDbLine
 10
1694.849722125269
 20
272.6579724992587
 30
0.0
 11
1694.681918375269
 21
272.0592237492588
 31
0.0
  0
LINE
  5
A272
330
1E
100
AcDbEntity
  8
0
 48
0.27
100
AcDbLine
 10
1694.906382125269
 20
273.2806499992587
 30
0.0
 11
1694.849722125269
 21
272.6579724992587
 31
0.0
  0
LINE
  5
A273
330
1E
100
AcDbEntity
  8
0
 48
0.27
100
AcDbLine
 10
1692.743775875269
 20
274.8642712492588
 30
0.0
 11
1693.001095875269
 21
274.5248937492588
 31
0.0
  0
LINE
  5
A274
330
1E
100
AcDbEntity
  8
0
 48
0.27
100
AcDbLine
 10
1692.430232125269
 20
271.4185074992588
 30
0.0
 11
1692.743775875269
 21
271.6970274992589
 31
0.0
  0
LINE
  5
A275
330
1E
100
AcDbEntity
  8
0
 48
0.27
100
AcDbLine
 10
1693.001095875269
 20
274.5248937492588
 30
0.0
 11
1693.192300875269
 21
274.1376999992588
 31
0.0
  0
LINE
  5
A276
330
1E
100
AcDbEntity
  8
0
 48
0.27
100
AcDbLine
 10
1693.001095875269
 20
272.0364062492588
 30
0.0
 11
1692.743775875269
 21
271.6970274992589
 31
0.0
  0
LINE
  5
A277
330
1E
100
AcDbEntity
  8
0
 48
0.27
100
AcDbLine
 10
1693.192300875269
 20
274.1376999992588
 30
0.0
 11
1693.310044625269
 21
273.7175699992588
 31
0.0
  0
LINE
  5
A278
330
1E
100
AcDbEntity
  8
0
 48
0.27
100
AcDbLine
 10
1693.192300875269
 20
272.4235999992588
 30
0.0
 11
1693.001095875269
 21
272.0364062492588
 31
0.0
  0
LINE
  5
A279
330
1E
100
AcDbEntity
  8
0
 48
0.27
100
AcDbLine
 10
1693.310044625269
 20
273.7175699992588
 30
0.0
 11
1693.349802125269
 21
273.2806499992587
 31
0.0
  0
LINE
  5
A27A
330
1E
100
AcDbEntity
  8
0
 48
0.27
100
AcDbLine
 10
1693.310044625269
 20
272.8437299992588
 30
0.0
 11
1693.192300875269
 21
272.4235999992588
 31
0.0
  0
LINE
  5
A27B
330
1E
100
AcDbEntity
  8
0
 48
0.27
100
AcDbLine
 10
1693.349802125269
 20
273.2806499992587
 30
0.0
 11
1693.310044625269
 21
272.8437299992588
 31
0.0
  0
POINT
  5
A27C
330
1E
100
AcDbEntity
  8
0
100
AcDbPoint
 10
1689.008817125269
 20
273.2806499992587
 30
0.0
1001
pntflag
1000
endpoint
  0
ARC
  5
B98D
330
1E
100
AcDbEntity
  8
0
100
AcDbCircle
 10
1855.159706550703
 20
259.9663673381439
 30
0.0
 40
2.258017748891656
100
AcDbArc
 50
285.9630221688356
 51
359.0723572120041
  0
LINE
  5
B98E
330
1E
100
AcDbEntity
  8
0
100
AcDbLine
 10
1857.417428359268
 20
259.9298106774767
 30
0.0
 11
1857.417428359268
 21
262.6314439951785
 31
0.0
  0
ARC
  5
B98F
330
1E
100
AcDbEntity
  8
0
100
AcDbCircle
 10
1855.159706550703
 20
262.5948873345104
 30
0.0
 40
2.258017748891656
100
AcDbArc
 50
0.9276427879959022
 51
74.03697783116439
  0
ARC
  5
B990
330
1E
100
AcDbEntity
  8
0
100
AcDbCircle
 10
1703.201692715235
 20
259.9663673381439
 30
0.0
 40
2.258017748891656
100
AcDbArc
 50
180.9276427879959
 51
254.0369778311644
  0
LINE
  5
B991
330
1E
100
AcDbEntity
  8
0
100
AcDbLine
 10
1700.94397090667
 20
259.9298106774767
 30
0.0
 11
1700.94397090667
 21
262.6314439951785
 31
0.0
  0
ARC
  5
B992
330
1E
100
AcDbEntity
  8
0
100
AcDbCircle
 10
1703.201692715235
 20
262.5948873345104
 30
0.0
 40
2.258017748891656
100
AcDbArc
 50
105.9630221688356
 51
179.0723572120041
  0
CIRCLE
  5
B994
330
1E
100
AcDbEntity
  8
指線
 48
0.27
100
AcDbCircle
 10
1465.640448034108
 20
261.2806273363276
 30
0.0
 40
4.0
  0
LINE
  5
B995
330
1E
100
AcDbEntity
  8
指線
 48
0.27
100
AcDbLine
 10
1464.841064903989
 20
263.5405163522607
 30
0.0
 11
1464.841290891861
 21
262.0795388124345
 31
0.0
  0
ARC
  5
B996
330
1E
100
AcDbEntity
  8
指線
 48
0.27
100
AcDbCircle
 10
1465.640448034108
 20
261.2806273363276
 30
0.0
 40
2.397105012956624
100
AcDbArc
 50
109.4623212432042
 51
160.5189998916719
  0
LINE
  5
B997
330
1E
100
AcDbEntity
  8
指線
 48
0.27
100
AcDbLine
 10
1464.841290891861
 20
262.0795388124345
 30
0.0
 11
1461.722673170054
 21
262.0791323669829
 31
0.0
  0
LINE
  5
B998
330
1E
100
AcDbEntity
  8
指線
 48
0.27
100
AcDbLine
 10
1466.439605176357
 20
260.4817158602206
 30
0.0
 11
1466.439831164228
 21
259.0207383203947
 31
0.0
  0
LINE
  5
B999
330
1E
100
AcDbEntity
  8
指線
 48
0.27
100
AcDbLine
 10
1464.841538085297
 20
260.481468514515
 30
0.0
 11
1464.841764072849
 21
259.0204909746959
 31
0.0
  0
ARC
  5
B99A
330
1E
100
AcDbEntity
  8
指線
 48
0.27
100
AcDbCircle
 10
1465.640448034109
 20
261.2806273363276
 30
0.0
 40
2.397105012956624
100
AcDbArc
 50
199.4791870960422
 51
250.5376787567813
  0
ARC
  5
B99B
330
1E
100
AcDbEntity
  8
指線
 48
0.27
100
AcDbCircle
 10
1465.640448034108
 20
261.2806273363276
 30
0.0
 40
2.397105012956624
100
AcDbArc
 50
289.4623212432186
 51
340.5208129039578
  0
LINE
  5
B99C
330
1E
100
AcDbEntity
  8
指線
 48
0.27
100
AcDbLine
 10
1466.439131995368
 20
263.5407636979592
 30
0.0
 11
1466.43935798292
 21
262.0797861581404
 31
0.0
  0
ARC
  5
B99D
330
1E
100
AcDbEntity
  8
指線
 48
0.27
100
AcDbCircle
 10
1465.640448034109
 20
261.2806273363276
 30
0.0
 40
2.397105012956624
100
AcDbArc
 50
19.48100010832805
 51
70.53767875679579
  0
LINE
  5
B99E
330
1E
100
AcDbEntity
  8
指線
 48
0.27
100
AcDbLine
 10
1466.43935798292
 20
262.0797861581404
 30
0.0
 11
1469.55157106618
 21
262.080344109037
 31
0.0
  0
LINE
  5
B99F
330
1E
100
AcDbEntity
  8
指線
 48
0.27
100
AcDbLine
 10
1466.439605176357
 20
260.4817158602206
 30
0.0
 11
1469.551818259617
 21
260.482273811117
 31
0.0
  0
LINE
  5
B9A0
330
1E
100
AcDbEntity
  8
指線
 48
0.27
100
AcDbLine
 10
1464.841538085297
 20
260.481468514515
 30
0.0
 11
1461.722920363491
 21
260.4810620690629
 31
0.0
  0
CIRCLE
  5
B9A1
330
1E
100
AcDbEntity
  8
指線
 48
0.27
100
AcDbCircle
 10
1532.640448034108
 20
261.2806273363276
 30
0.0
 40
4.0
  0
LINE
  5
B9A2
330
1E
100
AcDbEntity
  8
指線
 48
0.27
100
AcDbLine
 10
1531.841064903989
 20
263.5405163522607
 30
0.0
 11
1531.841290891861
 21
262.0795388124345
 31
0.0
  0
ARC
  5
B9A3
330
1E
100
AcDbEntity
  8
指線
 48
0.27
100
AcDbCircle
 10
1532.640448034108
 20
261.2806273363276
 30
0.0
 40
2.397105012956624
100
AcDbArc
 50
109.4623212432042
 51
160.5189998916719
  0
LINE
  5
B9A4
330
1E
100
AcDbEntity
  8
指線
 48
0.27
100
AcDbLine
 10
1531.841290891861
 20
262.0795388124345
 30
0.0
 11
1528.722673170054
 21
262.0791323669829
 31
0.0
  0
LINE
  5
B9A5
330
1E
100
AcDbEntity
  8
指線
 48
0.27
100
AcDbLine
 10
1533.439605176357
 20
260.4817158602206
 30
0.0
 11
1533.439831164228
 21
259.0207383203947
 31
0.0
  0
LINE
  5
B9A6
330
1E
100
AcDbEntity
  8
指線
 48
0.27
100
AcDbLine
 10
1531.841538085297
 20
260.481468514515
 30
0.0
 11
1531.841764072849
 21
259.0204909746959
 31
0.0
  0
ARC
  5
B9A7
330
1E
100
AcDbEntity
  8
指線
 48
0.27
100
AcDbCircle
 10
1532.640448034109
 20
261.2806273363276
 30
0.0
 40
2.397105012956624
100
AcDbArc
 50
199.4791870960422
 51
250.5376787567813
  0
ARC
  5
B9A8
330
1E
100
AcDbEntity
  8
指線
 48
0.27
100
AcDbCircle
 10
1532.640448034108
 20
261.2806273363276
 30
0.0
 40
2.397105012956624
100
AcDbArc
 50
289.4623212432186
 51
340.5208129039578
  0
LINE
  5
B9A9
330
1E
100
AcDbEntity
  8
指線
 48
0.27
100
AcDbLine
 10
1533.439131995368
 20
263.5407636979592
 30
0.0
 11
1533.43935798292
 21
262.0797861581404
 31
0.0
  0
ARC
  5
B9AA
330
1E
100
AcDbEntity
  8
指線
 48
0.27
100
AcDbCircle
 10
1532.640448034109
 20
261.2806273363276
 30
0.0
 40
2.397105012956624
100
AcDbArc
 50
19.48100010832805
 51
70.53767875679579
  0
LINE
  5
B9AB
330
1E
100
AcDbEntity
  8
指線
 48
0.27
100
AcDbLine
 10
1533.43935798292
 20
262.0797861581404
 30
0.0
 11
1536.55157106618
 21
262.080344109037
 31
0.0
  0
LINE
  5
B9AC
330
1E
100
AcDbEntity
  8
指線
 48
0.27
100
AcDbLine
 10
1533.439605176357
 20
260.4817158602206
 30
0.0
 11
1536.551818259617
 21
260.482273811117
 31
0.0
  0
LINE
  5
B9AD
330
1E
100
AcDbEntity
  8
指線
 48
0.27
100
AcDbLine
 10
1531.841538085297
 20
260.481468514515
 30
0.0
 11
1528.722920363491
 21
260.4810620690629
 31
0.0
  0
LINE
  5
B9AE
330
1E
100
AcDbEntity
  8
0
  6
Continuous
 62
     7
100
AcDbLine
 10
1512.838249079
 20
273.2806273363276
 30
0.0
 11
1491.079600407056
 21
273.2806273363276
 31
0.0
  0
POINT
  5
B9AF
330
1E
100
AcDbEntity
  8
0
100
AcDbPoint
 10
1511.338249079
 20
273.2806273363276
 30
0.0
1001
pntflag
1000
endpoint
  0
LINE
  5
B9B0
330
1E
100
AcDbEntity
  8
中心線
 48
0.27
100
AcDbLine
 10
1512.838249079
 20
273.2806273363276
 30
0.0
 11
1491.079600407056
 21
273.2806273363276
 31
0.0
  0
LINE
  5
B9B1
330
1E
100
AcDbEntity
  8
0
 48
0.27
100
AcDbLine
 10
1506.996877253616
 20
275.6728797362086
 30
0.0
 11
1507.060320574336
 21
275.7147082398189
 31
0.0
  0
LINE
  5
B9B2
330
1E
100
AcDbEntity
  8
0
 48
0.27
100
AcDbLine
 10
1506.731223587127
 20
270.8605209974198
 30
0.0
 11
1506.791665916721
 21
270.8579542064911
 31
0.0
  0
LINE
  5
B9B3
330
1E
100
AcDbEntity
  8
0
 48
0.27
100
AcDbLine
 10
1506.996877253616
 20
270.8883732664463
 30
0.0
 11
1507.060320574336
 21
270.8465447628357
 31
0.0
  0
LINE
  5
B9B4
330
1E
100
AcDbEntity
  8
0
 48
0.27
100
AcDbLine
 10
1507.625594048612
 20
273.2806273363276
 30
0.0
 11
1507.649064236282
 21
273.9033037393144
 31
0.0
  0
LINE
  5
B9B5
330
1E
100
AcDbEntity
  8
0
 48
0.27
100
AcDbLine
 10
1509.624148830121
 20
273.2806273363276
 30
0.0
 11
1509.640616705496
 21
273.7175479087932
 31
0.0
  0
LINE
  5
B9B6
330
1E
100
AcDbEntity
  8
0
 48
0.27
100
AcDbLine
 10
1509.640616705496
 20
272.8437067638617
 30
0.0
 11
1509.624148830121
 21
273.2806273363276
 31
0.0
  0
LINE
  5
B9B7
330
1E
100
AcDbEntity
  8
0
 48
0.27
100
AcDbLine
 10
1507.649064236282
 20
272.6579492633403
 30
0.0
 11
1507.625594048612
 21
273.2806273363276
 31
0.0
  0
LINE
  5
B9B8
330
1E
100
AcDbEntity
  8
0
 48
0.27
100
AcDbLine
 10
1509.640616705496
 20
273.7175479087932
 30
0.0
 11
1509.689389071391
 21
274.1376766257047
 31
0.0
  0
LINE
  5
B9B9
330
1E
100
AcDbEntity
  8
0
 48
0.27
100
AcDbLine
 10
1507.649064236282
 20
273.9033037393144
 30
0.0
 11
1507.718569658889
 21
274.5020523745554
 31
0.0
  0
LINE
  5
B9BA
330
1E
100
AcDbEntity
  8
0
 48
0.27
100
AcDbLine
 10
1509.689389071391
 20
272.42357637695
 30
0.0
 11
1509.640616705496
 21
272.8437067638617
 31
0.0
  0
LINE
  5
B9BB
330
1E
100
AcDbEntity
  8
0
 48
0.27
100
AcDbLine
 10
1507.718569658889
 20
272.0592006280992
 30
0.0
 11
1507.649064236282
 21
272.6579492633403
 31
0.0
  0
LINE
  5
B9BC
330
1E
100
AcDbEntity
  8
0
 48
0.27
100
AcDbLine
 10
1509.689389071391
 20
274.1376766257047
 30
0.0
 11
1509.768588847242
 21
274.5248712619914
 31
0.0
  0
LINE
  5
B9BD
330
1E
100
AcDbEntity
  8
0
 48
0.27
100
AcDbLine
 10
1507.718569658889
 20
274.5020523745554
 30
0.0
 11
1507.831441655739
 21
275.0538623043328
 31
0.0
  0
LINE
  5
B9BE
330
1E
100
AcDbEntity
  8
0
 48
0.27
100
AcDbLine
 10
1509.768588847242
 20
272.0363834106638
 30
0.0
 11
1509.689389071391
 21
272.42357637695
 31
0.0
  0
LINE
  5
B9BF
330
1E
100
AcDbEntity
  8
0
 48
0.27
100
AcDbLine
 10
1507.831441655739
 20
271.507390698197
 30
0.0
 11
1507.718569658889
 21
272.0592006280992
 31
0.0
  0
LINE
  5
B9C0
330
1E
100
AcDbEntity
  8
0
 48
0.27
100
AcDbLine
 10
1509.768588847242
 20
274.5248712619914
 30
0.0
 11
1509.875173292042
 21
274.8642487725424
 31
0.0
  0
LINE
  5
B9C1
330
1E
100
AcDbEntity
  8
0
 48
0.27
100
AcDbLine
 10
1507.831441655739
 20
275.0538623043328
 30
0.0
 11
1507.983341565231
 21
275.537527862105
 31
0.0
  0
LINE
  5
B9C2
330
1E
100
AcDbEntity
  8
0
 48
0.27
100
AcDbLine
 10
1509.875173292042
 20
271.6970042301125
 30
0.0
 11
1509.768588847242
 21
272.0363834106638
 31
0.0
  0
LINE
  5
B9C3
330
1E
100
AcDbEntity
  8
0
 48
0.27
100
AcDbLine
 10
1507.983341565231
 20
271.0237268105502
 30
0.0
 11
1507.831441655739
 21
271.507390698197
 31
0.0
  0
LINE
  5
B9C4
330
1E
100
AcDbEntity
  8
0
 48
0.27
100
AcDbLine
 10
1509.875173292042
 20
274.8642487725424
 30
0.0
 11
1510.005047564356
 21
275.1427697934303
 31
0.0
  0
LINE
  5
B9C5
330
1E
100
AcDbEntity
  8
0
 48
0.27
100
AcDbLine
 10
1507.983341565231
 20
275.537527862105
 30
0.0
 11
1508.168432735641
 21
275.9344602715176
 31
0.0
  0
LINE
  5
B9C6
330
1E
100
AcDbEntity
  8
0
 48
0.27
100
AcDbLine
 10
1510.005047564356
 20
271.4184832092244
 30
0.0
 11
1509.875173292042
 21
271.6970042301125
 31
0.0
  0
LINE
  5
B9C7
330
1E
100
AcDbEntity
  8
0
 48
0.27
100
AcDbLine
 10
1510.005047564356
 20
275.1427697934303
 30
0.0
 11
1510.1532200326
 21
275.3497279508674
 31
0.0
  0
LINE
  5
B9C8
330
1E
100
AcDbEntity
  8
0
 48
0.27
100
AcDbLine
 10
1508.168432735641
 20
270.6267927311371
 30
0.0
 11
1507.983341565231
 21
271.0237268105502
 31
0.0
  0
LINE
  5
B9C9
330
1E
100
AcDbEntity
  8
0
 48
0.27
100
AcDbLine
 10
1506.245565718772
 20
273.2806273363276
 30
0.0
 11
1506.263499854642
 21
273.7564756214192
 31
0.0
  0
LINE
  5
B9CA
330
1E
100
AcDbEntity
  8
0
 48
0.27
100
AcDbLine
 10
1506.263499854642
 20
272.8047773812355
 30
0.0
 11
1506.245565718772
 21
273.2806273363276
 31
0.0
  0
LINE
  5
B9CB
330
1E
100
AcDbEntity
  8
0
 48
0.27
100
AcDbLine
 10
1506.263499854642
 20
273.7564756214192
 30
0.0
 11
1506.316617561888
 21
274.2140374005821
 31
0.0
  0
LINE
  5
B9CC
330
1E
100
AcDbEntity
  8
0
 48
0.27
100
AcDbLine
 10
1502.272973433724
 20
273.2806273363276
 30
0.0
 11
1502.300548482704
 21
274.0122161647528
 31
0.0
  0
LINE
  5
B9CD
330
1E
100
AcDbEntity
  8
0
 48
0.27
100
AcDbLine
 10
1502.300548482704
 20
272.5490385077772
 30
0.0
 11
1502.272973433724
 21
273.2806273363276
 31
0.0
  0
LINE
  5
B9CE
330
1E
100
AcDbEntity
  8
0
 48
0.27
100
AcDbLine
 10
1506.316617561888
 20
272.3472156020728
 30
0.0
 11
1506.263499854642
 21
272.8047773812355
 31
0.0
  0
LINE
  5
B9CF
330
1E
100
AcDbEntity
  8
0
 48
0.27
100
AcDbLine
 10
1506.316617561888
 20
274.2140374005821
 30
0.0
 11
1506.402873090042
 21
274.6357292381294
 31
0.0
  0
LINE
  5
B9D0
330
1E
100
AcDbEntity
  8
0
 48
0.27
100
AcDbLine
 10
1508.168432735641
 20
275.9344602715176
 30
0.0
 11
1508.379600964406
 21
276.229409087649
 31
0.0
  0
LINE
  5
B9D1
330
1E
100
AcDbEntity
  8
0
 48
0.27
100
AcDbLine
 10
1510.1532200326
 20
271.2115250517875
 30
0.0
 11
1510.005047564356
 21
271.4184832092244
 31
0.0
  0
LINE
  5
B9D2
330
1E
100
AcDbEntity
  8
0
 48
0.27
100
AcDbLine
 10
1510.1532200326
 20
275.3497279508674
 30
0.0
 11
1510.313997665075
 21
275.4771740424008
 31
0.0
  0
LINE
  5
B9D3
330
1E
100
AcDbEntity
  8
0
 48
0.27
100
AcDbLine
 10
1502.300548482704
 20
274.0122161647528
 30
0.0
 11
1502.382211509342
 21
274.715690534108
 31
0.0
  0
LINE
  5
B9D4
330
1E
100
AcDbEntity
  8
0
 48
0.27
100
AcDbLine
 10
1502.382211509342
 20
271.8455641385469
 30
0.0
 11
1502.300548482704
 21
272.5490385077772
 31
0.0
  0
LINE
  5
B9D5
330
1E
100
AcDbEntity
  8
0
 48
0.27
100
AcDbLine
 10
1506.402873090042
 20
271.9255237645252
 30
0.0
 11
1506.316617561888
 21
272.3472156020728
 31
0.0
  0
LINE
  5
B9D6
330
1E
100
AcDbEntity
  8
0
 48
0.27
100
AcDbLine
 10
1508.379600964406
 20
270.3318439150057
 30
0.0
 11
1508.168432735641
 21
270.6267927311371
 31
0.0
  0
LINE
  5
B9D7
330
1E
100
AcDbEntity
  8
0
 48
0.27
100
AcDbLine
 10
1506.402873090042
 20
274.6357292381294
 30
0.0
 11
1506.518954827928
 21
275.0053454486056
 31
0.0
  0
LINE
  5
B9D8
330
1E
100
AcDbEntity
  8
0
 48
0.27
100
AcDbLine
 10
1502.382211509342
 20
274.715690534108
 30
0.0
 11
1502.514824582489
 21
275.3640148055033
 31
0.0
  0
LINE
  5
B9D9
330
1E
100
AcDbEntity
  8
0
 48
0.27
100
AcDbLine
 10
1502.514824582489
 20
271.1972381971516
 30
0.0
 11
1502.382211509342
 21
271.8455641385469
 31
0.0
  0
LINE
  5
B9DA
330
1E
100
AcDbEntity
  8
0
 48
0.27
100
AcDbLine
 10
1506.518954827928
 20
271.5559075540493
 30
0.0
 11
1506.402873090042
 21
271.9255237645252
 31
0.0
  0
LINE
  5
B9DB
330
1E
100
AcDbEntity
  8
0
 48
0.27
100
AcDbLine
 10
1510.313997665075
 20
275.4771740424008
 30
0.0
 11
1510.481199789498
 21
275.5202066164622
 31
0.0
  0
LINE
  5
B9DC
330
1E
100
AcDbEntity
  8
0
 48
0.27
100
AcDbLine
 10
1508.379600964406
 20
276.229409087649
 30
0.0
 11
1508.608731719171
 21
276.4110383468562
 31
0.0
  0
LINE
  5
B9DD
330
1E
100
AcDbEntity
  8
0
 48
0.27
100
AcDbLine
 10
1510.1532200326
 20
271.2115250517875
 30
0.0
 11
1510.313997665075
 21
271.0840789602539
 31
0.0
  0
LINE
  5
B9DE
330
1E
100
AcDbEntity
  8
0
 48
0.27
100
AcDbLine
 10
1506.518954827928
 20
275.0053454486056
 30
0.0
 11
1506.660400533925
 21
275.3086810075124
 31
0.0
  0
LINE
  5
B9DF
330
1E
100
AcDbEntity
  8
0
 48
0.27
100
AcDbLine
 10
1508.379600964406
 20
270.3318439150057
 30
0.0
 11
1508.608731719171
 21
270.150216325799
 31
0.0
  0
LINE
  5
B9E0
330
1E
100
AcDbEntity
  8
0
 48
0.27
100
AcDbLine
 10
1506.660400533925
 20
271.2525719951423
 30
0.0
 11
1506.518954827928
 21
271.5559075540493
 31
0.0
  0
LINE
  5
B9E1
330
1E
100
AcDbEntity
  8
0
 48
0.27
100
AcDbLine
 10
1502.514824582489
 20
275.3640148055033
 30
0.0
 11
1502.693294200668
 21
275.9322775807782
 31
0.0
  0
LINE
  5
B9E2
330
1E
100
AcDbEntity
  8
0
 48
0.27
100
AcDbLine
 10
1502.693294200668
 20
270.6289754218767
 30
0.0
 11
1502.514824582489
 21
271.1972381971516
 31
0.0
  0
LINE
  5
B9E3
330
1E
100
AcDbEntity
  8
0
 48
0.27
100
AcDbLine
 10
1506.660400533925
 20
275.3086810075124
 30
0.0
 11
1506.821776026624
 21
275.534079310904
 31
0.0
  0
LINE
  5
B9E4
330
1E
100
AcDbEntity
  8
0
 48
0.27
100
AcDbLine
 10
1507.541175521139
 20
276.0035147939248
 30
0.0
 11
1507.752754570098
 21
276.171229608683
 31
0.0
  0
LINE
  5
B9E5
330
1E
100
AcDbEntity
  8
0
 48
0.27
100
AcDbLine
 10
1508.608731719171
 20
276.4110383468562
 30
0.0
 11
1508.84702075684
 21
276.4723657768477
 31
0.0
  0
LINE
  5
B9E6
330
1E
100
AcDbEntity
  8
0
 48
0.27
100
AcDbLine
 10
1510.481199789498
 20
275.5202066164622
 30
0.0
 11
1510.648401914046
 21
275.4771740424008
 31
0.0
  0
LINE
  5
B9E7
330
1E
100
AcDbEntity
  8
0
 48
0.27
100
AcDbLine
 10
1510.313997665075
 20
271.0840789602539
 30
0.0
 11
1510.481199789498
 21
271.0410463861924
 31
0.0
  0
LINE
  5
B9E8
330
1E
100
AcDbEntity
  8
0
 48
0.27
100
AcDbLine
 10
1506.821776026624
 20
271.0271736917507
 30
0.0
 11
1506.660400533925
 21
271.2525719951423
 31
0.0
  0
LINE
  5
B9E9
330
1E
100
AcDbEntity
  8
0
 48
0.27
100
AcDbLine
 10
1502.050968571274
 20
273.2806273363276
 30
0.0
 11
1502.87950260139
 21
277.0306269188274
 31
0.0
  0
LINE
  5
B9EA
330
1E
100
AcDbEntity
  8
0
 48
0.27
100
AcDbLine
 10
1502.87950260139
 20
269.5306260838274
 30
0.0
 11
1502.050968571274
 21
273.2806273363276
 31
0.0
  0
LINE
  5
B9EB
330
1E
100
AcDbEntity
  8
0
 48
0.27
100
AcDbLine
 10
1507.752754570098
 20
276.171229608683
 30
0.0
 11
1508.160294822907
 21
276.3768534356473
 31
0.0
  0
LINE
  5
B9EC
330
1E
100
AcDbEntity
  8
0
 48
0.27
100
AcDbLine
 10
1508.160294822907
 20
276.3768534356473
 30
0.0
 11
1508.395980329766
 21
276.4375128654024
 31
0.0
  0
LINE
  5
B9ED
330
1E
100
AcDbEntity
  8
0
 48
0.27
100
AcDbLine
 10
1508.608731719171
 20
270.150216325799
 30
0.0
 11
1508.84702075684
 21
270.088887225807
 31
0.0
  0
LINE
  5
B9EE
330
1E
100
AcDbEntity
  8
0
 48
0.27
100
AcDbLine
 10
1502.693294200668
 20
275.9322775807782
 30
0.0
 11
1502.910758331609
 21
276.3986385927854
 31
0.0
  0
LINE
  5
B9EF
330
1E
100
AcDbEntity
  8
0
 48
0.27
100
AcDbLine
 10
1502.910758331609
 20
270.1626144098693
 30
0.0
 11
1502.693294200668
 21
270.6289754218767
 31
0.0
  0
LINE
  5
B9F0
330
1E
100
AcDbEntity
  8
0
 48
0.27
100
AcDbLine
 10
1506.821776026624
 20
275.534079310904
 30
0.0
 11
1506.996877253616
 21
275.6728797362086
 31
0.0
  0
LINE
  5
B9F1
330
1E
100
AcDbEntity
  8
0
 48
0.27
100
AcDbLine
 10
1507.060320574336
 20
275.7147082398189
 30
0.0
 11
1507.752754570098
 21
276.171229608683
 31
0.0
  0
LINE
  5
B9F2
330
1E
100
AcDbEntity
  8
0
 48
0.27
100
AcDbLine
 10
1508.160294822907
 20
270.1843995670074
 30
0.0
 11
1508.395980329766
 21
270.1237418071278
 31
0.0
  0
LINE
  5
B9F3
330
1E
100
AcDbEntity
  8
0
 48
0.27
100
AcDbLine
 10
1507.752754570098
 20
270.3900233939716
 30
0.0
 11
1508.160294822907
 21
270.1843995670074
 31
0.0
  0
LINE
  5
B9F4
330
1E
100
AcDbEntity
  8
0
 48
0.27
100
AcDbLine
 10
1506.821776026624
 20
271.0271736917507
 30
0.0
 11
1506.996877253616
 21
270.8883732664463
 31
0.0
  0
LINE
  5
B9F5
330
1E
100
AcDbEntity
  8
0
 48
0.27
100
AcDbLine
 10
1508.395980329766
 20
276.4375128654024
 30
0.0
 11
1508.84702075684
 21
276.4723657768477
 31
0.0
  0
LINE
  5
B9F6
330
1E
100
AcDbEntity
  8
0
 48
0.27
100
AcDbLine
 10
1508.84702075684
 20
276.4723657768477
 30
0.0
 11
1509.085308124509
 21
276.4110383468562
 31
0.0
  0
LINE
  5
B9F7
330
1E
100
AcDbEntity
  8
0
 48
0.27
100
AcDbLine
 10
1510.648401914046
 20
275.4771740424008
 30
0.0
 11
1510.80917787652
 21
275.3497279508674
 31
0.0
  0
LINE
  5
B9F8
330
1E
100
AcDbEntity
  8
0
 48
0.27
100
AcDbLine
 10
1509.085308124509
 20
276.4110383468562
 30
0.0
 11
1510.648401914046
 21
275.4771740424008
 31
0.0
  0
LINE
  5
B9F9
330
1E
100
AcDbEntity
  8
0
 48
0.27
100
AcDbLine
 10
1510.481199789498
 20
271.0410463861924
 30
0.0
 11
1510.648401914046
 21
271.0840789602539
 31
0.0
  0
LINE
  5
B9FA
330
1E
100
AcDbEntity
  8
0
 48
0.27
100
AcDbLine
 10
1507.060320574336
 20
270.8465447628357
 30
0.0
 11
1507.752754570098
 21
270.3900233939716
 31
0.0
  0
LINE
  5
B9FB
330
1E
100
AcDbEntity
  8
0
 48
0.27
100
AcDbLine
 10
1508.395980329766
 20
270.1237418071278
 30
0.0
 11
1508.84702075684
 21
270.088887225807
 31
0.0
  0
LINE
  5
B9FC
330
1E
100
AcDbEntity
  8
0
 48
0.27
100
AcDbLine
 10
1508.84702075684
 20
270.088887225807
 30
0.0
 11
1509.085308124509
 21
270.150216325799
 31
0.0
  0
LINE
  5
B9FD
330
1E
100
AcDbEntity
  8
0
 48
0.27
100
AcDbLine
 10
1502.910758331609
 20
276.3986385927854
 30
0.0
 11
1503.158861962418
 21
276.7451753957821
 31
0.0
  0
LINE
  5
B9FE
330
1E
100
AcDbEntity
  8
0
 48
0.27
100
AcDbLine
 10
1503.158861962418
 20
269.8160776068728
 30
0.0
 11
1502.910758331609
 21
270.1626144098693
 31
0.0
  0
LINE
  5
B9FF
330
1E
100
AcDbEntity
  8
0
 48
0.27
100
AcDbLine
 10
1500.768984303433
 20
269.5306260838274
 30
0.0
 11
1499.940450273318
 21
273.2806273363276
 31
0.0
  0
LINE
  5
BA00
330
1E
100
AcDbEntity
  8
0
 48
0.27
100
AcDbLine
 10
1499.940450273318
 20
273.2806273363276
 30
0.0
 11
1502.050968571274
 21
273.2806273363276
 31
0.0
  0
LINE
  5
BA01
330
1E
100
AcDbEntity
  8
0
 48
0.27
100
AcDbLine
 10
1499.940450273318
 20
273.2806273363276
 30
0.0
 11
1500.768984303433
 21
277.0306269188274
 31
0.0
  0
LINE
  5
BA02
330
1E
100
AcDbEntity
  8
0
 48
0.27
100
AcDbLine
 10
1510.957350344765
 20
275.1427697934303
 30
0.0
 11
1510.80917787652
 21
275.3497279508674
 31
0.0
  0
LINE
  5
BA03
330
1E
100
AcDbEntity
  8
0
 48
0.27
100
AcDbLine
 10
1510.648401914046
 20
271.0840789602539
 30
0.0
 11
1510.80917787652
 21
271.2115250517875
 31
0.0
  0
LINE
  5
BA04
330
1E
100
AcDbEntity
  8
0
 48
0.27
100
AcDbLine
 10
1509.085308124509
 20
270.150216325799
 30
0.0
 11
1510.648401914046
 21
271.0840789602539
 31
0.0
  0
LINE
  5
BA05
330
1E
100
AcDbEntity
  8
0
 48
0.27
100
AcDbLine
 10
1506.791665916721
 20
275.7033004661639
 30
0.0
 11
1507.060320574336
 21
275.7147082398189
 31
0.0
  0
LINE
  5
BA06
330
1E
100
AcDbEntity
  8
0
 48
0.27
100
AcDbLine
 10
1506.791665916721
 20
270.8579542064911
 30
0.0
 11
1507.060320574336
 21
270.8465447628357
 31
0.0
  0
LINE
  5
BA07
330
1E
100
AcDbEntity
  8
0
 48
0.27
100
AcDbLine
 10
1503.158861962418
 20
276.7451753957821
 30
0.0
 11
1503.42806939025
 21
276.9585714052941
 31
0.0
  0
LINE
  5
BA08
330
1E
100
AcDbEntity
  8
0
 48
0.27
100
AcDbLine
 10
1503.158861962418
 20
269.8160776068728
 30
0.0
 11
1503.42806939025
 21
269.6026815973605
 31
0.0
  0
LINE
  5
BA09
330
1E
100
AcDbEntity
  8
0
 48
0.27
100
AcDbLine
 10
1511.087224617079
 20
274.8642487725424
 30
0.0
 11
1510.957350344765
 21
275.1427697934303
 31
0.0
  0
LINE
  5
BA0A
330
1E
100
AcDbEntity
  8
0
 48
0.27
100
AcDbLine
 10
1510.80917787652
 20
271.2115250517875
 30
0.0
 11
1510.957350344765
 21
271.4184832092244
 31
0.0
  0
LINE
  5
BA0B
330
1E
100
AcDbEntity
  8
0
 48
0.27
100
AcDbLine
 10
1506.490262548512
 20
275.8263026862053
 30
0.0
 11
1506.791665916721
 21
275.7033004661639
 31
0.0
  0
LINE
  5
BA0C
330
1E
100
AcDbEntity
  8
0
 48
0.27
100
AcDbLine
 10
1506.490262548512
 20
270.7349503164494
 30
0.0
 11
1506.791665916721
 21
270.8579542064911
 31
0.0
  0
LINE
  5
BA0D
330
1E
100
AcDbEntity
  8
0
 48
0.27
100
AcDbLine
 10
1511.193810731879
 20
274.5248712619914
 30
0.0
 11
1511.087224617079
 21
274.8642487725424
 31
0.0
  0
LINE
  5
BA0E
330
1E
100
AcDbEntity
  8
0
 48
0.27
100
AcDbLine
 10
1510.957350344765
 20
271.4184832092244
 30
0.0
 11
1511.087224617079
 21
271.6970042301125
 31
0.0
  0
LINE
  5
BA0F
330
1E
100
AcDbEntity
  8
0
 48
0.27
100
AcDbLine
 10
1503.42806939025
 20
276.9585714052941
 30
0.0
 11
1503.708036631505
 21
277.0306269188274
 31
0.0
  0
LINE
  5
BA10
330
1E
100
AcDbEntity
  8
0
 48
0.27
100
AcDbLine
 10
1503.42806939025
 20
269.6026815973605
 30
0.0
 11
1503.708036631505
 21
269.5306260838274
 31
0.0
  0
LINE
  5
BA11
330
1E
100
AcDbEntity
  8
0
 48
0.27
100
AcDbLine
 10
1511.27301050773
 20
274.1376766257047
 30
0.0
 11
1511.193810731879
 21
274.5248712619914
 31
0.0
  0
LINE
  5
BA12
330
1E
100
AcDbEntity
  8
0
 48
0.27
100
AcDbLine
 10
1510.138031377689
 20
271.2327407387054
 30
0.0
 11
1510.14040444846
 21
271.2339013890244
 31
0.0
  0
LINE
  5
BA13
330
1E
100
AcDbEntity
  8
0
 48
0.27
100
AcDbLine
 10
1511.087224617079
 20
271.6970042301125
 30
0.0
 11
1511.193810731879
 21
272.0363834106638
 31
0.0
  0
LINE
  5
BA14
330
1E
100
AcDbEntity
  8
0
 48
0.27
100
AcDbLine
 10
1511.321781203625
 20
273.7175479087932
 30
0.0
 11
1511.27301050773
 21
274.1376766257047
 31
0.0
  0
LINE
  5
BA15
330
1E
100
AcDbEntity
  8
0
 48
0.27
100
AcDbLine
 10
1511.193810731879
 20
272.0363834106638
 30
0.0
 11
1511.27301050773
 21
272.42357637695
 31
0.0
  0
LINE
  5
BA16
330
1E
100
AcDbEntity
  8
0
 48
0.27
100
AcDbLine
 10
1503.988003872759
 20
276.9585714052941
 30
0.0
 11
1506.490262548512
 21
275.8263026862053
 31
0.0
  0
LINE
  5
BA17
330
1E
100
AcDbEntity
  8
0
 48
0.27
100
AcDbLine
 10
1503.708036631505
 20
277.0306269188274
 30
0.0
 11
1503.988003872759
 21
276.9585714052941
 31
0.0
  0
LINE
  5
BA18
330
1E
100
AcDbEntity
  8
0
 48
0.27
100
AcDbLine
 10
1503.708036631505
 20
269.5306260838274
 30
0.0
 11
1503.988003872759
 21
269.6026815973605
 31
0.0
  0
LINE
  5
BA19
330
1E
100
AcDbEntity
  8
0
 48
0.27
100
AcDbLine
 10
1511.338249079
 20
273.2806273363276
 30
0.0
 11
1511.321781203625
 21
273.7175479087932
 31
0.0
  0
LINE
  5
BA1A
330
1E
100
AcDbEntity
  8
0
 48
0.27
100
AcDbLine
 10
1511.27301050773
 20
272.42357637695
 30
0.0
 11
1511.321781203625
 21
272.8437067638617
 31
0.0
  0
LINE
  5
BA1B
330
1E
100
AcDbEntity
  8
0
 48
0.27
100
AcDbLine
 10
1511.321781203625
 20
272.8437067638617
 30
0.0
 11
1511.338249079
 21
273.2806273363276
 31
0.0
  0
LINE
  5
BA1C
330
1E
100
AcDbEntity
  8
0
 48
0.27
100
AcDbLine
 10
1503.988003872759
 20
269.6026815973605
 30
0.0
 11
1506.490262548512
 21
270.7349503164494
 31
0.0
  0
LINE
  5
BA1D
330
1E
100
AcDbEntity
  8
0
 48
0.27
100
AcDbLine
 10
1500.768984303433
 20
277.0306269188274
 30
0.0
 11
1504.53657066162
 21
277.0306269188274
 31
0.0
  0
LINE
  5
BA1E
330
1E
100
AcDbEntity
  8
0
 48
0.27
100
AcDbLine
 10
1504.53657066162
 20
269.5306260838274
 30
0.0
 11
1504.61519428725
 21
269.8864848298808
 31
0.0
  0
LINE
  5
BA1F
330
1E
100
AcDbEntity
  8
0
 48
0.27
100
AcDbLine
 10
1504.61519428725
 20
276.674768172774
 30
0.0
 11
1504.53657066162
 21
277.0306269188274
 31
0.0
  0
LINE
  5
BA20
330
1E
100
AcDbEntity
  8
0
 48
0.27
100
AcDbLine
 10
1500.768984303433
 20
269.5306260838274
 30
0.0
 11
1504.53657066162
 21
269.5306260838274
 31
0.0
  0
LINE
  5
BA21
330
1E
100
AcDbEntity
  8
0
 48
0.27
100
AcDbLine
 10
1502.750541819353
 20
269.5306260838274
 30
0.0
 11
1502.028854424082
 21
268.2806256663273
 31
0.0
  0
LINE
  5
BA22
330
1E
100
AcDbEntity
  8
0
 48
0.27
100
AcDbLine
 10
1502.028854424082
 20
268.2806256663273
 30
0.0
 11
1496.255350251906
 21
268.2806256663273
 31
0.0
  0
LINE
  5
BA23
330
1E
100
AcDbEntity
  8
0
 48
0.27
100
AcDbLine
 10
1493.368599000819
 20
273.2806273363276
 30
0.0
 11
1496.255350251906
 21
268.2806256663273
 31
0.0
  0
LINE
  5
BA24
330
1E
100
AcDbEntity
  8
0
 48
0.27
100
AcDbLine
 10
1496.255350251906
 20
278.2806273363276
 30
0.0
 11
1493.368599000819
 21
273.2806273363276
 31
0.0
  0
LINE
  5
BA25
330
1E
100
AcDbEntity
  8
0
 48
0.27
100
AcDbLine
 10
1496.255350251906
 20
278.2806273363276
 30
0.0
 11
1502.028852754081
 21
278.2806273363276
 31
0.0
  0
LINE
  5
BA26
330
1E
100
AcDbEntity
  8
0
 48
0.27
100
AcDbLine
 10
1502.750541819353
 20
277.0306269188274
 30
0.0
 11
1502.028852754081
 21
278.2806273363276
 31
0.0
  0
ARC
  5
BA27
330
1E
100
AcDbEntity
  8
0
 48
0.27
100
AcDbCircle
 10
1499.142101502994
 20
273.2806273363276
 30
0.0
 40
5.0
100
AcDbArc
 50
48.59037799889628
 51
311.4096220032059
  0
LWPOLYLINE
  5
BA28
330
1E
100
AcDbEntity
  8
0
 48
0.27
100
AcDbPolyline
 90
       17
 70
     0
 43
0.0
 10
1510.331713030784
 20
273.2806273363276
 10
1510.373648414537
 20
273.0093307378961
 10
1510.414762157903
 20
272.9307004322647
 10
1510.460475082787
 20
272.8937733802229
 10
1510.50294653663
 20
272.894157480287
 10
1510.548562601498
 20
272.9319128525922
 10
1510.587742484291
 20
273.0066253369441
 10
1510.6244758163
 20
273.1692165899719
 10
1510.630684878337
 20
273.2806273363276
 10
1510.588751164584
 20
273.5519222647588
 10
1510.547635751218
 20
273.6305525703901
 10
1510.501922826334
 20
273.667479622432
 10
1510.459453042491
 20
273.6670955222428
 10
1510.413835307623
 20
273.6293401499374
 10
1510.37465709483
 20
273.5546276655855
 10
1510.337922092821
 20
273.3920364126829
 10
1510.331713030784
 20
273.2806273363276
  0
LINE
  5
BA2A
330
1E
100
AcDbEntity
  8
中心線
 48
0.4
100
AcDbLine
 10
1499.140448034109
 20
270.7806273363276
 30
0.0
 11
1499.140448034109
 21
275.7806273363276
 31
0.0
  0
LINE
  5
BA2B
330
1E
100
AcDbEntity
  8
中心線
 48
0.4
100
AcDbLine
 10
1496.640448034108
 20
273.2806273363276
 30
0.0
 11
1501.640448034109
 21
273.2806273363276
 31
0.0
  0
LINE
  5
BA44
330
1E
100
AcDbEntity
  8
中心線
 48
0.3
100
AcDbLine
 10
1469.140448034109
 20
295.2806273363276
 30
0.0
 11
1469.140448034108
 21
264.664214303196
 31
0.0
  0
LINE
  5
BA50
330
1E
100
AcDbEntity
  8
中心線
 48
0.3
100
AcDbLine
 10
1499.140448034108
 20
295.2806273363276
 30
0.0
 11
1499.140448034108
 21
221.2806273363277
 31
0.0
  0
LINE
  5
BA57
330
1E
100
AcDbEntity
  8
虛線
  6
DASHED
100
AcDbLine
 10
1533.390448034108
 20
291.7806273363263
 30
0.0
 11
1534.89044803411
 21
293.2806273363274
 31
0.0
  0
LINE
  5
BA58
330
1E
100
AcDbEntity
  8
虛線
  6
DASHED
100
AcDbLine
 10
1524.890448034109
 20
291.7806273363264
 30
0.0
 11
1523.390448034107
 21
293.2806273363275
 31
0.0
  0
LINE
  5
BA59
330
1E
100
AcDbEntity
  8
虛線
 48
0.5
100
AcDbLine
 10
1529.140440404714
 20
266.0627081773911
 30
0.0
 11
1524.890448034109
 21
268.4806273363266
 31
0.0
  0
LINE
  5
BA5A
330
1E
100
AcDbEntity
  8
虛線
 48
0.5
100
AcDbLine
 10
1533.390448034109
 20
268.4806273363266
 30
0.0
 11
1524.890448034109
 21
268.4806273363266
 31
0.0
  0
LINE
  5
BA5B
330
1E
100
AcDbEntity
  8
虛線
 48
0.5
100
AcDbLine
 10
1534.140448034109
 20
292.5306273363259
 30
0.0
 11
1534.140448034109
 21
273.4806273363266
 31
0.0
  0
LINE
  5
BA5C
330
1E
100
AcDbEntity
  8
中心線
 48
0.3
100
AcDbLine
 10
1529.140448034108
 20
295.2806273363276
 30
0.0
 11
1529.140448034108
 21
264.664214303196
 31
0.0
  0
LINE
  5
BA5E
330
1E
100
AcDbEntity
  8
虛線
 48
0.5
100
AcDbLine
 10
1524.140448034108
 20
292.5306273363267
 30
0.0
 11
1524.140448034108
 21
273.4806273363266
 31
0.0
  0
LINE
  5
BA5F
330
1E
100
AcDbEntity
  8
虛線
 48
0.5
100
AcDbLine
 10
1534.140448034109
 20
273.4806273363266
 30
0.0
 11
1524.140448034108
 21
273.4806273363266
 31
0.0
  0
LINE
  5
BA60
330
1E
100
AcDbEntity
  8
虛線
 48
0.5
100
AcDbLine
 10
1529.140465200246
 20
266.0627348802719
 30
0.0
 11
1533.390448034108
 21
268.4806273363266
 31
0.0
  0
LINE
  5
BA62
330
1E
100
AcDbEntity
  8
虛線
  6
DASHED
100
AcDbLine
 10
1524.890448034109
 20
291.7806273363269
 30
0.0
 11
1533.390448034108
 21
291.7806273363263
 31
0.0
  0
LINE
  5
BA9F
330
1E
100
AcDbEntity
  8
0
  6
Continuous
 62
     7
100
AcDbLine
 10
1458.140448034108
 20
293.2806273363276
 30
0.0
 11
1456.140448034109
 21
291.2806273363276
 31
0.0
  0
LINE
  5
BAA0
330
1E
100
AcDbEntity
  8
0
  6
Continuous
 62
     7
100
AcDbLine
 10
1457.140448034109
 20
279.7806273363276
 30
0.0
 11
1459.140448034109
 21
281.7806273363276
 31
0.0
  0
LINE
  5
BAA1
330
1E
100
AcDbEntity
  8
0
  6
Continuous
 62
     7
100
AcDbLine
 10
1478.140448034108
 20
293.2806273363276
 30
0.0
 11
1458.140448034108
 21
293.2806273363276
 31
0.0
  0
LINE
  5
BAA2
330
1E
100
AcDbEntity
  8
0
  6
Continuous
 62
     7
100
AcDbLine
 10
1491.140448034109
 20
293.2806273363276
 30
0.0
 11
1507.140448034109
 21
293.2806273363276
 31
0.0
  0
LINE
  5
BAA3
330
1E
100
AcDbEntity
  8
0
  6
Continuous
 62
     7
100
AcDbLine
 10
1540.140448034108
 20
293.2806273363276
 30
0.0
 11
1520.140448034108
 21
293.2806273363276
 31
0.0
  0
LINE
  5
BAA4
330
1E
100
AcDbEntity
  8
0
  6
Continuous
 62
     7
100
AcDbLine
 10
1508.140448034108
 20
292.2806273363276
 30
0.0
 11
1519.140448034108
 21
292.2806273363276
 31
0.0
  0
LINE
  5
BAA5
330
1E
100
AcDbEntity
  8
0
  6
Continuous
 62
     7
100
AcDbLine
 10
1479.140448034108
 20
292.2806273363276
 30
0.0
 11
1490.140448034108
 21
292.2806273363276
 31
0.0
  0
LINE
  5
BAA6
330
1E
100
AcDbEntity
  8
0
  6
Continuous
 62
     7
100
AcDbLine
 10
1456.140448034109
 20
291.2806273363276
 30
0.0
 11
1456.140448034109
 21
277.2806273363276
 31
0.0
  0
LINE
  5
BAA7
330
1E
100
AcDbEntity
  8
0
  6
Continuous
 62
     7
100
AcDbLine
 10
1457.140448034109
 20
233.2806273363276
 30
0.0
 11
1457.140448034109
 21
279.7806273363276
 31
0.0
  0
LINE
  5
BAA8
330
1E
100
AcDbEntity
  8
0
  6
Continuous
 62
     7
100
AcDbLine
 10
1507.140448034109
 20
293.2806273363276
 30
0.0
 11
1508.140448034108
 21
292.2806273363276
 31
0.0
  0
LINE
  5
BAA9
330
1E
100
AcDbEntity
  8
0
  6
Continuous
 62
     7
100
AcDbLine
 10
1509.140448034109
 20
282.7806273363276
 30
0.0
 11
1489.140448034109
 21
282.7806273363276
 31
0.0
  0
LINE
  5
BAAA
330
1E
100
AcDbEntity
  8
0
  6
Continuous
 62
     7
100
AcDbLine
 10
1459.140448034208
 20
231.2806273362276
 30
0.0
 11
1457.140448034109
 21
233.2806273363276
 31
0.0
  0
LINE
  5
BAAB
330
1E
100
AcDbEntity
  8
0
  6
Continuous
 62
     7
100
AcDbLine
 10
1510.140448034109
 20
281.7806273363276
 30
0.0
 11
1509.140448034109
 21
282.7806273363276
 31
0.0
  0
LINE
  5
BAAC
330
1E
100
AcDbEntity
  8
0
  6
Continuous
 62
     7
100
AcDbLine
 10
1539.140448034109
 20
281.7806273363276
 30
0.0
 11
1459.140448034109
 21
281.7806273363276
 31
0.0
  0
LINE
  5
BAC0
330
1E
100
AcDbEntity
  8
0
  6
Continuous
 62
     7
100
AcDbLine
 10
1478.140448034108
 20
293.2806273363276
 30
0.0
 11
1479.140448034108
 21
292.2806273363276
 31
0.0
  0
LINE
  5
BAE6
330
1E
100
AcDbEntity
  8
0
  6
Continuous
 62
     7
100
AcDbLine
 10
1456.140448034109
 20
277.2806273363276
 30
0.0
 11
1457.140448034109
 21
276.2806273363276
 31
0.0
  0
LINE
  5
BB0B
330
1E
100
AcDbEntity
  8
0
  6
Continuous
 62
     7
100
AcDbLine
 10
1476.640448034109
 20
231.2806273362276
 30
0.0
 11
1459.140448034208
 21
231.2806273362276
 31
0.0
  0
LINE
  5
BB0C
330
1E
100
AcDbEntity
  8
0
  6
Continuous
 62
     7
100
AcDbLine
 10
1521.640448034109
 20
231.2806273362273
 30
0.0
 11
1540.121126989808
 21
231.2806273363276
 31
0.0
  0
LINE
  5
BB10
330
1E
100
AcDbEntity
  8
0
  6
Continuous
 62
     7
100
AcDbLine
 10
1519.140448034108
 20
292.2806273363276
 30
0.0
 11
1520.140448034108
 21
293.2806273363276
 31
0.0
  0
LINE
  5
BB32
330
1E
100
AcDbEntity
  8
0
  6
Continuous
 62
     7
100
AcDbLine
 10
1489.140448034109
 20
282.7806273363276
 30
0.0
 11
1488.140448034109
 21
281.7806273363276
 31
0.0
  0
LINE
  5
BB33
330
1E
100
AcDbEntity
  8
0
  6
Continuous
 62
     7
100
AcDbLine
 10
1539.140448034008
 20
231.2806273362276
 30
0.0
 11
1541.140448034109
 21
233.2806273363276
 31
0.0
  0
LINE
  5
BB34
330
1E
100
AcDbEntity
  8
0
  6
Continuous
 62
     7
100
AcDbLine
 10
1540.121126989808
 20
231.2806273363276
 30
0.0
 11
1542.140448034109
 21
233.2999483806276
 31
0.0
  0
LINE
  5
BB35
330
1E
100
AcDbEntity
  8
0
  6
Continuous
 62
     7
100
AcDbLine
 10
1490.140448034108
 20
292.2806273363276
 30
0.0
 11
1491.140448034109
 21
293.2806273363276
 31
0.0
  0
LINE
  5
BB36
330
1E
100
AcDbEntity
  8
0
  6
Continuous
 62
     7
100
AcDbLine
 10
1541.140448034109
 20
233.2806273363276
 30
0.0
 11
1541.140448034109
 21
279.7806273363276
 31
0.0
  0
LINE
  5
BB37
330
1E
100
AcDbEntity
  8
0
  6
Continuous
 62
     7
100
AcDbLine
 10
1542.140448034109
 20
233.2999483806276
 30
0.0
 11
1542.140448034109
 21
291.2806273363276
 31
0.0
  0
LINE
  5
BB38
330
1E
100
AcDbEntity
  8
0
  6
Continuous
 62
     7
100
AcDbLine
 10
1541.140448034109
 20
279.7806273363276
 30
0.0
 11
1539.140448034109
 21
281.7806273363276
 31
0.0
  0
LINE
  5
BB39
330
1E
100
AcDbEntity
  8
0
  6
Continuous
 62
     7
100
AcDbLine
 10
1542.140448034109
 20
291.2806273363276
 30
0.0
 11
1540.140448034108
 21
293.2806273363276
 31
0.0
  0
LINE
  5
BB3A
330
1E
100
AcDbEntity
  8
中心線
 48
0.4
100
AcDbLine
 10
1687.156278316933
 20
413.4408778346173
 30
0.0
 11
1661.205120918205
 21
413.4408778346173
 31
0.0
  0
LINE
  5
BB3B
330
1E
100
AcDbEntity
  8
中心線
 48
0.4
100
AcDbLine
 10
1897.156278316933
 20
413.4408778346173
 30
0.0
 11
1871.205120918205
 21
413.4408778346173
 31
0.0
  0
CIRCLE
  5
BB3C
330
1E
100
AcDbEntity
  8
0
100
AcDbCircle
 10
1936.680699617569
 20
413.4408778346173
 30
0.0
 40
7.0
  0
CIRCLE
  5
BB3D
330
1E
100
AcDbEntity
  8
0
100
AcDbCircle
 10
1936.680699617569
 20
413.4408778346173
 30
0.0
 40
10.0
  0
LINE
  5
BB3E
330
1E
100
AcDbEntity
  8
中心線
 48
0.4
100
AcDbLine
 10
1949.656278316933
 20
413.4408778346173
 30
0.0
 11
1923.705120918205
 21
413.4408778346173
 31
0.0
  0
LINE
  5
BB3F
330
1E
100
AcDbEntity
  8
中心線
 48
0.4
100
AcDbLine
 10
1936.680699617569
 20
426.416456533981
 30
0.0
 11
1936.680699617569
 21
400.4652991352536
 31
0.0
  0
CIRCLE
  5
BB40
330
1E
100
AcDbEntity
  8
0
100
AcDbCircle
 10
1884.180699617569
 20
413.4408778346173
 30
0.0
 40
7.0
  0
CIRCLE
  5
BB41
330
1E
100
AcDbEntity
  8
0
100
AcDbCircle
 10
1884.180699617569
 20
413.4408778346173
 30
0.0
 40
10.0
  0
LINE
  5
BB42
330
1E
100
AcDbEntity
  8
中心線
 48
0.4
100
AcDbLine
 10
1884.180699617569
 20
426.416456533981
 30
0.0
 11
1884.180699617569
 21
400.4652991352536
 31
0.0
  0
CIRCLE
  5
BB43
330
1E
100
AcDbEntity
  8
0
100
AcDbCircle
 10
1621.680699617569
 20
413.4408778346173
 30
0.0
 40
7.0
  0
CIRCLE
  5
BB44
330
1E
100
AcDbEntity
  8
0
100
AcDbCircle
 10
1621.680699617569
 20
413.4408778346173
 30
0.0
 40
10.0
  0
LINE
  5
BB45
330
1E
100
AcDbEntity
  8
中心線
 48
0.4
100
AcDbLine
 10
1608.705120918205
 20
413.4408778346173
 30
0.0
 11
1634.656278316933
 21
413.4408778346173
 31
0.0
  0
LINE
  5
BB46
330
1E
100
AcDbEntity
  8
中心線
 48
0.4
100
AcDbLine
 10
1621.680699617569
 20
426.416456533981
 30
0.0
 11
1621.680699617569
 21
400.4652991352536
 31
0.0
  0
CIRCLE
  5
BB47
330
1E
100
AcDbEntity
  8
0
100
AcDbCircle
 10
1674.180699617569
 20
413.4408778346173
 30
0.0
 40
7.0
  0
CIRCLE
  5
BB48
330
1E
100
AcDbEntity
  8
0
100
AcDbCircle
 10
1674.180699617569
 20
413.4408778346173
 30
0.0
 40
10.0
  0
LINE
  5
BB49
330
1E
100
AcDbEntity
  8
0
100
AcDbLine
 10
1599.180699617569
 20
435.9408778346173
 30
0.0
 11
1599.180699617569
 21
390.9408778346174
 31
0.0
  0
LINE
  5
BB4A
330
1E
100
AcDbEntity
  8
0
100
AcDbLine
 10
1959.180699617569
 20
435.9408778346173
 30
0.0
 11
1959.180699617569
 21
390.9408778346174
 31
0.0
  0
LINE
  5
BB4B
330
1E
100
AcDbEntity
  8
0
100
AcDbLine
 10
1855.780699609869
 20
390.9408778346174
 30
0.0
 11
1959.180699617569
 21
390.9408778346174
 31
0.0
  0
LINE
  5
BB4C
330
1E
100
AcDbEntity
  8
0
100
AcDbLine
 10
1599.180699617569
 20
390.9408778346174
 30
0.0
 11
1702.580699625269
 21
390.9408778346174
 31
0.0
  0
LINE
  5
BB4D
330
1E
100
AcDbEntity
  8
0
100
AcDbLine
 10
1855.780699609869
 20
435.9408778346173
 30
0.0
 11
1959.180699617569
 21
435.9408778346173
 31
0.0
  0
LINE
  5
BB4E
330
1E
100
AcDbEntity
  8
0
100
AcDbLine
 10
1599.180699617569
 20
435.9408778346173
 30
0.0
 11
1702.580699625269
 21
435.9408778346173
 31
0.0
  0
LINE
  5
BB4F
330
1E
100
AcDbEntity
  8
中心線
 48
0.4
100
AcDbLine
 10
1674.180699617569
 20
426.416456533981
 30
0.0
 11
1674.180699617569
 21
400.4652991352536
 31
0.0
  0
LINE
  5
BB50
330
1E
100
AcDbEntity
  8
0
100
AcDbLine
 10
1855.780699609869
 20
455.4408778346171
 30
0.0
 11
1855.780699609869
 21
371.4408778346172
 31
0.0
  0
ARC
  5
BB51
330
1E
100
AcDbEntity
  8
0
100
AcDbCircle
 10
1855.159706535302
 20
378.626617836434
 30
0.0
 40
2.258017748891656
100
AcDbArc
 50
285.9630221688356
 51
359.0723572120041
  0
LINE
  5
BB52
330
1E
100
AcDbEntity
  8
0
100
AcDbLine
 10
1857.417428343867
 20
378.5900611757668
 30
0.0
 11
1857.417428343867
 21
381.2916944934686
 31
0.0
  0
ARC
  5
BB53
330
1E
100
AcDbEntity
  8
0
100
AcDbCircle
 10
1855.159706535302
 20
381.2551378328005
 30
0.0
 40
2.258017748891656
100
AcDbArc
 50
0.9276427879959022
 51
74.03697783116439
  0
ARC
  5
BB54
330
1E
100
AcDbEntity
  8
0
100
AcDbCircle
 10
1855.159706535302
 20
445.6266178364339
 30
0.0
 40
2.258017748891656
100
AcDbArc
 50
285.9630221688356
 51
359.0723572120041
  0
LINE
  5
BB55
330
1E
100
AcDbEntity
  8
0
100
AcDbLine
 10
1857.417428343867
 20
445.5900611757668
 30
0.0
 11
1857.417428343867
 21
448.2916944934686
 31
0.0
  0
ARC
  5
BB56
330
1E
100
AcDbEntity
  8
0
100
AcDbCircle
 10
1855.159706535302
 20
448.2551378328005
 30
0.0
 40
2.258017748891656
100
AcDbArc
 50
0.9276427879959022
 51
74.03697783116439
  0
CIRCLE
  5
BB59
330
1E
100
AcDbEntity
  8
0
  6
Continuous
 62
     7
100
AcDbCircle
 10
1840.180699617569
 20
413.4408778346171
 30
0.0
 40
5.15
  0
CIRCLE
  5
BB5A
330
1E
100
AcDbEntity
  8
0
  6
Continuous
 62
     7
100
AcDbCircle
 10
1840.180699617569
 20
413.4408778346171
 30
0.0
 40
0.75
  0
LINE
  5
BB5B
330
1E
100
AcDbEntity
  8
0
  6
Continuous
 62
     7
100
AcDbLine
 10
1832.180699617569
 20
371.4408778346172
 30
0.0
 11
1855.780699609869
 21
371.4408778346172
 31
0.0
  0
LINE
  5
BB5C
330
1E
100
AcDbEntity
  8
0
  6
Continuous
 62
     7
100
AcDbLine
 10
1832.180699617569
 20
373.4408778346172
 30
0.0
 11
1855.780699609869
 21
373.4408778346172
 31
0.0
  0
LINE
  5
BB5D
330
1E
100
AcDbEntity
  8
0
  6
Continuous
 62
     7
100
AcDbLine
 10
1852.180699617569
 20
455.4408778346171
 30
0.0
 11
1852.180699617569
 21
371.4408778346172
 31
0.0
  0
LINE
  5
BB5E
330
1E
100
AcDbEntity
  8
0
  6
Continuous
 62
     7
100
AcDbLine
 10
1832.180699617569
 20
402.4408778346171
 30
0.0
 11
1852.180699617569
 21
402.4408778346171
 31
0.0
  0
LINE
  5
BB5F
330
1E
100
AcDbEntity
  8
0
  6
Continuous
 62
     7
100
AcDbLine
 10
1852.180699617569
 20
403.4408778346171
 30
0.0
 11
1832.180699617569
 21
403.4408778346171
 31
0.0
  0
LINE
  5
BB60
330
1E
100
AcDbEntity
  8
0
  6
Continuous
 62
     7
100
AcDbLine
 10
1832.180699617569
 20
455.4408778346171
 30
0.0
 11
1832.180699617569
 21
371.4408778346172
 31
0.0
  0
LINE
  5
BB61
330
1E
100
AcDbEntity
  8
0
  6
Continuous
 62
     7
100
AcDbLine
 10
1852.180699617569
 20
423.4408778346171
 30
0.0
 11
1832.180699617569
 21
423.4408778346171
 31
0.0
  0
LINE
  5
BB62
330
1E
100
AcDbEntity
  8
0
  6
Continuous
 62
     7
100
AcDbLine
 10
1832.180699617569
 20
424.4408778346171
 30
0.0
 11
1852.180699617569
 21
424.4408778346171
 31
0.0
  0
LINE
  5
BB63
330
1E
100
AcDbEntity
  8
0
  6
Continuous
 62
     7
100
AcDbLine
 10
1832.180699617569
 20
453.4408778346171
 30
0.0
 11
1855.780699609869
 21
453.4408778346171
 31
0.0
  0
LINE
  5
BB64
330
1E
100
AcDbEntity
  8
0
  6
Continuous
 62
     7
100
AcDbLine
 10
1832.180699617569
 20
455.4408778346171
 30
0.0
 11
1855.780699609869
 21
455.4408778346171
 31
0.0
  0
ARC
  5
BB65
330
1E
100
AcDbEntity
  8
0
100
AcDbCircle
 10
1703.201692699835
 20
378.626617836434
 30
0.0
 40
2.258017748891656
100
AcDbArc
 50
180.9276427879959
 51
254.0369778311644
  0
LINE
  5
BB66
330
1E
100
AcDbEntity
  8
0
100
AcDbLine
 10
1700.94397089127
 20
378.5900611757668
 30
0.0
 11
1700.94397089127
 21
381.2916944934686
 31
0.0
  0
ARC
  5
BB67
330
1E
100
AcDbEntity
  8
0
100
AcDbCircle
 10
1703.201692699835
 20
381.2551378328005
 30
0.0
 40
2.258017748891656
100
AcDbArc
 50
105.9630221688356
 51
179.0723572120041
  0
ARC
  5
BB68
330
1E
100
AcDbEntity
  8
0
100
AcDbCircle
 10
1703.201692699835
 20
445.6266178364339
 30
0.0
 40
2.258017748891656
100
AcDbArc
 50
180.9276427879959
 51
254.0369778311644
  0
LINE
  5
BB69
330
1E
100
AcDbEntity
  8
0
100
AcDbLine
 10
1700.94397089127
 20
445.5900611757668
 30
0.0
 11
1700.94397089127
 21
448.2916944934686
 31
0.0
  0
ARC
  5
BB6A
330
1E
100
AcDbEntity
  8
0
100
AcDbCircle
 10
1703.201692699835
 20
448.2551378328005
 30
0.0
 40
2.258017748891656
100
AcDbArc
 50
105.9630221688356
 51
179.0723572120041
  0
LINE
  5
BB6B
330
1E
100
AcDbEntity
  8
0
  6
Continuous
100
AcDbLine
 10
1692.43527752896
 20
397.6595904003539
 30
0.0
 11
1695.293870736338
 21
400.5181836077315
 31
0.0
  0
LINE
  5
BB6C
330
1E
100
AcDbEntity
  8
0
  6
Continuous
100
AcDbLine
 10
1687.610637557937
 20
399.658021709919
 30
0.0
 11
1692.43527752896
 21
397.6595904003539
 31
0.0
  0
LINE
  5
BB6D
330
1E
100
AcDbEntity
  8
0
  6
Continuous
100
AcDbLine
 10
1701.396307614083
 20
419.5742119086506
 30
0.0
 11
1702.580699625269
 21
419.5742119086506
 31
0.0
  0
LINE
  5
BB6E
330
1E
100
AcDbEntity
  8
0
  6
Continuous
100
AcDbLine
 10
1701.396307614083
 20
416.5075449764024
 30
0.0
 11
1702.580699625269
 21
416.5075449764024
 31
0.0
  0
ARC
  5
BB6F
330
1E
100
AcDbEntity
  8
0
  6
Continuous
100
AcDbCircle
 10
1703.769317527332
 20
418.0408787081075
 30
0.0
 40
2.825346636061326
100
AcDbArc
 50
147.1327799989424
 51
212.8672200010575
  0
LINE
  5
BB70
330
1E
100
AcDbEntity
  8
0
  6
Continuous
100
AcDbLine
 10
1696.14589246129
 20
418.7742119086504
 30
0.0
 11
1701.040800341957
 21
418.7742119086504
 31
0.0
  0
LINE
  5
BB71
330
1E
100
AcDbEntity
  8
0
  6
Continuous
100
AcDbLine
 10
1701.396307614083
 20
410.3742121742313
 30
0.0
 11
1702.580699625269
 21
410.3742121742313
 31
0.0
  0
LINE
  5
BB72
330
1E
100
AcDbEntity
  8
0
  6
Continuous
100
AcDbLine
 10
1701.396307614083
 20
407.3075452419836
 30
0.0
 11
1702.580699625269
 21
407.3075452419836
 31
0.0
  0
ARC
  5
BB73
330
1E
100
AcDbEntity
  8
0
  6
Continuous
100
AcDbCircle
 10
1703.769317527332
 20
408.8408784425267
 30
0.0
 40
2.825346636061326
100
AcDbArc
 50
147.1327799989424
 51
212.8672200010575
  0
LINE
  5
BB74
330
1E
100
AcDbEntity
  8
0
  6
Continuous
100
AcDbLine
 10
1698.552600030743
 20
405.2274877754079
 30
0.0
 11
1699.315426555231
 21
407.0691139165642
 31
0.0
  0
LINE
  5
BB75
330
1E
100
AcDbEntity
  8
0
  6
Continuous
100
AcDbLine
 10
1696.073579406539
 20
406.2544121135442
 30
0.0
 11
1696.836349097893
 21
408.0959010473787
 31
0.0
  0
ARC
  5
BB76
330
1E
100
AcDbEntity
  8
0
  6
Continuous
100
AcDbCircle
 10
1697.000211306746
 20
415.5033867186078
 30
0.0
 40
9.295339642905961
100
AcDbArc
 50
230.7213499979054
 51
264.2786500020831
  0
LINE
  5
BB77
330
1E
100
AcDbEntity
  8
0
  6
Continuous
100
AcDbLine
 10
1691.115426344784
 20
408.3081463560449
 30
0.0
 11
1691.878196036138
 21
410.1496352898796
 31
0.0
  0
ARC
  5
BB78
330
1E
100
AcDbEntity
  8
0
  6
Continuous
100
AcDbCircle
 10
1690.951564135931
 20
400.9006606848158
 30
0.0
 40
9.295339642905961
100
AcDbArc
 50
50.72134999790536
 51
84.27865000208308
  0
LINE
  5
BB79
330
1E
100
AcDbEntity
  8
0
  6
Continuous
100
AcDbLine
 10
1688.636349384518
 20
409.3350136551539
 30
0.0
 11
1689.399119075872
 21
411.1765025889883
 31
0.0
  0
ARC
  5
BB7A
330
1E
100
AcDbEntity
  8
0
  6
Continuous
100
AcDbCircle
 10
1690.670485281265
 20
410.7399084726637
 30
0.0
 40
2.472178306553661
100
AcDbArc
 50
214.6327799989322
 51
280.3672200010703
  0
ARC
  5
BB7B
330
1E
100
AcDbEntity
  8
0
  6
Continuous
100
AcDbCircle
 10
1686.938336056412
 20
407.0955564059972
 30
0.0
 40
2.746231479756805
100
AcDbArc
 50
335.8479011650552
 51
45.84790116506007
  0
ARC
  5
BB7C
330
1E
100
AcDbEntity
  8
0
  6
Continuous
100
AcDbCircle
 10
1691.94498989781
 20
402.3430281512669
 30
0.0
 40
3.813798694049014
100
AcDbArc
 50
331.4135141737428
 51
16.41351417374012
  0
LINE
  5
BB7D
330
1E
100
AcDbEntity
  8
0
  6
Continuous
100
AcDbLine
 10
1687.610637557937
 20
399.658021709919
 30
0.0
 11
1687.610637557937
 21
403.7006829931003
 31
0.0
  0
LINE
  5
BB7E
330
1E
100
AcDbEntity
  8
0
  6
Continuous
100
AcDbLine
 10
1687.610637557937
 20
403.7006829931003
 30
0.0
 11
1695.293870736338
 21
400.5181836077315
 31
0.0
  0
ARC
  5
BB7F
330
1E
100
AcDbEntity
  8
0
  6
Continuous
100
AcDbCircle
 10
1691.269013859591
 20
402.6230265941367
 30
0.0
 40
3.813798694049016
100
AcDbArc
 50
118.5864858262558
 51
163.586485826268
  0
LINE
  5
BB80
330
1E
100
AcDbEntity
  8
0
  6
Continuous
100
AcDbLine
 10
1689.690537191392
 20
405.8698585173671
 30
0.0
 11
1695.356998324128
 21
403.522733465528
 31
0.0
  0
LINE
  5
BB81
330
1E
100
AcDbEntity
  8
0
  6
Continuous
100
AcDbLine
 10
1689.724423601495
 20
408.4559135345203
 30
0.0
 11
1697.161654052905
 21
405.3753118150519
 31
0.0
  0
LINE
  5
BB82
330
1E
100
AcDbEntity
  8
0
  6
Continuous
100
AcDbLine
 10
1690.790121389772
 20
411.0287355883717
 30
0.0
 11
1698.227351841183
 21
407.9481338689033
 31
0.0
  0
ARC
  5
BB83
330
1E
100
AcDbEntity
  8
0
  6
Continuous
100
AcDbCircle
 10
1698.107715732675
 20
407.6593067531953
 30
0.0
 40
2.472178306553661
100
AcDbArc
 50
214.6327799989322
 51
280.3672200010703
  0
ARC
  5
BB84
330
1E
100
AcDbEntity
  8
0
  6
Continuous
100
AcDbCircle
 10
1698.169797698598
 20
402.4433326685307
 30
0.0
 40
2.746231479756805
100
AcDbArc
 50
89.15209883493268
 51
159.1520988349398
  0
ARC
  5
BB85
330
1E
100
AcDbEntity
  8
0
  6
Continuous
100
AcDbCircle
 10
1697.281290161412
 20
405.6641389307599
 30
0.0
 40
2.472178306553661
100
AcDbArc
 50
34.63277999893215
 51
100.3672200010704
  0
LINE
  5
BB86
330
1E
100
AcDbEntity
  8
0
  6
Continuous
100
AcDbLine
 10
1697.657363528811
 20
408.1075452419838
 30
0.0
 11
1701.040800341957
 21
408.1075452419838
 31
0.0
  0
ARC
  5
BB87
330
1E
100
AcDbEntity
  8
0
  6
Continuous
100
AcDbCircle
 10
1696.14589246129
 20
413.4408785753168
 30
0.0
 40
5.333333333333332
100
AcDbArc
 50
90.0
 51
210.8352048940757
  0
ARC
  5
BB88
330
1E
100
AcDbEntity
  8
0
  6
Continuous
100
AcDbCircle
 10
1689.844059710002
 20
408.7447406502283
 30
0.0
 40
2.472178306553661
100
AcDbArc
 50
34.63277999893215
 51
100.3672200010704
  0
ARC
  5
BB89
330
1E
100
AcDbEntity
  8
0
  6
Continuous
100
AcDbCircle
 10
1711.567216197449
 20
413.4408785753168
 30
0.0
 40
10.62324530617823
100
AcDbArc
 50
163.2213499979145
 51
196.7786500020854
  0
LINE
  5
BB8A
330
1E
100
AcDbEntity
  8
0
  6
Continuous
100
AcDbLine
 10
1700.94397089127
 20
408.8408784425267
 30
0.0
 11
1700.94397089127
 21
418.0408787081075
 31
0.0
  0
LINE
  5
BB8B
330
1E
100
AcDbEntity
  8
0
  6
Continuous
100
AcDbLine
 10
1692.43527752896
 20
397.6595904003539
 30
0.0
 11
1695.293870736338
 21
400.5181836077315
 31
0.0
  0
LINE
  5
BB8C
330
1E
100
AcDbEntity
  8
0
  6
Continuous
100
AcDbLine
 10
1687.610637557937
 20
399.658021709919
 30
0.0
 11
1692.43527752896
 21
397.6595904003539
 31
0.0
  0
LINE
  5
BB8D
330
1E
100
AcDbEntity
  8
0
  6
Continuous
100
AcDbLine
 10
1701.396307614083
 20
419.5742119086506
 30
0.0
 11
1702.580699625269
 21
419.5742119086506
 31
0.0
  0
LINE
  5
BB8E
330
1E
100
AcDbEntity
  8
0
  6
Continuous
100
AcDbLine
 10
1701.396307614083
 20
416.5075449764024
 30
0.0
 11
1702.580699625269
 21
416.5075449764024
 31
0.0
  0
ARC
  5
BB8F
330
1E
100
AcDbEntity
  8
0
  6
Continuous
100
AcDbCircle
 10
1703.769317527332
 20
418.0408787081075
 30
0.0
 40
2.825346636061326
100
AcDbArc
 50
147.1327799989424
 51
212.8672200010575
  0
LINE
  5
BB90
330
1E
100
AcDbEntity
  8
0
  6
Continuous
100
AcDbLine
 10
1696.14589246129
 20
418.7742119086504
 30
0.0
 11
1701.040800341957
 21
418.7742119086504
 31
0.0
  0
LINE
  5
BB91
330
1E
100
AcDbEntity
  8
0
  6
Continuous
100
AcDbLine
 10
1701.396307614083
 20
410.3742121742313
 30
0.0
 11
1702.580699625269
 21
410.3742121742313
 31
0.0
  0
LINE
  5
BB92
330
1E
100
AcDbEntity
  8
0
  6
Continuous
100
AcDbLine
 10
1701.396307614083
 20
407.3075452419836
 30
0.0
 11
1702.580699625269
 21
407.3075452419836
 31
0.0
  0
ARC
  5
BB93
330
1E
100
AcDbEntity
  8
0
  6
Continuous
100
AcDbCircle
 10
1703.769317527332
 20
408.8408784425267
 30
0.0
 40
2.825346636061326
100
AcDbArc
 50
147.1327799989424
 51
212.8672200010575
  0
LINE
  5
BB94
330
1E
100
AcDbEntity
  8
0
  6
Continuous
100
AcDbLine
 10
1698.552600030743
 20
405.2274877754079
 30
0.0
 11
1699.315426555231
 21
407.0691139165642
 31
0.0
  0
LINE
  5
BB95
330
1E
100
AcDbEntity
  8
0
  6
Continuous
100
AcDbLine
 10
1696.073579406539
 20
406.2544121135442
 30
0.0
 11
1696.836349097893
 21
408.0959010473787
 31
0.0
  0
ARC
  5
BB96
330
1E
100
AcDbEntity
  8
0
  6
Continuous
100
AcDbCircle
 10
1697.000211306746
 20
415.5033867186078
 30
0.0
 40
9.295339642905961
100
AcDbArc
 50
230.7213499979054
 51
264.2786500020831
  0
LINE
  5
BB97
330
1E
100
AcDbEntity
  8
0
  6
Continuous
100
AcDbLine
 10
1691.115426344784
 20
408.3081463560449
 30
0.0
 11
1691.878196036138
 21
410.1496352898796
 31
0.0
  0
ARC
  5
BB98
330
1E
100
AcDbEntity
  8
0
  6
Continuous
100
AcDbCircle
 10
1690.951564135931
 20
400.9006606848158
 30
0.0
 40
9.295339642905961
100
AcDbArc
 50
50.72134999790536
 51
84.27865000208308
  0
LINE
  5
BB99
330
1E
100
AcDbEntity
  8
0
  6
Continuous
100
AcDbLine
 10
1688.636349384518
 20
409.3350136551539
 30
0.0
 11
1689.399119075872
 21
411.1765025889883
 31
0.0
  0
ARC
  5
BB9A
330
1E
100
AcDbEntity
  8
0
  6
Continuous
100
AcDbCircle
 10
1690.670485281265
 20
410.7399084726637
 30
0.0
 40
2.472178306553661
100
AcDbArc
 50
214.6327799989322
 51
280.3672200010703
  0
ARC
  5
BB9B
330
1E
100
AcDbEntity
  8
0
  6
Continuous
100
AcDbCircle
 10
1686.938336056412
 20
407.0955564059972
 30
0.0
 40
2.746231479756805
100
AcDbArc
 50
335.8479011650552
 51
45.84790116506007
  0
ARC
  5
BB9C
330
1E
100
AcDbEntity
  8
0
  6
Continuous
100
AcDbCircle
 10
1691.94498989781
 20
402.3430281512669
 30
0.0
 40
3.813798694049014
100
AcDbArc
 50
331.4135141737428
 51
16.41351417374012
  0
LINE
  5
BB9D
330
1E
100
AcDbEntity
  8
0
  6
Continuous
100
AcDbLine
 10
1687.610637557937
 20
399.658021709919
 30
0.0
 11
1687.610637557937
 21
403.7006829931003
 31
0.0
  0
LINE
  5
BB9E
330
1E
100
AcDbEntity
  8
0
  6
Continuous
100
AcDbLine
 10
1687.610637557937
 20
403.7006829931003
 30
0.0
 11
1695.293870736338
 21
400.5181836077315
 31
0.0
  0
ARC
  5
BB9F
330
1E
100
AcDbEntity
  8
0
  6
Continuous
100
AcDbCircle
 10
1691.269013859591
 20
402.6230265941367
 30
0.0
 40
3.813798694049016
100
AcDbArc
 50
118.5864858262558
 51
163.586485826268
  0
LINE
  5
BBA0
330
1E
100
AcDbEntity
  8
0
  6
Continuous
100
AcDbLine
 10
1689.690537191392
 20
405.8698585173671
 30
0.0
 11
1695.356998324128
 21
403.522733465528
 31
0.0
  0
LINE
  5
BBA1
330
1E
100
AcDbEntity
  8
0
  6
Continuous
100
AcDbLine
 10
1689.724423601495
 20
408.4559135345203
 30
0.0
 11
1697.161654052905
 21
405.3753118150519
 31
0.0
  0
LINE
  5
BBA2
330
1E
100
AcDbEntity
  8
0
  6
Continuous
100
AcDbLine
 10
1690.790121389772
 20
411.0287355883717
 30
0.0
 11
1698.227351841183
 21
407.9481338689033
 31
0.0
  0
ARC
  5
BBA3
330
1E
100
AcDbEntity
  8
0
  6
Continuous
100
AcDbCircle
 10
1698.107715732675
 20
407.6593067531953
 30
0.0
 40
2.472178306553661
100
AcDbArc
 50
214.6327799989322
 51
280.3672200010703
  0
ARC
  5
BBA4
330
1E
100
AcDbEntity
  8
0
  6
Continuous
100
AcDbCircle
 10
1698.169797698598
 20
402.4433326685307
 30
0.0
 40
2.746231479756805
100
AcDbArc
 50
89.15209883493268
 51
159.1520988349398
  0
ARC
  5
BBA5
330
1E
100
AcDbEntity
  8
0
  6
Continuous
100
AcDbCircle
 10
1697.281290161412
 20
405.6641389307599
 30
0.0
 40
2.472178306553661
100
AcDbArc
 50
34.63277999893215
 51
100.3672200010704
  0
LINE
  5
BBA6
330
1E
100
AcDbEntity
  8
0
  6
Continuous
100
AcDbLine
 10
1697.657363528811
 20
408.1075452419838
 30
0.0
 11
1701.040800341957
 21
408.1075452419838
 31
0.0
  0
ARC
  5
BBA7
330
1E
100
AcDbEntity
  8
0
  6
Continuous
100
AcDbCircle
 10
1696.14589246129
 20
413.4408785753168
 30
0.0
 40
5.333333333333332
100
AcDbArc
 50
90.0
 51
210.8352048940757
  0
ARC
  5
BBA8
330
1E
100
AcDbEntity
  8
0
  6
Continuous
100
AcDbCircle
 10
1689.844059710002
 20
408.7447406502283
 30
0.0
 40
2.472178306553661
100
AcDbArc
 50
34.63277999893215
 51
100.3672200010704
  0
ARC
  5
BBA9
330
1E
100
AcDbEntity
  8
0
  6
Continuous
100
AcDbCircle
 10
1711.567216197449
 20
413.4408785753168
 30
0.0
 40
10.62324530617823
100
AcDbArc
 50
163.2213499979145
 51
196.7786500020854
  0
LINE
  5
BBAA
330
1E
100
AcDbEntity
  8
0
  6
Continuous
100
AcDbLine
 10
1700.94397089127
 20
408.8408784425267
 30
0.0
 11
1700.94397089127
 21
418.0408787081075
 31
0.0
  0
LINE
  5
BBAB
330
1E
100
AcDbEntity
  8
0
100
AcDbLine
 10
1702.580699625269
 20
455.4408778346171
 30
0.0
 11
1702.580699625269
 21
371.4408778346172
 31
0.0
  0
CIRCLE
  5
BBAE
330
1E
100
AcDbEntity
  8
0
  6
Continuous
 62
     7
100
AcDbCircle
 10
1718.180699617569
 20
413.4408778346171
 30
0.0
 40
5.15
  0
CIRCLE
  5
BBAF
330
1E
100
AcDbEntity
  8
0
  6
Continuous
 62
     7
100
AcDbCircle
 10
1718.180699617569
 20
413.4408778346171
 30
0.0
 40
0.75
  0
LINE
  5
BBB0
330
1E
100
AcDbEntity
  8
0
  6
Continuous
 62
     7
100
AcDbLine
 10
1726.180699617569
 20
455.4408778346171
 30
0.0
 11
1702.580699625269
 21
455.4408778346171
 31
0.0
  0
LINE
  5
BBB1
330
1E
100
AcDbEntity
  8
0
  6
Continuous
 62
     7
100
AcDbLine
 10
1726.180699617569
 20
453.4408778346171
 30
0.0
 11
1702.580699625269
 21
453.4408778346171
 31
0.0
  0
LINE
  5
BBB2
330
1E
100
AcDbEntity
  8
0
  6
Continuous
 62
     7
100
AcDbLine
 10
1706.180699617569
 20
371.4408778346172
 30
0.0
 11
1706.180699617569
 21
455.4408778346171
 31
0.0
  0
LINE
  5
BBB3
330
1E
100
AcDbEntity
  8
0
  6
Continuous
 62
     7
100
AcDbLine
 10
1726.180699617569
 20
424.4408778346171
 30
0.0
 11
1706.180699617569
 21
424.4408778346171
 31
0.0
  0
LINE
  5
BBB4
330
1E
100
AcDbEntity
  8
0
  6
Continuous
 62
     7
100
AcDbLine
 10
1706.180699617569
 20
423.4408778346171
 30
0.0
 11
1726.180699617569
 21
423.4408778346171
 31
0.0
  0
LINE
  5
BBB5
330
1E
100
AcDbEntity
  8
0
  6
Continuous
 62
     7
100
AcDbLine
 10
1726.180699617569
 20
371.4408778346172
 30
0.0
 11
1726.180699617569
 21
455.4408778346171
 31
0.0
  0
LINE
  5
BBB6
330
1E
100
AcDbEntity
  8
0
  6
Continuous
 62
     7
100
AcDbLine
 10
1706.180699617569
 20
403.4408778346171
 30
0.0
 11
1726.180699617569
 21
403.4408778346171
 31
0.0
  0
LINE
  5
BBB7
330
1E
100
AcDbEntity
  8
0
  6
Continuous
 62
     7
100
AcDbLine
 10
1726.180699617569
 20
402.4408778346171
 30
0.0
 11
1706.180699617569
 21
402.4408778346171
 31
0.0
  0
LINE
  5
BBB8
330
1E
100
AcDbEntity
  8
0
  6
Continuous
 62
     7
100
AcDbLine
 10
1726.180699617569
 20
373.4408778346172
 30
0.0
 11
1702.580699625269
 21
373.4408778346172
 31
0.0
  0
LINE
  5
BBB9
330
1E
100
AcDbEntity
  8
0
  6
Continuous
 62
     7
100
AcDbLine
 10
1726.180699617569
 20
371.4408778346172
 30
0.0
 11
1702.580699625269
 21
371.4408778346172
 31
0.0
  0
LINE
  5
BBBA
330
1E
100
AcDbEntity
  8
0
100
AcDbLine
 10
1726.180699617569
 20
370.4408778346165
 30
0.0
 11
1832.180699617569
 21
370.4408778346165
 31
0.0
  0
ARC
  5
BBBB
330
1E
100
AcDbEntity
  8
標註線
  6
Continuous
 62
     1
100
AcDbCircle
 10
1749.180699617569
 20
443.440877834618
 30
0.0
 40
5.0
100
AcDbArc
 50
180.0001748528401
 51
90.00017485284015
  0
CIRCLE
  5
BBBC
330
1E
100
AcDbEntity
  8
0
  6
Continuous
 62
     7
100
AcDbCircle
 10
1749.18068435878
 20
443.4408625758292
 30
0.0
 40
4.25
  0
LINE
  5
BBC8
330
1E
100
AcDbEntity
  8
中心線
 48
0.3
100
AcDbLine
 10
1756.680714876358
 20
383.4408625758292
 30
0.0
 11
1741.68068435878
 21
383.4408625758292
 31
0.0
  0
LINE
  5
BBC9
330
1E
100
AcDbEntity
  8
中心線
 48
0.3
100
AcDbLine
 10
1749.18068435878
 20
375.9408625758291
 30
0.0
 11
1749.18068435878
 21
390.9408625758292
 31
0.0
  0
LINE
  5
BBCA
330
1E
100
AcDbEntity
  8
中心線
 48
0.3
100
AcDbLine
 10
1749.18068435878
 20
405.9408625758292
 30
0.0
 11
1749.18068435878
 21
420.9408625758292
 31
0.0
  0
LINE
  5
BBCB
330
1E
100
AcDbEntity
  8
中心線
 48
0.3
100
AcDbLine
 10
1756.680714876358
 20
443.4408625758292
 30
0.0
 11
1741.68068435878
 21
443.4408625758292
 31
0.0
  0
LINE
  5
BBCC
330
1E
100
AcDbEntity
  8
中心線
 48
0.3
100
AcDbLine
 10
1749.18068435878
 20
435.9408625758292
 30
0.0
 11
1749.18068435878
 21
450.9408625758291
 31
0.0
  0
LINE
  5
BBD1
330
1E
100
AcDbEntity
  8
0
100
AcDbLine
 10
1832.180699617569
 20
433.4408778346182
 30
0.0
 11
1726.180699617569
 21
433.4408778346183
 31
0.0
  0
LINE
  5
BBD2
330
1E
100
AcDbEntity
  8
0
100
AcDbLine
 10
1832.180699617569
 20
422.4408778346173
 30
0.0
 11
1726.180699617569
 21
422.4408778346174
 31
0.0
  0
LINE
  5
BBD3
330
1E
100
AcDbEntity
  8
0
100
AcDbLine
 10
1832.180699617569
 20
404.4408778346165
 30
0.0
 11
1726.180699617569
 21
404.4408778346165
 31
0.0
  0
LINE
  5
BBD4
330
1E
100
AcDbEntity
  8
0
100
AcDbLine
 10
1832.180699617569
 20
393.4408778346155
 30
0.0
 11
1726.180699617569
 21
393.4408778346157
 31
0.0
  0
LINE
  5
BBD5
330
1E
100
AcDbEntity
  8
0
100
AcDbLine
 10
1832.180699617569
 20
372.6408778346161
 30
0.0
 11
1726.180699617569
 21
372.6408778346161
 31
0.0
  0
LINE
  5
BBD6
330
1E
100
AcDbEntity
  8
0
100
AcDbLine
 10
1832.180699617569
 20
392.2408778346157
 30
0.0
 11
1726.180699617569
 21
392.2408778346158
 31
0.0
  0
LINE
  5
BBD7
330
1E
100
AcDbEntity
  8
0
100
AcDbLine
 10
1832.180699617569
 20
405.6408778346162
 30
0.0
 11
1726.180699617569
 21
405.6408778346163
 31
0.0
  0
LINE
  5
BBD8
330
1E
100
AcDbEntity
  8
0
100
AcDbLine
 10
1832.180699617569
 20
421.2408778346177
 30
0.0
 11
1726.180699617569
 21
421.2408778346178
 31
0.0
  0
LINE
  5
BBD9
330
1E
100
AcDbEntity
  8
0
100
AcDbLine
 10
1832.180699617569
 20
434.6408778346183
 30
0.0
 11
1726.180699617569
 21
434.6408778346184
 31
0.0
  0
LINE
  5
BBDA
330
1E
100
AcDbEntity
  8
0
100
AcDbLine
 10
1832.180699617569
 20
454.2408778346177
 30
0.0
 11
1726.180699617569
 21
454.2408778346177
 31
0.0
  0
LINE
  5
BBDB
330
1E
100
AcDbEntity
  8
0
100
AcDbLine
 10
1726.180699617569
 20
456.440877834618
 30
0.0
 11
1832.180699617569
 21
456.440877834618
 31
0.0
  0
LINE
  5
BBDC
330
1E
100
AcDbEntity
  8
0
100
AcDbLine
 10
1832.180699617569
 20
456.440877834618
 30
0.0
 11
1832.180699617569
 21
370.4408778346165
 31
0.0
  0
LINE
  5
BBDD
330
1E
100
AcDbEntity
  8
0
100
AcDbLine
 10
1726.180699617569
 20
456.440877834618
 30
0.0
 11
1726.180699617569
 21
370.4408778346165
 31
0.0
  0
LINE
  5
BBDE
330
1E
100
AcDbEntity
  8
中心線
 48
0.4
100
AcDbLine
 10
1936.680699617569
 20
263.2362366775396
 30
0.0
 11
1936.680699617569
 21
221.2362366775397
 31
0.0
  0
LINE
  5
BBEE
330
1E
100
AcDbEntity
  8
虛線
 48
0.4
100
AcDbLine
 10
1943.680699617573
 20
223.9806273363297
 30
0.0
 11
1944.380699617575
 21
223.2806273363278
 31
0.0
  0
LINE
  5
BBEF
330
1E
100
AcDbEntity
  8
虛線
 48
0.4
100
AcDbLine
 10
1929.680699617565
 20
223.9806273363297
 30
0.0
 11
1928.980699617564
 21
223.2806273363278
 31
0.0
  0
LINE
  5
BBF0
330
1E
100
AcDbEntity
  8
虛線
 48
0.4
100
AcDbLine
 10
1929.680699617565
 20
223.9806273363297
 30
0.0
 11
1943.680699617565
 21
223.9806273363297
 31
0.0
  0
LINE
  5
BBF1
330
1E
100
AcDbEntity
  8
虛線
 48
0.4
100
AcDbLine
 10
1946.680699617568
 20
260.8806273363295
 30
0.0
 11
1946.911639725243
 21
261.2806273363276
 31
0.0
  0
LINE
  5
BBF2
330
1E
100
AcDbEntity
  8
虛線
 48
0.4
100
AcDbLine
 10
1943.680699617569
 20
243.9806273363295
 30
0.0
 11
1943.980699617568
 21
244.2806273363294
 31
0.0
  0
LINE
  5
BBF3
330
1E
100
AcDbEntity
  8
虛線
 48
0.4
100
AcDbLine
 10
1946.680699617568
 20
260.8806273363295
 30
0.0
 11
1946.680699617568
 21
244.2806273363294
 31
0.0
  0
LINE
  5
BBF4
330
1E
100
AcDbEntity
  8
虛線
 48
0.4
100
AcDbLine
 10
1943.680699617569
 20
243.9806273363295
 30
0.0
 11
1943.680699617569
 21
223.9806273363297
 31
0.0
  0
LINE
  5
BBF5
330
1E
100
AcDbEntity
  8
虛線
 48
0.4
100
AcDbLine
 10
1926.680699617568
 20
260.8806273363295
 30
0.0
 11
1926.449759509894
 21
261.2806273363274
 31
0.0
  0
LINE
  5
BBF6
330
1E
100
AcDbEntity
  8
虛線
 48
0.4
100
AcDbLine
 10
1929.680699617568
 20
243.9806273363295
 30
0.0
 11
1929.380699617568
 21
244.2806273363294
 31
0.0
  0
LINE
  5
BBF7
330
1E
100
AcDbEntity
  8
虛線
 48
0.4
100
AcDbLine
 10
1926.680699617568
 20
260.8806273363295
 30
0.0
 11
1926.680699617568
 21
244.2806273363294
 31
0.0
  0
LINE
  5
BBF8
330
1E
100
AcDbEntity
  8
虛線
 48
0.4
100
AcDbLine
 10
1929.680699617568
 20
243.9806273363295
 30
0.0
 11
1929.680699617568
 21
223.9806273363297
 31
0.0
  0
LINE
  5
BBF9
330
1E
100
AcDbEntity
  8
虛線
 48
0.4
100
AcDbLine
 10
1929.680699617568
 20
243.9806273363295
 30
0.0
 11
1943.680699617569
 21
243.9806273363295
 31
0.0
  0
LINE
  5
BBFA
330
1E
100
AcDbEntity
  8
虛線
 48
0.4
100
AcDbLine
 10
1926.680699617568
 20
260.8806273363295
 30
0.0
 11
1946.680699617568
 21
260.8806273363295
 31
0.0
  0
LINE
  5
BBFB
330
1E
100
AcDbEntity
  8
虛線
 48
0.4
100
AcDbLine
 10
1926.680699617568
 20
244.2806273363294
 30
0.0
 11
1946.680699617568
 21
244.2806273363294
 31
0.0
  0
LINE
  5
BBFC
330
1E
100
AcDbEntity
  8
虛線
 48
0.4
100
AcDbLine
 10
1681.180699617573
 20
223.9806273363297
 30
0.0
 11
1681.880699617575
 21
223.2806273363278
 31
0.0
  0
LINE
  5
BBFD
330
1E
100
AcDbEntity
  8
虛線
 48
0.4
100
AcDbLine
 10
1667.180699617565
 20
223.9806273363297
 30
0.0
 11
1666.480699617563
 21
223.2806273363278
 31
0.0
  0
LINE
  5
BBFE
330
1E
100
AcDbEntity
  8
虛線
 48
0.4
100
AcDbLine
 10
1667.180699617565
 20
223.9806273363297
 30
0.0
 11
1681.180699617565
 21
223.9806273363297
 31
0.0
  0
LINE
  5
BBFF
330
1E
100
AcDbEntity
  8
虛線
 48
0.4
100
AcDbLine
 10
1684.180699617568
 20
260.8806273363295
 30
0.0
 11
1684.411639725243
 21
261.2806273363276
 31
0.0
  0
LINE
  5
BC00
330
1E
100
AcDbEntity
  8
虛線
 48
0.4
100
AcDbLine
 10
1681.180699617568
 20
243.9806273363295
 30
0.0
 11
1681.480699617568
 21
244.2806273363294
 31
0.0
  0
LINE
  5
BC01
330
1E
100
AcDbEntity
  8
虛線
 48
0.4
100
AcDbLine
 10
1684.180699617568
 20
260.8806273363295
 30
0.0
 11
1684.180699617568
 21
244.2806273363294
 31
0.0
  0
LINE
  5
BC02
330
1E
100
AcDbEntity
  8
虛線
 48
0.4
100
AcDbLine
 10
1681.180699617568
 20
243.9806273363295
 30
0.0
 11
1681.180699617568
 21
223.9806273363297
 31
0.0
  0
LINE
  5
BC03
330
1E
100
AcDbEntity
  8
虛線
 48
0.4
100
AcDbLine
 10
1664.180699617568
 20
260.8806273363295
 30
0.0
 11
1663.949759509893
 21
261.2806273363274
 31
0.0
  0
LINE
  5
BC04
330
1E
100
AcDbEntity
  8
虛線
 48
0.4
100
AcDbLine
 10
1667.180699617568
 20
243.9806273363295
 30
0.0
 11
1666.880699617568
 21
244.2806273363294
 31
0.0
  0
LINE
  5
BC05
330
1E
100
AcDbEntity
  8
虛線
 48
0.4
100
AcDbLine
 10
1664.180699617568
 20
260.8806273363295
 30
0.0
 11
1664.180699617568
 21
244.2806273363294
 31
0.0
  0
LINE
  5
BC06
330
1E
100
AcDbEntity
  8
虛線
 48
0.4
100
AcDbLine
 10
1667.180699617568
 20
243.9806273363295
 30
0.0
 11
1667.180699617568
 21
223.9806273363297
 31
0.0
  0
LINE
  5
BC07
330
1E
100
AcDbEntity
  8
虛線
 48
0.4
100
AcDbLine
 10
1667.180699617568
 20
243.9806273363295
 30
0.0
 11
1681.180699617568
 21
243.9806273363295
 31
0.0
  0
LINE
  5
BC08
330
1E
100
AcDbEntity
  8
虛線
 48
0.4
100
AcDbLine
 10
1664.180699617568
 20
260.8806273363295
 30
0.0
 11
1684.180699617568
 21
260.8806273363295
 31
0.0
  0
LINE
  5
BC09
330
1E
100
AcDbEntity
  8
虛線
 48
0.4
100
AcDbLine
 10
1664.180699617568
 20
244.2806273363294
 30
0.0
 11
1684.180699617568
 21
244.2806273363294
 31
0.0
  0
LINE
  5
BC0A
330
1E
100
AcDbEntity
  8
虛線
 48
0.4
100
AcDbLine
 10
1891.180699617573
 20
223.9806273363297
 30
0.0
 11
1891.880699617575
 21
223.2806273363278
 31
0.0
  0
LINE
  5
BC0B
330
1E
100
AcDbEntity
  8
虛線
 48
0.4
100
AcDbLine
 10
1877.180699617565
 20
223.9806273363297
 30
0.0
 11
1876.480699617563
 21
223.2806273363278
 31
0.0
  0
LINE
  5
BC0C
330
1E
100
AcDbEntity
  8
虛線
 48
0.4
100
AcDbLine
 10
1877.180699617565
 20
223.9806273363297
 30
0.0
 11
1891.180699617565
 21
223.9806273363297
 31
0.0
  0
LINE
  5
BC0D
330
1E
100
AcDbEntity
  8
虛線
 48
0.4
100
AcDbLine
 10
1894.180699617568
 20
260.8806273363295
 30
0.0
 11
1894.411639725243
 21
261.2806273363276
 31
0.0
  0
LINE
  5
BC0E
330
1E
100
AcDbEntity
  8
虛線
 48
0.4
100
AcDbLine
 10
1891.180699617568
 20
243.9806273363295
 30
0.0
 11
1891.480699617568
 21
244.2806273363294
 31
0.0
  0
LINE
  5
BC0F
330
1E
100
AcDbEntity
  8
虛線
 48
0.4
100
AcDbLine
 10
1894.180699617568
 20
260.8806273363295
 30
0.0
 11
1894.180699617568
 21
244.2806273363294
 31
0.0
  0
LINE
  5
BC10
330
1E
100
AcDbEntity
  8
虛線
 48
0.4
100
AcDbLine
 10
1891.180699617568
 20
243.9806273363295
 30
0.0
 11
1891.180699617568
 21
223.9806273363297
 31
0.0
  0
LINE
  5
BC11
330
1E
100
AcDbEntity
  8
虛線
 48
0.4
100
AcDbLine
 10
1874.180699617568
 20
260.8806273363295
 30
0.0
 11
1873.949759509893
 21
261.2806273363274
 31
0.0
  0
LINE
  5
BC12
330
1E
100
AcDbEntity
  8
虛線
 48
0.4
100
AcDbLine
 10
1877.180699617568
 20
243.9806273363295
 30
0.0
 11
1876.880699617568
 21
244.2806273363294
 31
0.0
  0
LINE
  5
BC13
330
1E
100
AcDbEntity
  8
虛線
 48
0.4
100
AcDbLine
 10
1874.180699617568
 20
260.8806273363295
 30
0.0
 11
1874.180699617568
 21
244.2806273363294
 31
0.0
  0
LINE
  5
BC14
330
1E
100
AcDbEntity
  8
虛線
 48
0.4
100
AcDbLine
 10
1877.180699617568
 20
243.9806273363295
 30
0.0
 11
1877.180699617568
 21
223.9806273363297
 31
0.0
  0
LINE
  5
BC15
330
1E
100
AcDbEntity
  8
虛線
 48
0.4
100
AcDbLine
 10
1877.180699617568
 20
243.9806273363295
 30
0.0
 11
1891.180699617568
 21
243.9806273363295
 31
0.0
  0
LINE
  5
BC16
330
1E
100
AcDbEntity
  8
虛線
 48
0.4
100
AcDbLine
 10
1874.180699617568
 20
260.8806273363295
 30
0.0
 11
1894.180699617568
 21
260.8806273363295
 31
0.0
  0
LINE
  5
BC17
330
1E
100
AcDbEntity
  8
虛線
 48
0.4
100
AcDbLine
 10
1874.180699617568
 20
244.2806273363294
 30
0.0
 11
1894.180699617568
 21
244.2806273363294
 31
0.0
  0
LINE
  5
BC18
330
1E
100
AcDbEntity
  8
中心線
 48
0.4
100
AcDbLine
 10
1674.180699617569
 20
263.2362366775396
 30
0.0
 11
1674.180699617569
 21
221.2362366775397
 31
0.0
  0
LINE
  5
BC19
330
1E
100
AcDbEntity
  8
中心線
 48
0.4
100
AcDbLine
 10
1726.680699617569
 20
231.2806273362276
 30
0.0
 11
1726.680699617569
 21
221.2362366775396
 31
0.0
  0
LINE
  5
BC1A
330
1E
100
AcDbEntity
  8
中心線
 48
0.4
100
AcDbLine
 10
1779.180699617569
 20
231.2806273362276
 30
0.0
 11
1779.180699617569
 21
221.2362366775396
 31
0.0
  0
LINE
  5
BC1B
330
1E
100
AcDbEntity
  8
中心線
 48
0.4
100
AcDbLine
 10
1831.680699617569
 20
231.2806273362276
 30
0.0
 11
1831.680699617569
 21
221.2362366775396
 31
0.0
  0
LINE
  5
BC1C
330
1E
100
AcDbEntity
  8
中心線
 48
0.4
100
AcDbLine
 10
1884.180699617569
 20
263.2362366775396
 30
0.0
 11
1884.180699617569
 21
221.2362366775397
 31
0.0
  0
LINE
  5
BC1D
330
1E
100
AcDbEntity
  8
0
100
AcDbLine
 10
1599.180699617569
 20
261.2806273363276
 30
0.0
 11
1599.180699617569
 21
223.2806273363276
 31
0.0
  0
LINE
  5
BC1E
330
1E
100
AcDbEntity
  8
0
100
AcDbLine
 10
1959.180699617569
 20
261.2806273363276
 30
0.0
 11
1959.180699617569
 21
223.2806273363276
 31
0.0
  0
LINE
  5
BC1F
330
1E
100
AcDbEntity
  8
0
100
AcDbLine
 10
1599.180699617569
 20
223.2806273363276
 30
0.0
 11
1959.180699617569
 21
223.2806273363276
 31
0.0
  0
LINE
  5
BC20
330
1E
100
AcDbEntity
  8
0
  6
Continuous
 62
     7
100
AcDbLine
 10
1857.417428359268
 20
261.2806273363276
 30
0.0
 11
1959.180699617569
 21
261.2806273363276
 31
0.0
  0
LINE
  5
BC21
330
1E
100
AcDbEntity
  8
0
  6
Continuous
 62
     7
100
AcDbLine
 10
1599.180699617569
 20
261.2806273363276
 30
0.0
 11
1700.94397090667
 21
261.2806273363276
 31
0.0
  0
LINE
  5
BC47
330
1E
100
AcDbEntity
  8
0
  6
Continuous
 62
     7
100
AcDbLine
 10
1676.180699617569
 20
223.2806273363276
 30
0.0
 11
1882.180699617569
 21
223.2806273363276
 31
0.0
  0
LINE
  5
BC4D
330
1E
100
AcDbEntity
  8
中心線
 48
0.3
100
AcDbLine
 10
1749.181035310928
 20
294.9806273363267
 30
0.0
 11
1749.181035310928
 21
264.6642143031961
 31
0.0
  0
LINE
  5
BC59
330
1E
100
AcDbEntity
  8
中心線
 48
0.3
100
AcDbLine
 10
1809.181065828506
 20
294.9806273363267
 30
0.0
 11
1809.181065828506
 21
264.6642143031961
 31
0.0
  0
CIRCLE
  5
BC60
330
1E
100
AcDbEntity
  8
0
  6
Continuous
 62
     7
100
AcDbCircle
 10
1842.180699617569
 20
269.2806273363276
 30
0.0
 40
3.9881407843
  0
CIRCLE
  5
BC61
330
1E
100
AcDbEntity
  8
0
  6
Continuous
 62
     7
100
AcDbCircle
 10
1842.180699617569
 20
269.2806273363276
 30
0.0
 40
4.236559657199999
  0
CIRCLE
  5
BC62
330
1E
100
AcDbEntity
  8
0
  6
Continuous
 62
     7
100
AcDbCircle
 10
1842.180699617569
 20
269.2806273363276
 30
0.0
 40
4.749883031499999
  0
CIRCLE
  5
BC63
330
1E
100
AcDbEntity
  8
0
  6
Continuous
 62
     7
100
AcDbCircle
 10
1842.180699617569
 20
269.2806273363276
 30
0.0
 40
0.75
  0
CIRCLE
  5
BC64
330
1E
100
AcDbEntity
  8
0
  6
Continuous
 62
     7
100
AcDbCircle
 10
1716.180699617569
 20
269.2806273363276
 30
0.0
 40
4.075449350699999
  0
CIRCLE
  5
BC65
330
1E
100
AcDbEntity
  8
0
  6
Continuous
 62
     7
100
AcDbCircle
 10
1716.180699617569
 20
269.2806273363276
 30
0.0
 40
4.2411205224
  0
CIRCLE
  5
BC66
330
1E
100
AcDbEntity
  8
0
  6
Continuous
 62
     7
100
AcDbCircle
 10
1716.180699617569
 20
269.2806273363276
 30
0.0
 40
4.749883031499999
  0
CIRCLE
  5
BC67
330
1E
100
AcDbEntity
  8
0
  6
Continuous
 62
     7
100
AcDbCircle
 10
1716.180699617569
 20
269.2806273363276
 30
0.0
 40
0.75
  0
LINE
  5
BC69
330
1E
100
AcDbEntity
  8
0
  6
Continuous
 62
     7
100
AcDbLine
 10
1855.780699625269
 20
231.2806273362276
 30
0.0
 11
1855.780699625269
 21
281.7806273363276
 31
0.0
  0
LINE
  5
BC6A
330
1E
100
AcDbEntity
  8
0
  6
Continuous
 62
     7
100
AcDbLine
 10
1852.180699617569
 20
231.2806273362276
 30
0.0
 11
1852.180699617569
 21
282.7806273363276
 31
0.0
  0
LINE
  5
BC6B
330
1E
100
AcDbEntity
  8
0
  6
Continuous
 62
     7
100
AcDbLine
 10
1848.680699617569
 20
241.5306273362276
 30
0.0
 11
1848.680699617569
 21
249.0306273362275
 31
0.0
  0
LINE
  5
BC6C
330
1E
100
AcDbEntity
  8
0
  6
Continuous
 62
     7
100
AcDbLine
 10
1726.180699617569
 20
293.2806273363276
 30
0.0
 11
1832.180699617569
 21
293.2806273363276
 31
0.0
  0
LINE
  5
BC6D
330
1E
100
AcDbEntity
  8
0
  6
Continuous
 62
     7
100
AcDbLine
 10
1832.180699617569
 20
231.2806273363276
 30
0.0
 11
1832.180699617569
 21
293.2806273363276
 31
0.0
  0
LINE
  5
BC6E
330
1E
100
AcDbEntity
  8
0
  6
Continuous
 62
     7
100
AcDbLine
 10
1726.180699617569
 20
291.2806273363276
 30
0.0
 11
1832.180699617569
 21
291.2806273363276
 31
0.0
  0
LINE
  5
BC6F
330
1E
100
AcDbEntity
  8
0
  6
Continuous
 62
     7
100
AcDbLine
 10
1852.180699617569
 20
282.7806273363276
 30
0.0
 11
1832.180699617569
 21
282.7806273363276
 31
0.0
  0
LINE
  5
BC70
330
1E
100
AcDbEntity
  8
0
  6
Continuous
 62
     7
100
AcDbLine
 10
1706.180699617569
 20
282.7806273363276
 30
0.0
 11
1726.180699617569
 21
282.7806273363276
 31
0.0
  0
LINE
  5
BC71
330
1E
100
AcDbEntity
  8
0
  6
Continuous
 62
     7
100
AcDbLine
 10
1726.180699617569
 20
281.7806273363276
 30
0.0
 11
1702.580699625269
 21
281.7806273363276
 31
0.0
  0
LINE
  5
BC72
330
1E
100
AcDbEntity
  8
0
  6
Continuous
 62
     7
100
AcDbLine
 10
1832.180699617569
 20
281.7806273363276
 30
0.0
 11
1855.780699625269
 21
281.7806273363276
 31
0.0
  0
LINE
  5
BC73
330
1E
100
AcDbEntity
  8
0
  6
Continuous
 62
     7
100
AcDbLine
 10
1726.180699617569
 20
279.7806273363276
 30
0.0
 11
1702.580699625269
 21
279.7806273363276
 31
0.0
  0
LINE
  5
BC74
330
1E
100
AcDbEntity
  8
0
  6
Continuous
 62
     7
100
AcDbLine
 10
1832.180699617569
 20
279.7806273363276
 30
0.0
 11
1855.780699625269
 21
279.7806273363276
 31
0.0
  0
LINE
  5
BC75
330
1E
100
AcDbEntity
  8
0
  6
Continuous
 62
     7
100
AcDbLine
 10
1848.680699617569
 20
249.0306273362275
 30
0.0
 11
1852.180699617569
 21
249.0306273362275
 31
0.0
  0
LINE
  5
BC76
330
1E
100
AcDbEntity
  8
0
  6
Continuous
 62
     7
100
AcDbLine
 10
1706.180699617569
 20
249.0306273362275
 30
0.0
 11
1709.680699617569
 21
249.0306273362275
 31
0.0
  0
LINE
  5
BC87
330
1E
100
AcDbEntity
  8
0
  6
Continuous
 62
     7
100
AcDbLine
 10
1709.680699617569
 20
241.5306273362276
 30
0.0
 11
1706.180699617569
 21
241.5306273362276
 31
0.0
  0
LINE
  5
BC88
330
1E
100
AcDbEntity
  8
0
  6
Continuous
 62
     7
100
AcDbLine
 10
1852.180699617569
 20
241.5306273362276
 30
0.0
 11
1848.680699617569
 21
241.5306273362276
 31
0.0
  0
LINE
  5
BC89
330
1E
100
AcDbEntity
  8
0
  6
Continuous
 62
     7
100
AcDbLine
 10
1726.180699617569
 20
233.2999483806276
 30
0.0
 11
1832.180699617569
 21
233.2999483806276
 31
0.0
  0
LINE
  5
BC8A
330
1E
100
AcDbEntity
  8
0
  6
Continuous
 62
     7
100
AcDbLine
 10
1726.180699617569
 20
233.2806273363276
 30
0.0
 11
1702.580699625269
 21
233.2806273363276
 31
0.0
  0
LINE
  5
BC8B
330
1E
100
AcDbEntity
  8
0
  6
Continuous
 62
     7
100
AcDbLine
 10
1832.180699617569
 20
233.2806273363276
 30
0.0
 11
1855.780699625269
 21
233.2806273363276
 31
0.0
  0
LINE
  5
BC8C
330
1E
100
AcDbEntity
  8
0
  6
Continuous
 62
     7
100
AcDbLine
 10
1855.780699625269
 20
231.2806273362276
 30
0.0
 11
1702.580699625269
 21
231.2806273362276
 31
0.0
  0
LINE
  5
BC8D
330
1E
100
AcDbEntity
  8
0
  6
Continuous
 62
     7
100
AcDbLine
 10
1726.180699617569
 20
231.2806273363276
 30
0.0
 11
1726.180699617569
 21
293.2806273363276
 31
0.0
  0
LINE
  5
BC8E
330
1E
100
AcDbEntity
  8
0
  6
Continuous
 62
     7
100
AcDbLine
 10
1709.680699617569
 20
249.0306273362275
 30
0.0
 11
1709.680699617569
 21
241.5306273362276
 31
0.0
  0
LINE
  5
BC8F
330
1E
100
AcDbEntity
  8
0
  6
Continuous
 62
     7
100
AcDbLine
 10
1706.180699617569
 20
231.2806273362276
 30
0.0
 11
1706.180699617569
 21
282.7806273363276
 31
0.0
  0
LINE
  5
BC90
330
1E
100
AcDbEntity
  8
0
  6
Continuous
 62
     7
100
AcDbLine
 10
1702.580699625269
 20
231.2806273362276
 30
0.0
 11
1702.580699625269
 21
281.7806273363276
 31
0.0
  0
MTEXT
  5
DF89
330
1E
100
AcDbEntity
  8
0
100
AcDbMText
 10
1475.987477600292
 20
203.6690532612183
 30
0.0
 40
7.800000159341863
 41
100.6095
 71
     1
 72
     5
  1
\A1;{\fTimes New Roman|b0|i0|c0|p18;RGH45CA\PC : 9440 kgf\PC\fProxy 1|b0|i0|c0|p0;\H0.7x;\S^ 0;\fTimes New Roman|b0|i0|c0|p18;\H1.429x;: 18220 kgf}
 73
     1
 44
1.0
1001
ACAD
1000
MTEXTBEGIN
1070
    73
1070
     1
1070
    44
1040
1.0
1070
    74
1070
     0
1000
MTEXTEND
  0
LINE
  5
E0B2
330
1E
100
AcDbEntity
  8
虛線
 48
0.4
100
AcDbLine
 10
1506.140448034113
 20
223.9806273363298
 30
0.0
 11
1506.840448034114
 21
223.2806273363277
 31
0.0
  0
LINE
  5
E0B3
330
1E
100
AcDbEntity
  8
虛線
 48
0.4
100
AcDbLine
 10
1492.140448034104
 20
223.9806273363298
 30
0.0
 11
1491.440448034103
 21
223.2806273363277
 31
0.0
  0
LINE
  5
E0B4
330
1E
100
AcDbEntity
  8
虛線
 48
0.4
100
AcDbLine
 10
1492.140448034104
 20
223.9806273363298
 30
0.0
 11
1506.140448034105
 21
223.9806273363298
 31
0.0
  0
LINE
  5
E0B5
330
1E
100
AcDbEntity
  8
虛線
 48
0.4
100
AcDbLine
 10
1509.140448034107
 20
260.8806273363295
 30
0.0
 11
1509.371388141782
 21
261.2806273363277
 31
0.0
  0
LINE
  5
E0B6
330
1E
100
AcDbEntity
  8
虛線
 48
0.4
100
AcDbLine
 10
1506.140448034107
 20
243.9806273363294
 30
0.0
 11
1506.440448034107
 21
244.2806273363295
 31
0.0
  0
LINE
  5
E0B7
330
1E
100
AcDbEntity
  8
虛線
 48
0.4
100
AcDbLine
 10
1509.140448034107
 20
260.8806273363295
 30
0.0
 11
1509.140448034107
 21
244.2806273363295
 31
0.0
  0
LINE
  5
E0B8
330
1E
100
AcDbEntity
  8
虛線
 48
0.4
100
AcDbLine
 10
1506.140448034107
 20
243.9806273363294
 30
0.0
 11
1506.140448034107
 21
223.9806273363298
 31
0.0
  0
LINE
  5
E0B9
330
1E
100
AcDbEntity
  8
虛線
 48
0.4
100
AcDbLine
 10
1489.140448034107
 20
260.8806273363295
 30
0.0
 11
1488.909507926433
 21
261.2806273363272
 31
0.0
  0
LINE
  5
E0BA
330
1E
100
AcDbEntity
  8
虛線
 48
0.4
100
AcDbLine
 10
1492.140448034107
 20
243.9806273363294
 30
0.0
 11
1491.840448034107
 21
244.2806273363295
 31
0.0
  0
LINE
  5
E0BB
330
1E
100
AcDbEntity
  8
虛線
 48
0.4
100
AcDbLine
 10
1489.140448034107
 20
260.8806273363295
 30
0.0
 11
1489.140448034107
 21
244.2806273363295
 31
0.0
  0
LINE
  5
E0BC
330
1E
100
AcDbEntity
  8
虛線
 48
0.4
100
AcDbLine
 10
1492.140448034107
 20
243.9806273363294
 30
0.0
 11
1492.140448034107
 21
223.9806273363298
 31
0.0
  0
LINE
  5
E0BD
330
1E
100
AcDbEntity
  8
虛線
 48
0.4
100
AcDbLine
 10
1492.140448034107
 20
243.9806273363294
 30
0.0
 11
1506.140448034107
 21
243.9806273363294
 31
0.0
  0
LINE
  5
E0BE
330
1E
100
AcDbEntity
  8
虛線
 48
0.4
100
AcDbLine
 10
1489.140448034107
 20
260.8806273363295
 30
0.0
 11
1509.140448034107
 21
260.8806273363295
 31
0.0
  0
LINE
  5
E0BF
330
1E
100
AcDbEntity
  8
虛線
 48
0.4
100
AcDbLine
 10
1489.140448034107
 20
244.2806273363295
 30
0.0
 11
1509.140448034107
 21
244.2806273363295
 31
0.0
  0
SPLINE
  5
E0C0
330
1E
100
AcDbEntity
  8
0
  6
Continuous
 62
     7
100
AcDbSpline
210
0.0
220
0.0
230
1.0
 70
     8
 71
     3
 72
    10
 73
     6
 74
     4
 42
0.0000000001
 43
0.0000000001
 44
0.0000000001
 12
0.0000000000000002
 22
1.0
 32
0.0
 13
0.7071067811865478
 23
0.7071067811865475
 33
0.0
 40
0.0
 40
0.0
 40
0.0
 40
0.0
 40
0.0647590235176535
 40
0.1278007257897503
 40
0.1925678503467075
 40
0.1925678503467075
 40
0.1925678503467075
 40
0.1925678503467075
 10
1475.790448034108
 20
260.5309176984275
 30
0.0
 10
1475.790448034108
 20
260.5525040396001
 30
0.0
 10
1475.795852753248
 20
260.5953495585116
 30
0.0
 10
1475.820683624488
 20
260.6552995430689
 30
0.0
 10
1475.847159500151
 20
260.68942033037
 30
0.0
 10
1475.862425257808
 20
260.7046860880274
 30
0.0
 11
1475.790448034108
 21
260.5309176984275
 31
0.0
 11
1475.798768958208
 21
260.5951399169277
 31
0.0
 11
1475.822892981008
 21
260.6533832663275
 31
0.0
 11
1475.862425257808
 21
260.7046860880274
 31
0.0
  0
SPLINE
  5
E0C1
330
1E
100
AcDbEntity
  8
0
  6
Continuous
 62
     7
100
AcDbSpline
210
0.0
220
0.0
230
1.0
 70
     8
 71
     3
 72
    10
 73
     6
 74
     4
 42
0.0000000001
 43
0.0000000001
 44
0.0000000001
 12
0.7071067811865478
 22
0.7071067811865475
 32
0.0
 13
1.0
 23
-0.0000000000000002
 33
0.0
 40
0.0
 40
0.0
 40
0.0
 40
0.0
 40
0.0647590235805955
 40
0.1278007258207254
 40
0.1925678503564833
 40
0.1925678503564833
 40
0.1925678503564833
 40
0.1925678503564833
 10
1477.216389282408
 20
262.0586501126275
 30
0.0
 10
1477.231653130647
 20
262.0739139608665
 30
0.0
 10
1477.265771201159
 20
262.1003886043042
 30
0.0
 10
1477.325720319213
 20
262.1252215674897
 30
0.0
 10
1477.368568630496
 20
262.1306273363276
 30
0.0
 10
1477.390157672008
 20
262.1306273363276
 30
0.0
 11
1477.216389282408
 21
262.0586501126275
 31
0.0
 11
1477.267685030508
 21
262.0981782970276
 31
0.0
 11
1477.325927557908
 21
262.1223043042274
 31
0.0
 11
1477.390157672008
 21
262.1306273363276
 31
0.0
  0
SPLINE
  5
E0C2
330
1E
100
AcDbEntity
  8
0
  6
Continuous
 62
     7
100
AcDbSpline
210
0.0
220
0.0
230
1.0
 70
     8
 71
     3
 72
    10
 73
     6
 74
     4
 42
0.0000000001
 43
0.0000000001
 44
0.0000000001
 12
1.0
 22
-0.0000000000000002
 32
0.0
 13
0.7071067811865475
 23
-0.7071067811865478
 33
0.0
 40
0.0
 40
0.0
 40
0.0
 40
0.0
 40
0.0647590235174572
 40
0.127800725789677
 40
0.1925678503466343
 40
0.1925678503466343
 40
0.1925678503466343
 40
0.1925678503466343
 10
1520.890738396208
 20
262.1306273363276
 30
0.0
 10
1520.912324737381
 20
262.1306273363276
 30
0.0
 10
1520.955170256292
 20
262.125222617188
 30
0.0
 10
1521.015120240849
 20
262.1003917459481
 30
0.0
 10
1521.049241028151
 20
262.073915870285
 30
0.0
 10
1521.064506785808
 20
262.0586501126275
 30
0.0
 11
1520.890738396208
 21
262.1306273363276
 31
0.0
 11
1520.954960614708
 21
262.1223064122274
 31
0.0
 11
1521.013203964108
 21
262.0981823894277
 31
0.0
 11
1521.064506785808
 21
262.0586501126275
 31
0.0
  0
SPLINE
  5
E0C3
330
1E
100
AcDbEntity
  8
0
  6
Continuous
 62
     7
100
AcDbSpline
210
0.0
220
0.0
230
1.0
 70
     8
 71
     3
 72
    10
 73
     6
 74
     4
 42
0.0000000001
 43
0.0000000001
 44
0.0000000001
 12
0.7071067811865475
 22
-0.7071067811865478
 32
0.0
 13
-0.0000000000000002
 23
-1.0
 33
0.0
 40
0.0
 40
0.0
 40
0.0
 40
0.0
 40
0.0647590235804154
 40
0.1278007258205453
 40
0.1925678503565287
 40
0.1925678503565287
 40
0.1925678503565287
 40
0.1925678503565287
 10
1522.418470810408
 20
260.7046860880274
 30
0.0
 10
1522.433734658647
 20
260.6894222397885
 30
0.0
 10
1522.460209302085
 20
260.655304169277
 30
0.0
 10
1522.485042265271
 20
260.5953550512231
 30
0.0
 10
1522.490448034109
 20
260.5525067399395
 30
0.0
 10
1522.490448034109
 20
260.5309176984275
 30
0.0
 11
1522.418470810408
 21
260.7046860880274
 31
0.0
 11
1522.457998994809
 21
260.6533903399276
 31
0.0
 11
1522.482125002008
 21
260.5951478125277
 31
0.0
 11
1522.490448034109
 21
260.5309176984275
 31
0.0
  0
SPLINE
  5
E0C4
330
1E
100
AcDbEntity
  8
0
  6
Continuous
 62
     7
100
AcDbSpline
210
0.0
220
0.0
230
1.0
 70
     8
 71
     3
 72
    10
 73
     6
 74
     4
 42
0.0000000001
 43
0.0000000001
 44
0.0000000001
 12
-0.7071067804076014
 22
-0.7071067819654937
 32
0.0
 13
-0.0000000000000002
 23
-1.0
 33
0.0
 40
0.0
 40
0.0
 40
0.0
 40
0.0
 40
0.0647590234402841
 40
0.127800725680501
 40
0.1925678501043839
 40
0.1925678501043839
 40
0.1925678501043839
 40
0.1925678501043839
 10
1515.062425257608
 20
249.2040764146276
 30
0.0
 10
1515.047161409419
 20
249.1888125664049
 30
0.0
 10
1515.020686766022
 20
249.1546944959356
 30
0.0
 10
1514.995853802821
 20
249.0947453779625
 30
0.0
 10
1514.990448034108
 20
249.0518970667022
 30
0.0
 10
1514.990448034108
 20
249.0303080252275
 30
0.0
 11
1515.062425257608
 21
249.2040764146276
 31
0.0
 11
1515.022897073308
 21
249.1527806666276
 31
0.0
 11
1514.998771066108
 21
249.0945381392277
 31
0.0
 11
1514.990448034108
 21
249.0303080252275
 31
0.0
  0
SPLINE
  5
E0C5
330
1E
100
AcDbEntity
  8
0
  6
Continuous
 62
     7
100
AcDbSpline
210
0.0
220
0.0
230
1.0
 70
     8
 71
     3
 72
    10
 73
     6
 74
     4
 42
0.0000000001
 43
0.0000000001
 44
0.0000000001
 12
-0.0000000000000002
 22
-1.0
 32
0.0
 13
0.70710678066725
 23
-0.7071067817058453
 33
0.0
 40
0.0
 40
0.0
 40
0.0
 40
0.0
 40
0.0647590235176535
 40
0.1278007256592469
 40
0.1925678501551395
 40
0.1925678501551395
 40
0.1925678501551395
 40
0.1925678501551395
 10
1514.990448034108
 20
241.5309466480277
 30
0.0
 10
1514.990448034108
 20
241.5093603068551
 30
0.0
 10
1514.995852753252
 20
241.46651478799
 30
0.0
 10
1515.020683624405
 20
241.4065648034761
 30
0.0
 10
1515.047159499976
 20
241.3724440161818
 30
0.0
 10
1515.062425257608
 20
241.3571782585276
 30
0.0
 11
1514.990448034108
 21
241.5309466480277
 31
0.0
 11
1514.998768958208
 21
241.4667244295275
 31
0.0
 11
1515.022892980908
 21
241.4084810802275
 31
0.0
 11
1515.062425257608
 21
241.3571782585276
 31
0.0
  0
SPLINE
  5
E0C6
330
1E
100
AcDbEntity
  8
0
  6
Continuous
 62
     7
100
AcDbSpline
210
0.0
220
0.0
230
1.0
 70
     8
 71
     3
 72
    10
 73
     6
 74
     4
 42
0.0000000001
 43
0.0000000001
 44
0.0000000001
 12
0.7071067806672503
 22
0.707106781705845
 32
0.0
 13
0.0000000000000002
 23
1.0
 33
0.0
 40
0.0
 40
0.0
 40
0.0
 40
0.0
 40
0.0647590235192106
 40
0.1278007256290093
 40
0.1925678501649636
 40
0.1925678501649636
 40
0.1925678501649636
 40
0.1925678501649636
 10
1483.218470810608
 20
241.3571782585276
 30
0.0
 10
1483.233734658822
 20
241.3724421067633
 30
0.0
 10
1483.260209302167
 20
241.4065601772684
 30
0.0
 10
1483.285042265267
 20
241.4665092952782
 30
0.0
 10
1483.290448034108
 20
241.5093576065157
 30
0.0
 10
1483.290448034108
 20
241.5309466480277
 30
0.0
 11
1483.218470810608
 21
241.3571782585276
 31
0.0
 11
1483.257998994908
 21
241.4084740066274
 31
0.0
 11
1483.282125002008
 21
241.4667165339275
 31
0.0
 11
1483.290448034108
 21
241.5309466480277
 31
0.0
  0
SPLINE
  5
E0C7
330
1E
100
AcDbEntity
  8
0
  6
Continuous
 62
     7
100
AcDbSpline
210
0.0
220
0.0
230
1.0
 70
     8
 71
     3
 72
    10
 73
     6
 74
     4
 42
0.0000000001
 43
0.0000000001
 44
0.0000000001
 12
0.0000000000000002
 22
1.0
 32
0.0
 13
-0.7071067804076013
 23
0.7071067819654938
 33
0.0
 40
0.0
 40
0.0
 40
0.0
 40
0.0
 40
0.0647590235176535
 40
0.1278007256591239
 40
0.1925678500758114
 40
0.1925678500758114
 40
0.1925678500758114
 40
0.1925678500758114
 10
1483.290448034108
 20
249.0303080252275
 30
0.0
 10
1483.290448034108
 20
249.0518943664001
 30
0.0
 10
1483.285043314957
 20
249.0947398852595
 30
0.0
 10
1483.260212443847
 20
249.1546898697744
 30
0.0
 10
1483.233736568216
 20
249.1888106569864
 30
0.0
 10
1483.218470810608
 20
249.2040764146276
 30
0.0
 11
1483.290448034108
 21
249.0303080252275
 31
0.0
 11
1483.282127110008
 21
249.0945302437277
 31
0.0
 11
1483.258003087308
 21
249.1527735930275
 31
0.0
 11
1483.218470810608
 21
249.2040764146276
 31
0.0
  0
LINE
  5
E0CE
330
1E
100
AcDbEntity
  8
0
  6
Continuous
 62
     7
100
AcDbLine
 10
1521.870799858608
 20
264.2509593974274
 30
0.0
 11
1524.610780095208
 21
261.5109791608276
 31
0.0
  0
LINE
  5
E0CF
330
1E
100
AcDbEntity
  8
0
  6
Continuous
 62
     7
100
AcDbLine
 10
1521.064506785808
 20
262.0586501126275
 30
0.0
 11
1522.418470810408
 21
260.7046860880274
 31
0.0
  0
LINE
  5
E0D0
330
1E
100
AcDbEntity
  8
0
  6
Continuous
 62
     7
100
AcDbLine
 10
1520.640448034108
 20
261.2806273363277
 30
0.0
 11
1521.640448034108
 21
260.2806273363275
 31
0.0
  0
LINE
  5
E0D1
330
1E
100
AcDbEntity
  8
0
  6
Continuous
 62
     7
100
AcDbLine
 10
1521.640448034108
 20
225.2806273363277
 30
0.0
 11
1519.640448034108
 21
223.2806273363277
 31
0.0
  0
LINE
  5
E0D2
330
1E
100
AcDbEntity
  8
0
  6
Continuous
 62
     7
100
AcDbLine
 10
1508.390456334108
 20
224.2806273363277
 30
0.0
 11
1507.390455549708
 21
223.2806273363277
 31
0.0
  0
LINE
  5
E0D3
330
1E
100
AcDbEntity
  8
0
  6
Continuous
 62
     7
100
AcDbLine
 10
1524.610780095208
 20
255.7538289116275
 30
0.0
 11
1524.610780095208
 21
261.5109791608276
 31
0.0
  0
LINE
  5
E0D4
330
1E
100
AcDbEntity
  8
0
  6
Continuous
 62
     7
100
AcDbLine
 10
1524.610780095208
 20
231.7806273362277
 30
0.0
 11
1524.610780095208
 21
234.8074257643276
 31
0.0
  0
LINE
  5
E0D5
330
1E
100
AcDbEntity
  8
0
  6
Continuous
 62
     7
100
AcDbLine
 10
1522.490448034109
 20
231.7806273362277
 30
0.0
 11
1522.490448034109
 21
233.9291554689464
 31
0.0
  0
LINE
  5
E0D6
330
1E
100
AcDbEntity
  8
0
  6
Continuous
 62
     7
100
AcDbLine
 10
1522.490448034109
 20
260.5309176984275
 30
0.0
 11
1522.490448034108
 21
256.6320992068247
 31
0.0
  0
LINE
  5
E0D7
330
1E
100
AcDbEntity
  8
0
  6
Continuous
 62
     7
100
AcDbLine
 10
1521.640448034108
 20
233.577073941354
 30
0.0
 11
1521.640448034108
 21
225.2806273363277
 31
0.0
  0
LINE
  5
E0D8
330
1E
100
AcDbEntity
  8
0
  6
Continuous
 62
     7
100
AcDbLine
 10
1521.640448034108
 20
260.2806273363275
 30
0.0
 11
1521.640448034108
 21
256.9841807343451
 31
0.0
  0
LINE
  5
E0D9
330
1E
100
AcDbEntity
  8
0
  6
Continuous
 62
     7
100
AcDbLine
 10
1476.410096209608
 20
264.2509593974274
 30
0.0
 11
1521.870799858608
 21
264.2509593974274
 31
0.0
  0
LINE
  5
E0DA
330
1E
100
AcDbEntity
  8
0
  6
Continuous
 62
     7
100
AcDbLine
 10
1477.390157672008
 20
262.1306273363276
 30
0.0
 11
1520.890738396208
 21
262.1306273363276
 31
0.0
  0
LINE
  5
E0DB
330
1E
100
AcDbEntity
  8
0
  6
Continuous
 62
     7
100
AcDbLine
 10
1517.110780095208
 20
248.2538288958277
 30
0.0
 11
1517.110780095208
 21
242.3074257775275
 31
0.0
  0
LINE
  5
E0DC
330
1E
100
AcDbEntity
  8
0
  6
Continuous
 62
     7
100
AcDbLine
 10
1520.640448034108
 20
261.2806273363277
 30
0.0
 11
1477.640448034108
 21
261.2806273363277
 31
0.0
  0
LINE
  5
E0DD
330
1E
100
AcDbEntity
  8
0
  6
Continuous
 62
     7
100
AcDbLine
 10
1514.990448034108
 20
249.0303080252275
 30
0.0
 11
1514.990448034108
 21
241.5309466480277
 31
0.0
  0
LINE
  5
E0DE
330
1E
100
AcDbEntity
  8
0
  6
Continuous
 62
     7
100
AcDbLine
 10
1514.140448034108
 20
249.4841807185185
 30
0.0
 11
1514.140448034108
 21
241.0770739545858
 31
0.0
  0
LINE
  5
E0DF
330
1E
100
AcDbEntity
  8
0
  6
Continuous
 62
     7
100
AcDbLine
 10
1524.610780095208
 20
234.8074257643276
 30
0.0
 11
1517.110780095208
 21
242.3074257775275
 31
0.0
  0
LINE
  5
E0E0
330
1E
100
AcDbEntity
  8
0
  6
Continuous
 62
     7
100
AcDbLine
 10
1515.062425257608
 20
241.3571782585276
 30
0.0
 11
1522.490448034109
 21
233.9291554689464
 31
0.0
  0
LINE
  5
E0E1
330
1E
100
AcDbEntity
  8
0
  6
Continuous
 62
     7
100
AcDbLine
 10
1514.140448034108
 20
241.0770739545858
 30
0.0
 11
1521.640448034108
 21
233.577073941354
 31
0.0
  0
LINE
  5
E0E2
330
1E
100
AcDbEntity
  8
0
  6
Continuous
 62
     7
100
AcDbLine
 10
1517.110780095208
 20
248.2538288958277
 30
0.0
 11
1524.610780095208
 21
255.7538289116275
 31
0.0
  0
LINE
  5
E0E3
330
1E
100
AcDbEntity
  8
0
  6
Continuous
 62
     7
100
AcDbLine
 10
1522.490448034108
 20
256.6320992068247
 30
0.0
 11
1515.062425257608
 21
249.2040764146276
 31
0.0
  0
LINE
  5
E0E4
330
1E
100
AcDbEntity
  8
0
  6
Continuous
 62
     7
100
AcDbLine
 10
1521.640448034108
 20
256.9841807343451
 30
0.0
 11
1514.140448034108
 21
249.4841807185185
 31
0.0
  0
LINE
  5
E0E5
330
1E
100
AcDbEntity
  8
0
  6
Continuous
 62
     7
100
AcDbLine
 10
1484.890439214108
 20
224.2806273363277
 30
0.0
 11
1483.890439718208
 21
223.2806273363277
 31
0.0
  0
LINE
  5
E0E6
330
1E
100
AcDbEntity
  8
0
  6
Continuous
 62
     7
100
AcDbLine
 10
1514.390456350008
 20
223.2806273363277
 30
0.0
 11
1513.390456854108
 21
224.2806273363277
 31
0.0
  0
LINE
  5
E0E7
330
1E
100
AcDbEntity
  8
0
  6
Continuous
 62
     7
100
AcDbLine
 10
1484.140448034108
 20
249.4841807185188
 30
0.0
 11
1476.640448034108
 21
256.9841807343451
 31
0.0
  0
LINE
  5
E0E8
330
1E
100
AcDbEntity
  8
0
  6
Continuous
 62
     7
100
AcDbLine
 10
1483.218470810608
 20
249.2040764146276
 30
0.0
 11
1475.790448034108
 21
256.6320992068245
 31
0.0
  0
LINE
  5
E0E9
330
1E
100
AcDbEntity
  8
0
  6
Continuous
 62
     7
100
AcDbLine
 10
1476.640448034108
 20
233.5770739413538
 30
0.0
 11
1484.140448034108
 21
241.077073954586
 31
0.0
  0
LINE
  5
E0EA
330
1E
100
AcDbEntity
  8
0
  6
Continuous
 62
     7
100
AcDbLine
 10
1475.790448034108
 20
233.9291554689468
 30
0.0
 11
1483.218470810608
 21
241.3571782585276
 31
0.0
  0
LINE
  5
E0EB
330
1E
100
AcDbEntity
  8
0
  6
Continuous
 62
     7
100
AcDbLine
 10
1473.670115973008
 20
255.7538289116275
 30
0.0
 11
1481.170115973008
 21
248.2538288958277
 31
0.0
  0
LINE
  5
E0EC
330
1E
100
AcDbEntity
  8
0
  6
Continuous
 62
     7
100
AcDbLine
 10
1522.490448034109
 20
231.7806273362277
 30
0.0
 11
1524.610780095208
 21
231.7806273362277
 31
0.0
  0
LINE
  5
E0ED
330
1E
100
AcDbEntity
  8
0
  6
Continuous
 62
     7
100
AcDbLine
 10
1473.670115973008
 20
231.7806273362277
 30
0.0
 11
1475.790448034108
 21
231.7806273362277
 31
0.0
  0
LINE
  5
E0EE
330
1E
100
AcDbEntity
  8
0
  6
Continuous
 62
     7
100
AcDbLine
 10
1481.170115973008
 20
242.3074257775275
 30
0.0
 11
1473.670115973008
 21
234.8074257643276
 31
0.0
  0
LINE
  5
E0EF
330
1E
100
AcDbEntity
  8
0
  6
Continuous
 62
     7
100
AcDbLine
 10
1484.140448034108
 20
241.077073954586
 30
0.0
 11
1484.140448034108
 21
249.4841807185188
 31
0.0
  0
LINE
  5
E0F0
330
1E
100
AcDbEntity
  8
0
  6
Continuous
 62
     7
100
AcDbLine
 10
1483.290448034108
 20
241.5309466480277
 30
0.0
 11
1483.290448034108
 21
249.0303080252275
 31
0.0
  0
LINE
  5
E0F1
330
1E
100
AcDbEntity
  8
0
  6
Continuous
 62
     7
100
AcDbLine
 10
1481.170115973008
 20
242.3074257775275
 30
0.0
 11
1481.170115973008
 21
248.2538288958277
 31
0.0
  0
LINE
  5
E0F2
330
1E
100
AcDbEntity
  8
0
  6
Continuous
 62
     7
100
AcDbLine
 10
1490.890440518508
 20
223.2806273363277
 30
0.0
 11
1489.890439734108
 21
224.2806273363277
 31
0.0
  0
LINE
  5
E0F3
330
1E
100
AcDbEntity
  8
0
  6
Continuous
 62
     7
100
AcDbLine
 10
1489.890439734108
 20
224.2806273363277
 30
0.0
 11
1484.890439214108
 21
224.2806273363277
 31
0.0
  0
LINE
  5
E0F4
330
1E
100
AcDbEntity
  8
0
  6
Continuous
 62
     7
100
AcDbLine
 10
1513.390456854108
 20
224.2806273363277
 30
0.0
 11
1508.390456334108
 21
224.2806273363277
 31
0.0
  0
LINE
  5
E0F5
330
1E
100
AcDbEntity
  8
0
  6
Continuous
 62
     7
100
AcDbLine
 10
1490.890440234108
 20
223.2806273363277
 30
0.0
 11
1507.390455834108
 21
223.2806273363277
 31
0.0
  0
LINE
  5
E0F6
330
1E
100
AcDbEntity
  8
0
  6
Continuous
 62
     7
100
AcDbLine
 10
1483.890439718208
 20
223.2806273363277
 30
0.0
 11
1478.640448034108
 21
223.2806273363277
 31
0.0
  0
LINE
  5
E0F7
330
1E
100
AcDbEntity
  8
0
  6
Continuous
 62
     7
100
AcDbLine
 10
1519.640448034108
 20
223.2806273363277
 30
0.0
 11
1514.390456350008
 21
223.2806273363277
 31
0.0
  0
LINE
  5
E0F8
330
1E
100
AcDbEntity
  8
0
  6
Continuous
 62
     7
100
AcDbLine
 10
1476.640448034108
 20
256.9841807343451
 30
0.0
 11
1476.640448034108
 21
260.2806273363277
 31
0.0
  0
LINE
  5
E0F9
330
1E
100
AcDbEntity
  8
0
  6
Continuous
 62
     7
100
AcDbLine
 10
1476.640448034108
 20
225.2806273363277
 30
0.0
 11
1476.640448034108
 21
233.5770739413538
 31
0.0
  0
LINE
  5
E0FA
330
1E
100
AcDbEntity
  8
0
  6
Continuous
 62
     7
100
AcDbLine
 10
1475.790448034108
 20
256.6320992068245
 30
0.0
 11
1475.790448034108
 21
260.5309176984275
 31
0.0
  0
LINE
  5
E0FB
330
1E
100
AcDbEntity
  8
0
  6
Continuous
 62
     7
100
AcDbLine
 10
1475.790448034108
 20
231.7806273362277
 30
0.0
 11
1475.790448034108
 21
233.9291554689468
 31
0.0
  0
LINE
  5
E0FC
330
1E
100
AcDbEntity
  8
0
  6
Continuous
 62
     7
100
AcDbLine
 10
1476.640448034108
 20
260.2806273363277
 30
0.0
 11
1477.640448034108
 21
261.2806273363277
 31
0.0
  0
LINE
  5
E0FD
330
1E
100
AcDbEntity
  8
0
  6
Continuous
 62
     7
100
AcDbLine
 10
1475.862425257808
 20
260.7046860880274
 30
0.0
 11
1477.216389282408
 21
262.0586501126275
 31
0.0
  0
LINE
  5
E0FE
330
1E
100
AcDbEntity
  8
0
  6
Continuous
 62
     7
100
AcDbLine
 10
1473.670115973008
 20
261.5109791608276
 30
0.0
 11
1476.410096209608
 21
264.2509593974274
 31
0.0
  0
LINE
  5
E0FF
330
1E
100
AcDbEntity
  8
0
  6
Continuous
 62
     7
100
AcDbLine
 10
1473.670115973008
 20
234.8074257643276
 30
0.0
 11
1473.670115973008
 21
231.7806273362277
 31
0.0
  0
LINE
  5
E100
330
1E
100
AcDbEntity
  8
0
  6
Continuous
 62
     7
100
AcDbLine
 10
1473.670115973008
 20
261.5109791608276
 30
0.0
 11
1473.670115973008
 21
255.7538289116275
 31
0.0
  0
LINE
  5
E101
330
1E
100
AcDbEntity
  8
0
  6
Continuous
 62
     7
100
AcDbLine
 10
1478.640448034108
 20
223.2806273363277
 30
0.0
 11
1476.640448034108
 21
225.2806273363277
 31
0.0
  0
LINE
  5
E104
330
1E
100
AcDbEntity
  8
虛線
 48
0.5
100
AcDbLine
 10
1533.390448034108
 20
291.7806273363263
 30
0.0
 11
1533.390448034108
 21
268.4806273363266
 31
0.0
  0
LINE
  5
E105
330
1E
100
AcDbEntity
  8
虛線
 48
0.5
100
AcDbLine
 10
1524.890448034109
 20
291.7806273363269
 30
0.0
 11
1524.890448034109
 21
268.4806273363266
 31
0.0
  0
LINE
  5
E118
330
1E
100
AcDbEntity
  8
虛線
 48
0.5
100
AcDbLine
 10
1494.890448034109
 20
291.7806273363269
 30
0.0
 11
1494.890448034109
 21
268.4806273363266
 31
0.0
  0
LINE
  5
E119
330
1E
100
AcDbEntity
  8
虛線
 48
0.5
100
AcDbLine
 10
1503.390448034109
 20
291.7806273363263
 30
0.0
 11
1503.390448034109
 21
268.4806273363266
 31
0.0
  0
LINE
  5
E11A
330
1E
100
AcDbEntity
  8
虛線
  6
DASHED
100
AcDbLine
 10
1494.890448034109
 20
291.7806273363269
 30
0.0
 11
1503.390448034109
 21
291.7806273363263
 31
0.0
  0
LINE
  5
E11B
330
1E
100
AcDbEntity
  8
虛線
 48
0.5
100
AcDbLine
 10
1499.140465200246
 20
266.0627348802719
 30
0.0
 11
1503.390448034109
 21
268.4806273363266
 31
0.0
  0
LINE
  5
E11C
330
1E
100
AcDbEntity
  8
虛線
 48
0.5
100
AcDbLine
 10
1504.140448034108
 20
273.4806273363266
 30
0.0
 11
1494.140448034108
 21
273.4806273363266
 31
0.0
  0
LINE
  5
E11D
330
1E
100
AcDbEntity
  8
虛線
 48
0.5
100
AcDbLine
 10
1494.140448034108
 20
292.5306273363267
 30
0.0
 11
1494.140448034108
 21
273.4806273363266
 31
0.0
  0
LINE
  5
E11E
330
1E
100
AcDbEntity
  8
虛線
 48
0.5
100
AcDbLine
 10
1504.140448034108
 20
292.5306273363259
 30
0.0
 11
1504.140448034108
 21
273.4806273363266
 31
0.0
  0
LINE
  5
E11F
330
1E
100
AcDbEntity
  8
虛線
 48
0.5
100
AcDbLine
 10
1503.390448034109
 20
268.4806273363266
 30
0.0
 11
1494.890448034109
 21
268.4806273363266
 31
0.0
  0
LINE
  5
E120
330
1E
100
AcDbEntity
  8
虛線
 48
0.5
100
AcDbLine
 10
1499.140440404714
 20
266.0627081773911
 30
0.0
 11
1494.890448034109
 21
268.4806273363266
 31
0.0
  0
LINE
  5
E121
330
1E
100
AcDbEntity
  8
虛線
  6
DASHED
100
AcDbLine
 10
1494.890448034109
 20
291.7806273363264
 30
0.0
 11
1493.390448034107
 21
293.2806273363275
 31
0.0
  0
LINE
  5
E122
330
1E
100
AcDbEntity
  8
虛線
  6
DASHED
100
AcDbLine
 10
1503.390448034109
 20
291.7806273363263
 30
0.0
 11
1504.89044803411
 21
293.2806273363274
 31
0.0
  0
LINE
  5
E133
330
1E
100
AcDbEntity
  8
虛線
 48
0.5
100
AcDbLine
 10
1464.890448034109
 20
291.7806273363269
 30
0.0
 11
1464.890448034109
 21
268.4806273363266
 31
0.0
  0
LINE
  5
E134
330
1E
100
AcDbEntity
  8
虛線
 48
0.5
100
AcDbLine
 10
1473.390448034109
 20
291.7806273363263
 30
0.0
 11
1473.390448034109
 21
268.4806273363266
 31
0.0
  0
LINE
  5
E135
330
1E
100
AcDbEntity
  8
虛線
  6
DASHED
100
AcDbLine
 10
1464.890448034109
 20
291.7806273363269
 30
0.0
 11
1473.390448034109
 21
291.7806273363263
 31
0.0
  0
LINE
  5
E136
330
1E
100
AcDbEntity
  8
虛線
 48
0.5
100
AcDbLine
 10
1469.140465200246
 20
266.0627348802719
 30
0.0
 11
1473.390448034109
 21
268.4806273363266
 31
0.0
  0
LINE
  5
E137
330
1E
100
AcDbEntity
  8
虛線
 48
0.5
100
AcDbLine
 10
1474.140448034109
 20
273.4806273363266
 30
0.0
 11
1464.140448034109
 21
273.4806273363266
 31
0.0
  0
LINE
  5
E138
330
1E
100
AcDbEntity
  8
虛線
 48
0.5
100
AcDbLine
 10
1464.140448034109
 20
292.5306273363267
 30
0.0
 11
1464.140448034109
 21
273.4806273363266
 31
0.0
  0
LINE
  5
E139
330
1E
100
AcDbEntity
  8
虛線
 48
0.5
100
AcDbLine
 10
1474.140448034109
 20
292.5306273363259
 30
0.0
 11
1474.140448034109
 21
273.4806273363266
 31
0.0
  0
LINE
  5
E13A
330
1E
100
AcDbEntity
  8
虛線
 48
0.5
100
AcDbLine
 10
1473.390448034109
 20
268.4806273363266
 30
0.0
 11
1464.890448034109
 21
268.4806273363266
 31
0.0
  0
LINE
  5
E13B
330
1E
100
AcDbEntity
  8
虛線
 48
0.5
100
AcDbLine
 10
1469.140440404714
 20
266.0627081773911
 30
0.0
 11
1464.890448034109
 21
268.4806273363266
 31
0.0
  0
LINE
  5
E13C
330
1E
100
AcDbEntity
  8
虛線
  6
DASHED
100
AcDbLine
 10
1464.89044803411
 20
291.7806273363264
 30
0.0
 11
1463.390448034107
 21
293.2806273363275
 31
0.0
  0
LINE
  5
E13D
330
1E
100
AcDbEntity
  8
虛線
  6
DASHED
100
AcDbLine
 10
1473.390448034109
 20
291.7806273363263
 30
0.0
 11
1474.89044803411
 21
293.2806273363274
 31
0.0
  0
LINE
  5
E14E
330
1E
100
AcDbEntity
  8
虛線
 48
0.5
100
AcDbLine
 10
1744.931035310928
 20
291.7806273363269
 30
0.0
 11
1744.931035310928
 21
268.4806273363266
 31
0.0
  0
LINE
  5
E14F
330
1E
100
AcDbEntity
  8
虛線
 48
0.5
100
AcDbLine
 10
1753.431035310928
 20
291.7806273363263
 30
0.0
 11
1753.431035310928
 21
268.4806273363266
 31
0.0
  0
LINE
  5
E150
330
1E
100
AcDbEntity
  8
虛線
  6
DASHED
100
AcDbLine
 10
1744.931035310928
 20
291.7806273363269
 30
0.0
 11
1753.431035310928
 21
291.7806273363263
 31
0.0
  0
LINE
  5
E151
330
1E
100
AcDbEntity
  8
虛線
 48
0.5
100
AcDbLine
 10
1749.181052477066
 20
266.0627348802719
 30
0.0
 11
1753.431035310928
 21
268.4806273363266
 31
0.0
  0
LINE
  5
E152
330
1E
100
AcDbEntity
  8
虛線
 48
0.5
100
AcDbLine
 10
1754.181035310928
 20
273.4806273363266
 30
0.0
 11
1744.181035310928
 21
273.4806273363266
 31
0.0
  0
LINE
  5
E153
330
1E
100
AcDbEntity
  8
虛線
 48
0.5
100
AcDbLine
 10
1744.181035310928
 20
292.5306273363267
 30
0.0
 11
1744.181035310928
 21
273.4806273363266
 31
0.0
  0
LINE
  5
E154
330
1E
100
AcDbEntity
  8
虛線
 48
0.5
100
AcDbLine
 10
1754.181035310928
 20
292.5306273363259
 30
0.0
 11
1754.181035310928
 21
273.4806273363266
 31
0.0
  0
LINE
  5
E155
330
1E
100
AcDbEntity
  8
虛線
 48
0.5
100
AcDbLine
 10
1753.431035310929
 20
268.4806273363266
 30
0.0
 11
1744.931035310928
 21
268.4806273363266
 31
0.0
  0
LINE
  5
E156
330
1E
100
AcDbEntity
  8
虛線
 48
0.5
100
AcDbLine
 10
1749.181027681534
 20
266.0627081773911
 30
0.0
 11
1744.931035310928
 21
268.4806273363266
 31
0.0
  0
LINE
  5
E157
330
1E
100
AcDbEntity
  8
虛線
  6
DASHED
100
AcDbLine
 10
1744.931035310929
 20
291.7806273363264
 30
0.0
 11
1743.431035310927
 21
293.2806273363275
 31
0.0
  0
LINE
  5
E158
330
1E
100
AcDbEntity
  8
虛線
  6
DASHED
100
AcDbLine
 10
1753.431035310928
 20
291.7806273363263
 30
0.0
 11
1754.93103531093
 21
293.2806273363274
 31
0.0
  0
LINE
  5
E169
330
1E
100
AcDbEntity
  8
虛線
 48
0.5
100
AcDbLine
 10
1804.931065828506
 20
291.7806273363269
 30
0.0
 11
1804.931065828506
 21
268.4806273363266
 31
0.0
  0
LINE
  5
E16A
330
1E
100
AcDbEntity
  8
虛線
 48
0.5
100
AcDbLine
 10
1813.431065828506
 20
291.7806273363263
 30
0.0
 11
1813.431065828506
 21
268.4806273363266
 31
0.0
  0
LINE
  5
E16B
330
1E
100
AcDbEntity
  8
虛線
  6
DASHED
100
AcDbLine
 10
1804.931065828506
 20
291.7806273363269
 30
0.0
 11
1813.431065828506
 21
291.7806273363263
 31
0.0
  0
LINE
  5
E16C
330
1E
100
AcDbEntity
  8
虛線
 48
0.5
100
AcDbLine
 10
1809.181082994644
 20
266.0627348802719
 30
0.0
 11
1813.431065828506
 21
268.4806273363266
 31
0.0
  0
LINE
  5
E16D
330
1E
100
AcDbEntity
  8
虛線
 48
0.5
100
AcDbLine
 10
1814.181065828506
 20
273.4806273363266
 30
0.0
 11
1804.181065828506
 21
273.4806273363266
 31
0.0
  0
LINE
  5
E16E
330
1E
100
AcDbEntity
  8
虛線
 48
0.5
100
AcDbLine
 10
1804.181065828506
 20
292.5306273363267
 30
0.0
 11
1804.181065828506
 21
273.4806273363266
 31
0.0
  0
LINE
  5
E16F
330
1E
100
AcDbEntity
  8
虛線
 48
0.5
100
AcDbLine
 10
1814.181065828506
 20
292.5306273363259
 30
0.0
 11
1814.181065828506
 21
273.4806273363266
 31
0.0
  0
LINE
  5
E170
330
1E
100
AcDbEntity
  8
虛線
 48
0.5
100
AcDbLine
 10
1813.431065828506
 20
268.4806273363266
 30
0.0
 11
1804.931065828506
 21
268.4806273363266
 31
0.0
  0
LINE
  5
E171
330
1E
100
AcDbEntity
  8
虛線
 48
0.5
100
AcDbLine
 10
1809.181058199112
 20
266.0627081773911
 30
0.0
 11
1804.931065828506
 21
268.4806273363266
 31
0.0
  0
LINE
  5
E172
330
1E
100
AcDbEntity
  8
虛線
  6
DASHED
100
AcDbLine
 10
1804.931065828507
 20
291.7806273363264
 30
0.0
 11
1803.431065828505
 21
293.2806273363275
 31
0.0
  0
LINE
  5
E173
330
1E
100
AcDbEntity
  8
虛線
  6
DASHED
100
AcDbLine
 10
1813.431065828506
 20
291.7806273363263
 30
0.0
 11
1814.931065828508
 21
293.2806273363274
 31
0.0
  0
LINE
  5
E174
330
1E
100
AcDbEntity
  8
0
100
AcDbLine
 10
1646.013516072325
 20
228.8926279632478
 30
0.0
 11
1643.690288772573
 21
223.2806273363276
 31
0.0
  0
LINE
  5
E175
330
1E
100
AcDbEntity
  8
0
100
AcDbLine
 10
1641.372579057144
 20
237.071725249687
 30
0.0
 11
1646.013516072325
 21
228.8926279632478
 31
0.0
  0
LINE
  5
E176
330
1E
100
AcDbEntity
  8
0
100
AcDbLine
 10
1645.891383372799
 20
245.9832800732638
 30
0.0
 11
1641.372579057144
 21
237.071725249687
 31
0.0
  0
LINE
  5
E177
330
1E
100
AcDbEntity
  8
0
100
AcDbLine
 10
1641.006197199615
 20
254.4065315689768
 30
0.0
 11
1645.891383372799
 21
245.9832800732638
 31
0.0
  0
LINE
  5
E178
330
1E
100
AcDbEntity
  8
0
100
AcDbLine
 10
1643.928970347345
 20
261.2806273363276
 30
0.0
 11
1641.006197199615
 21
254.4065315689768
 31
0.0
  0
LINE
  5
E179
330
1E
100
AcDbEntity
  8
中心線
 48
0.4
100
AcDbLine
 10
1621.680699617568
 20
263.2806273363276
 30
0.0
 11
1621.680699617568
 21
221.2806273363276
 31
0.0
  0
LINE
  5
E17A
330
1E
100
AcDbEntity
  8
0
100
AcDbLine
 10
1628.680699617573
 20
223.9806273363297
 30
0.0
 11
1629.380699617575
 21
223.2806273363278
 31
0.0
  0
LINE
  5
E17B
330
1E
100
AcDbEntity
  8
0
100
AcDbLine
 10
1614.680699617565
 20
223.9806273363297
 30
0.0
 11
1613.980699617563
 21
223.2806273363278
 31
0.0
  0
LINE
  5
E17C
330
1E
100
AcDbEntity
  8
0
100
AcDbLine
 10
1614.680699617565
 20
223.9806273363297
 30
0.0
 11
1628.680699617565
 21
223.9806273363297
 31
0.0
  0
LINE
  5
E17D
330
1E
100
AcDbEntity
  8
0
100
AcDbLine
 10
1631.680699617568
 20
260.8806273363295
 30
0.0
 11
1631.911639725242
 21
261.2806273363276
 31
0.0
  0
LINE
  5
E17E
330
1E
100
AcDbEntity
  8
0
100
AcDbLine
 10
1628.680699617568
 20
243.9806273363295
 30
0.0
 11
1628.980699617567
 21
244.2806273363294
 31
0.0
  0
LINE
  5
E17F
330
1E
100
AcDbEntity
  8
0
100
AcDbLine
 10
1631.680699617568
 20
260.8806273363295
 30
0.0
 11
1631.680699617568
 21
244.2806273363294
 31
0.0
  0
LINE
  5
E180
330
1E
100
AcDbEntity
  8
0
100
AcDbLine
 10
1628.680699617568
 20
243.9806273363295
 30
0.0
 11
1628.680699617568
 21
223.9806273363297
 31
0.0
  0
LINE
  5
E181
330
1E
100
AcDbEntity
  8
0
100
AcDbLine
 10
1611.680699617567
 20
260.8806273363295
 30
0.0
 11
1611.449759509893
 21
261.2806273363274
 31
0.0
  0
LINE
  5
E182
330
1E
100
AcDbEntity
  8
0
100
AcDbLine
 10
1614.680699617568
 20
243.9806273363295
 30
0.0
 11
1614.380699617568
 21
244.2806273363294
 31
0.0
  0
LINE
  5
E183
330
1E
100
AcDbEntity
  8
0
100
AcDbLine
 10
1611.680699617568
 20
260.8806273363295
 30
0.0
 11
1611.680699617568
 21
244.2806273363294
 31
0.0
  0
LINE
  5
E184
330
1E
100
AcDbEntity
  8
0
100
AcDbLine
 10
1614.680699617568
 20
243.9806273363295
 30
0.0
 11
1614.680699617568
 21
223.9806273363297
 31
0.0
  0
LINE
  5
E185
330
1E
100
AcDbEntity
  8
0
100
AcDbLine
 10
1614.680699617568
 20
243.9806273363295
 30
0.0
 11
1628.680699617568
 21
243.9806273363295
 31
0.0
  0
LINE
  5
E186
330
1E
100
AcDbEntity
  8
0
100
AcDbLine
 10
1611.680699617568
 20
260.8806273363295
 30
0.0
 11
1631.680699617568
 21
260.8806273363295
 31
0.0
  0
LINE
  5
E187
330
1E
100
AcDbEntity
  8
0
100
AcDbLine
 10
1611.680699617568
 20
244.2806273363294
 30
0.0
 11
1631.680699617568
 21
244.2806273363294
 31
0.0
  0
LINE
  5
E189
330
1E
100
AcDbEntity
  8
中心線
100
AcDbLine
 10
1699.279120689832
 20
261.2806273363276
 30
0.0
 11
1709.924346217761
 21
261.2806273363276
 31
0.0
  0
LINE
  5
E18A
330
1E
100
AcDbEntity
  8
中心線
 48
0.27
100
AcDbLine
 10
1710.343108303751
 20
269.2806273363276
 30
0.0
 11
1722.018290931387
 21
269.2806273363276
 31
0.0
  0
LINE
  5
E18B
330
1E
100
AcDbEntity
  8
中心線
 48
0.27
100
AcDbLine
 10
1716.180699617569
 20
263.4430360225098
 30
0.0
 11
1716.180699617569
 21
275.1182186501452
 31
0.0
  0
LINE
  5
E18C
330
1E
100
AcDbEntity
  8
中心線
100
AcDbLine
 10
1859.082278545306
 20
261.2806273363276
 30
0.0
 11
1848.437053017377
 21
261.2806273363276
 31
0.0
  0
LINE
  5
E18D
330
1E
100
AcDbEntity
  8
中心線
 48
0.27
100
AcDbLine
 10
1842.180699617569
 20
263.4430360225098
 30
0.0
 11
1842.180699617569
 21
275.1182186501452
 31
0.0
  0
LINE
  5
E18E
330
1E
100
AcDbEntity
  8
中心線
 48
0.27
100
AcDbLine
 10
1836.343108303751
 20
269.2806273363276
 30
0.0
 11
1848.018290931387
 21
269.2806273363276
 31
0.0
  0
LINE
  5
E18F
330
1E
100
AcDbEntity
  8
虛線
 48
0.4
100
AcDbLine
 10
1824.680699617568
 20
231.2806273362276
 30
0.0
 11
1824.680699617568
 21
223.9806273363297
 31
0.0
  0
LINE
  5
E190
330
1E
100
AcDbEntity
  8
虛線
 48
0.4
100
AcDbLine
 10
1838.680699617568
 20
231.2806273362276
 30
0.0
 11
1838.680699617568
 21
223.9806273363297
 31
0.0
  0
LINE
  5
E191
330
1E
100
AcDbEntity
  8
虛線
 48
0.4
100
AcDbLine
 10
1824.680699617565
 20
223.9806273363297
 30
0.0
 11
1838.680699617565
 21
223.9806273363297
 31
0.0
  0
LINE
  5
E192
330
1E
100
AcDbEntity
  8
虛線
 48
0.4
100
AcDbLine
 10
1824.680699617565
 20
223.9806273363297
 30
0.0
 11
1823.980699617563
 21
223.2806273363278
 31
0.0
  0
LINE
  5
E193
330
1E
100
AcDbEntity
  8
虛線
 48
0.4
100
AcDbLine
 10
1838.680699617573
 20
223.9806273363297
 30
0.0
 11
1839.380699617575
 21
223.2806273363278
 31
0.0
  0
LINE
  5
E194
330
1E
100
AcDbEntity
  8
虛線
 48
0.4
100
AcDbLine
 10
1786.180699617573
 20
223.9806273363297
 30
0.0
 11
1786.880699617575
 21
223.2806273363278
 31
0.0
  0
LINE
  5
E195
330
1E
100
AcDbEntity
  8
虛線
 48
0.4
100
AcDbLine
 10
1772.180699617565
 20
223.9806273363297
 30
0.0
 11
1771.480699617563
 21
223.2806273363278
 31
0.0
  0
LINE
  5
E196
330
1E
100
AcDbEntity
  8
虛線
 48
0.4
100
AcDbLine
 10
1772.180699617565
 20
223.9806273363297
 30
0.0
 11
1786.180699617565
 21
223.9806273363297
 31
0.0
  0
LINE
  5
E197
330
1E
100
AcDbEntity
  8
虛線
 48
0.4
100
AcDbLine
 10
1786.180699617568
 20
231.2806273362276
 30
0.0
 11
1786.180699617568
 21
223.9806273363297
 31
0.0
  0
LINE
  5
E198
330
1E
100
AcDbEntity
  8
虛線
 48
0.4
100
AcDbLine
 10
1772.180699617568
 20
231.2806273362276
 30
0.0
 11
1772.180699617568
 21
223.9806273363297
 31
0.0
  0
LINE
  5
E199
330
1E
100
AcDbEntity
  8
虛線
 48
0.4
100
AcDbLine
 10
1733.680699617573
 20
223.9806273363297
 30
0.0
 11
1734.380699617575
 21
223.2806273363279
 31
0.0
  0
LINE
  5
E19A
330
1E
100
AcDbEntity
  8
虛線
 48
0.4
100
AcDbLine
 10
1719.680699617565
 20
223.9806273363297
 30
0.0
 11
1718.980699617563
 21
223.2806273363279
 31
0.0
  0
LINE
  5
E19B
330
1E
100
AcDbEntity
  8
虛線
 48
0.4
100
AcDbLine
 10
1719.680699617565
 20
223.9806273363297
 30
0.0
 11
1733.680699617565
 21
223.9806273363297
 31
0.0
  0
LINE
  5
E19C
330
1E
100
AcDbEntity
  8
虛線
 48
0.4
100
AcDbLine
 10
1733.680699617568
 20
231.2806273362276
 30
0.0
 11
1733.680699617568
 21
223.9806273363297
 31
0.0
  0
LINE
  5
E19D
330
1E
100
AcDbEntity
  8
虛線
 48
0.4
100
AcDbLine
 10
1719.680699617568
 20
231.2806273362276
 30
0.0
 11
1719.680699617568
 21
223.9806273363297
 31
0.0
  0
CIRCLE
  5
E1A9
330
1E
100
AcDbEntity
  8
0
  6
Continuous
 62
     7
100
AcDbCircle
 10
1749.18068435878
 20
413.4408625758291
 30
0.0
 40
4.25
  0
CIRCLE
  5
E1B2
330
1E
100
AcDbEntity
  8
0
  6
Continuous
 62
     7
100
AcDbCircle
 10
1749.18068435878
 20
383.4408625758292
 30
0.0
 40
4.25
  0
CIRCLE
  5
E1E3
330
1E
100
AcDbEntity
  8
0
  6
Continuous
 62
     7
100
AcDbCircle
 10
1809.18068435878
 20
383.4408625758292
 30
0.0
 40
4.25
  0
CIRCLE
  5
E1E5
330
1E
100
AcDbEntity
  8
0
  6
Continuous
 62
     7
100
AcDbCircle
 10
1809.18068435878
 20
413.4408625758291
 30
0.0
 40
4.25
  0
LINE
  5
E1E6
330
1E
100
AcDbEntity
  8
中心線
 48
0.3
100
AcDbLine
 10
1809.18068435878
 20
435.9408625758292
 30
0.0
 11
1809.18068435878
 21
450.9408625758291
 31
0.0
  0
LINE
  5
E1E7
330
1E
100
AcDbEntity
  8
中心線
 48
0.3
100
AcDbLine
 10
1816.680714876358
 20
443.4408625758292
 30
0.0
 11
1801.68068435878
 21
443.4408625758292
 31
0.0
  0
LINE
  5
E1E8
330
1E
100
AcDbEntity
  8
中心線
 48
0.3
100
AcDbLine
 10
1809.18068435878
 20
405.9408625758292
 30
0.0
 11
1809.18068435878
 21
420.9408625758292
 31
0.0
  0
LINE
  5
E1E9
330
1E
100
AcDbEntity
  8
中心線
 48
0.3
100
AcDbLine
 10
1809.18068435878
 20
375.9408625758291
 30
0.0
 11
1809.18068435878
 21
390.9408625758292
 31
0.0
  0
LINE
  5
E1EA
330
1E
100
AcDbEntity
  8
中心線
 48
0.3
100
AcDbLine
 10
1816.680714876358
 20
383.4408625758292
 30
0.0
 11
1801.68068435878
 21
383.4408625758292
 31
0.0
  0
CIRCLE
  5
E1EB
330
1E
100
AcDbEntity
  8
0
  6
Continuous
 62
     7
100
AcDbCircle
 10
1809.18068435878
 20
443.4408625758292
 30
0.0
 40
4.25
  0
ARC
  5
E1F5
330
1E
100
AcDbEntity
  8
標註線
  6
Continuous
 62
     1
100
AcDbCircle
 10
1749.180699617569
 20
413.440877834618
 30
0.0
 40
5.0
100
AcDbArc
 50
180.0001748528388
 51
90.00017485284535
  0
ARC
  5
E1FC
330
1E
100
AcDbEntity
  8
標註線
  6
Continuous
 62
     1
100
AcDbCircle
 10
1749.180699617569
 20
383.4408778346181
 30
0.0
 40
5.0
100
AcDbArc
 50
180.0001748528388
 51
90.00017485284535
  0
ARC
  5
E203
330
1E
100
AcDbEntity
  8
標註線
  6
Continuous
 62
     1
100
AcDbCircle
 10
1809.18068435878
 20
383.440877834618
 30
0.0
 40
5.0
100
AcDbArc
 50
180.0001748528388
 51
90.00017485284535
  0
ARC
  5
E20A
330
1E
100
AcDbEntity
  8
標註線
  6
Continuous
 62
     1
100
AcDbCircle
 10
1809.18068435878
 20
413.440877834618
 30
0.0
 40
5.0
100
AcDbArc
 50
180.0001748528388
 51
90.00017485284535
  0
ARC
  5
E211
330
1E
100
AcDbEntity
  8
標註線
  6
Continuous
 62
     1
100
AcDbCircle
 10
1809.180699617569
 20
443.440877834618
 30
0.0
 40
5.0
100
AcDbArc
 50
180.0001748528388
 51
90.00017485284535
  0
LINE
  5
E213
330
1E
100
AcDbEntity
  8
中心線
100
AcDbLine
 10
1859.082278529905
 20
379.9408778346182
 30
0.0
 11
1848.437053001977
 21
379.9408778346182
 31
0.0
  0
LINE
  5
E214
330
1E
100
AcDbEntity
  8
中心線
100
AcDbLine
 10
1859.082278529905
 20
446.9408778346181
 30
0.0
 11
1848.437053001977
 21
446.9408778346181
 31
0.0
  0
LINE
  5
E215
330
1E
100
AcDbEntity
  8
中心線
100
AcDbLine
 10
1699.279120705233
 20
379.9408778346182
 30
0.0
 11
1709.924346233161
 21
379.9408778346182
 31
0.0
  0
LINE
  5
E216
330
1E
100
AcDbEntity
  8
中心線
100
AcDbLine
 10
1699.279120705233
 20
446.9408778346181
 30
0.0
 11
1709.924346233161
 21
446.9408778346181
 31
0.0
  0
LINE
  5
E21B
330
1E
100
AcDbEntity
  8
中心線
100
AcDbLine
 10
1779.180699617569
 20
461.440877834618
 30
0.0
 11
1779.180699617569
 21
365.4408778346164
 31
0.0
  0
LINE
  5
E21C
330
1E
100
AcDbEntity
  8
中心線
100
AcDbLine
 10
1837.180699617569
 20
413.4408778346172
 30
0.0
 11
1721.180699617569
 21
413.4408778346172
 31
0.0
  0
LINE
  5
E75C
330
1E
100
AcDbEntity
  8
0
  6
Continuous
 62
     7
100
AcDbLine
 10
1851.680699617569
 20
242.9862383199397
 30
0.0
 11
1851.680699617569
 21
247.48623503404
 31
0.0
  0
LINE
  5
E75D
330
1E
100
AcDbEntity
  8
0
  6
Continuous
 62
     7
100
AcDbLine
 10
1851.180699617569
 20
242.4862366769398
 30
0.0
 11
1848.680699617569
 21
242.4862366769398
 31
0.0
  0
LINE
  5
E75E
330
1E
100
AcDbEntity
  8
0
  6
Continuous
 62
     7
100
AcDbLine
 10
1851.180699617569
 20
247.9862366769398
 30
0.0
 11
1848.680699617569
 21
247.9862366769398
 31
0.0
  0
ARC
  5
E75F
330
1E
100
AcDbEntity
  8
0
  6
Continuous
 62
     7
100
AcDbCircle
 10
1851.180699617569
 20
247.4862366769398
 30
0.0
 40
0.5
100
AcDbArc
 50
0.0
 51
90.0
  0
ARC
  5
E760
330
1E
100
AcDbEntity
  8
0
  6
Continuous
 62
     7
100
AcDbCircle
 10
1851.180699617569
 20
242.9862366769398
 30
0.0
 40
0.5
100
AcDbArc
 50
270.0
 51
0.0
  0
ARC
  5
E761
330
1E
100
AcDbEntity
  8
0
  6
Continuous
 62
     7
100
AcDbCircle
 10
1707.180699617568
 20
242.9862366769398
 30
0.0
 40
0.5
100
AcDbArc
 50
180.0
 51
270.0
  0
ARC
  5
E762
330
1E
100
AcDbEntity
  8
0
  6
Continuous
 62
     7
100
AcDbCircle
 10
1707.180699617568
 20
247.4862366769398
 30
0.0
 40
0.5
100
AcDbArc
 50
90.0
 51
180.0
  0
LINE
  5
E763
330
1E
100
AcDbEntity
  8
0
  6
Continuous
 62
     7
100
AcDbLine
 10
1707.180699617568
 20
247.9862366769398
 30
0.0
 11
1709.680699617569
 21
247.9862366769398
 31
0.0
  0
LINE
  5
E764
330
1E
100
AcDbEntity
  8
0
  6
Continuous
 62
     7
100
AcDbLine
 10
1707.180699617568
 20
242.4862366769398
 30
0.0
 11
1709.680699617569
 21
242.4862366769398
 31
0.0
  0
LINE
  5
E765
330
1E
100
AcDbEntity
  8
0
  6
Continuous
 62
     7
100
AcDbLine
 10
1706.680699617568
 20
242.9862383199397
 30
0.0
 11
1706.680699617568
 21
247.48623503404
 31
0.0
  0
LINE
  5
EAA1
330
1E
100
AcDbEntity
  8
0
100
AcDbLine
 10
1959.180699617569
 20
260.280627336463
 30
0.0
 11
1857.417428359268
 21
260.2806273364315
 31
0.0
  0
LINE
  5
EAA2
330
1E
100
AcDbEntity
  8
0
100
AcDbLine
 10
1959.180699617569
 20
256.9841807343451
 30
0.0
 11
1855.780699625269
 21
256.9841807343451
 31
0.0
  0
LINE
  5
EAA3
330
1E
100
AcDbEntity
  8
0
100
AcDbLine
 10
1959.180699617569
 20
249.4841807186529
 30
0.0
 11
1855.780699625269
 21
249.4841807186217
 31
0.0
  0
LINE
  5
EAA4
330
1E
100
AcDbEntity
  8
0
100
AcDbLine
 10
1959.180699617569
 20
241.0770739545371
 30
0.0
 11
1855.780699625269
 21
241.0770739545484
 31
0.0
  0
LINE
  5
EAA5
330
1E
100
AcDbEntity
  8
0
100
AcDbLine
 10
1959.180699617569
 20
233.577073941354
 30
0.0
 11
1855.780699625269
 21
233.577073941354
 31
0.0
  0
LINE
  5
EAA6
330
1E
100
AcDbEntity
  8
0
100
AcDbLine
 10
1959.180699617569
 20
225.2806273363277
 30
0.0
 11
1644.518238537442
 21
225.2806273363277
 31
0.0
  0
LINE
  5
EAA7
330
1E
100
AcDbEntity
  8
0
100
AcDbLine
 10
1700.94397090667
 20
260.2806273363831
 30
0.0
 11
1643.503783785136
 21
260.2806273363653
 31
0.0
  0
LINE
  5
EAA9
330
1E
100
AcDbEntity
  8
0
100
AcDbLine
 10
1702.580699625269
 20
256.9841807343451
 30
0.0
 11
1642.102178986862
 21
256.9841807343451
 31
0.0
  0
LINE
  5
EAAA
330
1E
100
AcDbEntity
  8
0
100
AcDbLine
 10
1702.580699625269
 20
249.4841807185754
 30
0.0
 11
1643.860985558512
 21
249.4841807185576
 31
0.0
  0
LINE
  5
EAAB
330
1E
100
AcDbEntity
  8
0
100
AcDbLine
 10
1702.580699625269
 20
241.0770739545652
 30
0.0
 11
1643.403581207908
 21
241.0770739545717
 31
0.0
  0
LINE
  5
EAAC
330
1E
100
AcDbEntity
  8
0
100
AcDbLine
 10
1702.580699625269
 20
233.577073941354
 30
0.0
 11
1643.355494291431
 21
233.577073941354
 31
0.0
  0
ENDSEC
  0
SECTION
  2
OBJECTS
  0
DICTIONARY
  5
C
330
0
100
AcDbDictionary
281
     1
  3
ACAD_COLOR
350
3D97
  3
ACAD_GROUP
350
D
  3
ACAD_LAYOUT
350
19
  3
ACAD_MATERIAL
350
3D96
  3
ACAD_MLINESTYLE
350
16
  3
ACAD_PLOTSETTINGS
350
18
  3
ACAD_PLOTSTYLENAME
350
E
  3
ACAD_TABLESTYLE
350
E7A3
  3
ACDBHEADERROUNDTRIPXREC
350
EACB
  3
AcDbVariableDictionary
350
3E63
  0
DICTIONARY
  5
43C2
330
2
100
AcDbDictionary
280
     1
281
     1
  3
ACAD_LAYERSTATES
360
43C3
  0
DICTIONARY
  5
3D1E
330
1E
100
AcDbDictionary
280
     1
281
     1
  3
ACAD_LAYOUTSELFREF
360
3D92
  3
ACAD_SORTENTS
360
EAA8
  0
DICTIONARY
  5
3D20
330
1A
100
AcDbDictionary
280
     1
281
     1
  3
ACAD_LAYOUTSELFREF
360
3D91
  0
DICTIONARY
  5
69B8
330
69B7
100
AcDbDictionary
280
     1
281
     1
  3
ACAD_SORTENTS
360
69B9
  0
DICTIONARY
  5
69CC
330
69CB
100
AcDbDictionary
280
     1
281
     1
  3
ACAD_SORTENTS
360
69CD
  0
DICTIONARY
  5
3D97
102
{ACAD_REACTORS
330
C
102
}
330
C
100
AcDbDictionary
281
     1
  0
DICTIONARY
  5
D
102
{ACAD_REACTORS
330
C
102
}
330
C
100
AcDbDictionary
281
     1
  3
*A1
350
4143
  3
*A10
350
4378
  3
*A11
350
43BF
  3
*A12
350
423A
  3
*A13
350
414C
  3
*A14
350
579E
  3
*A15
350
4235
  3
*A16
350
437C
  3
*A17
350
414F
  3
*A18
350
437E
  3
*A19
350
4149
  3
*A2
350
4241
  3
*A20
350
4239
  3
*A21
350
4237
  3
*A22
350
423C
  3
*A23
350
43B6
  3
*A24
350
423B
  3
*A25
350
43B8
  3
*A26
350
576A
  3
*A27
350
4240
  3
*A28
350
423E
  3
*A29
350
4374
  3
*A3
350
43BB
  3
*A30
350
4373
  3
*A31
350
43BD
  3
*A32
350
4236
  3
*A33
350
4377
  3
*A34
350
4145
  3
*A35
350
437A
  3
*A36
350
4379
  3
*A37
350
43C1
  3
*A38
350
423D
  3
*A39
350
437D
  3
*A4
350
414D
  3
*A40
350
4146
  3
*A41
350
437F
  3
*A42
350
414B
  3
*A43
350
4375
  3
*A44
350
43B7
  3
*A45
350
414E
  3
*A46
350
43B9
  3
*A47
350
57D9
  3
*A48
350
437B
  3
*A49
350
43BC
  3
*A5
350
4144
  3
*A50
350
43BE
  3
*A51
350
4238
  3
*A52
350
43B5
  3
*A53
350
43C0
  3
*A54
350
4148
  3
*A55
350
423F
  3
*A56
350
43BA
  3
*A6
350
414A
  3
*A7
350
5691
  3
*A8
350
4376
  3
*A9
350
4147
  0
DICTIONARY
  5
19
102
{ACAD_REACTORS
330
C
102
}
330
C
100
AcDbDictionary
281
     1
  3
Model
350
21
  3
配置1
350
1D
  0
DICTIONARY
  5
3D96
102
{ACAD_REACTORS
330
C
102
}
330
C
100
AcDbDictionary
281
     1
  0
DICTIONARY
  5
16
102
{ACAD_REACTORS
330
C
102
}
330
C
100
AcDbDictionary
281
     1
  3
Standard
350
17
  0
DICTIONARY
  5
18
102
{ACAD_REACTORS
330
C
102
}
330
C
100
AcDbDictionary
281
     1
  3
LANSRO
350
4150
  0
ACDBDICTIONARYWDFLT
  5
E
102
{ACAD_REACTORS
330
C
102
}
330
C
100
AcDbDictionary
281
     1
  3
Normal
350
F
100
AcDbDictionaryWithDefault
340
F
  0
DICTIONARY
  5
E7A3
102
{ACAD_REACTORS
330
C
102
}
330
C
100
AcDbDictionary
281
     1
  3
Standard
350
E7A4
  0
DICTIONARY
  5
EACB
102
{ACAD_REACTORS
330
C
102
}
330
C
100
AcDbDictionary
281
     1
  3
COLORDICT
350
EACD
  3
MATERIALDICT
350
EACC
  0
DICTIONARY
  5
3E63
102
{ACAD_REACTORS
330
C
102
}
330
C
100
AcDbDictionary
281
     1
  3
CTABLESTYLE
350
E8F8
  3
DIMASSOC
350
3E64
  3
PROJECTNAME
350
3E65
  0
DICTIONARY
  5
43C3
102
{ACAD_REACTORS
330
43C2
102
}
330
43C2
100
AcDbDictionary
281
     1
  0
XRECORD
  5
3D92
102
{ACAD_REACTORS
330
3D1E
102
}
330
3D1E
100
AcDbXrecord
280
     1
340
1E
  0
SORTENTSTABLE
  5
EAA8
102
{ACAD_REACTORS
330
3D1E
102
}
330
3D1E
100
AcDbSortentsTable
330
1E
331
EAA9
  5
EAA5
331
E11D
  5
E11D
331
E174
  5
E174
331
E17C
  5
E17C
331
E1E3
  5
E1E3
331
E184
  5
E184
331
E1EB
  5
E1EB
331
E135
  5
E135
331
E762
  5
E762
331
E13D
  5
E13D
331
E18C
  5
E18C
331
B9C9
  5
B9C9
331
BA08
  5
BA08
331
A214
  5
A214
331
A24B
  5
A24B
331
B992
  5
B992
331
B9D1
  5
B9D1
331
BA10
  5
BA10
331
A21C
  5
A21C
331
A253
  5
A253
331
B99A
  5
B99A
331
B9A2
  5
B9A2
331
B9D9
  5
B9D9
331
A224
  5
A224
331
A25B
  5
A25B
331
BA18
  5
BA18
331
BA20
  5
BA20
331
A263
  5
A263
331
B9AA
  5
B9AA
331
A22C
  5
A22C
331
B9E1
  5
B9E1
331
BBA0
  5
BBA0
331
BA5B
  5
BA5B
331
BB61
  5
BB61
331
BC8D
  5
BC8D
331
E0D4
  5
E0D4
331
BB69
  5
BB69
331
BBA8
  5
BBA8
331
BB32
  5
BB32
331
BBEF
  5
BBEF
331
E0DC
  5
E0DC
331
BB71
  5
BB71
331
BBB0
  5
BBB0
331
BB3A
  5
BB3A
331
BBF7
  5
BBF7
331
BBFF
  5
BBFF
331
BB42
  5
BB42
331
BB79
  5
BB79
331
BAA3
  5
BAA3
331
BBB8
  5
BBB8
331
E0E4
  5
E0E4
331
E0EC
  5
E0EC
331
BC07
  5
BC07
331
BC66
  5
BC66
331
E194
  5
E194
331
E19C
  5
E19C
331
E203
  5
E203
331
E155
  5
E155
331
EAA2
  5
EAA4
331
E16D
  5
E16D
331
E213
  5
E213
331
B9E9
  5
B9E9
331
BA28
  5
BA28
331
A26B
  5
A26B
331
B9B2
  5
B9B2
331
A234
  5
A234
331
B9F1
  5
B9F1
331
A23C
  5
A23C
331
A273
  5
A273
331
B9BA
  5
B9BA
331
B9C2
  5
B9C2
331
B9F9
  5
B9F9
331
A205
  5
A205
331
A244
  5
A244
331
A27B
  5
A27B
331
BA50
  5
BA50
331
A20D
  5
A20D
331
BA01
  5
BA01
331
BBC8
  5
BBC8
331
BAAB
  5
BAAB
331
BB4A
  5
BB4A
331
BB81
  5
BB81
331
E0B5
  5
E0B5
331
E0F4
  5
E0F4
331
BC0F
  5
BC0F
331
BB52
  5
BB52
331
BB89
  5
BB89
331
BC6E
  5
BC6E
331
BC76
  5
BC76
331
E0BD
  5
E0BD
331
E0FC
  5
E0FC
331
BB91
  5
BB91
331
BBD8
  5
BBD8
331
BB5A
  5
BB5A
331
BC17
  5
BC17
331
BC1F
  5
BC1F
331
BB99
  5
BB99
331
E0C5
  5
E0C5
331
E104
  5
E104
331
BB0B
  5
BB0B
331
E21B
  5
E21B
331
E175
  5
E175
331
EAAA
  5
EAA9
331
E11E
  5
E11E
331
E17D
  5
E17D
331
E763
  5
E763
331
E136
  5
E136
331
E185
  5
E185
331
E18D
  5
E18D
331
B9CA
  5
B9CA
331
A215
  5
A215
331
A24C
  5
A24C
331
BA09
  5
BA09
331
BA11
  5
BA11
331
A254
  5
A254
331
B99B
  5
B99B
331
A21D
  5
A21D
331
B9D2
  5
B9D2
331
B9DA
  5
B9DA
331
BA19
  5
BA19
331
A225
  5
A225
331
A25C
  5
A25C
331
B9A3
  5
B9A3
331
B9E2
  5
B9E2
331
BA21
  5
BA21
331
A22D
  5
A22D
331
A264
  5
A264
331
B9AB
  5
B9AB
331
BB62
  5
BB62
331
BA5C
  5
BA5C
331
BBA1
  5
BBA1
331
E0D5
  5
E0D5
331
BBF0
  5
BBF0
331
BC47
  5
BC47
331
BC8E
  5
BC8E
331
BB33
  5
BB33
331
BB6A
  5
BB6A
331
BBA9
  5
BBA9
331
E0DD
  5
E0DD
331
BBB1
  5
BBB1
331
BBF8
  5
BBF8
331
BB3B
  5
BB3B
331
BB72
  5
BB72
331
E0E5
  5
E0E5
331
BB7A
  5
BB7A
331
BBB9
  5
BBB9
331
BAA4
  5
BAA4
331
BB43
  5
BB43
331
BC00
  5
BC00
331
BC67
  5
BC67
331
E0ED
  5
E0ED
331
E195
  5
E195
331
E1FC
  5
E1FC
331
E14E
  5
E14E
331
E156
  5
E156
331
E19D
  5
E19D
331
EAA3
  5
EAA7
331
E214
  5
E214
331
E16E
  5
E16E
331
B9B3
  5
B9B3
331
B9EA
  5
B9EA
331
A235
  5
A235
331
A26C
  5
A26C
331
A274
  5
A274
331
B9BB
  5
B9BB
331
A23D
  5
A23D
331
B9F2
  5
B9F2
331
B9FA
  5
B9FA
331
A27C
  5
A27C
331
B9C3
  5
B9C3
331
A206
  5
A206
331
A245
  5
A245
331
BA02
  5
BA02
331
A20E
  5
A20E
331
BB82
  5
BB82
331
BBC9
  5
BBC9
331
BAAC
  5
BAAC
331
BB4B
  5
BB4B
331
BC08
  5
BC08
331
BC10
  5
BC10
331
BC6F
  5
BC6F
331
E0B6
  5
E0B6
331
E0F5
  5
E0F5
331
BB53
  5
BB53
331
BB8A
  5
BB8A
331
BBD1
  5
BBD1
331
BBD9
  5
BBD9
331
BC18
  5
BC18
331
BB5B
  5
BB5B
331
BB92
  5
BB92
331
E0BE
  5
E0BE
331
E0FD
  5
E0FD
331
E0C6
  5
E0C6
331
E105
  5
E105
331
BC20
  5
BC20
331
BB0C
  5
BB0C
331
BB9A
  5
BB9A
331
BC87
  5
BC87
331
E0CE
  5
E0CE
331
EAAB
  5
EAAC
331
E21C
  5
E21C
331
E11F
  5
E11F
331
E176
  5
E176
331
E17E
  5
E17E
331
E1E5
  5
E1E5
331
E75C
  5
E75C
331
E764
  5
E764
331
E186
  5
E186
331
E137
  5
E137
331
E18E
  5
E18E
331
E1F5
  5
E1F5
331
B9CB
  5
B9CB
331
BA0A
  5
BA0A
331
A216
  5
A216
331
A24D
  5
A24D
331
B994
  5
B994
331
B99C
  5
B99C
331
B9D3
  5
B9D3
331
A21E
  5
A21E
331
A255
  5
A255
331
BA12
  5
BA12
331
B9A4
  5
B9A4
331
B9DB
  5
B9DB
331
A226
  5
A226
331
A25D
  5
A25D
331
BA1A
  5
BA1A
331
BA22
  5
BA22
331
A265
  5
A265
331
B9AC
  5
B9AC
331
A22E
  5
A22E
331
B9E3
  5
B9E3
331
BBA2
  5
BBA2
331
BB63
  5
BB63
331
BC8F
  5
BC8F
331
E0D6
  5
E0D6
331
BB6B
  5
BB6B
331
BBAA
  5
BBAA
331
BB34
  5
BB34
331
BBF1
  5
BBF1
331
BBF9
  5
BBF9
331
BB73
  5
BB73
331
BBB2
  5
BBB2
331
E0DE
  5
E0DE
331
BB3C
  5
BB3C
331
E0E6
  5
E0E6
331
BC01
  5
BC01
331
BC60
  5
BC60
331
BB44
  5
BB44
331
BB7B
  5
BB7B
331
BAA5
  5
BAA5
331
BBBA
  5
BBBA
331
E0EE
  5
E0EE
331
E196
  5
E196
331
E14F
  5
E14F
331
E157
  5
E157
331
EAA4
  5
EAAB
331
E16F
  5
E16F
331
E215
  5
E215
331
B9EB
  5
B9EB
331
BA2A
  5
BA2A
331
A236
  5
A236
331
A26D
  5
A26D
331
B9B4
  5
B9B4
331
B9F3
  5
B9F3
331
A23E
  5
A23E
331
A275
  5
A275
331
B9BC
  5
B9BC
331
B9C4
  5
B9C4
331
A207
  5
A207
331
A246
  5
A246
331
B9FB
  5
B9FB
331
B98D
  5
B98D
331
A20F
  5
A20F
331
BA03
  5
BA03
331
BBCA
  5
BBCA
331
BC09
  5
BC09
331
BB4C
  5
BB4C
331
BB83
  5
BB83
331
BC70
  5
BC70
331
E0B7
  5
E0B7
331
E0F6
  5
E0F6
331
BB8B
  5
BB8B
331
BBD2
  5
BBD2
331
BB54
  5
BB54
331
BC11
  5
BC11
331
E0BF
  5
E0BF
331
E0FE
  5
E0FE
331
BB93
  5
BB93
331
BBDA
  5
BBDA
331
BB5C
  5
BB5C
331
BC19
  5
BC19
331
BC21
  5
BC21
331
BB9B
  5
BB9B
331
E0C7
  5
E0C7
331
E0CF
  5
E0CF
331
E118
  5
E118
331
E120
  5
E120
331
E177
  5
E177
331
EAAC
  5
EAAF
331
E75D
  5
E75D
331
E17F
  5
E17F
331
E1E6
  5
E1E6
331
E765
  5
E765
331
E138
  5
E138
331
E187
  5
E187
331
E18F
  5
E18F
331
BA0B
  5
BA0B
331
B995
  5
B995
331
B9CC
  5
B9CC
331
A217
  5
A217
331
A24E
  5
A24E
331
BA13
  5
BA13
331
A256
  5
A256
331
B99D
  5
B99D
331
A21F
  5
A21F
331
B9D4
  5
B9D4
331
B9DC
  5
B9DC
331
BA1B
  5
BA1B
331
A227
  5
A227
331
A25E
  5
A25E
331
B9A5
  5
B9A5
331
B9AD
  5
B9AD
331
B9E4
  5
B9E4
331
A22F
  5
A22F
331
A266
  5
A266
331
BA23
  5
BA23
331
BC88
  5
BC88
331
BB64
  5
BB64
331
BA5E
  5
BA5E
331
BBA3
  5
BBA3
331
E0D7
  5
E0D7
331
BBF2
  5
BBF2
331
BC90
  5
BC90
331
BB35
  5
BB35
331
BB6C
  5
BB6C
331
BBAB
  5
BBAB
331
E0DF
  5
E0DF
331
BBB3
  5
BBB3
331
BBFA
  5
BBFA
331
BC59
  5
BC59
331
BB3D
  5
BB3D
331
BB74
  5
BB74
331
E0E7
  5
E0E7
331
BB7C
  5
BB7C
331
BBBB
  5
BBBB
331
BAA6
  5
BAA6
331
BB45
  5
BB45
331
BC02
  5
BC02
331
BC61
  5
BC61
331
E0EF
  5
E0EF
331
E197
  5
E197
331
E150
  5
E150
331
E158
  5
E158
331
EAA5
  5
EAAE
331
E216
  5
E216
331
B9B5
  5
B9B5
331
B9EC
  5
B9EC
331
A237
  5
A237
331
A26E
  5
A26E
331
BA2B
  5
BA2B
331
A276
  5
A276
331
B9BD
  5
B9BD
331
A23F
  5
A23F
331
B9F4
  5
B9F4
331
B9FC
  5
B9FC
331
A247
  5
A247
331
A208
  5
A208
331
B9C5
  5
B9C5
331
BA04
  5
BA04
331
B98E
  5
B98E
331
BC0A
  5
BC0A
331
BC69
  5
BC69
331
BB84
  5
BB84
331
BBCB
  5
BBCB
331
BB4D
  5
BB4D
331
BC12
  5
BC12
331
BC71
  5
BC71
331
E0B8
  5
E0B8
331
E0F7
  5
E0F7
331
BB55
  5
BB55
331
BB8C
  5
BB8C
331
BBD3
  5
BBD3
331
E0FF
  5
E0FF
331
BBDB
  5
BBDB
331
BC1A
  5
BC1A
331
BAE6
  5
BAE6
331
BB5D
  5
BB5D
331
BB94
  5
BB94
331
E0C0
  5
E0C0
331
BB9C
  5
BB9C
331
E119
  5
E119
331
E170
  5
E170
331
E121
  5
E121
331
E178
  5
E178
331
E180
  5
E180
331
E1E7
  5
E1E7
331
E75E
  5
E75E
331
E139
  5
E139
331
A210
  5
A210
331
B9CD
  5
B9CD
331
BA0C
  5
BA0C
331
A218
  5
A218
331
A24F
  5
A24F
331
B996
  5
B996
331
B99E
  5
B99E
331
B9D5
  5
B9D5
331
A220
  5
A220
331
A257
  5
A257
331
BA14
  5
BA14
331
BA1C
  5
BA1C
331
B9A6
  5
B9A6
331
B9DD
  5
B9DD
331
A228
  5
A228
331
A25F
  5
A25F
331
BA24
  5
BA24
331
A267
  5
A267
331
B9AE
  5
B9AE
331
B9E5
  5
B9E5
331
BC89
  5
BC89
331
BBA4
  5
BBA4
331
E0D0
  5
E0D0
331
BA5F
  5
BA5F
331
BB65
  5
BB65
331
E0D8
  5
E0D8
331
BB6D
  5
BB6D
331
BB36
  5
BB36
331
BBF3
  5
BBF3
331
BBFB
  5
BBFB
331
BB3E
  5
BB3E
331
BB75
  5
BB75
331
BA9F
  5
BA9F
331
BBB4
  5
BBB4
331
E0E0
  5
E0E0
331
E0E8
  5
E0E8
331
BC03
  5
BC03
331
BC62
  5
BC62
331
DF89
  5
DF89
331
BB46
  5
BB46
331
BB7D
  5
BB7D
331
BAA7
  5
BAA7
331
BBBC
  5
BBBC
331
E190
  5
E190
331
E198
  5
E198
331
E151
  5
E151
331
EAA6
  5
EAB1
331
E169
  5
E169
331
A230
  5
A230
331
B9ED
  5
B9ED
331
A238
  5
A238
331
A26F
  5
A26F
331
B9B6
  5
B9B6
331
B9BE
  5
B9BE
331
B9F5
  5
B9F5
331
A240
  5
A240
331
A277
  5
A277
331
BA44
  5
BA44
331
A209
  5
A209
331
B9C6
  5
B9C6
331
B9FD
  5
B9FD
331
B98F
  5
B98F
331
BA05
  5
BA05
331
E0F0
  5
E0F0
331
BBCC
  5
BBCC
331
BC0B
  5
BC0B
331
BB4E
  5
BB4E
331
BB85
  5
BB85
331
BC6A
  5
BC6A
331
BC72
  5
BC72
331
E0B9
  5
E0B9
331
E0F8
  5
E0F8
331
BB8D
  5
BB8D
331
BBD4
  5
BBD4
331
BB56
  5
BB56
331
BC13
  5
BC13
331
BC1B
  5
BC1B
331
E0C1
  5
E0C1
331
E100
  5
E100
331
BB95
  5
BB95
331
BBDC
  5
BBDC
331
BB5E
  5
BB5E
331
BB9D
  5
BB9D
331
E171
  5
E171
331
E11A
  5
E11A
331
E122
  5
E122
331
E179
  5
E179
331
E1E8
  5
E1E8
331
E75F
  5
E75F
331
E181
  5
E181
331
E13A
  5
E13A
331
E189
  5
E189
331
A211
  5
A211
331
A248
  5
A248
331
BA0D
  5
BA0D
331
A250
  5
A250
331
B997
  5
B997
331
A219
  5
A219
331
B9CE
  5
B9CE
331
BA15
  5
BA15
331
A258
  5
A258
331
B99F
  5
B99F
331
A221
  5
A221
331
B9D6
  5
B9D6
331
B9DE
  5
B9DE
331
BA1D
  5
BA1D
331
A229
  5
A229
331
A260
  5
A260
331
B9A7
  5
B9A7
331
BA58
  5
BA58
331
B9AF
  5
B9AF
331
B9E6
  5
B9E6
331
BA25
  5
BA25
331
BC8A
  5
BC8A
331
BB66
  5
BB66
331
BA60
  5
BA60
331
BBA5
  5
BBA5
331
E0D1
  5
E0D1
331
E0D9
  5
E0D9
331
BBF4
  5
BBF4
331
BB37
  5
BB37
331
BB6E
  5
BB6E
331
E0E1
  5
E0E1
331
BBB5
  5
BBB5
331
BBFC
  5
BBFC
331
BAA0
  5
BAA0
331
BB3F
  5
BB3F
331
BB76
  5
BB76
331
E0E9
  5
E0E9
331
BB7E
  5
BB7E
331
BB47
  5
BB47
331
BC04
  5
BC04
331
BC63
  5
BC63
331
E191
  5
E191
331
E152
  5
E152
331
E199
  5
E199
331
E1A9
  5
E1A9
331
EAA7
  5
EAA2
331
E16A
  5
E16A
331
A231
  5
A231
331
A268
  5
A268
331
B9B7
  5
B9B7
331
B9EE
  5
B9EE
331
A239
  5
A239
331
A270
  5
A270
331
A278
  5
A278
331
B9BF
  5
B9BF
331
A241
  5
A241
331
B9F6
  5
B9F6
331
B9FE
  5
B9FE
331
A20A
  5
A20A
331
B9C7
  5
B9C7
331
BA06
  5
BA06
331
BAA8
  5
BAA8
331
BC0C
  5
BC0C
331
BB4F
  5
BB4F
331
BB86
  5
BB86
331
BC6B
  5
BC6B
331
E0B2
  5
E0B2
331
E0F1
  5
E0F1
331
BAC0
  5
BAC0
331
BC14
  5
BC14
331
BC73
  5
BC73
331
E0BA
  5
E0BA
331
E0F9
  5
E0F9
331
BB8E
  5
BB8E
331
BBD5
  5
BBD5
331
E101
  5
E101
331
BBDD
  5
BBDD
331
BC1C
  5
BC1C
331
BB5F
  5
BB5F
331
BB96
  5
BB96
331
E0C2
  5
E0C2
331
BB9E
  5
BB9E
331
E11B
  5
E11B
331
E172
  5
E172
331
E17A
  5
E17A
331
E182
  5
E182
331
E1E9
  5
E1E9
331
E133
  5
E133
331
E760
  5
E760
331
E13B
  5
E13B
331
E18A
  5
E18A
331
A249
  5
A249
331
B990
  5
B990
331
A212
  5
A212
331
B9CF
  5
B9CF
331
BA0E
  5
BA0E
331
A21A
  5
A21A
331
A251
  5
A251
331
B998
  5
B998
331
B9A0
  5
B9A0
331
B9D7
  5
B9D7
331
A222
  5
A222
331
A259
  5
A259
331
BA16
  5
BA16
331
BA1E
  5
BA1E
331
A261
  5
A261
331
B9A8
  5
B9A8
331
A22A
  5
A22A
331
B9DF
  5
B9DF
331
BA59
  5
BA59
331
BA26
  5
BA26
331
BB10
  5
BB10
331
B9E7
  5
B9E7
331
BC8B
  5
BC8B
331
BBA6
  5
BBA6
331
E0D2
  5
E0D2
331
BB67
  5
BB67
331
E0DA
  5
E0DA
331
BB6F
  5
BB6F
331
BBAE
  5
BBAE
331
BB38
  5
BB38
331
BBF5
  5
BBF5
331
BBFD
  5
BBFD
331
BB40
  5
BB40
331
BB77
  5
BB77
331
BAA1
  5
BAA1
331
BBB6
  5
BBB6
331
E0E2
  5
E0E2
331
E0EA
  5
E0EA
331
BC05
  5
BC05
331
BC64
  5
BC64
331
BB7F
  5
BB7F
331
E192
  5
E192
331
E19A
  5
E19A
331
E153
  5
E153
331
E16B
  5
E16B
331
E211
  5
E211
331
A269
  5
A269
331
B9B0
  5
B9B0
331
A232
  5
A232
331
B9EF
  5
B9EF
331
A23A
  5
A23A
331
A271
  5
A271
331
B9B8
  5
B9B8
331
B9C0
  5
B9C0
331
B9F7
  5
B9F7
331
A242
  5
A242
331
A279
  5
A279
331
A20B
  5
A20B
331
B9FF
  5
B9FF
331
BB48
  5
BB48
331
BA07
  5
BA07
331
BAA9
  5
BAA9
331
E0B3
  5
E0B3
331
E0F2
  5
E0F2
331
BC0D
  5
BC0D
331
BB50
  5
BB50
331
BB87
  5
BB87
331
BC6C
  5
BC6C
331
BC74
  5
BC74
331
E0BB
  5
E0BB
331
E0FA
  5
E0FA
331
BB8F
  5
BB8F
331
BBD6
  5
BBD6
331
BC15
  5
BC15
331
BC1D
  5
BC1D
331
E0C3
  5
E0C3
331
BB97
  5
BB97
331
BBDE
  5
BBDE
331
BB9F
  5
BB9F
331
E173
  5
E173
331
E1B2
  5
E1B2
331
E11C
  5
E11C
331
E17B
  5
E17B
331
E1EA
  5
E1EA
331
E761
  5
E761
331
E134
  5
E134
331
E183
  5
E183
331
E13C
  5
E13C
331
E18B
  5
E18B
331
B991
  5
B991
331
B9C8
  5
B9C8
331
A213
  5
A213
331
A24A
  5
A24A
331
BA0F
  5
BA0F
331
A252
  5
A252
331
B999
  5
B999
331
A21B
  5
A21B
331
B9D0
  5
B9D0
331
B9D8
  5
B9D8
331
BA17
  5
BA17
331
A25A
  5
A25A
331
B9A1
  5
B9A1
331
A223
  5
A223
331
B9E0
  5
B9E0
331
BA1F
  5
BA1F
331
A22B
  5
A22B
331
A262
  5
A262
331
B9A9
  5
B9A9
331
BB60
  5
BB60
331
BA5A
  5
BA5A
331
BA27
  5
BA27
331
BBEE
  5
BBEE
331
BC8C
  5
BC8C
331
BB68
  5
BB68
331
BA62
  5
BA62
331
BBA7
  5
BBA7
331
E0D3
  5
E0D3
331
E0DB
  5
E0DB
331
BBAF
  5
BBAF
331
BBF6
  5
BBF6
331
BC4D
  5
BC4D
331
BB39
  5
BB39
331
BB70
  5
BB70
331
E0E3
  5
E0E3
331
BBB7
  5
BBB7
331
BBFE
  5
BBFE
331
BAA2
  5
BAA2
331
BB41
  5
BB41
331
BB78
  5
BB78
331
E0EB
  5
E0EB
331
BC06
  5
BC06
331
BC65
  5
BC65
331
E193
  5
E193
331
E154
  5
E154
331
E19B
  5
E19B
331
E20A
  5
E20A
331
EAA1
  5
EAA1
331
E16C
  5
E16C
331
B9B1
  5
B9B1
331
B9E8
  5
B9E8
331
A233
  5
A233
331
A26A
  5
A26A
331
A272
  5
A272
331
B9B9
  5
B9B9
331
A23B
  5
A23B
331
B9F0
  5
B9F0
331
A27A
  5
A27A
331
B9C1
  5
B9C1
331
A204
  5
A204
331
A243
  5
A243
331
B9F8
  5
B9F8
331
BA00
  5
BA00
331
BA57
  5
BA57
331
A20C
  5
A20C
331
BB80
  5
BB80
331
BAAA
  5
BAAA
331
BB49
  5
BB49
331
BC0E
  5
BC0E
331
BB51
  5
BB51
331
BB88
  5
BB88
331
BC6D
  5
BC6D
331
E0B4
  5
E0B4
331
E0F3
  5
E0F3
331
BBD7
  5
BBD7
331
BC16
  5
BC16
331
BB59
  5
BB59
331
BB90
  5
BB90
331
BC75
  5
BC75
331
E0BC
  5
E0BC
331
E0FB
  5
E0FB
331
E0C4
  5
E0C4
331
BC1E
  5
BC1E
331
BB98
  5
BB98
  0
XRECORD
  5
3D91
102
{ACAD_REACTORS
330
3D20
102
}
330
3D20
100
AcDbXrecord
280
     1
340
1A
  0
SORTENTSTABLE
  5
69B9
102
{ACAD_REACTORS
330
69B8
102
}
330
69B8
100
AcDbSortentsTable
330
69B7
  0
SORTENTSTABLE
  5
69CD
102
{ACAD_REACTORS
330
69CC
102
}
330
69CC
100
AcDbSortentsTable
330
69CB
  0
GROUP
  5
4143
102
{ACAD_REACTORS
330
D
102
}
330
D
100
AcDbGroup
300

 70
     1
 71
     1
  0
GROUP
  5
4378
102
{ACAD_REACTORS
330
D
102
}
330
D
100
AcDbGroup
300

 70
     1
 71
     1
  0
GROUP
  5
43BF
102
{ACAD_REACTORS
330
D
102
}
330
D
100
AcDbGroup
300

 70
     1
 71
     1
  0
GROUP
  5
423A
102
{ACAD_REACTORS
330
D
102
}
330
D
100
AcDbGroup
300

 70
     1
 71
     1
  0
GROUP
  5
414C
102
{ACAD_REACTORS
330
D
102
}
330
D
100
AcDbGroup
300

 70
     1
 71
     1
  0
GROUP
  5
579E
102
{ACAD_REACTORS
330
D
102
}
330
D
100
AcDbGroup
300

 70
     1
 71
     1
  0
GROUP
  5
4235
102
{ACAD_REACTORS
330
D
102
}
330
D
100
AcDbGroup
300

 70
     1
 71
     1
  0
GROUP
  5
437C
102
{ACAD_REACTORS
330
D
102
}
330
D
100
AcDbGroup
300

 70
     1
 71
     1
  0
GROUP
  5
414F
102
{ACAD_REACTORS
330
D
102
}
330
D
100
AcDbGroup
300

 70
     1
 71
     1
  0
GROUP
  5
437E
102
{ACAD_REACTORS
330
D
102
}
330
D
100
AcDbGroup
300

 70
     1
 71
     1
  0
GROUP
  5
4149
102
{ACAD_REACTORS
330
D
102
}
330
D
100
AcDbGroup
300

 70
     1
 71
     1
  0
GROUP
  5
4241
102
{ACAD_REACTORS
330
D
102
}
330
D
100
AcDbGroup
300

 70
     1
 71
     1
  0
GROUP
  5
4239
102
{ACAD_REACTORS
330
D
102
}
330
D
100
AcDbGroup
300

 70
     1
 71
     1
  0
GROUP
  5
4237
102
{ACAD_REACTORS
330
D
102
}
330
D
100
AcDbGroup
300

 70
     1
 71
     1
  0
GROUP
  5
423C
102
{ACAD_REACTORS
330
D
102
}
330
D
100
AcDbGroup
300

 70
     1
 71
     1
  0
GROUP
  5
43B6
102
{ACAD_REACTORS
330
D
102
}
330
D
100
AcDbGroup
300

 70
     1
 71
     1
  0
GROUP
  5
423B
102
{ACAD_REACTORS
330
D
102
}
330
D
100
AcDbGroup
300

 70
     1
 71
     1
  0
GROUP
  5
43B8
102
{ACAD_REACTORS
330
D
102
}
330
D
100
AcDbGroup
300

 70
     1
 71
     1
  0
GROUP
  5
576A
102
{ACAD_REACTORS
330
D
102
}
330
D
100
AcDbGroup
300

 70
     1
 71
     1
  0
GROUP
  5
4240
102
{ACAD_REACTORS
330
D
102
}
330
D
100
AcDbGroup
300

 70
     1
 71
     1
  0
GROUP
  5
423E
102
{ACAD_REACTORS
330
D
102
}
330
D
100
AcDbGroup
300

 70
     1
 71
     1
  0
GROUP
  5
4374
102
{ACAD_REACTORS
330
D
102
}
330
D
100
AcDbGroup
300

 70
     1
 71
     1
  0
GROUP
  5
43BB
102
{ACAD_REACTORS
330
D
102
}
330
D
100
AcDbGroup
300

 70
     1
 71
     1
  0
GROUP
  5
4373
102
{ACAD_REACTORS
330
D
102
}
330
D
100
AcDbGroup
300

 70
     1
 71
     1
  0
GROUP
  5
43BD
102
{ACAD_REACTORS
330
D
102
}
330
D
100
AcDbGroup
300

 70
     1
 71
     1
  0
GROUP
  5
4236
102
{ACAD_REACTORS
330
D
102
}
330
D
100
AcDbGroup
300

 70
     1
 71
     1
  0
GROUP
  5
4377
102
{ACAD_REACTORS
330
D
102
}
330
D
100
AcDbGroup
300

 70
     1
 71
     1
  0
GROUP
  5
4145
102
{ACAD_REACTORS
330
D
102
}
330
D
100
AcDbGroup
300

 70
     1
 71
     1
  0
GROUP
  5
437A
102
{ACAD_REACTORS
330
D
102
}
330
D
100
AcDbGroup
300

 70
     1
 71
     1
  0
GROUP
  5
4379
102
{ACAD_REACTORS
330
D
102
}
330
D
100
AcDbGroup
300

 70
     1
 71
     1
  0
GROUP
  5
43C1
102
{ACAD_REACTORS
330
D
102
}
330
D
100
AcDbGroup
300

 70
     1
 71
     1
  0
GROUP
  5
423D
102
{ACAD_REACTORS
330
D
102
}
330
D
100
AcDbGroup
300

 70
     1
 71
     1
  0
GROUP
  5
437D
102
{ACAD_REACTORS
330
D
102
}
330
D
100
AcDbGroup
300

 70
     1
 71
     1
  0
GROUP
  5
414D
102
{ACAD_REACTORS
330
D
102
}
330
D
100
AcDbGroup
300

 70
     1
 71
     1
  0
GROUP
  5
4146
102
{ACAD_REACTORS
330
D
102
}
330
D
100
AcDbGroup
300

 70
     1
 71
     1
  0
GROUP
  5
437F
102
{ACAD_REACTORS
330
D
102
}
330
D
100
AcDbGroup
300

 70
     1
 71
     1
  0
GROUP
  5
414B
102
{ACAD_REACTORS
330
D
102
}
330
D
100
AcDbGroup
300

 70
     1
 71
     1
  0
GROUP
  5
4375
102
{ACAD_REACTORS
330
D
102
}
330
D
100
AcDbGroup
300

 70
     1
 71
     1
  0
GROUP
  5
43B7
102
{ACAD_REACTORS
330
D
102
}
330
D
100
AcDbGroup
300

 70
     1
 71
     1
  0
GROUP
  5
414E
102
{ACAD_REACTORS
330
D
102
}
330
D
100
AcDbGroup
300

 70
     1
 71
     1
  0
GROUP
  5
43B9
102
{ACAD_REACTORS
330
D
102
}
330
D
100
AcDbGroup
300

 70
     1
 71
     1
  0
GROUP
  5
57D9
102
{ACAD_REACTORS
330
D
102
}
330
D
100
AcDbGroup
300

 70
     1
 71
     1
  0
GROUP
  5
437B
102
{ACAD_REACTORS
330
D
102
}
330
D
100
AcDbGroup
300

 70
     1
 71
     1
  0
GROUP
  5
43BC
102
{ACAD_REACTORS
330
D
102
}
330
D
100
AcDbGroup
300

 70
     1
 71
     1
  0
GROUP
  5
4144
102
{ACAD_REACTORS
330
D
102
}
330
D
100
AcDbGroup
300

 70
     1
 71
     1
  0
GROUP
  5
43BE
102
{ACAD_REACTORS
330
D
102
}
330
D
100
AcDbGroup
300

 70
     1
 71
     1
  0
GROUP
  5
4238
102
{ACAD_REACTORS
330
D
102
}
330
D
100
AcDbGroup
300

 70
     1
 71
     1
  0
GROUP
  5
43B5
102
{ACAD_REACTORS
330
D
102
}
330
D
100
AcDbGroup
300

 70
     1
 71
     1
  0
GROUP
  5
43C0
102
{ACAD_REACTORS
330
D
102
}
330
D
100
AcDbGroup
300

 70
     1
 71
     1
  0
GROUP
  5
4148
102
{ACAD_REACTORS
330
D
102
}
330
D
100
AcDbGroup
300

 70
     1
 71
     1
  0
GROUP
  5
423F
102
{ACAD_REACTORS
330
D
102
}
330
D
100
AcDbGroup
300

 70
     1
 71
     1
  0
GROUP
  5
43BA
102
{ACAD_REACTORS
330
D
102
}
330
D
100
AcDbGroup
300

 70
     1
 71
     1
  0
GROUP
  5
414A
102
{ACAD_REACTORS
330
D
102
}
330
D
100
AcDbGroup
300

 70
     1
 71
     1
  0
GROUP
  5
5691
102
{ACAD_REACTORS
330
D
102
}
330
D
100
AcDbGroup
300

 70
     1
 71
     1
  0
GROUP
  5
4376
102
{ACAD_REACTORS
330
D
102
}
330
D
100
AcDbGroup
300

 70
     1
 71
     1
  0
GROUP
  5
4147
102
{ACAD_REACTORS
330
D
102
}
330
D
100
AcDbGroup
300

 70
     1
 71
     1
  0
LAYOUT
  5
21
102
{ACAD_XDICTIONARY
360
EAD0
102
}
102
{ACAD_REACTORS
330
19
102
}
330
19
100
AcDbPlotSettings
  1

  2
HP 2200
  4

  6

 40
0.0
 41
0.0
 42
0.0
 43
0.0
 44
0.0
 45
0.0
 46
0.0
 47
0.0
 48
0.0
 49
0.0
140
0.0
141
0.0
142
1.0
143
1.0
 70
  1712
 72
     0
 73
     0
 74
     0
  7
AAA.ctb
 75
     0
147
1.0
148
0.0
149
0.0
100
AcDbLayout
  1
Model
 70
     1
 71
     0
 10
0.0
 20
0.0
 11
12.0
 21
9.0
 12
0.0
 22
0.0
 32
0.0
 14
0.0
 24
0.0
 34
0.0
 15
0.0
 25
0.0
 35
0.0
146
0.0
 13
0.0
 23
0.0
 33
0.0
 16
1.0
 26
0.0
 36
0.0
 17
0.0
 27
1.0
 37
0.0
 76
     0
330
1E
  0
LAYOUT
  5
1D
102
{ACAD_XDICTIONARY
360
EACE
102
}
102
{ACAD_REACTORS
330
19
102
}
330
19
100
AcDbPlotSettings
  1

  2
HP 2200
  4

  6

 40
0.0
 41
0.0
 42
0.0
 43
0.0
 44
0.0
 45
0.0
 46
0.0
 47
0.0
 48
0.0
 49
0.0
140
0.0
141
0.0
142
1.0
143
1.0
 70
   688
 72
     0
 73
     0
 74
     5
  7
AAA.ctb
 75
    16
147
1.0
148
0.0
149
0.0
100
AcDbLayout
  1
配置1
 70
     0
 71
     1
 10
0.0
 20
0.0
 11
12.0
 21
9.0
 12
0.0
 22
0.0
 32
0.0
 14
1.000000000000000E+20
 24
1.000000000000000E+20
 34
1.000000000000000E+20
 15
-1.000000000000000E+20
 25
-1.000000000000000E+20
 35
-1.000000000000000E+20
146
0.0
 13
0.0
 23
0.0
 33
0.0
 16
1.0
 26
0.0
 36
0.0
 17
0.0
 27
1.0
 37
0.0
 76
     0
330
1A
  0
MLINESTYLE
  5
17
102
{ACAD_REACTORS
330
16
102
}
330
16
100
AcDbMlineStyle
  2
STANDARD
 70
     0
  3

 62
   256
 51
90.0
 52
90.0
 71
     2
 49
0.5
 62
   256
  6
BYLAYER
 49
-0.5
 62
   256
  6
BYLAYER
  0
PLOTSETTINGS
  5
4150
102
{ACAD_XDICTIONARY
360
EAD2
102
}
102
{ACAD_REACTORS
330
18
102
}
330
18
100
AcDbPlotSettings
  1
LANSRO
  2
\\1260\HP2200
  4
A4
  6

 40
6.043083190917968
 41
6.762742042541503
 42
7.736419677734375
 43
5.027069091796875
 44
209.9733276367187
 45
296.9683227539062
 46
5.15
 47
0.0
 48
0.0
 49
0.0
140
0.0
141
0.0
142
1.0
143
0.8829829263240881
 70
  1716
 72
     1
 73
     1
 74
     0
  7
AAA.ctb
 75
     0
147
1.132524729739748
148
-132.297014905803
149
-71.78507365635891
  0
ACDBPLACEHOLDER
  5
F
102
{ACAD_REACTORS
330
E
102
}
330
E
  0
ACAD_PROXY_OBJECT
  5
E7A4
102
{ACAD_REACTORS
330
E7A3
102
}
330
E7A3
100
AcDbProxyObject
 90
      499
 91
      514
 95
   983063
 70
     0
 93
     1841
310
4214DD185B99185C9928B81E85EB51B8AE3F2E07A17AD46E2B8FC02B5E8DC0F42B1CFD028000000C1008070000C3001FDFF8000000C1003FBFF000000182007F7FE00000030400FEFFC00000060801FDFF8000000C1003FBFF00000018200000000000000681FA0B0000001820100E000186003FBFF000000182007F7FE000
310
00030400FEFFC00000060801FDFF8000000C1003FBFF000000182007F7FE000000304000AD7A3703D0AC73F4160000003040201C00030C007F7FE00000030400FEFFC00000060801FDFF8000000C1003FBFF000000182007F7FE00000030400FEFFC000000608039
340
11
340
11
340
11
 94
        0
1001
ACAD
1000
AcRTDxfName
1000
TABLESTYLE
  0
XRECORD
  5
EACD
102
{ACAD_REACTORS
330
EACB
102
}
330
EACB
100
AcDbXrecord
280
     1
340
3D97
  0
XRECORD
  5
EACC
102
{ACAD_REACTORS
330
EACB
102
}
330
EACB
100
AcDbXrecord
280
     1
340
3D96
  0
DICTIONARYVAR
  5
E8F8
102
{ACAD_REACTORS
330
3E63
102
}
330
3E63
100
DictionaryVariables
280
     0
  1
STANDARD
  0
DICTIONARYVAR
  5
3E64
102
{ACAD_REACTORS
330
3E63
102
}
330
3E63
100
DictionaryVariables
280
     0
  1
1
  0
DICTIONARYVAR
  5
3E65
102
{ACAD_REACTORS
330
3E63
102
}
330
3E63
100
DictionaryVariables
280
     0
  1

  0
DICTIONARY
  5
EAD0
330
21
100
AcDbDictionary
280
     1
281
     1
  3
ACAD_XREC_ROUNDTRIP
360
EAD1
  0
DICTIONARY
  5
EACE
330
1D
100
AcDbDictionary
280
     1
281
     1
  3
ACAD_XREC_ROUNDTRIP
360
EACF
  0
DICTIONARY
  5
EAD2
330
4150
100
AcDbDictionary
280
     1
281
     1
  3
ACAD_XREC_ROUNDTRIP
360
EAD3
  0
XRECORD
  5
EAD1
102
{ACAD_REACTORS
330
EAD0
102
}
330
EAD0
100
AcDbXrecord
280
     1
102
SHADEPLOT
 70
     0
102
SHADEPLOTRESLEVEL
 70
     2
102
SHADEPLOTCUSTOMDPI
 70
   300
  0
XRECORD
  5
EACF
102
{ACAD_REACTORS
330
EACE
102
}
330
EACE
100
AcDbXrecord
280
     1
102
SHADEPLOT
 70
     0
102
SHADEPLOTRESLEVEL
 70
     2
102
SHADEPLOTCUSTOMDPI
 70
   300
  0
XRECORD
  5
EAD3
102
{ACAD_REACTORS
330
EAD2
102
}
330
EAD2
100
AcDbXrecord
280
     1
102
SHADEPLOT
 70
     0
102
SHADEPLOTRESLEVEL
 70
     2
102
SHADEPLOTCUSTOMDPI
 70
   300
  0
ENDSEC
  0
EOF
