  0
SECTION
  2
HEADER
  9
$ACADVER
  1
AC1015
  9
$ACADMAINTVER
 70
    20
  9
$DWGCODEPAGE
  3
ANSI_950
  9
$INSBASE
 10
0.0
 20
0.0
 30
0.0
  9
$EXTMIN
 10
2685.477739912595
 20
165.2752130502766
 30
0.0
  9
$EXTMAX
 10
3188.517991496056
 20
461.440877834618
 30
0.0
  9
$LIMMIN
 10
-10.0
 20
-15.0
  9
$LIMMAX
 10
120.0
 20
90.0
  9
$ORTHOMODE
 70
     1
  9
$REGENMODE
 70
     0
  9
$FILLMODE
 70
     1
  9
$QTEXTMODE
 70
     0
  9
$MIRRTEXT
 70
     0
  9
$LTSCALE
 40
3.0
  9
$ATTMODE
 70
     1
  9
$TEXTSIZE
 40
3.0
  9
$TRACEWID
 40
1.0
  9
$TEXTSTYLE
  7
STANDARD
  9
$CLAYER
  8
0
  9
$CELTYPE
  6
ByLayer
  9
$CECOLOR
 62
   256
  9
$CELTSCALE
 40
1.0
  9
$DISPSILH
 70
     0
  9
$DIMSCALE
 40
1.0
  9
$DIMASZ
 40
3.0
  9
$DIMEXO
 40
1.0
  9
$DIMDLI
 40
6.0
  9
$DIMRND
 40
0.0
  9
$DIMDLE
 40
0.0
  9
$DIMEXE
 40
1.0
  9
$DIMTP
 40
0.0
  9
$DIMTM
 40
0.0
  9
$DIMTXT
 40
3.0
  9
$DIMCEN
 40
1.5
  9
$DIMTSZ
 40
0.0
  9
$DIMTOL
 70
     0
  9
$DIMLIM
 70
     0
  9
$DIMTIH
 70
     1
  9
$DIMTOH
 70
     1
  9
$DIMSE1
 70
     0
  9
$DIMSE2
 70
     0
  9
$DIMTAD
 70
     0
  9
$DIMZIN
 70
     0
  9
$DIMBLK
  1

  9
$DIMASO
 70
     1
  9
$DIMSHO
 70
     0
  9
$DIMPOST
  1

  9
$DIMAPOST
  1

  9
$DIMALT
 70
     0
  9
$DIMALTD
 70
     2
  9
$DIMALTF
 40
25.4
  9
$DIMLFAC
 40
1.0
  9
$DIMTOFL
 70
     1
  9
$DIMTVP
 40
0.0
  9
$DIMTIX
 70
     0
  9
$DIMSOXD
 70
     0
  9
$DIMSAH
 70
     0
  9
$DIMBLK1
  1

  9
$DIMBLK2
  1

  9
$DIMSTYLE
  2
Standard
  9
$DIMCLRD
 70
     0
  9
$DIMCLRE
 70
     0
  9
$DIMCLRT
 70
     0
  9
$DIMTFAC
 40
1.0
  9
$DIMGAP
 40
0.09
  9
$DIMJUST
 70
     0
  9
$DIMSD1
 70
     0
  9
$DIMSD2
 70
     0
  9
$DIMTOLJ
 70
     1
  9
$DIMTZIN
 70
     0
  9
$DIMALTZ
 70
     0
  9
$DIMALTTZ
 70
     0
  9
$DIMUPT
 70
     0
  9
$DIMDEC
 70
     4
  9
$DIMTDEC
 70
     8
  9
$DIMALTU
 70
     2
  9
$DIMALTTD
 70
     2
  9
$DIMTXSTY
  7
STANDARD
  9
$DIMAUNIT
 70
     0
  9
$DIMADEC
 70
     0
  9
$DIMALTRND
 40
0.0
  9
$DIMAZIN
 70
     0
  9
$DIMDSEP
 70
    46
  9
$DIMATFIT
 70
     3
  9
$DIMFRAC
 70
     0
  9
$DIMLDRBLK
  1

  9
$DIMLUNIT
 70
     2
  9
$DIMLWD
 70
    -2
  9
$DIMLWE
 70
    -2
  9
$DIMTMOVE
 70
     2
  9
$LUNITS
 70
     2
  9
$LUPREC
 70
     4
  9
$SKETCHINC
 40
0.5
  9
$FILLETRAD
 40
0.0
  9
$AUNITS
 70
     0
  9
$AUPREC
 70
     0
  9
$MENU
  1
ACAD
  9
$ELEVATION
 40
0.0
  9
$PELEVATION
 40
0.0
  9
$THICKNESS
 40
0.0
  9
$LIMCHECK
 70
     0
  9
$CHAMFERA
 40
0.0
  9
$CHAMFERB
 40
0.0
  9
$CHAMFERC
 40
0.0
  9
$CHAMFERD
 40
0.0
  9
$SKPOLY
 70
     0
  9
$TDCREATE
 40
2444975.333333334
  9
$TDUCREATE
 40
2444975.000000000
  9
$TDUPDATE
 40
2454042.440628935
  9
$TDUUPDATE
 40
2454042.107295602
  9
$TDINDWG
 40
0.3164032292
  9
$TDUSRTIMER
 40
0.0000000000
  9
$USRTIMER
 70
     0
  9
$ANGBASE
 50
0.0
  9
$ANGDIR
 70
     0
  9
$PDMODE
 70
     0
  9
$PDSIZE
 40
0.001
  9
$PLINEWID
 40
0.0
  9
$SPLFRAME
 70
     0
  9
$SPLINETYPE
 70
     6
  9
$SPLINESEGS
 70
  8000
  9
$HANDSEED
  5
EAD6
  9
$SURFTAB1
 70
     6
  9
$SURFTAB2
 70
     6
  9
$SURFTYPE
 70
     6
  9
$SURFU
 70
     6
  9
$SURFV
 70
     6
  9
$UCSBASE
  2

  9
$UCSNAME
  2

  9
$UCSORG
 10
0.0
 20
0.0
 30
0.0
  9
$UCSXDIR
 10
1.0
 20
0.0
 30
0.0
  9
$UCSYDIR
 10
0.0
 20
1.0
 30
0.0
  9
$UCSORTHOREF
  2

  9
$UCSORTHOVIEW
 70
     0
  9
$UCSORGTOP
 10
0.0
 20
0.0
 30
0.0
  9
$UCSORGBOTTOM
 10
0.0
 20
0.0
 30
0.0
  9
$UCSORGLEFT
 10
0.0
 20
0.0
 30
0.0
  9
$UCSORGRIGHT
 10
0.0
 20
0.0
 30
0.0
  9
$UCSORGFRONT
 10
0.0
 20
0.0
 30
0.0
  9
$UCSORGBACK
 10
0.0
 20
0.0
 30
0.0
  9
$PUCSBASE
  2

  9
$PUCSNAME
  2

  9
$PUCSORG
 10
0.0
 20
0.0
 30
0.0
  9
$PUCSXDIR
 10
1.0
 20
0.0
 30
0.0
  9
$PUCSYDIR
 10
0.0
 20
1.0
 30
0.0
  9
$PUCSORTHOREF
  2

  9
$PUCSORTHOVIEW
 70
     0
  9
$PUCSORGTOP
 10
0.0
 20
0.0
 30
0.0
  9
$PUCSORGBOTTOM
 10
0.0
 20
0.0
 30
0.0
  9
$PUCSORGLEFT
 10
0.0
 20
0.0
 30
0.0
  9
$PUCSORGRIGHT
 10
0.0
 20
0.0
 30
0.0
  9
$PUCSORGFRONT
 10
0.0
 20
0.0
 30
0.0
  9
$PUCSORGBACK
 10
0.0
 20
0.0
 30
0.0
  9
$USERI1
 70
     0
  9
$USERI2
 70
     0
  9
$USERI3
 70
     0
  9
$USERI4
 70
     0
  9
$USERI5
 70
     0
  9
$USERR1
 40
0.0
  9
$USERR2
 40
0.0
  9
$USERR3
 40
0.0
  9
$USERR4
 40
0.0
  9
$USERR5
 40
0.0
  9
$WORLDVIEW
 70
     1
  9
$SHADEDGE
 70
     3
  9
$SHADEDIF
 70
    70
  9
$TILEMODE
 70
     1
  9
$MAXACTVP
 70
    48
  9
$PINSBASE
 10
0.0
 20
0.0
 30
0.0
  9
$PLIMCHECK
 70
     0
  9
$PEXTMIN
 10
1.000000000000000E+20
 20
1.000000000000000E+20
 30
1.000000000000000E+20
  9
$PEXTMAX
 10
-1.000000000000000E+20
 20
-1.000000000000000E+20
 30
-1.000000000000000E+20
  9
$PLIMMIN
 10
0.0
 20
0.0
  9
$PLIMMAX
 10
12.0
 20
9.0
  9
$UNITMODE
 70
     0
  9
$VISRETAIN
 70
     1
  9
$PLINEGEN
 70
     0
  9
$PSLTSCALE
 70
     0
  9
$TREEDEPTH
 70
  3020
  9
$CMLSTYLE
  2
Standard
  9
$CMLJUST
 70
     0
  9
$CMLSCALE
 40
1.0
  9
$PROXYGRAPHICS
 70
     1
  9
$MEASUREMENT
 70
     0
  9
$CELWEIGHT
370
    -1
  9
$ENDCAPS
280
     0
  9
$JOINSTYLE
280
     0
  9
$LWDISPLAY
290
     0
  9
$INSUNITS
 70
     0
  9
$HYPERLINKBASE
  1

  9
$STYLESHEET
  1

  9
$XEDIT
290
     1
  9
$CEPSNTYPE
380
     0
  9
$PSTYLEMODE
290
     1
  9
$FINGERPRINTGUID
  2
{77095E5F-9CE7-11D7-970D-0040F4541FA8}
  9
$VERSIONGUID
  2
{1E62D6F8-AB36-4941-BDC8-C559A15C1E47}
  9
$EXTNAMES
290
     1
  9
$PSVPSCALE
 40
0.0
  9
$OLESTARTUP
290
     0
  0
ENDSEC
  0
SECTION
  2
CLASSES
  0
CLASS
  1
ACDBDICTIONARYWDFLT
  2
AcDbDictionaryWithDefault
  3
ObjectDBX Classes
 90
        0
280
     0
281
     0
  0
CLASS
  1
ACDBPLACEHOLDER
  2
AcDbPlaceHolder
  3
ObjectDBX Classes
 90
        0
280
     0
281
     0
  0
CLASS
  1
LAYOUT
  2
AcDbLayout
  3
ObjectDBX Classes
 90
        0
280
     0
281
     0
  0
CLASS
  1
LONG_TRANSACTION
  2
AcDbLongTransaction
  3
ObjectDBX Classes
 90
    32768
280
     0
281
     0
  0
CLASS
  1
LWPOLYLINE
  2
AcDbPolyline
  3
ObjectDBX Classes
 90
        0
280
     0
281
     1
  0
CLASS
  1
HATCH
  2
AcDbHatch
  3
ObjectDBX Classes
 90
    32768
280
     0
281
     1
  0
CLASS
  1
XRECORD
  2
AcDbXrecord
  3
ObjectDBX Classes
 90
        0
280
     0
281
     0
  0
CLASS
  1
LONG_TRANSACTION
  2
AcDbLongTransaction
  3
ObjectDBX Classes
 90
    32768
280
     0
281
     0
  0
CLASS
  1
LWPOLYLINE
  2
AcDbPolyline
  3
ObjectDBX Classes
 90
        0
280
     0
281
     1
  0
CLASS
  1
HATCH
  2
AcDbHatch
  3
ObjectDBX Classes
 90
    32768
280
     0
281
     1
  0
CLASS
  1
XRECORD
  2
AcDbXrecord
  3
ObjectDBX Classes
 90
        0
280
     0
281
     0
  0
CLASS
  1
DICTIONARYVAR
  2
AcDbDictionaryVar
  3
ObjectDBX Classes
 90
        0
280
     0
281
     0
  0
CLASS
  1
PLOTSETTINGS
  2
AcDbPlotSettings
  3
ObjectDBX Classes
 90
        0
280
     0
281
     0
  0
CLASS
  1
SORTENTSTABLE
  2
AcDbSortentsTable
  3
ObjectDBX Classes
 90
        0
280
     0
281
     0
  0
CLASS
  1
TABLESTYLE
  2
AcDbTableStyle
  3
ObjectDBX Classes
 90
     2047
280
     0
281
     0
  0
ENDSEC
  0
SECTION
  2
TABLES
  0
TABLE
  2
VPORT
  5
8
330
0
100
AcDbSymbolTable
 70
     4
  0
VPORT
  5
EACC
330
8
100
AcDbSymbolTableRecord
100
AcDbViewportTableRecord
  2
*Active
 70
     0
 10
0.0
 20
0.0
 11
1.0
 21
1.0
 12
2939.895089923259
 22
323.6072707807021
 13
457.9999999999997
 23
1082.0
 14
10.0
 24
10.0
 15
10.0
 25
10.0
 16
0.0
 26
0.0
 36
1.0
 17
0.0
 27
0.0
 37
0.0
 40
362.2330367635716
 41
1.530456852791878
 42
1.0
 43
0.0
 44
0.0
 50
0.0
 51
0.0
 71
     0
 72
  2000
 73
     1
 74
     1
 75
     0
 76
     0
 77
     0
 78
     0
281
     0
 65
     1
110
0.0
120
0.0
130
0.0
111
1.0
121
0.0
131
0.0
112
0.0
122
1.0
132
0.0
 79
     0
146
0.0
  0
ENDTAB
  0
TABLE
  2
LTYPE
  5
5
330
0
100
AcDbSymbolTable
 70
     6
  0
LTYPE
  5
13
330
5
100
AcDbSymbolTableRecord
100
AcDbLinetypeTableRecord
  2
ByBlock
 70
     0
  3

 72
    65
 73
     0
 40
0.0
  0
LTYPE
  5
14
330
5
100
AcDbSymbolTableRecord
100
AcDbLinetypeTableRecord
  2
ByLayer
 70
     0
  3

 72
    65
 73
     0
 40
0.0
  0
LTYPE
  5
15
330
5
100
AcDbSymbolTableRecord
100
AcDbLinetypeTableRecord
  2
CONTINUOUS
 70
     0
  3
連續線 ________________________
 72
    65
 73
     0
 40
0.0
  0
LTYPE
  5
225
330
5
100
AcDbSymbolTableRecord
100
AcDbLinetypeTableRecord
  2
BYBLOCK
 70
     0
  3
Solid line
 72
    65
 73
     0
 40
0.0
  0
LTYPE
  5
226
330
5
100
AcDbSymbolTableRecord
100
AcDbLinetypeTableRecord
  2
BYLAYER
 70
     0
  3
Solid line
 72
    65
 73
     0
 40
0.0
  0
LTYPE
  5
413C
330
5
100
AcDbSymbolTableRecord
100
AcDbLinetypeTableRecord
  2
CENTER2
 70
     0
  3
Center (.5x) ___ _ ___ _ ___ _ ___ _ ___ _ ___
 72
    65
 73
     4
 40
28.575
 49
19.05
 74
     0
 49
-3.174999999999999
 74
     0
 49
3.174999999999999
 74
     0
 49
-3.174999999999999
 74
     0
  0
LTYPE
  5
413D
330
5
100
AcDbSymbolTableRecord
100
AcDbLinetypeTableRecord
  2
DASHED2
 70
     0
  3
Dashed (.5x) _ _ _ _ _ _ _ _ _ _ _ _ _ _ _ _ _
 72
    65
 73
     2
 40
9.524999999999998
 49
6.349999999999999
 74
     0
 49
-3.174999999999999
 74
     0
  0
LTYPE
  5
69DC
330
5
100
AcDbSymbolTableRecord
100
AcDbLinetypeTableRecord
  2
DASHED
 70
     0
  3
__ __ __ __ __ __ __ __ __ __ __ __ __ __ __
 72
    65
 73
     2
 40
4.0
 49
3.0
 74
     0
 49
-1.0
 74
     0
  0
ENDTAB
  0
TABLE
  2
LAYER
  5
2
102
{ACAD_XDICTIONARY
360
43C2
102
}
330
0
100
AcDbSymbolTable
 70
     7
  0
LAYER
  5
10
330
2
100
AcDbSymbolTableRecord
100
AcDbLayerTableRecord
  2
0
 70
     0
 62
     7
  6
CONTINUOUS
370
    -3
390
F
  0
LAYER
  5
413E
330
2
100
AcDbSymbolTableRecord
100
AcDbLayerTableRecord
  2
指線
 70
     0
 62
     3
  6
CONTINUOUS
370
    15
390
F
  0
LAYER
  5
413F
330
2
100
AcDbSymbolTableRecord
100
AcDbLayerTableRecord
  2
中心線
 70
     0
 62
     4
  6
CENTER2
370
    20
390
F
  0
LAYER
  5
4140
330
2
100
AcDbSymbolTableRecord
100
AcDbLayerTableRecord
  2
虛線
 70
     0
 62
     6
  6
DASHED2
290
     0
370
    -3
390
F
  0
LAYER
  5
43B4
330
2
100
AcDbSymbolTableRecord
100
AcDbLayerTableRecord
  2
建構線
 70
     0
 62
     1
  6
CONTINUOUS
370
    -3
390
F
  0
LAYER
  5
69DF
330
2
100
AcDbSymbolTableRecord
100
AcDbLayerTableRecord
  2
標註線
 70
     0
 62
     3
  6
CONTINUOUS
370
    13
390
F
  0
LAYER
  5
C701
330
2
100
AcDbSymbolTableRecord
100
AcDbLayerTableRecord
  2
Defpoints
 70
     0
 62
     7
  6
CONTINUOUS
290
     0
370
    -3
390
F
  0
ENDTAB
  0
TABLE
  2
STYLE
  5
3
330
0
100
AcDbSymbolTable
 70
     1
  0
STYLE
  5
11
330
3
100
AcDbSymbolTableRecord
100
AcDbTextStyleTableRecord
  2
STANDARD
 70
     0
 40
0.0
 41
1.0
 50
0.0
 71
     0
 42
3.0
  3

  4

  0
ENDTAB
  0
TABLE
  2
VIEW
  5
6
330
0
100
AcDbSymbolTable
 70
     0
  0
ENDTAB
  0
TABLE
  2
UCS
  5
7
330
0
100
AcDbSymbolTable
 70
     0
  0
ENDTAB
  0
TABLE
  2
APPID
  5
9
330
0
100
AcDbSymbolTable
 70
     4
  0
APPID
  5
12
330
9
100
AcDbSymbolTableRecord
100
AcDbRegAppTableRecord
  2
ACAD
 70
     0
  0
APPID
  5
230
330
9
100
AcDbSymbolTableRecord
100
AcDbRegAppTableRecord
  2
TCAD
 70
     0
  0
APPID
  5
4142
330
9
100
AcDbSymbolTableRecord
100
AcDbRegAppTableRecord
  2
CONTENTBLOCKICON
 70
     0
  0
APPID
  5
5D91
330
9
100
AcDbSymbolTableRecord
100
AcDbRegAppTableRecord
  2
pntflag
 70
     0
  0
ENDTAB
  0
TABLE
  2
DIMSTYLE
  5
A
330
0
100
AcDbSymbolTable
 70
     1
100
AcDbDimStyleTable
 71
     1
340
3C9D
  0
DIMSTYLE
105
3C9D
330
A
100
AcDbSymbolTableRecord
100
AcDbDimStyleTableRecord
  2
Standard
 70
     0
340
11
  0
ENDTAB
  0
TABLE
  2
BLOCK_RECORD
  5
1
330
0
100
AcDbSymbolTable
 70
     2
  0
BLOCK_RECORD
  5
1E
102
{ACAD_XDICTIONARY
360
3D1E
102
}
330
1
100
AcDbSymbolTableRecord
100
AcDbBlockTableRecord
  2
*Model_Space
340
21
  0
BLOCK_RECORD
  5
1A
102
{ACAD_XDICTIONARY
360
3D20
102
}
330
1
100
AcDbSymbolTableRecord
100
AcDbBlockTableRecord
  2
*Paper_Space
340
1D
  0
BLOCK_RECORD
  5
69B7
102
{ACAD_XDICTIONARY
360
69B8
102
}
330
1
100
AcDbSymbolTableRecord
100
AcDbBlockTableRecord
  2
A$C51E2538E
340
0
  0
BLOCK_RECORD
  5
69CB
102
{ACAD_XDICTIONARY
360
69CC
102
}
330
1
100
AcDbSymbolTableRecord
100
AcDbBlockTableRecord
  2
A$C3310154B
340
0
  0
ENDTAB
  0
ENDSEC
  0
SECTION
  2
BLOCKS
  0
BLOCK
  5
254
330
1E
100
AcDbEntity
  8
0
100
AcDbBlockBegin
  2
*Model_Space
 70
     0
 10
0.0
 20
0.0
 30
0.0
  3
*Model_Space
  1

  0
ENDBLK
  5
255
330
1E
100
AcDbEntity
  8
0
100
AcDbBlockEnd
  0
BLOCK
  5
252
330
1A
100
AcDbEntity
 67
     1
  8
0
100
AcDbBlockBegin
  2
*Paper_Space
 70
     0
 10
0.0
 20
0.0
 30
0.0
  3
*Paper_Space
  1

  0
ENDBLK
  5
253
330
1A
100
AcDbEntity
 67
     1
  8
0
100
AcDbBlockEnd
  0
BLOCK
  5
69BA
330
69B7
100
AcDbEntity
  8
0
 62
     1
 48
0.27
100
AcDbBlockBegin
  2
A$C51E2538E
 70
     0
 10
0.0
 20
0.0
 30
0.0
  3
A$C51E2538E
  1

  0
LINE
  5
69BB
330
69B7
100
AcDbEntity
  8
虛線
 48
0.25
100
AcDbLine
 10
9.230939415452212
 20
1.99838789798423
 30
0.0
 11
2.230939415459943
 21
1.998387897983548
 31
0.0
  0
LINE
  5
69BC
330
69B7
100
AcDbEntity
  8
虛線
 48
0.25
100
AcDbLine
 10
9.230939415453576
 20
15.79841841556197
 30
0.0
 11
9.230939415452212
 21
1.99838789798423
 31
0.0
  0
LINE
  5
69BD
330
69B7
100
AcDbEntity
  8
虛線
 48
0.25
100
AcDbLine
 10
0.2309394154581241
 20
24.698418415562
 30
0.0
 11
0.2309394154590336
 21
16.09842604495623
 31
0.0
  0
LINE
  5
69BE
330
69B7
100
AcDbEntity
  8
虛線
 48
0.25
100
AcDbLine
 10
2.230939415453576
 20
15.79841841556191
 30
0.0
 11
2.230939415459943
 21
1.998387897983576
 31
0.0
  0
LINE
  5
69BF
330
69B7
100
AcDbEntity
  8
虛線
 48
0.25
100
AcDbLine
 10
0.2309394154590336
 20
16.09835738040544
 30
0.0
 11
11.23093941545221
 21
16.09835738040573
 31
0.0
  0
LINE
  5
69C0
330
69B7
100
AcDbEntity
  8
中心線
 48
0.25
100
AcDbLine
 10
5.730939415455679
 20
27.09841841556201
 30
0.0
 11
5.730939415449938
 21
0.0
 31
0.0
  0
LINE
  5
69C1
330
69B7
100
AcDbEntity
  8
虛線
 48
0.25
100
AcDbLine
 10
2.230939415459943
 20
1.998387897983548
 30
0.0
 11
1.730939415460852
 21
1.498387897984002
 31
0.0
  0
LINE
  5
69C2
330
69B7
100
AcDbEntity
  8
虛線
 48
0.25
100
AcDbLine
 10
9.230939415452212
 20
1.99838789798423
 30
0.0
 11
9.730939415451302
 21
1.498387897984287
 31
0.0
  0
LINE
  5
69C3
330
69B7
100
AcDbEntity
  8
虛線
 48
0.25
100
AcDbLine
 10
11.23093941545358
 20
24.698418415562
 30
0.0
 11
11.23093941545221
 21
16.09835738040573
 31
0.0
  0
LINE
  5
69C4
330
69B7
100
AcDbEntity
  8
虛線
 48
0.25
100
AcDbLine
 10
0.2309394154535767
 20
24.698418415562
 30
0.0
 11
11.23093941545358
 21
24.698418415562
 31
0.0
  0
LINE
  5
69C5
330
69B7
100
AcDbEntity
  8
虛線
 48
0.25
100
AcDbLine
 10
2.230939415453576
 20
15.79841841556197
 30
0.0
 11
9.230939415453576
 21
15.79841841556197
 31
0.0
  0
LINE
  5
69C6
330
69B7
100
AcDbEntity
  8
虛線
 48
0.25
100
AcDbLine
 10
1.930939415453394
 20
16.09841841556192
 30
0.0
 11
2.230939415453576
 21
15.79841841556191
 31
0.0
  0
LINE
  5
69C7
330
69B7
100
AcDbEntity
  8
虛線
 48
0.25
100
AcDbLine
 10
0.2309394154535767
 20
24.698418415562
 30
0.0
 11
-0.0000006922223292
 21
25.09841841556204
 31
0.0
  0
LINE
  5
69C8
330
69B7
100
AcDbEntity
  8
虛線
 48
0.25
100
AcDbLine
 10
9.230939415453576
 20
15.79841841556197
 30
0.0
 11
9.530939415453758
 21
16.09841841556198
 31
0.0
  0
LINE
  5
69C9
330
69B7
100
AcDbEntity
  8
虛線
 48
0.25
100
AcDbLine
 10
11.23093941545358
 20
24.698418415562
 30
0.0
 11
11.46187952312948
 21
25.09841841556204
 31
0.0
  0
ENDBLK
  5
69CA
330
69B7
100
AcDbEntity
  8
0
 62
     1
 48
0.27
100
AcDbBlockEnd
  0
BLOCK
  5
69CE
330
69CB
100
AcDbEntity
  8
0
 62
     1
 48
0.27
100
AcDbBlockBegin
  2
A$C3310154B
 70
     0
 10
0.0
 20
0.0
 30
0.0
  3
A$C3310154B
  1

  0
LINE
  5
69CF
330
69CB
100
AcDbEntity
  8
虛線
 48
0.2
100
AcDbLine
 10
0.4999707651827521
 20
12.80115016654724
 30
0.0
 11
0.4999707651836616
 21
5.30113016654775
 31
0.0
  0
LINE
  5
69D0
330
69CB
100
AcDbEntity
  8
虛線
 48
0.2
100
AcDbLine
 10
6.499970765181842
 20
12.80111016654831
 30
0.0
 11
6.499970765183661
 21
5.301130166548432
 31
0.0
  0
LINE
  5
69D1
330
69CB
100
AcDbEntity
  8
虛線
 48
0.2
100
AcDbLine
 10
6.499970765183661
 20
5.301130166548432
 30
0.0
 11
0.4999707651836616
 21
5.30113016654775
 31
0.0
  0
LINE
  5
69D2
330
69CB
100
AcDbEntity
  8
中心線
 48
0.25
100
AcDbLine
 10
3.49999076518344
 20
15.30112016654811
 30
0.0
 11
3.499990765177699
 21
0.000000166540076
 31
0.0
  0
LINE
  5
69D3
330
69CB
100
AcDbEntity
  8
虛線
 48
0.2
100
AcDbLine
 10
5.999980765182044
 20
12.30112016654846
 30
0.0
 11
5.999980765187501
 21
2.30113016655747
 31
0.0
  0
LINE
  5
69D4
330
69CB
100
AcDbEntity
  8
虛線
 48
0.2
100
AcDbLine
 10
1.000000765181994
 20
12.30112016654812
 30
0.0
 11
1.000000765187905
 21
2.301130166554685
 31
0.0
  0
LINE
  5
69D5
330
69CB
100
AcDbEntity
  8
虛線
 48
0.2
100
AcDbLine
 10
5.999980765187501
 20
2.30113016655747
 30
0.0
 11
1.000000765187905
 21
2.301130166554685
 31
0.0
  0
LINE
  5
69D6
330
69CB
100
AcDbEntity
  8
虛線
 48
0.2
100
AcDbLine
 10
5.999980765182499
 20
12.3011201665484
 30
0.0
 11
1.000000765181994
 21
12.30112016654817
 31
0.0
  0
LINE
  5
69D7
330
69CB
100
AcDbEntity
  8
虛線
 48
0.2
100
AcDbLine
 10
5.999980765182044
 20
12.3011201665484
 30
0.0
 11
6.999980765182499
 21
13.30112016654863
 31
0.0
  0
LINE
  5
69D8
330
69CB
100
AcDbEntity
  8
虛線
 48
0.2
100
AcDbLine
 10
5.999980765187956
 20
2.301130166557413
 30
0.0
 11
3.499990765183611
 21
0.801130166544965
 31
0.0
  0
LINE
  5
69D9
330
69CB
100
AcDbEntity
  8
虛線
 48
0.2
100
AcDbLine
 10
1.000000765187905
 20
2.30113016657259
 30
0.0
 11
3.499990765178154
 21
0.801130166544965
 31
0.0
  0
LINE
  5
69DA
330
69CB
100
AcDbEntity
  8
虛線
 48
0.2
100
AcDbLine
 10
1.00000076518495
 20
12.30112016654834
 30
0.0
 11
0.0000007651844385
 21
13.30112016654854
 31
0.0
  0
ENDBLK
  5
69DB
330
69CB
100
AcDbEntity
  8
0
 62
     1
 48
0.27
100
AcDbBlockEnd
  0
ENDSEC
  0
SECTION
  2
ENTITIES
  0
LINE
  5
A18B
330
1E
100
AcDbEntity
  8
0
100
AcDbLine
 10
2913.617991503756
 20
268.2806499992587
 30
0.0
 11
2913.617991503756
 21
278.2806499992587
 31
0.0
  0
LINE
  5
A18C
330
1E
100
AcDbEntity
  8
中心線
 48
0.27
100
AcDbLine
 10
2899.946109003756
 20
273.2806499992587
 30
0.0
 11
2916.016187614554
 21
273.2806258353837
 31
0.0
  0
LINE
  5
A18D
330
1E
100
AcDbEntity
  8
0
 48
0.27
100
AcDbLine
 10
2908.932566503756
 20
268.2806499992587
 30
0.0
 11
2915.017991503755
 21
268.2806499992587
 31
0.0
  0
LINE
  5
A18E
330
1E
100
AcDbEntity
  8
0
 48
0.27
100
AcDbLine
 10
2915.017991503755
 20
278.2806499992587
 30
0.0
 11
2908.932566503756
 21
278.2806499992587
 31
0.0
  0
ARC
  5
A18F
330
1E
100
AcDbEntity
  8
0
 48
0.27
100
AcDbCircle
 10
2908.932566503756
 20
273.2806499992587
 30
0.0
 40
4.99999999999996
100
AcDbArc
 50
90.0
 51
131.4096219995944
  0
LWPOLYLINE
  5
A190
330
1E
100
AcDbEntity
  8
0
 48
0.27
100
AcDbPolyline
 90
       31
 70
     0
 43
0.0
 10
2904.457095253755
 20
273.2806499992587
 10
2904.416072753756
 20
273.5434687492587
 10
2904.360889003756
 20
273.6753274992586
 10
2904.282097753756
 20
273.7975512492587
 10
2904.182752753755
 20
273.9026924992588
 10
2904.068389003755
 20
273.9850337492587
 10
2903.945989003755
 20
274.0416349992586
 10
2903.780194003756
 20
274.0778112492587
 10
2903.626432753755
 20
274.0744874992588
 10
2903.492777753756
 20
274.0426049992586
 10
2903.347521503755
 20
273.9728949992586
 10
2903.209309003755
 20
273.8610337492587
 10
2903.099021503756
 20
273.7178462492586
 10
2903.028229003756
 20
273.5680474992589
 10
2902.993415253755
 20
273.4384774992589
 10
2902.978889003756
 20
273.2806499992587
 10
2903.019911503756
 20
273.0178312492587
 10
2903.075096503755
 20
272.8859712492588
 10
2903.153886503756
 20
272.7637487492586
 10
2903.253231503756
 20
272.6586074992588
 10
2903.367595253755
 20
272.5762662492587
 10
2903.489995253755
 20
272.5196649992588
 10
2903.655790253755
 20
272.4834874992587
 10
2903.809551503756
 20
272.4868124992588
 10
2903.943206503756
 20
272.5186937492588
 10
2904.088462753755
 20
272.5884037492587
 10
2904.226675253756
 20
272.7002662492587
 10
2904.336962753756
 20
272.8434524992588
 10
2904.407755253755
 20
272.9932512492587
 10
2904.442570253756
 20
273.122822499259
 10
2904.457095253755
 20
273.2806499992587
  0
ARC
  5
A191
330
1E
100
AcDbEntity
  8
0
 48
0.27
100
AcDbCircle
 10
2908.932566503756
 20
273.2806499992587
 30
0.0
 40
4.99999999999996
100
AcDbArc
 50
228.5903779972973
 51
270.0
  0
LINE
  5
A192
330
1E
100
AcDbEntity
  8
0
 48
0.27
100
AcDbLine
 10
2904.523270253755
 20
277.0306499992587
 30
0.0
 11
2909.397990253756
 21
277.0306499992587
 31
0.0
  0
LINE
  5
A193
330
1E
100
AcDbEntity
  8
0
 48
0.27
100
AcDbLine
 10
2904.215279003756
 20
270.1080587492588
 30
0.0
 11
2904.523270253755
 21
269.5306499992589
 31
0.0
  0
LINE
  5
A194
330
1E
100
AcDbEntity
  8
0
 48
0.27
100
AcDbLine
 10
2904.523270253755
 20
277.0306499992587
 30
0.0
 11
2904.215279003756
 21
276.4532412492588
 31
0.0
  0
LINE
  5
A195
330
1E
100
AcDbEntity
  8
0
 48
0.27
100
AcDbLine
 10
2910.524042753756
 20
273.2806499992587
 30
0.0
 11
2911.398247753756
 21
273.2806499992587
 31
0.0
  0
LINE
  5
A196
330
1E
100
AcDbEntity
  8
0
 48
0.27
100
AcDbLine
 10
2909.397990253756
 20
277.0306499992587
 30
0.0
 11
2911.398247753756
 21
273.2806499992587
 31
0.0
  0
LINE
  5
A197
330
1E
100
AcDbEntity
  8
0
 48
0.27
100
AcDbLine
 10
2909.397990253756
 20
269.5306499992589
 30
0.0
 11
2904.523270253755
 21
269.5306499992589
 31
0.0
  0
LINE
  5
A198
330
1E
100
AcDbEntity
  8
0
 48
0.27
100
AcDbLine
 10
2911.398247753756
 20
273.2806499992587
 30
0.0
 11
2909.397990253756
 21
269.5306499992589
 31
0.0
  0
LINE
  5
A199
330
1E
100
AcDbEntity
  8
0
 48
0.27
100
AcDbLine
 10
2904.674619003756
 20
276.4425674992588
 30
0.0
 11
2905.197702753756
 21
276.7451974992586
 31
0.0
  0
LINE
  5
A19A
330
1E
100
AcDbEntity
  8
0
 48
0.27
100
AcDbLine
 10
2904.674619003756
 20
270.1187312492589
 30
0.0
 11
2905.197702753756
 21
269.8161012492587
 31
0.0
  0
LINE
  5
A19B
330
1E
100
AcDbEntity
  8
0
 48
0.27
100
AcDbLine
 10
2905.197702753756
 20
276.7451974992586
 30
0.0
 11
2905.847627753756
 21
276.9585949992586
 31
0.0
  0
LINE
  5
A19C
330
1E
100
AcDbEntity
  8
0
 48
0.27
100
AcDbLine
 10
2905.197702753756
 20
269.8161012492587
 30
0.0
 11
2905.847627753756
 21
269.6027049992588
 31
0.0
  0
LINE
  5
A19D
330
1E
100
AcDbEntity
  8
0
 48
0.27
100
AcDbLine
 10
2905.847627753756
 20
276.9585949992586
 30
0.0
 11
2906.523527753756
 21
277.0306499992587
 31
0.0
  0
LINE
  5
A19E
330
1E
100
AcDbEntity
  8
0
 48
0.27
100
AcDbLine
 10
2905.847627753756
 20
269.6027049992588
 30
0.0
 11
2906.523527753756
 21
269.5306499992589
 31
0.0
  0
LINE
  5
A19F
330
1E
100
AcDbEntity
  8
0
 48
0.27
100
AcDbLine
 10
2906.523527753756
 20
277.0306499992587
 30
0.0
 11
2907.199427753755
 21
276.9585949992586
 31
0.0
  0
LINE
  5
A1A0
330
1E
100
AcDbEntity
  8
0
 48
0.27
100
AcDbLine
 10
2906.523527753756
 20
269.5306499992589
 30
0.0
 11
2907.199427753755
 21
269.6027049992588
 31
0.0
  0
LINE
  5
A1A1
330
1E
100
AcDbEntity
  8
0
 48
0.27
100
AcDbLine
 10
2907.199427753755
 20
276.9585949992586
 30
0.0
 11
2907.849352753756
 21
276.7451974992586
 31
0.0
  0
LINE
  5
A1A2
330
1E
100
AcDbEntity
  8
0
 48
0.27
100
AcDbLine
 10
2907.199427753755
 20
269.6027049992588
 30
0.0
 11
2907.849352753756
 21
269.8161012492587
 31
0.0
  0
LINE
  5
A1A3
330
1E
100
AcDbEntity
  8
0
 48
0.27
100
AcDbLine
 10
2907.849352753756
 20
276.7451974992586
 30
0.0
 11
2908.448327753756
 21
276.3986612492588
 31
0.0
  0
LINE
  5
A1A4
330
1E
100
AcDbEntity
  8
0
 48
0.27
100
AcDbLine
 10
2907.849352753756
 20
269.8161012492587
 30
0.0
 11
2908.448327753756
 21
270.1626387492588
 31
0.0
  0
LINE
  5
A1A5
330
1E
100
AcDbEntity
  8
0
 48
0.27
100
AcDbLine
 10
2908.448327753756
 20
276.3986612492588
 30
0.0
 11
2908.973332753755
 21
275.9322999992587
 31
0.0
  0
LINE
  5
A1A6
330
1E
100
AcDbEntity
  8
0
 48
0.27
100
AcDbLine
 10
2908.448327753756
 20
270.1626387492588
 30
0.0
 11
2908.973332753755
 21
270.6289987492587
 31
0.0
  0
LINE
  5
A1A7
330
1E
100
AcDbEntity
  8
0
 48
0.27
100
AcDbLine
 10
2908.523785253756
 20
277.0306499992587
 30
0.0
 11
2910.524042753756
 21
273.2806499992587
 31
0.0
  0
LINE
  5
A1A8
330
1E
100
AcDbEntity
  8
0
 48
0.27
100
AcDbLine
 10
2910.524042753756
 20
273.2806499992587
 30
0.0
 11
2908.523785253756
 21
269.5306499992589
 31
0.0
  0
LINE
  5
A1A9
330
1E
100
AcDbEntity
  8
0
 48
0.27
100
AcDbLine
 10
2908.973332753755
 20
275.9322999992587
 30
0.0
 11
2909.404194003756
 21
275.3640374992587
 31
0.0
  0
LINE
  5
A1AA
330
1E
100
AcDbEntity
  8
0
 48
0.27
100
AcDbLine
 10
2909.404194003756
 20
271.1972612492589
 30
0.0
 11
2908.973332753755
 21
270.6289987492587
 31
0.0
  0
LINE
  5
A1AB
330
1E
100
AcDbEntity
  8
0
 48
0.27
100
AcDbLine
 10
2909.404194003756
 20
275.3640374992587
 30
0.0
 11
2909.724352753756
 21
274.7157124992589
 31
0.0
  0
LINE
  5
A1AC
330
1E
100
AcDbEntity
  8
0
 48
0.27
100
AcDbLine
 10
2909.724352753756
 20
271.8455862492588
 30
0.0
 11
2909.404194003756
 21
271.1972612492589
 31
0.0
  0
LINE
  5
A1AD
330
1E
100
AcDbEntity
  8
0
 48
0.27
100
AcDbLine
 10
2909.724352753756
 20
274.7157124992589
 30
0.0
 11
2909.921505253756
 21
274.0122387492588
 31
0.0
  0
LINE
  5
A1AE
330
1E
100
AcDbEntity
  8
0
 48
0.27
100
AcDbLine
 10
2909.921505253756
 20
272.5490612492588
 30
0.0
 11
2909.724352753756
 21
271.8455862492588
 31
0.0
  0
LINE
  5
A1AF
330
1E
100
AcDbEntity
  8
0
 48
0.27
100
AcDbLine
 10
2909.921505253756
 20
274.0122387492588
 30
0.0
 11
2909.988075253756
 21
273.2806499992587
 31
0.0
  0
LINE
  5
A1B0
330
1E
100
AcDbEntity
  8
0
 48
0.27
100
AcDbLine
 10
2909.988075253756
 20
273.2806499992587
 30
0.0
 11
2909.921505253756
 21
272.5490612492588
 31
0.0
  0
LINE
  5
A1B1
330
1E
100
AcDbEntity
  8
0
 48
0.27
100
AcDbLine
 10
2902.893656503756
 20
275.3309337492587
 30
0.0
 11
2902.897370253755
 21
275.3289149992588
 31
0.0
  0
LINE
  5
A1B2
330
1E
100
AcDbEntity
  8
0
 48
0.27
100
AcDbLine
 10
2902.893656503756
 20
271.2303649992589
 30
0.0
 11
2902.897370253755
 21
271.2323849992588
 31
0.0
  0
LINE
  5
A1B3
330
1E
100
AcDbEntity
  8
0
 48
0.27
100
AcDbLine
 10
2901.502769003756
 20
273.9033274992587
 30
0.0
 11
2901.446109003756
 21
273.2806499992587
 31
0.0
  0
LINE
  5
A1B4
330
1E
100
AcDbEntity
  8
0
 48
0.27
100
AcDbLine
 10
2901.670571503755
 20
274.5020749992589
 30
0.0
 11
2901.502769003756
 21
273.9033274992587
 31
0.0
  0
LINE
  5
A1B5
330
1E
100
AcDbEntity
  8
0
 48
0.27
100
AcDbLine
 10
2901.446109003756
 20
273.2806499992587
 30
0.0
 11
2901.502769003756
 21
272.6579724992587
 31
0.0
  0
LINE
  5
A1B6
330
1E
100
AcDbEntity
  8
0
 48
0.27
100
AcDbLine
 10
2901.943067753756
 20
275.0538849992588
 30
0.0
 11
2901.670571503755
 21
274.5020749992589
 31
0.0
  0
LINE
  5
A1B7
330
1E
100
AcDbEntity
  8
0
 48
0.27
100
AcDbLine
 10
2901.502769003756
 20
272.6579724992587
 30
0.0
 11
2901.670571503755
 21
272.0592237492588
 31
0.0
  0
LINE
  5
A1B8
330
1E
100
AcDbEntity
  8
0
 48
0.27
100
AcDbLine
 10
2902.309787753756
 20
275.5375499992588
 30
0.0
 11
2901.943067753756
 21
275.0538849992588
 31
0.0
  0
LINE
  5
A1B9
330
1E
100
AcDbEntity
  8
0
 48
0.27
100
AcDbLine
 10
2901.670571503755
 20
272.0592237492588
 30
0.0
 11
2901.943067753756
 21
271.5074149992588
 31
0.0
  0
LINE
  5
A1BA
330
1E
100
AcDbEntity
  8
0
 48
0.27
100
AcDbLine
 10
2902.309787753756
 20
275.5375499992588
 30
0.0
 11
2902.756635253755
 21
275.9344837492588
 31
0.0
  0
LINE
  5
A1BB
330
1E
100
AcDbEntity
  8
0
 48
0.27
100
AcDbLine
 10
2901.943067753756
 20
271.5074149992588
 30
0.0
 11
2902.309787753756
 21
271.0237499992588
 31
0.0
  0
LINE
  5
A1BC
330
1E
100
AcDbEntity
  8
0
 48
0.27
100
AcDbLine
 10
2901.688647753756
 20
273.7175699992588
 30
0.0
 11
2901.648890253756
 21
273.2806499992587
 31
0.0
  0
LINE
  5
A1BD
330
1E
100
AcDbEntity
  8
0
 48
0.27
100
AcDbLine
 10
2901.806391503756
 20
274.1376999992588
 30
0.0
 11
2901.688647753756
 21
273.7175699992588
 31
0.0
  0
LINE
  5
A1BE
330
1E
100
AcDbEntity
  8
0
 48
0.27
100
AcDbLine
 10
2901.648890253756
 20
273.2806499992587
 30
0.0
 11
2901.688647753756
 21
272.8437299992588
 31
0.0
  0
LINE
  5
A1BF
330
1E
100
AcDbEntity
  8
0
 48
0.27
100
AcDbLine
 10
2901.997596503756
 20
274.5248937492588
 30
0.0
 11
2901.806391503756
 21
274.1376999992588
 31
0.0
  0
LINE
  5
A1C0
330
1E
100
AcDbEntity
  8
0
 48
0.27
100
AcDbLine
 10
2901.688647753756
 20
272.8437299992588
 30
0.0
 11
2901.806391503756
 21
272.4235999992588
 31
0.0
  0
LINE
  5
A1C1
330
1E
100
AcDbEntity
  8
0
 48
0.27
100
AcDbLine
 10
2902.756635253755
 20
275.9344837492588
 30
0.0
 11
2903.266441503755
 21
276.2294324992588
 31
0.0
  0
LINE
  5
A1C2
330
1E
100
AcDbEntity
  8
0
 48
0.27
100
AcDbLine
 10
2902.309787753756
 20
271.0237499992588
 30
0.0
 11
2902.756635253755
 21
270.6268162492588
 31
0.0
  0
LINE
  5
A1C3
330
1E
100
AcDbEntity
  8
0
 48
0.27
100
AcDbLine
 10
2902.254916503756
 20
274.8642712492588
 30
0.0
 11
2901.997596503756
 21
274.5248937492588
 31
0.0
  0
LINE
  5
A1C4
330
1E
100
AcDbEntity
  8
0
 48
0.27
100
AcDbLine
 10
2901.806391503756
 20
272.4235999992588
 30
0.0
 11
2901.997596503756
 21
272.0364062492588
 31
0.0
  0
LINE
  5
A1C5
330
1E
100
AcDbEntity
  8
0
 48
0.27
100
AcDbLine
 10
2903.266441503755
 20
276.2294324992588
 30
0.0
 11
2903.819612753756
 21
276.4110599992587
 31
0.0
  0
LINE
  5
A1C6
330
1E
100
AcDbEntity
  8
0
 48
0.27
100
AcDbLine
 10
2902.756635253755
 20
270.6268162492588
 30
0.0
 11
2903.266441503755
 21
270.3318674992588
 31
0.0
  0
LINE
  5
A1C7
330
1E
100
AcDbEntity
  8
0
 48
0.27
100
AcDbLine
 10
2902.254916503756
 20
274.8642712492588
 30
0.0
 11
2902.568460253756
 21
275.1427924992588
 31
0.0
  0
LINE
  5
A1C8
330
1E
100
AcDbEntity
  8
0
 48
0.27
100
AcDbLine
 10
2901.997596503756
 20
272.0364062492588
 30
0.0
 11
2902.254916503756
 21
271.6970274992589
 31
0.0
  0
LINE
  5
A1C9
330
1E
100
AcDbEntity
  8
0
 48
0.27
100
AcDbLine
 10
2903.819612753756
 20
276.4110599992587
 30
0.0
 11
2904.394891503756
 21
276.4723887492587
 31
0.0
  0
LINE
  5
A1CA
330
1E
100
AcDbEntity
  8
0
 48
0.27
100
AcDbLine
 10
2903.266441503755
 20
270.3318674992588
 30
0.0
 11
2903.819612753756
 21
270.1502387492587
 31
0.0
  0
LINE
  5
A1CB
330
1E
100
AcDbEntity
  8
0
 48
0.27
100
AcDbLine
 10
2902.568460253756
 20
275.1427924992588
 30
0.0
 11
2902.926181503755
 21
275.3497512492588
 31
0.0
  0
LINE
  5
A1CC
330
1E
100
AcDbEntity
  8
0
 48
0.27
100
AcDbLine
 10
2902.254916503756
 20
271.6970274992589
 30
0.0
 11
2902.568460253756
 21
271.4185074992588
 31
0.0
  0
LINE
  5
A1CD
330
1E
100
AcDbEntity
  8
0
 48
0.27
100
AcDbLine
 10
2905.150715253756
 20
276.3768762492589
 30
0.0
 11
2905.697845253755
 21
276.1972312492587
 31
0.0
  0
LINE
  5
A1CE
330
1E
100
AcDbEntity
  8
0
 48
0.27
100
AcDbLine
 10
2902.926181503755
 20
275.3497512492588
 30
0.0
 11
2903.314330253756
 21
275.4771962492589
 31
0.0
  0
LINE
  5
A1CF
330
1E
100
AcDbEntity
  8
0
 48
0.27
100
AcDbLine
 10
2902.568460253756
 20
271.4185074992588
 30
0.0
 11
2902.926181503755
 21
271.2115474992588
 31
0.0
  0
LINE
  5
A1D0
330
1E
100
AcDbEntity
  8
0
 48
0.27
100
AcDbLine
 10
2904.970170253756
 20
276.4110599992587
 30
0.0
 11
2905.150715253756
 21
276.3768762492589
 31
0.0
  0
LINE
  5
A1D1
330
1E
100
AcDbEntity
  8
0
 48
0.27
100
AcDbLine
 10
2904.394891503756
 20
276.4723887492587
 30
0.0
 11
2904.970170253756
 21
276.4110599992587
 31
0.0
  0
LINE
  5
A1D2
330
1E
100
AcDbEntity
  8
0
 48
0.27
100
AcDbLine
 10
2903.819612753756
 20
270.1502387492587
 30
0.0
 11
2904.394891503756
 21
270.0889112492589
 31
0.0
  0
LINE
  5
A1D3
330
1E
100
AcDbEntity
  8
0
 48
0.27
100
AcDbLine
 10
2905.697845253755
 20
276.1972312492587
 30
0.0
 11
2906.202084003756
 21
275.9055037492587
 31
0.0
  0
LINE
  5
A1D4
330
1E
100
AcDbEntity
  8
0
 48
0.27
100
AcDbLine
 10
2905.150715253756
 20
270.1844237492589
 30
0.0
 11
2905.697845253755
 21
270.3640687492589
 31
0.0
  0
LINE
  5
A1D5
330
1E
100
AcDbEntity
  8
0
 48
0.27
100
AcDbLine
 10
2906.202084003756
 20
275.9055037492587
 30
0.0
 11
2906.644052753755
 21
275.5129049992588
 31
0.0
  0
LINE
  5
A1D6
330
1E
100
AcDbEntity
  8
0
 48
0.27
100
AcDbLine
 10
2905.697845253755
 20
270.3640687492589
 30
0.0
 11
2906.202084003756
 21
270.6557962492588
 31
0.0
  0
LINE
  5
A1D7
330
1E
100
AcDbEntity
  8
0
 48
0.27
100
AcDbLine
 10
2903.314330253756
 20
275.4771962492589
 30
0.0
 11
2903.717992753755
 21
275.5202287492589
 31
0.0
  0
LINE
  5
A1D8
330
1E
100
AcDbEntity
  8
0
 48
0.27
100
AcDbLine
 10
2902.926181503755
 20
271.2115474992588
 30
0.0
 11
2903.314330253756
 21
271.0841024992587
 31
0.0
  0
LINE
  5
A1D9
330
1E
100
AcDbEntity
  8
0
 48
0.27
100
AcDbLine
 10
2904.970170253756
 20
276.4110599992587
 30
0.0
 11
2905.523341503755
 21
276.2294324992588
 31
0.0
  0
LINE
  5
A1DA
330
1E
100
AcDbEntity
  8
0
 48
0.27
100
AcDbLine
 10
2904.970170253756
 20
270.1502387492587
 30
0.0
 11
2905.150715253756
 21
270.1844237492589
 31
0.0
  0
LINE
  5
A1DB
330
1E
100
AcDbEntity
  8
0
 48
0.27
100
AcDbLine
 10
2904.394891503756
 20
270.0889112492589
 30
0.0
 11
2904.970170253756
 21
270.1502387492587
 31
0.0
  0
LINE
  5
A1DC
330
1E
100
AcDbEntity
  8
0
 48
0.27
100
AcDbLine
 10
2906.644052753755
 20
275.5129049992588
 30
0.0
 11
2907.006766503756
 21
275.0345212492586
 31
0.0
  0
LINE
  5
A1DD
330
1E
100
AcDbEntity
  8
0
 48
0.27
100
AcDbLine
 10
2906.202084003756
 20
270.6557962492588
 30
0.0
 11
2906.644052753755
 21
271.0483949992588
 31
0.0
  0
LINE
  5
A1DE
330
1E
100
AcDbEntity
  8
0
 48
0.27
100
AcDbLine
 10
2903.717992753755
 20
275.5202287492589
 30
0.0
 11
2904.121654003756
 21
275.4771962492589
 31
0.0
  0
LINE
  5
A1DF
330
1E
100
AcDbEntity
  8
0
 48
0.27
100
AcDbLine
 10
2903.314330253756
 20
271.0841024992587
 30
0.0
 11
2903.717992753755
 21
271.0410699992587
 31
0.0
  0
LINE
  5
A1E0
330
1E
100
AcDbEntity
  8
0
 48
0.27
100
AcDbLine
 10
2905.523341503755
 20
276.2294324992588
 30
0.0
 11
2906.033146503756
 21
275.9344837492588
 31
0.0
  0
LINE
  5
A1E1
330
1E
100
AcDbEntity
  8
0
 48
0.27
100
AcDbLine
 10
2904.970170253756
 20
270.1502387492587
 30
0.0
 11
2905.523341503755
 21
270.3318674992588
 31
0.0
  0
LINE
  5
A1E2
330
1E
100
AcDbEntity
  8
0
 48
0.27
100
AcDbLine
 10
2907.006766503756
 20
275.0345212492586
 30
0.0
 11
2907.276287753755
 21
274.4887374992588
 31
0.0
  0
LINE
  5
A1E3
330
1E
100
AcDbEntity
  8
0
 48
0.27
100
AcDbLine
 10
2907.006766503756
 20
271.5267787492587
 30
0.0
 11
2906.644052753755
 21
271.0483949992588
 31
0.0
  0
LINE
  5
A1E4
330
1E
100
AcDbEntity
  8
0
 48
0.27
100
AcDbLine
 10
2907.276287753755
 20
274.4887374992588
 30
0.0
 11
2907.442257753756
 21
273.8965274992588
 31
0.0
  0
LINE
  5
A1E5
330
1E
100
AcDbEntity
  8
0
 48
0.27
100
AcDbLine
 10
2907.276287753755
 20
272.0725624992588
 30
0.0
 11
2907.006766503756
 21
271.5267787492587
 31
0.0
  0
LINE
  5
A1E6
330
1E
100
AcDbEntity
  8
0
 48
0.27
100
AcDbLine
 10
2906.033146503756
 20
275.9344837492588
 30
0.0
 11
2906.479995253755
 21
275.5375499992588
 31
0.0
  0
LINE
  5
A1E7
330
1E
100
AcDbEntity
  8
0
 48
0.27
100
AcDbLine
 10
2905.523341503755
 20
270.3318674992588
 30
0.0
 11
2906.033146503756
 21
270.6268162492588
 31
0.0
  0
LINE
  5
A1E8
330
1E
100
AcDbEntity
  8
0
 48
0.27
100
AcDbLine
 10
2907.442257753756
 20
273.8965274992588
 30
0.0
 11
2907.498299003755
 21
273.2806499992587
 31
0.0
  0
LINE
  5
A1E9
330
1E
100
AcDbEntity
  8
0
 48
0.27
100
AcDbLine
 10
2907.442257753756
 20
272.6647724992588
 30
0.0
 11
2907.276287753755
 21
272.0725624992588
 31
0.0
  0
LINE
  5
A1EA
330
1E
100
AcDbEntity
  8
0
 48
0.27
100
AcDbLine
 10
2904.121654003756
 20
275.4771962492589
 30
0.0
 11
2904.509802753755
 21
275.3497512492588
 31
0.0
  0
LINE
  5
A1EB
330
1E
100
AcDbEntity
  8
0
 48
0.27
100
AcDbLine
 10
2903.717992753755
 20
271.0410699992587
 30
0.0
 11
2904.121654003756
 21
271.0841024992587
 31
0.0
  0
LINE
  5
A1EC
330
1E
100
AcDbEntity
  8
0
 48
0.27
100
AcDbLine
 10
2907.498299003755
 20
273.2806499992587
 30
0.0
 11
2907.442257753756
 21
272.6647724992588
 31
0.0
  0
LINE
  5
A1ED
330
1E
100
AcDbEntity
  8
0
 48
0.27
100
AcDbLine
 10
2906.479995253755
 20
275.5375499992588
 30
0.0
 11
2906.846714003755
 21
275.0538849992588
 31
0.0
  0
LINE
  5
A1EE
330
1E
100
AcDbEntity
  8
0
 48
0.27
100
AcDbLine
 10
2906.033146503756
 20
270.6268162492588
 30
0.0
 11
2906.479995253755
 21
271.0237499992588
 31
0.0
  0
LINE
  5
A1EF
330
1E
100
AcDbEntity
  8
0
 48
0.27
100
AcDbLine
 10
2904.509802753755
 20
275.3497512492588
 30
0.0
 11
2904.867524003756
 21
275.1427924992588
 31
0.0
  0
LINE
  5
A1F0
330
1E
100
AcDbEntity
  8
0
 48
0.27
100
AcDbLine
 10
2904.121654003756
 20
271.0841024992587
 30
0.0
 11
2904.509802753755
 21
271.2115474992588
 31
0.0
  0
LINE
  5
A1F1
330
1E
100
AcDbEntity
  8
0
 48
0.27
100
AcDbLine
 10
2906.846714003755
 20
275.0538849992588
 30
0.0
 11
2907.119210253755
 21
274.5020749992589
 31
0.0
  0
LINE
  5
A1F2
330
1E
100
AcDbEntity
  8
0
 48
0.27
100
AcDbLine
 10
2906.846714003755
 20
271.5074149992588
 30
0.0
 11
2906.479995253755
 21
271.0237499992588
 31
0.0
  0
LINE
  5
A1F3
330
1E
100
AcDbEntity
  8
0
 48
0.27
100
AcDbLine
 10
2907.119210253755
 20
274.5020749992589
 30
0.0
 11
2907.287014003756
 21
273.9033274992587
 31
0.0
  0
LINE
  5
A1F4
330
1E
100
AcDbEntity
  8
0
 48
0.27
100
AcDbLine
 10
2907.119210253755
 20
272.0592237492588
 30
0.0
 11
2906.846714003755
 21
271.5074149992588
 31
0.0
  0
LINE
  5
A1F5
330
1E
100
AcDbEntity
  8
0
 48
0.27
100
AcDbLine
 10
2904.867524003756
 20
275.1427924992588
 30
0.0
 11
2905.181067753755
 21
274.8642712492588
 31
0.0
  0
LINE
  5
A1F6
330
1E
100
AcDbEntity
  8
0
 48
0.27
100
AcDbLine
 10
2904.509802753755
 20
271.2115474992588
 30
0.0
 11
2904.867524003756
 21
271.4185074992588
 31
0.0
  0
LINE
  5
A1F7
330
1E
100
AcDbEntity
  8
0
 48
0.27
100
AcDbLine
 10
2907.287014003756
 20
273.9033274992587
 30
0.0
 11
2907.343674003756
 21
273.2806499992587
 31
0.0
  0
LINE
  5
A1F8
330
1E
100
AcDbEntity
  8
0
 48
0.27
100
AcDbLine
 10
2907.287014003756
 20
272.6579724992587
 30
0.0
 11
2907.119210253755
 21
272.0592237492588
 31
0.0
  0
LINE
  5
A1F9
330
1E
100
AcDbEntity
  8
0
 48
0.27
100
AcDbLine
 10
2907.343674003756
 20
273.2806499992587
 30
0.0
 11
2907.287014003756
 21
272.6579724992587
 31
0.0
  0
LINE
  5
A1FA
330
1E
100
AcDbEntity
  8
0
 48
0.27
100
AcDbLine
 10
2905.181067753755
 20
274.8642712492588
 30
0.0
 11
2905.438387753756
 21
274.5248937492588
 31
0.0
  0
LINE
  5
A1FB
330
1E
100
AcDbEntity
  8
0
 48
0.27
100
AcDbLine
 10
2904.867524003756
 20
271.4185074992588
 30
0.0
 11
2905.181067753755
 21
271.6970274992589
 31
0.0
  0
LINE
  5
A1FC
330
1E
100
AcDbEntity
  8
0
 48
0.27
100
AcDbLine
 10
2905.438387753756
 20
274.5248937492588
 30
0.0
 11
2905.629592753756
 21
274.1376999992588
 31
0.0
  0
LINE
  5
A1FD
330
1E
100
AcDbEntity
  8
0
 48
0.27
100
AcDbLine
 10
2905.438387753756
 20
272.0364062492588
 30
0.0
 11
2905.181067753755
 21
271.6970274992589
 31
0.0
  0
LINE
  5
A1FE
330
1E
100
AcDbEntity
  8
0
 48
0.27
100
AcDbLine
 10
2905.629592753756
 20
274.1376999992588
 30
0.0
 11
2905.747336503756
 21
273.7175699992588
 31
0.0
  0
LINE
  5
A1FF
330
1E
100
AcDbEntity
  8
0
 48
0.27
100
AcDbLine
 10
2905.629592753756
 20
272.4235999992588
 30
0.0
 11
2905.438387753756
 21
272.0364062492588
 31
0.0
  0
LINE
  5
A200
330
1E
100
AcDbEntity
  8
0
 48
0.27
100
AcDbLine
 10
2905.747336503756
 20
273.7175699992588
 30
0.0
 11
2905.787094003756
 21
273.2806499992587
 31
0.0
  0
LINE
  5
A201
330
1E
100
AcDbEntity
  8
0
 48
0.27
100
AcDbLine
 10
2905.747336503756
 20
272.8437299992588
 30
0.0
 11
2905.629592753756
 21
272.4235999992588
 31
0.0
  0
LINE
  5
A202
330
1E
100
AcDbEntity
  8
0
 48
0.27
100
AcDbLine
 10
2905.787094003756
 20
273.2806499992587
 30
0.0
 11
2905.747336503756
 21
272.8437299992588
 31
0.0
  0
POINT
  5
A203
330
1E
100
AcDbEntity
  8
0
100
AcDbPoint
 10
2901.446109003756
 20
273.2806499992587
 30
0.0
1001
pntflag
1000
endpoint
  0
LINE
  5
ACF4
330
1E
100
AcDbEntity
  8
0
  6
Continuous
 62
     7
100
AcDbLine
 10
2915.017991503755
 20
231.2806273362276
 30
0.0
 11
2915.017991503755
 21
281.7806273363276
 31
0.0
  0
LINE
  5
ACF5
330
1E
100
AcDbEntity
  8
0
  6
Continuous
 62
     7
100
AcDbLine
 10
2918.617991496055
 20
231.2806273362276
 30
0.0
 11
2918.617991496055
 21
282.7806273363276
 31
0.0
  0
LINE
  5
ACF6
330
1E
100
AcDbEntity
  8
0
  6
Continuous
 62
     7
100
AcDbLine
 10
2922.117991496055
 20
249.0306273362275
 30
0.0
 11
2922.117991496055
 21
241.5306273362276
 31
0.0
  0
LINE
  5
ACF7
330
1E
100
AcDbEntity
  8
0
  6
Continuous
 62
     7
100
AcDbLine
 10
2938.617991496055
 20
231.2806273362276
 30
0.0
 11
2938.617991496055
 21
293.2806273363276
 31
0.0
  0
LINE
  5
ACF8
330
1E
100
AcDbEntity
  8
0
  6
Continuous
 62
     7
100
AcDbLine
 10
3102.017991503756
 20
231.2806273362276
 30
0.0
 11
2915.017991503755
 21
231.2806273362276
 31
0.0
  0
LINE
  5
ACF9
330
1E
100
AcDbEntity
  8
0
  6
Continuous
 62
     7
100
AcDbLine
 10
3078.417991496055
 20
233.2806273363276
 30
0.0
 11
3102.017991503756
 21
233.2806273363276
 31
0.0
  0
LINE
  5
ACFA
330
1E
100
AcDbEntity
  8
0
  6
Continuous
 62
     7
100
AcDbLine
 10
2938.617991496055
 20
233.2806273363276
 30
0.0
 11
2915.017991503755
 21
233.2806273363276
 31
0.0
  0
LINE
  5
ACFB
330
1E
100
AcDbEntity
  8
0
  6
Continuous
 62
     7
100
AcDbLine
 10
2938.617991496055
 20
233.2999483806276
 30
0.0
 11
3078.417991496055
 21
233.2999483806276
 31
0.0
  0
LINE
  5
ACFC
330
1E
100
AcDbEntity
  8
0
  6
Continuous
 62
     7
100
AcDbLine
 10
3098.417991496055
 20
241.5306273362276
 30
0.0
 11
3094.917991496056
 21
241.5306273362276
 31
0.0
  0
LINE
  5
ACFD
330
1E
100
AcDbEntity
  8
0
  6
Continuous
 62
     7
100
AcDbLine
 10
2922.117991496055
 20
241.5306273362276
 30
0.0
 11
2918.617991496055
 21
241.5306273362276
 31
0.0
  0
LINE
  5
AD0E
330
1E
100
AcDbEntity
  8
0
  6
Continuous
 62
     7
100
AcDbLine
 10
2918.617991496055
 20
249.0306273362275
 30
0.0
 11
2922.117991496055
 21
249.0306273362275
 31
0.0
  0
LINE
  5
AD0F
330
1E
100
AcDbEntity
  8
0
  6
Continuous
 62
     7
100
AcDbLine
 10
3094.917991496056
 20
249.0306273362275
 30
0.0
 11
3098.417991496055
 21
249.0306273362275
 31
0.0
  0
LINE
  5
AD10
330
1E
100
AcDbEntity
  8
0
  6
Continuous
 62
     7
100
AcDbLine
 10
3078.417991496055
 20
279.7806273363276
 30
0.0
 11
3102.017991503756
 21
279.7806273363276
 31
0.0
  0
LINE
  5
AD11
330
1E
100
AcDbEntity
  8
0
  6
Continuous
 62
     7
100
AcDbLine
 10
2938.617991496055
 20
279.7806273363276
 30
0.0
 11
2915.017991503755
 21
279.7806273363276
 31
0.0
  0
LINE
  5
AD12
330
1E
100
AcDbEntity
  8
0
  6
Continuous
 62
     7
100
AcDbLine
 10
3078.417991496055
 20
281.7806273363276
 30
0.0
 11
3102.017991503756
 21
281.7806273363276
 31
0.0
  0
LINE
  5
AD13
330
1E
100
AcDbEntity
  8
0
  6
Continuous
 62
     7
100
AcDbLine
 10
2938.617991496055
 20
281.7806273363276
 30
0.0
 11
2915.017991503755
 21
281.7806273363276
 31
0.0
  0
LINE
  5
AD14
330
1E
100
AcDbEntity
  8
0
  6
Continuous
 62
     7
100
AcDbLine
 10
2918.617991496055
 20
282.7806273363276
 30
0.0
 11
2938.617991496055
 21
282.7806273363276
 31
0.0
  0
LINE
  5
AD15
330
1E
100
AcDbEntity
  8
0
  6
Continuous
 62
     7
100
AcDbLine
 10
3098.417991496055
 20
282.7806273363276
 30
0.0
 11
3078.417991496055
 21
282.7806273363276
 31
0.0
  0
LINE
  5
AD16
330
1E
100
AcDbEntity
  8
0
  6
Continuous
 62
     7
100
AcDbLine
 10
2938.617991496055
 20
291.2806273363276
 30
0.0
 11
3078.417991496055
 21
291.2806273363276
 31
0.0
  0
LINE
  5
AD17
330
1E
100
AcDbEntity
  8
0
  6
Continuous
 62
     7
100
AcDbLine
 10
3078.417991496055
 20
231.2806273363276
 30
0.0
 11
3078.417991496055
 21
293.2806273363276
 31
0.0
  0
LINE
  5
AD18
330
1E
100
AcDbEntity
  8
0
  6
Continuous
 62
     7
100
AcDbLine
 10
2938.617991496055
 20
293.2806273363276
 30
0.0
 11
3078.417991496055
 21
293.2806273363276
 31
0.0
  0
LINE
  5
AD19
330
1E
100
AcDbEntity
  8
0
  6
Continuous
 62
     7
100
AcDbLine
 10
3094.917991496056
 20
241.5306273362276
 30
0.0
 11
3094.917991496056
 21
249.0306273362275
 31
0.0
  0
LINE
  5
AD1A
330
1E
100
AcDbEntity
  8
0
  6
Continuous
 62
     7
100
AcDbLine
 10
3098.417991496055
 20
231.2806273362276
 30
0.0
 11
3098.417991496055
 21
282.7806273363276
 31
0.0
  0
LINE
  5
AD1B
330
1E
100
AcDbEntity
  8
0
  6
Continuous
 62
     7
100
AcDbLine
 10
3102.017991503756
 20
231.2806273362276
 30
0.0
 11
3102.017991503756
 21
281.7806273363276
 31
0.0
  0
CIRCLE
  5
AD1D
330
1E
100
AcDbEntity
  8
0
  6
Continuous
 62
     7
100
AcDbCircle
 10
2928.617991496055
 20
269.2806273363276
 30
0.0
 40
0.75
  0
CIRCLE
  5
AD1E
330
1E
100
AcDbEntity
  8
0
  6
Continuous
 62
     7
100
AcDbCircle
 10
2928.617991496055
 20
269.2806273363276
 30
0.0
 40
4.749883031499999
  0
CIRCLE
  5
AD1F
330
1E
100
AcDbEntity
  8
0
  6
Continuous
 62
     7
100
AcDbCircle
 10
2928.617991496055
 20
269.2806273363276
 30
0.0
 40
4.2411205224
  0
CIRCLE
  5
AD20
330
1E
100
AcDbEntity
  8
0
  6
Continuous
 62
     7
100
AcDbCircle
 10
2928.617991496055
 20
269.2806273363276
 30
0.0
 40
4.075449350699999
  0
CIRCLE
  5
AD21
330
1E
100
AcDbEntity
  8
0
  6
Continuous
 62
     7
100
AcDbCircle
 10
3088.417991496055
 20
269.2806273363276
 30
0.0
 40
0.75
  0
CIRCLE
  5
AD22
330
1E
100
AcDbEntity
  8
0
  6
Continuous
 62
     7
100
AcDbCircle
 10
3088.417991496055
 20
269.2806273363276
 30
0.0
 40
4.749883031499999
  0
CIRCLE
  5
AD23
330
1E
100
AcDbEntity
  8
0
  6
Continuous
 62
     7
100
AcDbCircle
 10
3088.417991496055
 20
269.2806273363276
 30
0.0
 40
4.236559657199999
  0
CIRCLE
  5
AD24
330
1E
100
AcDbEntity
  8
0
  6
Continuous
 62
     7
100
AcDbCircle
 10
3088.417991496055
 20
269.2806273363276
 30
0.0
 40
3.9881407843
  0
LINE
  5
AD3D
330
1E
100
AcDbEntity
  8
0
  6
Continuous
 62
     7
100
AcDbLine
 10
2905.517991496056
 20
223.2806273363276
 30
0.0
 11
3111.517991496056
 21
223.2806273363276
 31
0.0
  0
LINE
  5
AD63
330
1E
100
AcDbEntity
  8
0
  6
Continuous
 62
     7
100
AcDbLine
 10
2828.517991496056
 20
261.2806273363276
 30
0.0
 11
2913.381262785157
 21
261.2806273363278
 31
0.0
  0
LINE
  5
AD64
330
1E
100
AcDbEntity
  8
0
  6
Continuous
 62
     7
100
AcDbLine
 10
3103.654720237754
 20
261.2806273363276
 30
0.0
 11
3188.517991496056
 21
261.2806273363276
 31
0.0
  0
LINE
  5
AD65
330
1E
100
AcDbEntity
  8
0
100
AcDbLine
 10
2828.517991496056
 20
223.2806273363276
 30
0.0
 11
3188.517991496056
 21
223.2806273363276
 31
0.0
  0
LINE
  5
AD66
330
1E
100
AcDbEntity
  8
0
100
AcDbLine
 10
3188.517991496056
 20
261.2806273363276
 30
0.0
 11
3188.517991496056
 21
223.2806273363276
 31
0.0
  0
LINE
  5
AD67
330
1E
100
AcDbEntity
  8
0
100
AcDbLine
 10
2828.517991496056
 20
261.2806273363276
 30
0.0
 11
2828.517991496056
 21
223.2806273363276
 31
0.0
  0
LINE
  5
AD6D
330
1E
100
AcDbEntity
  8
虛線
 48
0.4
100
AcDbLine
 10
3103.517991496055
 20
244.2806273363294
 30
0.0
 11
3123.517991496055
 21
244.2806273363294
 31
0.0
  0
LINE
  5
AD6E
330
1E
100
AcDbEntity
  8
虛線
 48
0.4
100
AcDbLine
 10
3103.654720237754
 20
260.8806273363295
 30
0.0
 11
3123.517991496055
 21
260.8806273363295
 31
0.0
  0
LINE
  5
AD6F
330
1E
100
AcDbEntity
  8
虛線
 48
0.4
100
AcDbLine
 10
3106.517991496055
 20
243.9806273363295
 30
0.0
 11
3120.517991496055
 21
243.9806273363295
 31
0.0
  0
LINE
  5
AD70
330
1E
100
AcDbEntity
  8
虛線
 48
0.4
100
AcDbLine
 10
3106.517991496055
 20
243.9806273363295
 30
0.0
 11
3106.517991496055
 21
223.9806273363297
 31
0.0
  0
LINE
  5
AD71
330
1E
100
AcDbEntity
  8
虛線
 48
0.4
100
AcDbLine
 10
3103.517991496055
 20
259.1917496488161
 30
0.0
 11
3103.517991496055
 21
244.2806273363294
 31
0.0
  0
LINE
  5
AD72
330
1E
100
AcDbEntity
  8
虛線
 48
0.4
100
AcDbLine
 10
3106.517991496055
 20
243.9806273363295
 30
0.0
 11
3106.217991496055
 21
244.2806273363294
 31
0.0
  0
LINE
  5
AD73
330
1E
100
AcDbEntity
  8
虛線
 48
0.4
100
AcDbLine
 10
3120.517991496055
 20
243.9806273363295
 30
0.0
 11
3120.517991496055
 21
223.9806273363297
 31
0.0
  0
LINE
  5
AD74
330
1E
100
AcDbEntity
  8
虛線
 48
0.4
100
AcDbLine
 10
3123.517991496055
 20
260.8806273363295
 30
0.0
 11
3123.517991496055
 21
244.2806273363294
 31
0.0
  0
LINE
  5
AD75
330
1E
100
AcDbEntity
  8
虛線
 48
0.4
100
AcDbLine
 10
3120.517991496055
 20
243.9806273363295
 30
0.0
 11
3120.817991496055
 21
244.2806273363294
 31
0.0
  0
LINE
  5
AD76
330
1E
100
AcDbEntity
  8
虛線
 48
0.4
100
AcDbLine
 10
3123.517991496055
 20
260.8806273363295
 30
0.0
 11
3123.74893160373
 21
261.2806273363276
 31
0.0
  0
LINE
  5
AD77
330
1E
100
AcDbEntity
  8
虛線
 48
0.4
100
AcDbLine
 10
3106.517991496052
 20
223.9806273363297
 30
0.0
 11
3120.517991496052
 21
223.9806273363297
 31
0.0
  0
LINE
  5
AD78
330
1E
100
AcDbEntity
  8
虛線
 48
0.4
100
AcDbLine
 10
3106.517991496052
 20
223.9806273363297
 30
0.0
 11
3105.81799149605
 21
223.2806273363278
 31
0.0
  0
LINE
  5
AD79
330
1E
100
AcDbEntity
  8
虛線
 48
0.4
100
AcDbLine
 10
3120.51799149606
 20
223.9806273363297
 30
0.0
 11
3121.217991496062
 21
223.2806273363278
 31
0.0
  0
LINE
  5
AD7A
330
1E
100
AcDbEntity
  8
虛線
 48
0.4
100
AcDbLine
 10
2893.517991496055
 20
244.2806273363294
 30
0.0
 11
2913.517991496055
 21
244.2806273363294
 31
0.0
  0
LINE
  5
AD7B
330
1E
100
AcDbEntity
  8
虛線
 48
0.4
100
AcDbLine
 10
2893.517991496055
 20
260.8806273363295
 30
0.0
 11
2913.381262785157
 21
260.8806273363295
 31
0.0
  0
LINE
  5
AD7C
330
1E
100
AcDbEntity
  8
虛線
 48
0.4
100
AcDbLine
 10
2896.517991496054
 20
243.9806273363295
 30
0.0
 11
2910.517991496055
 21
243.9806273363295
 31
0.0
  0
LINE
  5
AD7D
330
1E
100
AcDbEntity
  8
虛線
 48
0.4
100
AcDbLine
 10
2896.517991496054
 20
243.9806273363295
 30
0.0
 11
2896.517991496054
 21
223.9806273363297
 31
0.0
  0
LINE
  5
AD7E
330
1E
100
AcDbEntity
  8
虛線
 48
0.4
100
AcDbLine
 10
2893.517991496055
 20
260.8806273363295
 30
0.0
 11
2893.517991496055
 21
244.2806273363294
 31
0.0
  0
LINE
  5
AD7F
330
1E
100
AcDbEntity
  8
虛線
 48
0.4
100
AcDbLine
 10
2896.517991496054
 20
243.9806273363295
 30
0.0
 11
2896.217991496055
 21
244.2806273363294
 31
0.0
  0
LINE
  5
AD80
330
1E
100
AcDbEntity
  8
虛線
 48
0.4
100
AcDbLine
 10
2893.517991496055
 20
260.8806273363295
 30
0.0
 11
2893.28705138838
 21
261.2806273363274
 31
0.0
  0
LINE
  5
AD81
330
1E
100
AcDbEntity
  8
虛線
 48
0.4
100
AcDbLine
 10
2910.517991496055
 20
243.9806273363295
 30
0.0
 11
2910.517991496055
 21
223.9806273363297
 31
0.0
  0
LINE
  5
AD82
330
1E
100
AcDbEntity
  8
虛線
 48
0.4
100
AcDbLine
 10
2913.517991496055
 20
259.1917497331576
 30
0.0
 11
2913.517991496055
 21
244.2806273363294
 31
0.0
  0
LINE
  5
AD83
330
1E
100
AcDbEntity
  8
虛線
 48
0.4
100
AcDbLine
 10
2910.517991496055
 20
243.9806273363295
 30
0.0
 11
2910.817991496055
 21
244.2806273363294
 31
0.0
  0
LINE
  5
AD84
330
1E
100
AcDbEntity
  8
虛線
 48
0.4
100
AcDbLine
 10
2896.517991496052
 20
223.9806273363297
 30
0.0
 11
2910.517991496052
 21
223.9806273363297
 31
0.0
  0
LINE
  5
AD85
330
1E
100
AcDbEntity
  8
虛線
 48
0.4
100
AcDbLine
 10
2896.517991496052
 20
223.9806273363297
 30
0.0
 11
2895.817991496051
 21
223.2806273363278
 31
0.0
  0
LINE
  5
AD86
330
1E
100
AcDbEntity
  8
虛線
 48
0.4
100
AcDbLine
 10
2910.51799149606
 20
223.9806273363297
 30
0.0
 11
2911.217991496062
 21
223.2806273363278
 31
0.0
  0
LINE
  5
AD87
330
1E
100
AcDbEntity
  8
虛線
 48
0.4
100
AcDbLine
 10
3156.017991496055
 20
244.2806273363294
 30
0.0
 11
3176.017991496056
 21
244.2806273363294
 31
0.0
  0
LINE
  5
AD88
330
1E
100
AcDbEntity
  8
虛線
 48
0.4
100
AcDbLine
 10
3156.017991496055
 20
260.8806273363295
 30
0.0
 11
3176.017991496056
 21
260.8806273363295
 31
0.0
  0
LINE
  5
AD89
330
1E
100
AcDbEntity
  8
虛線
 48
0.4
100
AcDbLine
 10
3159.017991496055
 20
243.9806273363295
 30
0.0
 11
3173.017991496056
 21
243.9806273363295
 31
0.0
  0
LINE
  5
AD8A
330
1E
100
AcDbEntity
  8
虛線
 48
0.4
100
AcDbLine
 10
3159.017991496055
 20
243.9806273363295
 30
0.0
 11
3159.017991496055
 21
223.9806273363297
 31
0.0
  0
LINE
  5
AD8B
330
1E
100
AcDbEntity
  8
虛線
 48
0.4
100
AcDbLine
 10
3156.017991496055
 20
260.8806273363295
 30
0.0
 11
3156.017991496055
 21
244.2806273363294
 31
0.0
  0
LINE
  5
AD8C
330
1E
100
AcDbEntity
  8
虛線
 48
0.4
100
AcDbLine
 10
3159.017991496055
 20
243.9806273363295
 30
0.0
 11
3158.717991496056
 21
244.2806273363294
 31
0.0
  0
LINE
  5
AD8D
330
1E
100
AcDbEntity
  8
虛線
 48
0.4
100
AcDbLine
 10
3156.017991496055
 20
260.8806273363295
 30
0.0
 11
3155.787051388381
 21
261.2806273363274
 31
0.0
  0
LINE
  5
AD8E
330
1E
100
AcDbEntity
  8
虛線
 48
0.4
100
AcDbLine
 10
3173.017991496056
 20
243.9806273363295
 30
0.0
 11
3173.017991496056
 21
223.9806273363297
 31
0.0
  0
LINE
  5
AD8F
330
1E
100
AcDbEntity
  8
虛線
 48
0.4
100
AcDbLine
 10
3176.017991496056
 20
260.8806273363295
 30
0.0
 11
3176.017991496056
 21
244.2806273363294
 31
0.0
  0
LINE
  5
AD90
330
1E
100
AcDbEntity
  8
虛線
 48
0.4
100
AcDbLine
 10
3173.017991496056
 20
243.9806273363295
 30
0.0
 11
3173.317991496055
 21
244.2806273363294
 31
0.0
  0
LINE
  5
AD91
330
1E
100
AcDbEntity
  8
虛線
 48
0.4
100
AcDbLine
 10
3176.017991496056
 20
260.8806273363295
 30
0.0
 11
3176.24893160373
 21
261.2806273363276
 31
0.0
  0
LINE
  5
AD92
330
1E
100
AcDbEntity
  8
虛線
 48
0.4
100
AcDbLine
 10
3159.017991496052
 20
223.9806273363297
 30
0.0
 11
3173.017991496052
 21
223.9806273363297
 31
0.0
  0
LINE
  5
AD93
330
1E
100
AcDbEntity
  8
虛線
 48
0.4
100
AcDbLine
 10
3159.017991496052
 20
223.9806273363297
 30
0.0
 11
3158.31799149605
 21
223.2806273363278
 31
0.0
  0
LINE
  5
AD94
330
1E
100
AcDbEntity
  8
虛線
 48
0.4
100
AcDbLine
 10
3173.01799149606
 20
223.9806273363297
 30
0.0
 11
3173.717991496062
 21
223.2806273363278
 31
0.0
  0
LINE
  5
ADA5
330
1E
100
AcDbEntity
  8
0
100
AcDbLine
 10
2938.617991496055
 20
456.440877834618
 30
0.0
 11
2938.617991496055
 21
370.4408778346165
 31
0.0
  0
LINE
  5
ADA6
330
1E
100
AcDbEntity
  8
0
100
AcDbLine
 10
3078.417991496055
 20
456.440877834618
 30
0.0
 11
3078.417991496055
 21
370.4408778346165
 31
0.0
  0
LINE
  5
ADA7
330
1E
100
AcDbEntity
  8
0
100
AcDbLine
 10
2938.617991496055
 20
456.440877834618
 30
0.0
 11
3078.417991496056
 21
456.440877834618
 31
0.0
  0
LINE
  5
ADA8
330
1E
100
AcDbEntity
  8
0
100
AcDbLine
 10
3078.417991496056
 20
454.2408778346178
 30
0.0
 11
2938.617991496055
 21
454.2408778346177
 31
0.0
  0
LINE
  5
ADA9
330
1E
100
AcDbEntity
  8
0
100
AcDbLine
 10
3078.417991496056
 20
434.6408778346183
 30
0.0
 11
2938.617991496055
 21
434.6408778346184
 31
0.0
  0
LINE
  5
ADAA
330
1E
100
AcDbEntity
  8
0
100
AcDbLine
 10
3078.417991496056
 20
421.2408778346177
 30
0.0
 11
2938.617991496055
 21
421.2408778346178
 31
0.0
  0
LINE
  5
ADAB
330
1E
100
AcDbEntity
  8
0
100
AcDbLine
 10
3078.417991496056
 20
405.6408778346162
 30
0.0
 11
2938.617991496055
 21
405.6408778346163
 31
0.0
  0
LINE
  5
ADAC
330
1E
100
AcDbEntity
  8
0
100
AcDbLine
 10
3078.417991496056
 20
392.2408778346158
 30
0.0
 11
2938.617991496055
 21
392.2408778346157
 31
0.0
  0
LINE
  5
ADAD
330
1E
100
AcDbEntity
  8
0
100
AcDbLine
 10
3078.417991496056
 20
372.6408778346161
 30
0.0
 11
2938.617991496055
 21
372.6408778346161
 31
0.0
  0
LINE
  5
ADAE
330
1E
100
AcDbEntity
  8
0
100
AcDbLine
 10
3078.417991496056
 20
393.4408778346157
 30
0.0
 11
2938.617991496055
 21
393.4408778346157
 31
0.0
  0
LINE
  5
ADAF
330
1E
100
AcDbEntity
  8
0
100
AcDbLine
 10
3078.417991496056
 20
404.4408778346165
 30
0.0
 11
2938.617991496055
 21
404.4408778346165
 31
0.0
  0
LINE
  5
ADB0
330
1E
100
AcDbEntity
  8
0
100
AcDbLine
 10
3078.417991496056
 20
422.4408778346173
 30
0.0
 11
2938.617991496055
 21
422.4408778346174
 31
0.0
  0
LINE
  5
ADB1
330
1E
100
AcDbEntity
  8
0
100
AcDbLine
 10
3078.417991496056
 20
433.4408778346182
 30
0.0
 11
2938.617991496055
 21
433.4408778346183
 31
0.0
  0
LINE
  5
ADC8
330
1E
100
AcDbEntity
  8
0
100
AcDbLine
 10
2938.617991496055
 20
370.4408778346165
 30
0.0
 11
3078.417991496056
 21
370.4408778346165
 31
0.0
  0
LINE
  5
ADC9
330
1E
100
AcDbEntity
  8
0
  6
Continuous
 62
     7
100
AcDbLine
 10
2938.617991496055
 20
371.4408778346172
 30
0.0
 11
2915.017991503755
 21
371.4408778346172
 31
0.0
  0
LINE
  5
ADCA
330
1E
100
AcDbEntity
  8
0
  6
Continuous
 62
     7
100
AcDbLine
 10
2938.617991496055
 20
373.4408778346172
 30
0.0
 11
2915.017991503755
 21
373.4408778346172
 31
0.0
  0
LINE
  5
ADCB
330
1E
100
AcDbEntity
  8
0
  6
Continuous
 62
     7
100
AcDbLine
 10
2938.617991496055
 20
402.4408778346171
 30
0.0
 11
2918.617991496055
 21
402.4408778346171
 31
0.0
  0
LINE
  5
ADCC
330
1E
100
AcDbEntity
  8
0
  6
Continuous
 62
     7
100
AcDbLine
 10
2918.617991496055
 20
403.4408778346171
 30
0.0
 11
2938.617991496055
 21
403.4408778346171
 31
0.0
  0
LINE
  5
ADCD
330
1E
100
AcDbEntity
  8
0
  6
Continuous
 62
     7
100
AcDbLine
 10
2938.617991496055
 20
371.4408778346172
 30
0.0
 11
2938.617991496055
 21
455.4408778346171
 31
0.0
  0
LINE
  5
ADCE
330
1E
100
AcDbEntity
  8
0
  6
Continuous
 62
     7
100
AcDbLine
 10
2918.617991496055
 20
423.4408778346171
 30
0.0
 11
2938.617991496055
 21
423.4408778346171
 31
0.0
  0
LINE
  5
ADCF
330
1E
100
AcDbEntity
  8
0
  6
Continuous
 62
     7
100
AcDbLine
 10
2938.617991496055
 20
424.4408778346171
 30
0.0
 11
2918.617991496055
 21
424.4408778346171
 31
0.0
  0
LINE
  5
ADD0
330
1E
100
AcDbEntity
  8
0
  6
Continuous
 62
     7
100
AcDbLine
 10
2918.617991496055
 20
371.4408778346172
 30
0.0
 11
2918.617991496055
 21
455.4408778346171
 31
0.0
  0
LINE
  5
ADD1
330
1E
100
AcDbEntity
  8
0
  6
Continuous
 62
     7
100
AcDbLine
 10
2938.617991496055
 20
453.4408778346171
 30
0.0
 11
2915.017991503755
 21
453.4408778346171
 31
0.0
  0
LINE
  5
ADD2
330
1E
100
AcDbEntity
  8
0
  6
Continuous
 62
     7
100
AcDbLine
 10
2938.617991496055
 20
455.4408778346171
 30
0.0
 11
2915.017991503755
 21
455.4408778346171
 31
0.0
  0
CIRCLE
  5
ADD3
330
1E
100
AcDbEntity
  8
0
  6
Continuous
 62
     7
100
AcDbCircle
 10
2930.617991496055
 20
413.4408778346171
 30
0.0
 40
0.75
  0
CIRCLE
  5
ADD4
330
1E
100
AcDbEntity
  8
0
  6
Continuous
 62
     7
100
AcDbCircle
 10
2930.617991496055
 20
413.4408778346171
 30
0.0
 40
5.15
  0
LINE
  5
ADD7
330
1E
100
AcDbEntity
  8
0
100
AcDbLine
 10
2915.017991503755
 20
455.4408778346171
 30
0.0
 11
2915.017991503755
 21
371.4408778346172
 31
0.0
  0
LINE
  5
ADD8
330
1E
100
AcDbEntity
  8
0
  6
Continuous
100
AcDbLine
 10
2913.381262769756
 20
408.8408784425267
 30
0.0
 11
2913.381262769756
 21
418.0408787081075
 31
0.0
  0
ARC
  5
ADD9
330
1E
100
AcDbEntity
  8
0
  6
Continuous
100
AcDbCircle
 10
2924.004508075935
 20
413.4408785753168
 30
0.0
 40
10.62324530617823
100
AcDbArc
 50
163.2213499979145
 51
196.7786500020854
  0
ARC
  5
ADDA
330
1E
100
AcDbEntity
  8
0
  6
Continuous
100
AcDbCircle
 10
2902.281351588488
 20
408.7447406502283
 30
0.0
 40
2.472178306553661
100
AcDbArc
 50
34.63277999893215
 51
100.3672200010704
  0
ARC
  5
ADDB
330
1E
100
AcDbEntity
  8
0
  6
Continuous
100
AcDbCircle
 10
2908.583184339777
 20
413.4408785753168
 30
0.0
 40
5.333333333333332
100
AcDbArc
 50
90.0
 51
210.8352048940757
  0
LINE
  5
ADDC
330
1E
100
AcDbEntity
  8
0
  6
Continuous
100
AcDbLine
 10
2910.094655407297
 20
408.1075452419838
 30
0.0
 11
2913.478092220443
 21
408.1075452419838
 31
0.0
  0
ARC
  5
ADDD
330
1E
100
AcDbEntity
  8
0
  6
Continuous
100
AcDbCircle
 10
2909.718582039898
 20
405.6641389307599
 30
0.0
 40
2.472178306553661
100
AcDbArc
 50
34.63277999893215
 51
100.3672200010704
  0
ARC
  5
ADDE
330
1E
100
AcDbEntity
  8
0
  6
Continuous
100
AcDbCircle
 10
2910.607089577084
 20
402.4433326685307
 30
0.0
 40
2.746231479756805
100
AcDbArc
 50
89.15209883493268
 51
159.1520988349398
  0
ARC
  5
ADDF
330
1E
100
AcDbEntity
  8
0
  6
Continuous
100
AcDbCircle
 10
2910.545007611161
 20
407.6593067531953
 30
0.0
 40
2.472178306553661
100
AcDbArc
 50
214.6327799989322
 51
280.3672200010703
  0
LINE
  5
ADE0
330
1E
100
AcDbEntity
  8
0
  6
Continuous
100
AcDbLine
 10
2903.227413268259
 20
411.0287355883717
 30
0.0
 11
2910.664643719669
 21
407.9481338689033
 31
0.0
  0
LINE
  5
ADE1
330
1E
100
AcDbEntity
  8
0
  6
Continuous
100
AcDbLine
 10
2902.16171547998
 20
408.4559135345203
 30
0.0
 11
2909.598945931391
 21
405.3753118150519
 31
0.0
  0
LINE
  5
ADE2
330
1E
100
AcDbEntity
  8
0
  6
Continuous
100
AcDbLine
 10
2902.127829069879
 20
405.8698585173671
 30
0.0
 11
2907.794290202615
 21
403.522733465528
 31
0.0
  0
ARC
  5
ADE3
330
1E
100
AcDbEntity
  8
0
  6
Continuous
100
AcDbCircle
 10
2903.706305738078
 20
402.6230265941367
 30
0.0
 40
3.813798694049016
100
AcDbArc
 50
118.5864858262558
 51
163.586485826268
  0
LINE
  5
ADE4
330
1E
100
AcDbEntity
  8
0
  6
Continuous
100
AcDbLine
 10
2900.047929436423
 20
403.7006829931003
 30
0.0
 11
2907.731162614825
 21
400.5181836077315
 31
0.0
  0
LINE
  5
ADE5
330
1E
100
AcDbEntity
  8
0
  6
Continuous
100
AcDbLine
 10
2900.047929436423
 20
399.658021709919
 30
0.0
 11
2900.047929436423
 21
403.7006829931003
 31
0.0
  0
ARC
  5
ADE6
330
1E
100
AcDbEntity
  8
0
  6
Continuous
100
AcDbCircle
 10
2904.382281776296
 20
402.3430281512669
 30
0.0
 40
3.813798694049014
100
AcDbArc
 50
331.4135141737428
 51
16.41351417374012
  0
ARC
  5
ADE7
330
1E
100
AcDbEntity
  8
0
  6
Continuous
100
AcDbCircle
 10
2899.375627934898
 20
407.0955564059972
 30
0.0
 40
2.746231479756805
100
AcDbArc
 50
335.8479011650552
 51
45.84790116506007
  0
ARC
  5
ADE8
330
1E
100
AcDbEntity
  8
0
  6
Continuous
100
AcDbCircle
 10
2903.107777159751
 20
410.7399084726637
 30
0.0
 40
2.472178306553661
100
AcDbArc
 50
214.6327799989322
 51
280.3672200010703
  0
LINE
  5
ADE9
330
1E
100
AcDbEntity
  8
0
  6
Continuous
100
AcDbLine
 10
2901.073641263004
 20
409.3350136551539
 30
0.0
 11
2901.836410954358
 21
411.1765025889883
 31
0.0
  0
ARC
  5
ADEA
330
1E
100
AcDbEntity
  8
0
  6
Continuous
100
AcDbCircle
 10
2903.388856014417
 20
400.9006606848158
 30
0.0
 40
9.295339642905961
100
AcDbArc
 50
50.72134999790536
 51
84.27865000208308
  0
LINE
  5
ADEB
330
1E
100
AcDbEntity
  8
0
  6
Continuous
100
AcDbLine
 10
2903.55271822327
 20
408.3081463560449
 30
0.0
 11
2904.315487914625
 21
410.1496352898796
 31
0.0
  0
ARC
  5
ADEC
330
1E
100
AcDbEntity
  8
0
  6
Continuous
100
AcDbCircle
 10
2909.437503185232
 20
415.5033867186078
 30
0.0
 40
9.295339642905961
100
AcDbArc
 50
230.7213499979054
 51
264.2786500020831
  0
LINE
  5
ADED
330
1E
100
AcDbEntity
  8
0
  6
Continuous
100
AcDbLine
 10
2908.510871285026
 20
406.2544121135442
 30
0.0
 11
2909.27364097638
 21
408.0959010473787
 31
0.0
  0
LINE
  5
ADEE
330
1E
100
AcDbEntity
  8
0
  6
Continuous
100
AcDbLine
 10
2910.98989190923
 20
405.2274877754079
 30
0.0
 11
2911.752718433717
 21
407.0691139165642
 31
0.0
  0
ARC
  5
ADEF
330
1E
100
AcDbEntity
  8
0
  6
Continuous
100
AcDbCircle
 10
2916.206609405818
 20
408.8408784425267
 30
0.0
 40
2.825346636061326
100
AcDbArc
 50
147.1327799989424
 51
212.8672200010575
  0
LINE
  5
ADF0
330
1E
100
AcDbEntity
  8
0
  6
Continuous
100
AcDbLine
 10
2913.83359949257
 20
407.3075452419836
 30
0.0
 11
2915.017991503755
 21
407.3075452419836
 31
0.0
  0
LINE
  5
ADF1
330
1E
100
AcDbEntity
  8
0
  6
Continuous
100
AcDbLine
 10
2913.83359949257
 20
410.3742121742313
 30
0.0
 11
2915.017991503755
 21
410.3742121742313
 31
0.0
  0
LINE
  5
ADF2
330
1E
100
AcDbEntity
  8
0
  6
Continuous
100
AcDbLine
 10
2908.583184339777
 20
418.7742119086504
 30
0.0
 11
2913.478092220443
 21
418.7742119086504
 31
0.0
  0
ARC
  5
ADF3
330
1E
100
AcDbEntity
  8
0
  6
Continuous
100
AcDbCircle
 10
2916.206609405818
 20
418.0408787081075
 30
0.0
 40
2.825346636061326
100
AcDbArc
 50
147.1327799989424
 51
212.8672200010575
  0
LINE
  5
ADF4
330
1E
100
AcDbEntity
  8
0
  6
Continuous
100
AcDbLine
 10
2913.83359949257
 20
416.5075449764024
 30
0.0
 11
2915.017991503755
 21
416.5075449764024
 31
0.0
  0
LINE
  5
ADF5
330
1E
100
AcDbEntity
  8
0
  6
Continuous
100
AcDbLine
 10
2913.83359949257
 20
419.5742119086506
 30
0.0
 11
2915.017991503755
 21
419.5742119086506
 31
0.0
  0
LINE
  5
ADF6
330
1E
100
AcDbEntity
  8
0
  6
Continuous
100
AcDbLine
 10
2900.047929436423
 20
399.658021709919
 30
0.0
 11
2904.872569407447
 21
397.6595904003539
 31
0.0
  0
LINE
  5
ADF7
330
1E
100
AcDbEntity
  8
0
  6
Continuous
100
AcDbLine
 10
2904.872569407447
 20
397.6595904003539
 30
0.0
 11
2907.731162614825
 21
400.5181836077315
 31
0.0
  0
LINE
  5
ADF8
330
1E
100
AcDbEntity
  8
0
  6
Continuous
100
AcDbLine
 10
2913.381262769756
 20
408.8408784425267
 30
0.0
 11
2913.381262769756
 21
418.0408787081075
 31
0.0
  0
ARC
  5
ADF9
330
1E
100
AcDbEntity
  8
0
  6
Continuous
100
AcDbCircle
 10
2924.004508075935
 20
413.4408785753168
 30
0.0
 40
10.62324530617823
100
AcDbArc
 50
163.2213499979145
 51
196.7786500020854
  0
ARC
  5
ADFA
330
1E
100
AcDbEntity
  8
0
  6
Continuous
100
AcDbCircle
 10
2902.281351588488
 20
408.7447406502283
 30
0.0
 40
2.472178306553661
100
AcDbArc
 50
34.63277999893215
 51
100.3672200010704
  0
ARC
  5
ADFB
330
1E
100
AcDbEntity
  8
0
  6
Continuous
100
AcDbCircle
 10
2908.583184339777
 20
413.4408785753168
 30
0.0
 40
5.333333333333332
100
AcDbArc
 50
90.0
 51
210.8352048940757
  0
LINE
  5
ADFC
330
1E
100
AcDbEntity
  8
0
  6
Continuous
100
AcDbLine
 10
2910.094655407297
 20
408.1075452419838
 30
0.0
 11
2913.478092220443
 21
408.1075452419838
 31
0.0
  0
ARC
  5
ADFD
330
1E
100
AcDbEntity
  8
0
  6
Continuous
100
AcDbCircle
 10
2909.718582039898
 20
405.6641389307599
 30
0.0
 40
2.472178306553661
100
AcDbArc
 50
34.63277999893215
 51
100.3672200010704
  0
ARC
  5
ADFE
330
1E
100
AcDbEntity
  8
0
  6
Continuous
100
AcDbCircle
 10
2910.607089577084
 20
402.4433326685307
 30
0.0
 40
2.746231479756805
100
AcDbArc
 50
89.15209883493268
 51
159.1520988349398
  0
ARC
  5
ADFF
330
1E
100
AcDbEntity
  8
0
  6
Continuous
100
AcDbCircle
 10
2910.545007611161
 20
407.6593067531953
 30
0.0
 40
2.472178306553661
100
AcDbArc
 50
214.6327799989322
 51
280.3672200010703
  0
LINE
  5
AE00
330
1E
100
AcDbEntity
  8
0
  6
Continuous
100
AcDbLine
 10
2903.227413268259
 20
411.0287355883717
 30
0.0
 11
2910.664643719669
 21
407.9481338689033
 31
0.0
  0
LINE
  5
AE01
330
1E
100
AcDbEntity
  8
0
  6
Continuous
100
AcDbLine
 10
2902.16171547998
 20
408.4559135345203
 30
0.0
 11
2909.598945931391
 21
405.3753118150519
 31
0.0
  0
LINE
  5
AE02
330
1E
100
AcDbEntity
  8
0
  6
Continuous
100
AcDbLine
 10
2902.127829069879
 20
405.8698585173671
 30
0.0
 11
2907.794290202615
 21
403.522733465528
 31
0.0
  0
ARC
  5
AE03
330
1E
100
AcDbEntity
  8
0
  6
Continuous
100
AcDbCircle
 10
2903.706305738078
 20
402.6230265941367
 30
0.0
 40
3.813798694049016
100
AcDbArc
 50
118.5864858262558
 51
163.586485826268
  0
LINE
  5
AE04
330
1E
100
AcDbEntity
  8
0
  6
Continuous
100
AcDbLine
 10
2900.047929436423
 20
403.7006829931003
 30
0.0
 11
2907.731162614825
 21
400.5181836077315
 31
0.0
  0
LINE
  5
AE05
330
1E
100
AcDbEntity
  8
0
  6
Continuous
100
AcDbLine
 10
2900.047929436423
 20
399.658021709919
 30
0.0
 11
2900.047929436423
 21
403.7006829931003
 31
0.0
  0
ARC
  5
AE06
330
1E
100
AcDbEntity
  8
0
  6
Continuous
100
AcDbCircle
 10
2904.382281776296
 20
402.3430281512669
 30
0.0
 40
3.813798694049014
100
AcDbArc
 50
331.4135141737428
 51
16.41351417374012
  0
ARC
  5
AE07
330
1E
100
AcDbEntity
  8
0
  6
Continuous
100
AcDbCircle
 10
2899.375627934898
 20
407.0955564059972
 30
0.0
 40
2.746231479756805
100
AcDbArc
 50
335.8479011650552
 51
45.84790116506007
  0
ARC
  5
AE08
330
1E
100
AcDbEntity
  8
0
  6
Continuous
100
AcDbCircle
 10
2903.107777159751
 20
410.7399084726637
 30
0.0
 40
2.472178306553661
100
AcDbArc
 50
214.6327799989322
 51
280.3672200010703
  0
LINE
  5
AE09
330
1E
100
AcDbEntity
  8
0
  6
Continuous
100
AcDbLine
 10
2901.073641263004
 20
409.3350136551539
 30
0.0
 11
2901.836410954358
 21
411.1765025889883
 31
0.0
  0
ARC
  5
AE0A
330
1E
100
AcDbEntity
  8
0
  6
Continuous
100
AcDbCircle
 10
2903.388856014417
 20
400.9006606848158
 30
0.0
 40
9.295339642905961
100
AcDbArc
 50
50.72134999790536
 51
84.27865000208308
  0
LINE
  5
AE0B
330
1E
100
AcDbEntity
  8
0
  6
Continuous
100
AcDbLine
 10
2903.55271822327
 20
408.3081463560449
 30
0.0
 11
2904.315487914625
 21
410.1496352898796
 31
0.0
  0
ARC
  5
AE0C
330
1E
100
AcDbEntity
  8
0
  6
Continuous
100
AcDbCircle
 10
2909.437503185232
 20
415.5033867186078
 30
0.0
 40
9.295339642905961
100
AcDbArc
 50
230.7213499979054
 51
264.2786500020831
  0
LINE
  5
AE0D
330
1E
100
AcDbEntity
  8
0
  6
Continuous
100
AcDbLine
 10
2908.510871285026
 20
406.2544121135442
 30
0.0
 11
2909.27364097638
 21
408.0959010473787
 31
0.0
  0
LINE
  5
AE0E
330
1E
100
AcDbEntity
  8
0
  6
Continuous
100
AcDbLine
 10
2910.98989190923
 20
405.2274877754079
 30
0.0
 11
2911.752718433717
 21
407.0691139165642
 31
0.0
  0
ARC
  5
AE0F
330
1E
100
AcDbEntity
  8
0
  6
Continuous
100
AcDbCircle
 10
2916.206609405818
 20
408.8408784425267
 30
0.0
 40
2.825346636061326
100
AcDbArc
 50
147.1327799989424
 51
212.8672200010575
  0
LINE
  5
AE10
330
1E
100
AcDbEntity
  8
0
  6
Continuous
100
AcDbLine
 10
2913.83359949257
 20
407.3075452419836
 30
0.0
 11
2915.017991503755
 21
407.3075452419836
 31
0.0
  0
LINE
  5
AE11
330
1E
100
AcDbEntity
  8
0
  6
Continuous
100
AcDbLine
 10
2913.83359949257
 20
410.3742121742313
 30
0.0
 11
2915.017991503755
 21
410.3742121742313
 31
0.0
  0
LINE
  5
AE12
330
1E
100
AcDbEntity
  8
0
  6
Continuous
100
AcDbLine
 10
2908.583184339777
 20
418.7742119086504
 30
0.0
 11
2913.478092220443
 21
418.7742119086504
 31
0.0
  0
ARC
  5
AE13
330
1E
100
AcDbEntity
  8
0
  6
Continuous
100
AcDbCircle
 10
2916.206609405818
 20
418.0408787081075
 30
0.0
 40
2.825346636061326
100
AcDbArc
 50
147.1327799989424
 51
212.8672200010575
  0
LINE
  5
AE14
330
1E
100
AcDbEntity
  8
0
  6
Continuous
100
AcDbLine
 10
2913.83359949257
 20
416.5075449764024
 30
0.0
 11
2915.017991503755
 21
416.5075449764024
 31
0.0
  0
LINE
  5
AE15
330
1E
100
AcDbEntity
  8
0
  6
Continuous
100
AcDbLine
 10
2913.83359949257
 20
419.5742119086506
 30
0.0
 11
2915.017991503755
 21
419.5742119086506
 31
0.0
  0
LINE
  5
AE16
330
1E
100
AcDbEntity
  8
0
  6
Continuous
100
AcDbLine
 10
2900.047929436423
 20
399.658021709919
 30
0.0
 11
2904.872569407447
 21
397.6595904003539
 31
0.0
  0
LINE
  5
AE17
330
1E
100
AcDbEntity
  8
0
  6
Continuous
100
AcDbLine
 10
2904.872569407447
 20
397.6595904003539
 30
0.0
 11
2907.731162614825
 21
400.5181836077315
 31
0.0
  0
ARC
  5
AE18
330
1E
100
AcDbEntity
  8
0
100
AcDbCircle
 10
2915.638984578322
 20
448.2551378328005
 30
0.0
 40
2.258017748891656
100
AcDbArc
 50
105.9630221688356
 51
179.0723572120041
  0
LINE
  5
AE19
330
1E
100
AcDbEntity
  8
0
100
AcDbLine
 10
2913.381262769756
 20
445.5900611757668
 30
0.0
 11
2913.381262769756
 21
448.2916944934686
 31
0.0
  0
ARC
  5
AE1A
330
1E
100
AcDbEntity
  8
0
100
AcDbCircle
 10
2915.638984578322
 20
445.6266178364339
 30
0.0
 40
2.258017748891656
100
AcDbArc
 50
180.9276427879959
 51
254.0369778311644
  0
ARC
  5
AE1B
330
1E
100
AcDbEntity
  8
0
100
AcDbCircle
 10
2915.638984578322
 20
381.2551378328005
 30
0.0
 40
2.258017748891656
100
AcDbArc
 50
105.9630221688356
 51
179.0723572120041
  0
LINE
  5
AE1C
330
1E
100
AcDbEntity
  8
0
100
AcDbLine
 10
2913.381262769756
 20
378.5900611757668
 30
0.0
 11
2913.381262769756
 21
381.2916944934686
 31
0.0
  0
ARC
  5
AE1D
330
1E
100
AcDbEntity
  8
0
100
AcDbCircle
 10
2915.638984578322
 20
378.626617836434
 30
0.0
 40
2.258017748891656
100
AcDbArc
 50
180.9276427879959
 51
254.0369778311644
  0
LINE
  5
AE1E
330
1E
100
AcDbEntity
  8
0
  6
Continuous
 62
     7
100
AcDbLine
 10
3078.417991496055
 20
455.4408778346171
 30
0.0
 11
3102.017991488356
 21
455.4408778346171
 31
0.0
  0
LINE
  5
AE1F
330
1E
100
AcDbEntity
  8
0
  6
Continuous
 62
     7
100
AcDbLine
 10
3078.417991496055
 20
453.4408778346171
 30
0.0
 11
3102.017991488356
 21
453.4408778346171
 31
0.0
  0
LINE
  5
AE20
330
1E
100
AcDbEntity
  8
0
  6
Continuous
 62
     7
100
AcDbLine
 10
3078.417991496055
 20
424.4408778346171
 30
0.0
 11
3098.417991496055
 21
424.4408778346171
 31
0.0
  0
LINE
  5
AE21
330
1E
100
AcDbEntity
  8
0
  6
Continuous
 62
     7
100
AcDbLine
 10
3098.417991496055
 20
423.4408778346171
 30
0.0
 11
3078.417991496055
 21
423.4408778346171
 31
0.0
  0
LINE
  5
AE22
330
1E
100
AcDbEntity
  8
0
  6
Continuous
 62
     7
100
AcDbLine
 10
3078.417991496055
 20
455.4408778346171
 30
0.0
 11
3078.417991496055
 21
371.4408778346172
 31
0.0
  0
LINE
  5
AE23
330
1E
100
AcDbEntity
  8
0
  6
Continuous
 62
     7
100
AcDbLine
 10
3098.417991496055
 20
403.4408778346171
 30
0.0
 11
3078.417991496055
 21
403.4408778346171
 31
0.0
  0
LINE
  5
AE24
330
1E
100
AcDbEntity
  8
0
  6
Continuous
 62
     7
100
AcDbLine
 10
3078.417991496055
 20
402.4408778346171
 30
0.0
 11
3098.417991496055
 21
402.4408778346171
 31
0.0
  0
LINE
  5
AE25
330
1E
100
AcDbEntity
  8
0
  6
Continuous
 62
     7
100
AcDbLine
 10
3098.417991496055
 20
455.4408778346171
 30
0.0
 11
3098.417991496055
 21
371.4408778346172
 31
0.0
  0
LINE
  5
AE26
330
1E
100
AcDbEntity
  8
0
  6
Continuous
 62
     7
100
AcDbLine
 10
3078.417991496055
 20
373.4408778346172
 30
0.0
 11
3102.017991488356
 21
373.4408778346172
 31
0.0
  0
LINE
  5
AE27
330
1E
100
AcDbEntity
  8
0
  6
Continuous
 62
     7
100
AcDbLine
 10
3078.417991496055
 20
371.4408778346172
 30
0.0
 11
3102.017991488356
 21
371.4408778346172
 31
0.0
  0
CIRCLE
  5
AE28
330
1E
100
AcDbEntity
  8
0
  6
Continuous
 62
     7
100
AcDbCircle
 10
3086.417991496056
 20
413.4408778346171
 30
0.0
 40
0.75
  0
CIRCLE
  5
AE29
330
1E
100
AcDbEntity
  8
0
  6
Continuous
 62
     7
100
AcDbCircle
 10
3086.417991496056
 20
413.4408778346171
 30
0.0
 40
5.15
  0
ARC
  5
AE2C
330
1E
100
AcDbEntity
  8
0
100
AcDbCircle
 10
3101.396998413788
 20
448.2551378328005
 30
0.0
 40
2.258017748891656
100
AcDbArc
 50
0.9276427879959022
 51
74.03697783116439
  0
LINE
  5
AE2D
330
1E
100
AcDbEntity
  8
0
100
AcDbLine
 10
3103.654720222354
 20
445.5900611757668
 30
0.0
 11
3103.654720222354
 21
448.2916944934686
 31
0.0
  0
ARC
  5
AE2E
330
1E
100
AcDbEntity
  8
0
100
AcDbCircle
 10
3101.396998413788
 20
445.6266178364339
 30
0.0
 40
2.258017748891656
100
AcDbArc
 50
285.9630221688356
 51
359.0723572120041
  0
ARC
  5
AE2F
330
1E
100
AcDbEntity
  8
0
100
AcDbCircle
 10
3101.396998413788
 20
381.2551378328005
 30
0.0
 40
2.258017748891656
100
AcDbArc
 50
0.9276427879959022
 51
74.03697783116439
  0
LINE
  5
AE30
330
1E
100
AcDbEntity
  8
0
100
AcDbLine
 10
3103.654720222354
 20
378.5900611757668
 30
0.0
 11
3103.654720222354
 21
381.2916944934686
 31
0.0
  0
ARC
  5
AE31
330
1E
100
AcDbEntity
  8
0
100
AcDbCircle
 10
3101.396998413788
 20
378.626617836434
 30
0.0
 40
2.258017748891656
100
AcDbArc
 50
285.9630221688356
 51
359.0723572120041
  0
LINE
  5
AE32
330
1E
100
AcDbEntity
  8
0
100
AcDbLine
 10
3102.017991488356
 20
455.4408778346171
 30
0.0
 11
3102.017991488356
 21
371.4408778346172
 31
0.0
  0
LINE
  5
AE33
330
1E
100
AcDbEntity
  8
中心線
 48
0.4
100
AcDbLine
 10
2903.517991496056
 20
426.416456533981
 30
0.0
 11
2903.517991496056
 21
415.1106887143331
 31
0.0
  0
LINE
  5
AE34
330
1E
100
AcDbEntity
  8
0
100
AcDbLine
 10
2828.517991496056
 20
435.9408778346173
 30
0.0
 11
2915.017991503755
 21
435.9408778346173
 31
0.0
  0
LINE
  5
AE35
330
1E
100
AcDbEntity
  8
0
100
AcDbLine
 10
3102.017991488356
 20
435.9408778346173
 30
0.0
 11
3188.517991496056
 21
435.9408778346173
 31
0.0
  0
LINE
  5
AE36
330
1E
100
AcDbEntity
  8
0
100
AcDbLine
 10
2828.517991496056
 20
390.9408778346174
 30
0.0
 11
2915.017991503755
 21
390.9408778346174
 31
0.0
  0
LINE
  5
AE37
330
1E
100
AcDbEntity
  8
0
100
AcDbLine
 10
3102.017991488356
 20
390.9408778346174
 30
0.0
 11
3188.517991496056
 21
390.9408778346174
 31
0.0
  0
LINE
  5
AE38
330
1E
100
AcDbEntity
  8
0
100
AcDbLine
 10
3188.517991496056
 20
435.9408778346173
 30
0.0
 11
3188.517991496056
 21
390.9408778346174
 31
0.0
  0
LINE
  5
AE39
330
1E
100
AcDbEntity
  8
0
100
AcDbLine
 10
2828.517991496056
 20
435.9408778346173
 30
0.0
 11
2828.517991496056
 21
390.9408778346174
 31
0.0
  0
ARC
  5
AE3A
330
1E
100
AcDbEntity
  8
0
100
AcDbCircle
 10
2903.517991496057
 20
413.4408778346173
 30
0.0
 40
10.0
100
AcDbArc
 50
32.23095765249177
 51
250.3691376448802
  0
ARC
  5
AE3B
330
1E
100
AcDbEntity
  8
0
100
AcDbCircle
 10
2903.517991496057
 20
413.4408778346173
 30
0.0
 40
7.0
100
AcDbArc
 50
49.33231840804618
 51
258.1048923924805
  0
LINE
  5
AE3C
330
1E
100
AcDbEntity
  8
中心線
 48
0.4
100
AcDbLine
 10
2851.017991496055
 20
426.416456533981
 30
0.0
 11
2851.017991496055
 21
400.4652991352536
 31
0.0
  0
LINE
  5
AE3D
330
1E
100
AcDbEntity
  8
中心線
 48
0.4
100
AcDbLine
 10
2838.042412796692
 20
413.4408778346173
 30
0.0
 11
2863.99357019542
 21
413.4408778346173
 31
0.0
  0
CIRCLE
  5
AE3E
330
1E
100
AcDbEntity
  8
0
100
AcDbCircle
 10
2851.017991496057
 20
413.4408778346173
 30
0.0
 40
10.0
  0
CIRCLE
  5
AE3F
330
1E
100
AcDbEntity
  8
0
100
AcDbCircle
 10
2851.017991496057
 20
413.4408778346173
 30
0.0
 40
7.0
  0
LINE
  5
AE40
330
1E
100
AcDbEntity
  8
中心線
 48
0.4
100
AcDbLine
 10
3113.517991496056
 20
426.416456533981
 30
0.0
 11
3113.517991496057
 21
400.4652991352536
 31
0.0
  0
CIRCLE
  5
AE41
330
1E
100
AcDbEntity
  8
0
100
AcDbCircle
 10
3113.517991496056
 20
413.4408778346173
 30
0.0
 40
10.0
  0
CIRCLE
  5
AE42
330
1E
100
AcDbEntity
  8
0
100
AcDbCircle
 10
3113.517991496056
 20
413.4408778346173
 30
0.0
 40
7.0
  0
LINE
  5
AE43
330
1E
100
AcDbEntity
  8
中心線
 48
0.4
100
AcDbLine
 10
3166.017991496056
 20
426.416456533981
 30
0.0
 11
3166.017991496057
 21
400.4652991352536
 31
0.0
  0
LINE
  5
AE44
330
1E
100
AcDbEntity
  8
中心線
 48
0.4
100
AcDbLine
 10
3178.993570195419
 20
413.4408778346173
 30
0.0
 11
3153.042412796692
 21
413.4408778346173
 31
0.0
  0
CIRCLE
  5
AE45
330
1E
100
AcDbEntity
  8
0
100
AcDbCircle
 10
3166.017991496056
 20
413.4408778346173
 30
0.0
 40
10.0
  0
CIRCLE
  5
AE46
330
1E
100
AcDbEntity
  8
0
100
AcDbCircle
 10
3166.017991496056
 20
413.4408778346173
 30
0.0
 40
7.0
  0
LINE
  5
AE47
330
1E
100
AcDbEntity
  8
中心線
 48
0.4
100
AcDbLine
 10
3126.493570195419
 20
413.4408778346173
 30
0.0
 11
3100.542412796692
 21
413.4408778346173
 31
0.0
  0
LINE
  5
AE48
330
1E
100
AcDbEntity
  8
中心線
 48
0.4
100
AcDbLine
 10
2903.249851006443
 20
413.4408778346173
 30
0.0
 11
2890.542412796692
 21
413.4408778346173
 31
0.0
  0
ARC
  5
AFF0
330
1E
100
AcDbEntity
  8
0
100
AcDbCircle
 10
2915.638984593722
 20
262.5948873345104
 30
0.0
 40
2.258017748891656
100
AcDbArc
 50
105.9630221688356
 51
179.0723572120041
  0
LINE
  5
AFF1
330
1E
100
AcDbEntity
  8
0
100
AcDbLine
 10
2913.381262785157
 20
259.9298106774767
 30
0.0
 11
2913.381262785157
 21
262.6314439951785
 31
0.0
  0
ARC
  5
AFF2
330
1E
100
AcDbEntity
  8
0
100
AcDbCircle
 10
2915.638984593722
 20
259.9663673381439
 30
0.0
 40
2.258017748891656
100
AcDbArc
 50
180.9276427879959
 51
254.0369778311644
  0
ARC
  5
AFF3
330
1E
100
AcDbEntity
  8
0
100
AcDbCircle
 10
3101.396998429189
 20
262.5948873345104
 30
0.0
 40
2.258017748891656
100
AcDbArc
 50
0.9276427879959022
 51
74.03697783116439
  0
LINE
  5
AFF4
330
1E
100
AcDbEntity
  8
0
100
AcDbLine
 10
3103.654720237754
 20
259.9298106774767
 30
0.0
 11
3103.654720237754
 21
262.6314439951785
 31
0.0
  0
ARC
  5
AFF5
330
1E
100
AcDbEntity
  8
0
100
AcDbCircle
 10
3101.396998429189
 20
259.9663673381439
 30
0.0
 40
2.258017748891656
100
AcDbArc
 50
285.9630221688356
 51
359.0723572120041
  0
MTEXT
  5
E0B0
330
1E
100
AcDbEntity
  8
0
100
AcDbMText
 10
2699.390720637147
 20
203.6690532612183
 30
0.0
 40
7.800000159341863
 41
100.6095
 71
     1
 72
     5
  1
\A1;{\fTimes New Roman|b0|i0|c0|p18;RGH45HA\PC : 11820 kgf\PC\fProxy 1|b0|i0|c0|p0;\H0.7x;\S^ 0;\fTimes New Roman|b0|i0|c0|p18;\H1.429x;: 23530 kgf}
 73
     1
 44
1.0
1001
ACAD
1000
MTEXTBEGIN
1070
    73
1070
     1
1070
    44
1040
1.0
1070
    74
1070
     0
1000
MTEXTEND
  0
LINE
  5
E343
330
1E
100
AcDbEntity
  8
虛線
  6
DASHED
100
AcDbLine
 10
2702.727739912595
 20
291.7806273363263
 30
0.0
 11
2704.227739912597
 21
293.2806273363274
 31
0.0
  0
LINE
  5
E344
330
1E
100
AcDbEntity
  8
虛線
  6
DASHED
100
AcDbLine
 10
2694.227739912596
 20
291.7806273363264
 30
0.0
 11
2692.727739912594
 21
293.2806273363275
 31
0.0
  0
LINE
  5
E345
330
1E
100
AcDbEntity
  8
虛線
 48
0.5
100
AcDbLine
 10
2698.477732283201
 20
266.0627081773911
 30
0.0
 11
2694.227739912595
 21
268.4806273363266
 31
0.0
  0
LINE
  5
E346
330
1E
100
AcDbEntity
  8
虛線
 48
0.5
100
AcDbLine
 10
2702.727739912596
 20
268.4806273363266
 30
0.0
 11
2694.227739912595
 21
268.4806273363266
 31
0.0
  0
LINE
  5
E347
330
1E
100
AcDbEntity
  8
虛線
 48
0.5
100
AcDbLine
 10
2703.477739912595
 20
292.5306273363259
 30
0.0
 11
2703.477739912595
 21
273.4806273363266
 31
0.0
  0
LINE
  5
E348
330
1E
100
AcDbEntity
  8
虛線
 48
0.5
100
AcDbLine
 10
2693.477739912595
 20
292.5306273363267
 30
0.0
 11
2693.477739912595
 21
273.4806273363266
 31
0.0
  0
LINE
  5
E349
330
1E
100
AcDbEntity
  8
虛線
 48
0.5
100
AcDbLine
 10
2703.477739912595
 20
273.4806273363266
 30
0.0
 11
2693.477739912595
 21
273.4806273363266
 31
0.0
  0
LINE
  5
E34A
330
1E
100
AcDbEntity
  8
虛線
 48
0.5
100
AcDbLine
 10
2698.477757078733
 20
266.0627348802719
 30
0.0
 11
2702.727739912595
 21
268.4806273363266
 31
0.0
  0
LINE
  5
E34B
330
1E
100
AcDbEntity
  8
虛線
  6
DASHED
100
AcDbLine
 10
2694.227739912596
 20
291.7806273363269
 30
0.0
 11
2702.727739912595
 21
291.7806273363263
 31
0.0
  0
LINE
  5
E34C
330
1E
100
AcDbEntity
  8
虛線
 48
0.5
100
AcDbLine
 10
2702.727739912595
 20
291.7806273363263
 30
0.0
 11
2702.727739912595
 21
268.4806273363266
 31
0.0
  0
LINE
  5
E34D
330
1E
100
AcDbEntity
  8
虛線
 48
0.5
100
AcDbLine
 10
2694.227739912596
 20
291.7806273363269
 30
0.0
 11
2694.227739912595
 21
268.4806273363266
 31
0.0
  0
LINE
  5
E34E
330
1E
100
AcDbEntity
  8
虛線
  6
DASHED
100
AcDbLine
 10
2732.727739912595
 20
291.7806273363263
 30
0.0
 11
2734.227739912597
 21
293.2806273363274
 31
0.0
  0
LINE
  5
E34F
330
1E
100
AcDbEntity
  8
虛線
  6
DASHED
100
AcDbLine
 10
2724.227739912596
 20
291.7806273363264
 30
0.0
 11
2722.727739912594
 21
293.2806273363275
 31
0.0
  0
LINE
  5
E350
330
1E
100
AcDbEntity
  8
虛線
 48
0.5
100
AcDbLine
 10
2728.477732283201
 20
266.0627081773911
 30
0.0
 11
2724.227739912596
 21
268.4806273363266
 31
0.0
  0
LINE
  5
E351
330
1E
100
AcDbEntity
  8
虛線
 48
0.5
100
AcDbLine
 10
2732.727739912595
 20
268.4806273363266
 30
0.0
 11
2724.227739912596
 21
268.4806273363266
 31
0.0
  0
LINE
  5
E352
330
1E
100
AcDbEntity
  8
虛線
 48
0.5
100
AcDbLine
 10
2733.477739912595
 20
292.5306273363259
 30
0.0
 11
2733.477739912595
 21
273.4806273363266
 31
0.0
  0
LINE
  5
E353
330
1E
100
AcDbEntity
  8
虛線
 48
0.5
100
AcDbLine
 10
2723.477739912596
 20
292.5306273363267
 30
0.0
 11
2723.477739912596
 21
273.4806273363266
 31
0.0
  0
LINE
  5
E354
330
1E
100
AcDbEntity
  8
虛線
 48
0.5
100
AcDbLine
 10
2733.477739912595
 20
273.4806273363266
 30
0.0
 11
2723.477739912596
 21
273.4806273363266
 31
0.0
  0
LINE
  5
E355
330
1E
100
AcDbEntity
  8
虛線
 48
0.5
100
AcDbLine
 10
2728.477757078733
 20
266.0627348802719
 30
0.0
 11
2732.727739912595
 21
268.4806273363266
 31
0.0
  0
LINE
  5
E356
330
1E
100
AcDbEntity
  8
虛線
  6
DASHED
100
AcDbLine
 10
2724.227739912596
 20
291.7806273363269
 30
0.0
 11
2732.727739912595
 21
291.7806273363263
 31
0.0
  0
LINE
  5
E357
330
1E
100
AcDbEntity
  8
虛線
 48
0.5
100
AcDbLine
 10
2732.727739912595
 20
291.7806273363263
 30
0.0
 11
2732.727739912595
 21
268.4806273363266
 31
0.0
  0
LINE
  5
E358
330
1E
100
AcDbEntity
  8
虛線
 48
0.5
100
AcDbLine
 10
2724.227739912596
 20
291.7806273363269
 30
0.0
 11
2724.227739912596
 21
268.4806273363266
 31
0.0
  0
LINE
  5
E359
330
1E
100
AcDbEntity
  8
虛線
 48
0.5
100
AcDbLine
 10
2754.227739912595
 20
291.7806273363269
 30
0.0
 11
2754.227739912595
 21
268.4806273363266
 31
0.0
  0
LINE
  5
E35A
330
1E
100
AcDbEntity
  8
虛線
 48
0.5
100
AcDbLine
 10
2762.727739912595
 20
291.7806273363263
 30
0.0
 11
2762.727739912595
 21
268.4806273363266
 31
0.0
  0
LINE
  5
E35B
330
1E
100
AcDbEntity
  8
0
  6
Continuous
 62
     7
100
AcDbLine
 10
2707.977739912595
 20
223.2806273363277
 30
0.0
 11
2705.977739912595
 21
225.2806273363277
 31
0.0
  0
LINE
  5
E35C
330
1E
100
AcDbEntity
  8
0
  6
Continuous
 62
     7
100
AcDbLine
 10
2703.007407851495
 20
261.5109791608276
 30
0.0
 11
2703.007407851495
 21
255.7538289116275
 31
0.0
  0
LINE
  5
E35D
330
1E
100
AcDbEntity
  8
0
  6
Continuous
 62
     7
100
AcDbLine
 10
2703.007407851495
 20
234.8074257643276
 30
0.0
 11
2703.007407851495
 21
231.7806273362277
 31
0.0
  0
LINE
  5
E35E
330
1E
100
AcDbEntity
  8
0
  6
Continuous
 62
     7
100
AcDbLine
 10
2703.007407851495
 20
261.5109791608276
 30
0.0
 11
2705.747388088095
 21
264.2509593974274
 31
0.0
  0
LINE
  5
E35F
330
1E
100
AcDbEntity
  8
0
  6
Continuous
 62
     7
100
AcDbLine
 10
2705.199717136296
 20
260.7046860880274
 30
0.0
 11
2706.553681160895
 21
262.0586501126275
 31
0.0
  0
LINE
  5
E360
330
1E
100
AcDbEntity
  8
0
  6
Continuous
 62
     7
100
AcDbLine
 10
2705.977739912595
 20
260.2806273363277
 30
0.0
 11
2706.977739912595
 21
261.2806273363277
 31
0.0
  0
LINE
  5
E361
330
1E
100
AcDbEntity
  8
0
  6
Continuous
 62
     7
100
AcDbLine
 10
2705.127739912595
 20
231.7806273362277
 30
0.0
 11
2705.127739912595
 21
233.9291554689468
 31
0.0
  0
LINE
  5
E362
330
1E
100
AcDbEntity
  8
0
  6
Continuous
 62
     7
100
AcDbLine
 10
2705.127739912595
 20
256.6320992068245
 30
0.0
 11
2705.127739912595
 21
260.5309176984275
 31
0.0
  0
LINE
  5
E363
330
1E
100
AcDbEntity
  8
0
  6
Continuous
 62
     7
100
AcDbLine
 10
2705.977739912595
 20
225.2806273363277
 30
0.0
 11
2705.977739912595
 21
233.5770739413538
 31
0.0
  0
LINE
  5
E364
330
1E
100
AcDbEntity
  8
0
  6
Continuous
 62
     7
100
AcDbLine
 10
2705.977739912595
 20
256.9841807343451
 30
0.0
 11
2705.977739912595
 21
260.2806273363277
 31
0.0
  0
LINE
  5
E365
330
1E
100
AcDbEntity
  8
0
  6
Continuous
 62
     7
100
AcDbLine
 10
2748.977739912595
 20
223.2806273363277
 30
0.0
 11
2743.727748228495
 21
223.2806273363277
 31
0.0
  0
LINE
  5
E366
330
1E
100
AcDbEntity
  8
0
  6
Continuous
 62
     7
100
AcDbLine
 10
2713.227731596695
 20
223.2806273363277
 30
0.0
 11
2707.977739912595
 21
223.2806273363277
 31
0.0
  0
LINE
  5
E367
330
1E
100
AcDbEntity
  8
0
  6
Continuous
 62
     7
100
AcDbLine
 10
2720.227732112595
 20
223.2806273363277
 30
0.0
 11
2736.727747712595
 21
223.2806273363277
 31
0.0
  0
LINE
  5
E368
330
1E
100
AcDbEntity
  8
0
  6
Continuous
 62
     7
100
AcDbLine
 10
2742.727748732595
 20
224.2806273363277
 30
0.0
 11
2737.727748212595
 21
224.2806273363277
 31
0.0
  0
LINE
  5
E369
330
1E
100
AcDbEntity
  8
0
  6
Continuous
 62
     7
100
AcDbLine
 10
2719.227731612595
 20
224.2806273363277
 30
0.0
 11
2714.227731092595
 21
224.2806273363277
 31
0.0
  0
LINE
  5
E36A
330
1E
100
AcDbEntity
  8
0
  6
Continuous
 62
     7
100
AcDbLine
 10
2720.227732396995
 20
223.2806273363277
 30
0.0
 11
2719.227731612595
 21
224.2806273363277
 31
0.0
  0
LINE
  5
E36B
330
1E
100
AcDbEntity
  8
0
  6
Continuous
 62
     7
100
AcDbLine
 10
2710.507407851495
 20
242.3074257775275
 30
0.0
 11
2710.507407851495
 21
248.2538288958277
 31
0.0
  0
LINE
  5
E36C
330
1E
100
AcDbEntity
  8
0
  6
Continuous
 62
     7
100
AcDbLine
 10
2712.627739912595
 20
241.5309466480277
 30
0.0
 11
2712.627739912595
 21
249.0303080252275
 31
0.0
  0
LINE
  5
E36D
330
1E
100
AcDbEntity
  8
0
  6
Continuous
 62
     7
100
AcDbLine
 10
2713.477739912595
 20
241.0770739545861
 30
0.0
 11
2713.477739912595
 21
249.4841807185186
 31
0.0
  0
LINE
  5
E36E
330
1E
100
AcDbEntity
  8
0
  6
Continuous
 62
     7
100
AcDbLine
 10
2710.507407851495
 20
242.3074257775275
 30
0.0
 11
2703.007407851495
 21
234.8074257643276
 31
0.0
  0
LINE
  5
E36F
330
1E
100
AcDbEntity
  8
0
  6
Continuous
 62
     7
100
AcDbLine
 10
2703.007407851495
 20
231.7806273362277
 30
0.0
 11
2705.127739912595
 21
231.7806273362277
 31
0.0
  0
LINE
  5
E370
330
1E
100
AcDbEntity
  8
0
  6
Continuous
 62
     7
100
AcDbLine
 10
2751.827739912595
 20
231.7806273362277
 30
0.0
 11
2753.948071973695
 21
231.7806273362277
 31
0.0
  0
LINE
  5
E371
330
1E
100
AcDbEntity
  8
0
  6
Continuous
 62
     7
100
AcDbLine
 10
2703.007407851495
 20
255.7538289116275
 30
0.0
 11
2710.507407851495
 21
248.2538288958277
 31
0.0
  0
LINE
  5
E372
330
1E
100
AcDbEntity
  8
0
  6
Continuous
 62
     7
100
AcDbLine
 10
2705.127739912595
 20
233.9291554689468
 30
0.0
 11
2712.555762689095
 21
241.3571782585276
 31
0.0
  0
LINE
  5
E373
330
1E
100
AcDbEntity
  8
0
  6
Continuous
 62
     7
100
AcDbLine
 10
2705.977739912595
 20
233.5770739413538
 30
0.0
 11
2713.477739912595
 21
241.0770739545861
 31
0.0
  0
LINE
  5
E374
330
1E
100
AcDbEntity
  8
0
  6
Continuous
 62
     7
100
AcDbLine
 10
2712.555762689095
 20
249.2040764146276
 30
0.0
 11
2705.127739912595
 21
256.6320992068245
 31
0.0
  0
LINE
  5
E375
330
1E
100
AcDbEntity
  8
0
  6
Continuous
 62
     7
100
AcDbLine
 10
2713.477739912595
 20
249.4841807185186
 30
0.0
 11
2705.977739912595
 21
256.9841807343451
 31
0.0
  0
LINE
  5
E376
330
1E
100
AcDbEntity
  8
0
  6
Continuous
 62
     7
100
AcDbLine
 10
2743.727748228495
 20
223.2806273363277
 30
0.0
 11
2742.727748732595
 21
224.2806273363277
 31
0.0
  0
LINE
  5
E377
330
1E
100
AcDbEntity
  8
0
  6
Continuous
 62
     7
100
AcDbLine
 10
2714.227731092595
 20
224.2806273363277
 30
0.0
 11
2713.227731596695
 21
223.2806273363277
 31
0.0
  0
LINE
  5
E378
330
1E
100
AcDbEntity
  8
0
  6
Continuous
 62
     7
100
AcDbLine
 10
2750.977739912595
 20
256.9841807343451
 30
0.0
 11
2743.477739912596
 21
249.4841807185185
 31
0.0
  0
LINE
  5
E379
330
1E
100
AcDbEntity
  8
0
  6
Continuous
 62
     7
100
AcDbLine
 10
2751.827739912595
 20
256.6320992068247
 30
0.0
 11
2744.399717136095
 21
249.2040764146276
 31
0.0
  0
LINE
  5
E37A
330
1E
100
AcDbEntity
  8
0
  6
Continuous
 62
     7
100
AcDbLine
 10
2746.448071973695
 20
248.2538288958277
 30
0.0
 11
2753.948071973695
 21
255.7538289116275
 31
0.0
  0
LINE
  5
E37B
330
1E
100
AcDbEntity
  8
0
  6
Continuous
 62
     7
100
AcDbLine
 10
2743.477739912596
 20
241.0770739545858
 30
0.0
 11
2750.977739912595
 21
233.577073941354
 31
0.0
  0
LINE
  5
E37C
330
1E
100
AcDbEntity
  8
0
  6
Continuous
 62
     7
100
AcDbLine
 10
2744.399717136095
 20
241.3571782585276
 30
0.0
 11
2751.827739912596
 21
233.9291554689464
 31
0.0
  0
LINE
  5
E37D
330
1E
100
AcDbEntity
  8
0
  6
Continuous
 62
     7
100
AcDbLine
 10
2753.948071973695
 20
234.8074257643276
 30
0.0
 11
2746.448071973695
 21
242.3074257775275
 31
0.0
  0
LINE
  5
E37E
330
1E
100
AcDbEntity
  8
0
  6
Continuous
 62
     7
100
AcDbLine
 10
2743.477739912596
 20
249.4841807185185
 30
0.0
 11
2743.477739912596
 21
241.0770739545858
 31
0.0
  0
LINE
  5
E37F
330
1E
100
AcDbEntity
  8
0
  6
Continuous
 62
     7
100
AcDbLine
 10
2744.327739912595
 20
249.0303080252275
 30
0.0
 11
2744.327739912595
 21
241.5309466480277
 31
0.0
  0
LINE
  5
E380
330
1E
100
AcDbEntity
  8
0
  6
Continuous
 62
     7
100
AcDbLine
 10
2749.977739912595
 20
261.2806273363277
 30
0.0
 11
2706.977739912595
 21
261.2806273363277
 31
0.0
  0
LINE
  5
E381
330
1E
100
AcDbEntity
  8
0
  6
Continuous
 62
     7
100
AcDbLine
 10
2746.448071973695
 20
248.2538288958277
 30
0.0
 11
2746.448071973695
 21
242.3074257775275
 31
0.0
  0
LINE
  5
E382
330
1E
100
AcDbEntity
  8
0
  6
Continuous
 62
     7
100
AcDbLine
 10
2706.727449550495
 20
262.1306273363276
 30
0.0
 11
2750.228030274695
 21
262.1306273363276
 31
0.0
  0
LINE
  5
E383
330
1E
100
AcDbEntity
  8
0
  6
Continuous
 62
     7
100
AcDbLine
 10
2705.747388088095
 20
264.2509593974274
 30
0.0
 11
2751.208091737095
 21
264.2509593974274
 31
0.0
  0
LINE
  5
E384
330
1E
100
AcDbEntity
  8
0
  6
Continuous
 62
     7
100
AcDbLine
 10
2750.977739912595
 20
260.2806273363273
 30
0.0
 11
2750.977739912595
 21
256.9841807343451
 31
0.0
  0
LINE
  5
E385
330
1E
100
AcDbEntity
  8
0
  6
Continuous
 62
     7
100
AcDbLine
 10
2750.977739912595
 20
233.577073941354
 30
0.0
 11
2750.977739912595
 21
225.2806273363277
 31
0.0
  0
LINE
  5
E386
330
1E
100
AcDbEntity
  8
0
  6
Continuous
 62
     7
100
AcDbLine
 10
2751.827739912595
 20
260.5309176984275
 30
0.0
 11
2751.827739912595
 21
256.6320992068247
 31
0.0
  0
LINE
  5
E387
330
1E
100
AcDbEntity
  8
0
  6
Continuous
 62
     7
100
AcDbLine
 10
2751.827739912595
 20
231.7806273362277
 30
0.0
 11
2751.827739912596
 21
233.9291554689464
 31
0.0
  0
LINE
  5
E388
330
1E
100
AcDbEntity
  8
0
  6
Continuous
 62
     7
100
AcDbLine
 10
2753.948071973695
 20
231.7806273362277
 30
0.0
 11
2753.948071973695
 21
234.8074257643276
 31
0.0
  0
LINE
  5
E389
330
1E
100
AcDbEntity
  8
0
  6
Continuous
 62
     7
100
AcDbLine
 10
2753.948071973695
 20
255.7538289116275
 30
0.0
 11
2753.948071973695
 21
261.5109791608276
 31
0.0
  0
LINE
  5
E38A
330
1E
100
AcDbEntity
  8
0
  6
Continuous
 62
     7
100
AcDbLine
 10
2737.727748212595
 20
224.2806273363277
 30
0.0
 11
2736.727747428195
 21
223.2806273363277
 31
0.0
  0
LINE
  5
E38B
330
1E
100
AcDbEntity
  8
0
  6
Continuous
 62
     7
100
AcDbLine
 10
2750.977739912595
 20
225.2806273363277
 30
0.0
 11
2748.977739912595
 21
223.2806273363277
 31
0.0
  0
LINE
  5
E38C
330
1E
100
AcDbEntity
  8
0
  6
Continuous
 62
     7
100
AcDbLine
 10
2749.977739912595
 20
261.2806273363277
 30
0.0
 11
2750.977739912595
 21
260.2806273363273
 31
0.0
  0
LINE
  5
E38D
330
1E
100
AcDbEntity
  8
0
  6
Continuous
 62
     7
100
AcDbLine
 10
2750.401798664295
 20
262.0586501126275
 30
0.0
 11
2751.755762688895
 21
260.7046860880274
 31
0.0
  0
LINE
  5
E38E
330
1E
100
AcDbEntity
  8
0
  6
Continuous
 62
     7
100
AcDbLine
 10
2751.208091737095
 20
264.2509593974274
 30
0.0
 11
2753.948071973695
 21
261.5109791608276
 31
0.0
  0
SPLINE
  5
E395
330
1E
100
AcDbEntity
  8
0
  6
Continuous
 62
     7
100
AcDbSpline
210
0.0
220
0.0
230
1.0
 70
     8
 71
     3
 72
    10
 73
     6
 74
     4
 42
0.0000000001
 43
0.0000000001
 44
0.0000000001
 12
0.0000000000000002
 22
1.0
 32
0.0
 13
-0.7071067804076013
 23
0.7071067819654938
 33
0.0
 40
0.0
 40
0.0
 40
0.0
 40
0.0
 40
0.0647590235176242
 40
0.1278007256590947
 40
0.1925678500757822
 40
0.1925678500757822
 40
0.1925678500757822
 40
0.1925678500757822
 10
2712.627739912595
 20
249.0303080252275
 30
0.0
 10
2712.627739912595
 20
249.0518943664001
 30
0.0
 10
2712.622335193444
 20
249.0947398852596
 30
0.0
 10
2712.597504322333
 20
249.1546898697742
 30
0.0
 10
2712.571028446703
 20
249.1888106569864
 30
0.0
 10
2712.555762689095
 20
249.2040764146276
 30
0.0
 11
2712.627739912595
 21
249.0303080252275
 31
0.0
 11
2712.619418988496
 21
249.0945302437277
 31
0.0
 11
2712.595294965795
 21
249.1527735930275
 31
0.0
 11
2712.555762689095
 21
249.2040764146276
 31
0.0
  0
SPLINE
  5
E396
330
1E
100
AcDbEntity
  8
0
  6
Continuous
 62
     7
100
AcDbSpline
210
0.0
220
0.0
230
1.0
 70
     8
 71
     3
 72
    10
 73
     6
 74
     4
 42
0.0000000001
 43
0.0000000001
 44
0.0000000001
 12
0.7071067806672503
 22
0.707106781705845
 32
0.0
 13
0.0000000000000002
 23
1.0
 33
0.0
 40
0.0
 40
0.0
 40
0.0
 40
0.0
 40
0.0647590235192106
 40
0.1278007256290093
 40
0.1925678501649343
 40
0.1925678501649343
 40
0.1925678501649343
 40
0.1925678501649343
 10
2712.555762689095
 20
241.3571782585276
 30
0.0
 10
2712.571026537308
 20
241.3724421067633
 30
0.0
 10
2712.597501180654
 20
241.4065601772684
 30
0.0
 10
2712.622334143754
 20
241.4665092952782
 30
0.0
 10
2712.627739912595
 20
241.5093576065157
 30
0.0
 10
2712.627739912595
 20
241.5309466480277
 30
0.0
 11
2712.555762689095
 21
241.3571782585276
 31
0.0
 11
2712.595290873395
 21
241.4084740066274
 31
0.0
 11
2712.619416880495
 21
241.4667165339275
 31
0.0
 11
2712.627739912595
 21
241.5309466480277
 31
0.0
  0
SPLINE
  5
E397
330
1E
100
AcDbEntity
  8
0
  6
Continuous
 62
     7
100
AcDbSpline
210
0.0
220
0.0
230
1.0
 70
     8
 71
     3
 72
    10
 73
     6
 74
     4
 42
0.0000000001
 43
0.0000000001
 44
0.0000000001
 12
-0.0000000000000002
 22
-1.0
 32
0.0
 13
0.70710678066725
 23
-0.7071067817058453
 33
0.0
 40
0.0
 40
0.0
 40
0.0
 40
0.0
 40
0.0647590235176242
 40
0.1278007256593047
 40
0.1925678501553361
 40
0.1925678501553361
 40
0.1925678501553361
 40
0.1925678501553361
 10
2744.327739912595
 20
241.5309466480277
 30
0.0
 10
2744.327739912595
 20
241.5093603068552
 30
0.0
 10
2744.33314463174
 20
241.4665147879898
 30
0.0
 10
2744.357975502892
 20
241.4065648034761
 30
0.0
 10
2744.384451378464
 20
241.3724440161818
 30
0.0
 10
2744.399717136095
 20
241.3571782585276
 30
0.0
 11
2744.327739912595
 21
241.5309466480277
 31
0.0
 11
2744.336060836695
 21
241.4667244295275
 31
0.0
 11
2744.360184859395
 21
241.4084810802275
 31
0.0
 11
2744.399717136095
 21
241.3571782585276
 31
0.0
  0
SPLINE
  5
E398
330
1E
100
AcDbEntity
  8
0
  6
Continuous
 62
     7
100
AcDbSpline
210
0.0
220
0.0
230
1.0
 70
     8
 71
     3
 72
    10
 73
     6
 74
     4
 42
0.0000000001
 43
0.0000000001
 44
0.0000000001
 12
-0.7071067804076014
 22
-0.7071067819654937
 32
0.0
 13
-0.0000000000000002
 23
-1.0
 33
0.0
 40
0.0
 40
0.0
 40
0.0
 40
0.0
 40
0.0647590234404229
 40
0.1278007256805528
 40
0.1925678501044649
 40
0.1925678501044649
 40
0.1925678501044649
 40
0.1925678501044649
 10
2744.399717136095
 20
249.2040764146276
 30
0.0
 10
2744.384453287906
 20
249.1888125664049
 30
0.0
 10
2744.35797864451
 20
249.1546944959357
 30
0.0
 10
2744.333145681307
 20
249.0947453779625
 30
0.0
 10
2744.327739912595
 20
249.0518970667022
 30
0.0
 10
2744.327739912595
 20
249.0303080252275
 30
0.0
 11
2744.399717136095
 21
249.2040764146276
 31
0.0
 11
2744.360188951795
 21
249.1527806666276
 31
0.0
 11
2744.336062944595
 21
249.0945381392277
 31
0.0
 11
2744.327739912595
 21
249.0303080252275
 31
0.0
  0
SPLINE
  5
E399
330
1E
100
AcDbEntity
  8
0
  6
Continuous
 62
     7
100
AcDbSpline
210
0.0
220
0.0
230
1.0
 70
     8
 71
     3
 72
    10
 73
     6
 74
     4
 42
0.0000000001
 43
0.0000000001
 44
0.0000000001
 12
0.7071067811865475
 22
-0.7071067811865478
 32
0.0
 13
-0.0000000000000002
 23
-1.0
 33
0.0
 40
0.0
 40
0.0
 40
0.0
 40
0.0
 40
0.0647590235805542
 40
0.1278007258206841
 40
0.1925678503566675
 40
0.1925678503566675
 40
0.1925678503566675
 40
0.1925678503566675
 10
2751.755762688895
 20
260.7046860880274
 30
0.0
 10
2751.771026537134
 20
260.6894222397885
 30
0.0
 10
2751.797501180572
 20
260.6553041692771
 30
0.0
 10
2751.822334143758
 20
260.5953550512231
 30
0.0
 10
2751.827739912595
 20
260.5525067399395
 30
0.0
 10
2751.827739912595
 20
260.5309176984275
 30
0.0
 11
2751.755762688895
 21
260.7046860880274
 31
0.0
 11
2751.795290873295
 21
260.6533903399276
 31
0.0
 11
2751.819416880495
 21
260.5951478125277
 31
0.0
 11
2751.827739912595
 21
260.5309176984275
 31
0.0
  0
SPLINE
  5
E39A
330
1E
100
AcDbEntity
  8
0
  6
Continuous
 62
     7
100
AcDbSpline
210
0.0
220
0.0
230
1.0
 70
     8
 71
     3
 72
    10
 73
     6
 74
     4
 42
0.0000000001
 43
0.0000000001
 44
0.0000000001
 12
1.0
 22
-0.0000000000000002
 32
0.0
 13
0.7071067811865475
 23
-0.7071067811865478
 33
0.0
 40
0.0
 40
0.0
 40
0.0
 40
0.0
 40
0.0647590235172317
 40
0.1278007257894516
 40
0.192567850346589
 40
0.192567850346589
 40
0.192567850346589
 40
0.192567850346589
 10
2750.228030274695
 20
262.1306273363276
 30
0.0
 10
2750.249616615867
 20
262.1306273363276
 30
0.0
 10
2750.292462134779
 20
262.1252226171879
 30
0.0
 10
2750.352412119337
 20
262.100391745948
 30
0.0
 10
2750.386532906638
 20
262.073915870285
 30
0.0
 10
2750.401798664295
 20
262.0586501126275
 30
0.0
 11
2750.228030274695
 21
262.1306273363276
 31
0.0
 11
2750.292252493195
 21
262.1223064122274
 31
0.0
 11
2750.350495842595
 21
262.0981823894277
 31
0.0
 11
2750.401798664295
 21
262.0586501126275
 31
0.0
  0
SPLINE
  5
E39B
330
1E
100
AcDbEntity
  8
0
  6
Continuous
 62
     7
100
AcDbSpline
210
0.0
220
0.0
230
1.0
 70
     8
 71
     3
 72
    10
 73
     6
 74
     4
 42
0.0000000001
 43
0.0000000001
 44
0.0000000001
 12
0.7071067811865478
 22
0.7071067811865475
 32
0.0
 13
1.0
 23
-0.0000000000000002
 33
0.0
 40
0.0
 40
0.0
 40
0.0
 40
0.0
 40
0.0647590235805955
 40
0.1278007258205153
 40
0.1925678503564988
 40
0.1925678503564988
 40
0.1925678503564988
 40
0.1925678503564988
 10
2706.553681160895
 20
262.0586501126275
 30
0.0
 10
2706.568945009134
 20
262.0739139608665
 30
0.0
 10
2706.603063079646
 20
262.1003886043042
 30
0.0
 10
2706.6630121977
 20
262.1252215674898
 30
0.0
 10
2706.705860508983
 20
262.1306273363276
 30
0.0
 10
2706.727449550495
 20
262.1306273363276
 30
0.0
 11
2706.553681160895
 21
262.0586501126275
 31
0.0
 11
2706.604976908995
 21
262.0981782970276
 31
0.0
 11
2706.663219436395
 21
262.1223043042274
 31
0.0
 11
2706.727449550495
 21
262.1306273363276
 31
0.0
  0
SPLINE
  5
E39C
330
1E
100
AcDbEntity
  8
0
  6
Continuous
 62
     7
100
AcDbSpline
210
0.0
220
0.0
230
1.0
 70
     8
 71
     3
 72
    10
 73
     6
 74
     4
 42
0.0000000001
 43
0.0000000001
 44
0.0000000001
 12
0.0000000000000002
 22
1.0
 32
0.0
 13
0.7071067811865478
 23
0.7071067811865475
 33
0.0
 40
0.0
 40
0.0
 40
0.0
 40
0.0
 40
0.0647590235176827
 40
0.1278007257896925
 40
0.1925678503467885
 40
0.1925678503467885
 40
0.1925678503467885
 40
0.1925678503467885
 10
2705.127739912595
 20
260.5309176984275
 30
0.0
 10
2705.127739912595
 20
260.5525040396001
 30
0.0
 10
2705.133144631735
 20
260.5953495585114
 30
0.0
 10
2705.157975502974
 20
260.6552995430692
 30
0.0
 10
2705.184451378638
 20
260.68942033037
 30
0.0
 10
2705.199717136296
 20
260.7046860880274
 30
0.0
 11
2705.127739912595
 21
260.5309176984275
 31
0.0
 11
2705.136060836695
 21
260.5951399169277
 31
0.0
 11
2705.160184859495
 21
260.6533832663275
 31
0.0
 11
2705.199717136296
 21
260.7046860880274
 31
0.0
  0
LINE
  5
E39D
330
1E
100
AcDbEntity
  8
虛線
 48
0.4
100
AcDbLine
 10
2718.477739912594
 20
244.2806273363295
 30
0.0
 11
2738.477739912594
 21
244.2806273363295
 31
0.0
  0
LINE
  5
E39E
330
1E
100
AcDbEntity
  8
虛線
 48
0.4
100
AcDbLine
 10
2718.477739912594
 20
260.8806273363295
 30
0.0
 11
2738.477739912594
 21
260.8806273363295
 31
0.0
  0
LINE
  5
E39F
330
1E
100
AcDbEntity
  8
虛線
 48
0.4
100
AcDbLine
 10
2721.477739912594
 20
243.9806273363294
 30
0.0
 11
2735.477739912595
 21
243.9806273363294
 31
0.0
  0
LINE
  5
E3A0
330
1E
100
AcDbEntity
  8
虛線
 48
0.4
100
AcDbLine
 10
2721.477739912594
 20
243.9806273363294
 30
0.0
 11
2721.477739912594
 21
223.9806273363298
 31
0.0
  0
LINE
  5
E3A1
330
1E
100
AcDbEntity
  8
虛線
 48
0.4
100
AcDbLine
 10
2718.477739912594
 20
260.8806273363295
 30
0.0
 11
2718.477739912594
 21
244.2806273363295
 31
0.0
  0
LINE
  5
E3A2
330
1E
100
AcDbEntity
  8
虛線
 48
0.4
100
AcDbLine
 10
2721.477739912594
 20
243.9806273363294
 30
0.0
 11
2721.177739912594
 21
244.2806273363295
 31
0.0
  0
LINE
  5
E3A3
330
1E
100
AcDbEntity
  8
虛線
 48
0.4
100
AcDbLine
 10
2718.477739912594
 20
260.8806273363295
 30
0.0
 11
2718.24679980492
 21
261.2806273363272
 31
0.0
  0
LINE
  5
E3A4
330
1E
100
AcDbEntity
  8
虛線
 48
0.4
100
AcDbLine
 10
2735.477739912595
 20
243.9806273363294
 30
0.0
 11
2735.477739912595
 21
223.9806273363298
 31
0.0
  0
LINE
  5
E3A5
330
1E
100
AcDbEntity
  8
虛線
 48
0.4
100
AcDbLine
 10
2738.477739912594
 20
260.8806273363295
 30
0.0
 11
2738.477739912594
 21
244.2806273363295
 31
0.0
  0
LINE
  5
E3A6
330
1E
100
AcDbEntity
  8
虛線
 48
0.4
100
AcDbLine
 10
2735.477739912595
 20
243.9806273363294
 30
0.0
 11
2735.777739912594
 21
244.2806273363295
 31
0.0
  0
LINE
  5
E3A7
330
1E
100
AcDbEntity
  8
虛線
 48
0.4
100
AcDbLine
 10
2738.477739912594
 20
260.8806273363295
 30
0.0
 11
2738.708680020269
 21
261.2806273363277
 31
0.0
  0
LINE
  5
E3A8
330
1E
100
AcDbEntity
  8
虛線
 48
0.4
100
AcDbLine
 10
2721.477739912591
 20
223.9806273363298
 30
0.0
 11
2735.477739912591
 21
223.9806273363298
 31
0.0
  0
LINE
  5
E3A9
330
1E
100
AcDbEntity
  8
虛線
 48
0.4
100
AcDbLine
 10
2721.477739912591
 20
223.9806273363298
 30
0.0
 11
2720.777739912589
 21
223.2806273363277
 31
0.0
  0
LINE
  5
E3AA
330
1E
100
AcDbEntity
  8
虛線
 48
0.4
100
AcDbLine
 10
2735.4777399126
 20
223.9806273363298
 30
0.0
 11
2736.177739912601
 21
223.2806273363277
 31
0.0
  0
LINE
  5
E3AB
330
1E
100
AcDbEntity
  8
0
  6
Continuous
 62
     7
100
AcDbLine
 10
2771.477739912595
 20
291.2806273363276
 30
0.0
 11
2769.477739912595
 21
293.2806273363276
 31
0.0
  0
LINE
  5
E3AC
330
1E
100
AcDbEntity
  8
0
  6
Continuous
 62
     7
100
AcDbLine
 10
2770.477739912595
 20
279.7806273363276
 30
0.0
 11
2768.477739912595
 21
281.7806273363276
 31
0.0
  0
LINE
  5
E3AD
330
1E
100
AcDbEntity
  8
0
  6
Continuous
 62
     7
100
AcDbLine
 10
2771.477739912595
 20
233.2999483806276
 30
0.0
 11
2771.477739912595
 21
291.2806273363276
 31
0.0
  0
LINE
  5
E3AE
330
1E
100
AcDbEntity
  8
0
  6
Continuous
 62
     7
100
AcDbLine
 10
2770.477739912595
 20
233.2806273363276
 30
0.0
 11
2770.477739912595
 21
279.7806273363276
 31
0.0
  0
LINE
  5
E3AF
330
1E
100
AcDbEntity
  8
0
  6
Continuous
 62
     7
100
AcDbLine
 10
2719.477739912595
 20
292.2806273363276
 30
0.0
 11
2720.477739912595
 21
293.2806273363276
 31
0.0
  0
LINE
  5
E3B0
330
1E
100
AcDbEntity
  8
0
  6
Continuous
 62
     7
100
AcDbLine
 10
2769.458418868295
 20
231.2806273363276
 30
0.0
 11
2771.477739912595
 21
233.2999483806276
 31
0.0
  0
LINE
  5
E3B1
330
1E
100
AcDbEntity
  8
0
  6
Continuous
 62
     7
100
AcDbLine
 10
2768.477739912495
 20
231.2806273362276
 30
0.0
 11
2770.477739912595
 21
233.2806273363276
 31
0.0
  0
LINE
  5
E3B2
330
1E
100
AcDbEntity
  8
0
  6
Continuous
 62
     7
100
AcDbLine
 10
2718.477739912595
 20
282.7806273363276
 30
0.0
 11
2717.477739912595
 21
281.7806273363276
 31
0.0
  0
LINE
  5
E3B3
330
1E
100
AcDbEntity
  8
0
  6
Continuous
 62
     7
100
AcDbLine
 10
2748.477739912595
 20
292.2806273363276
 30
0.0
 11
2749.477739912595
 21
293.2806273363276
 31
0.0
  0
LINE
  5
E3B4
330
1E
100
AcDbEntity
  8
0
  6
Continuous
 62
     7
100
AcDbLine
 10
2750.977739912595
 20
231.2806273362273
 30
0.0
 11
2769.458418868295
 21
231.2806273363276
 31
0.0
  0
LINE
  5
E3B5
330
1E
100
AcDbEntity
  8
0
  6
Continuous
 62
     7
100
AcDbLine
 10
2705.977739912595
 20
231.2806273362276
 30
0.0
 11
2688.477739912695
 21
231.2806273362276
 31
0.0
  0
LINE
  5
E3B6
330
1E
100
AcDbEntity
  8
0
  6
Continuous
 62
     7
100
AcDbLine
 10
2685.477739912595
 20
277.2806273363276
 30
0.0
 11
2686.477739912595
 21
276.2806273363276
 31
0.0
  0
LINE
  5
E3B7
330
1E
100
AcDbEntity
  8
0
  6
Continuous
 62
     7
100
AcDbLine
 10
2707.477739912595
 20
293.2806273363276
 30
0.0
 11
2708.477739912595
 21
292.2806273363276
 31
0.0
  0
LINE
  5
E3B8
330
1E
100
AcDbEntity
  8
0
  6
Continuous
 62
     7
100
AcDbLine
 10
2768.477739912595
 20
281.7806273363276
 30
0.0
 11
2688.477739912595
 21
281.7806273363276
 31
0.0
  0
LINE
  5
E3B9
330
1E
100
AcDbEntity
  8
0
  6
Continuous
 62
     7
100
AcDbLine
 10
2739.477739912596
 20
281.7806273363276
 30
0.0
 11
2738.477739912595
 21
282.7806273363276
 31
0.0
  0
LINE
  5
E3BA
330
1E
100
AcDbEntity
  8
0
  6
Continuous
 62
     7
100
AcDbLine
 10
2688.477739912695
 20
231.2806273362276
 30
0.0
 11
2686.477739912595
 21
233.2806273363276
 31
0.0
  0
LINE
  5
E3BB
330
1E
100
AcDbEntity
  8
0
  6
Continuous
 62
     7
100
AcDbLine
 10
2738.477739912595
 20
282.7806273363276
 30
0.0
 11
2718.477739912595
 21
282.7806273363276
 31
0.0
  0
LINE
  5
E3BC
330
1E
100
AcDbEntity
  8
0
  6
Continuous
 62
     7
100
AcDbLine
 10
2736.477739912595
 20
293.2806273363276
 30
0.0
 11
2737.477739912595
 21
292.2806273363276
 31
0.0
  0
LINE
  5
E3BD
330
1E
100
AcDbEntity
  8
0
  6
Continuous
 62
     7
100
AcDbLine
 10
2686.477739912595
 20
233.2806273363276
 30
0.0
 11
2686.477739912595
 21
279.7806273363276
 31
0.0
  0
LINE
  5
E3BE
330
1E
100
AcDbEntity
  8
0
  6
Continuous
 62
     7
100
AcDbLine
 10
2685.477739912595
 20
291.2806273363276
 30
0.0
 11
2685.477739912595
 21
277.2806273363276
 31
0.0
  0
LINE
  5
E3BF
330
1E
100
AcDbEntity
  8
0
  6
Continuous
 62
     7
100
AcDbLine
 10
2708.477739912595
 20
292.2806273363276
 30
0.0
 11
2719.477739912595
 21
292.2806273363276
 31
0.0
  0
LINE
  5
E3C0
330
1E
100
AcDbEntity
  8
0
  6
Continuous
 62
     7
100
AcDbLine
 10
2737.477739912595
 20
292.2806273363276
 30
0.0
 11
2748.477739912595
 21
292.2806273363276
 31
0.0
  0
LINE
  5
E3C1
330
1E
100
AcDbEntity
  8
0
  6
Continuous
 62
     7
100
AcDbLine
 10
2769.477739912595
 20
293.2806273363276
 30
0.0
 11
2749.477739912595
 21
293.2806273363276
 31
0.0
  0
LINE
  5
E3C2
330
1E
100
AcDbEntity
  8
0
  6
Continuous
 62
     7
100
AcDbLine
 10
2720.477739912595
 20
293.2806273363276
 30
0.0
 11
2736.477739912595
 21
293.2806273363276
 31
0.0
  0
LINE
  5
E3C3
330
1E
100
AcDbEntity
  8
0
  6
Continuous
 62
     7
100
AcDbLine
 10
2707.477739912595
 20
293.2806273363276
 30
0.0
 11
2687.477739912595
 21
293.2806273363276
 31
0.0
  0
LINE
  5
E3C4
330
1E
100
AcDbEntity
  8
0
  6
Continuous
 62
     7
100
AcDbLine
 10
2686.477739912595
 20
279.7806273363276
 30
0.0
 11
2688.477739912595
 21
281.7806273363276
 31
0.0
  0
LINE
  5
E3C5
330
1E
100
AcDbEntity
  8
0
  6
Continuous
 62
     7
100
AcDbLine
 10
2687.477739912595
 20
293.2806273363276
 30
0.0
 11
2685.477739912595
 21
291.2806273363276
 31
0.0
  0
LINE
  5
E3C6
330
1E
100
AcDbEntity
  8
虛線
  6
DASHED
100
AcDbLine
 10
2754.227739912595
 20
291.7806273363269
 30
0.0
 11
2762.727739912595
 21
291.7806273363263
 31
0.0
  0
LINE
  5
E3C7
330
1E
100
AcDbEntity
  8
虛線
 48
0.5
100
AcDbLine
 10
2758.477757078733
 20
266.0627348802719
 30
0.0
 11
2762.727739912595
 21
268.4806273363266
 31
0.0
  0
LINE
  5
E3C8
330
1E
100
AcDbEntity
  8
虛線
 48
0.5
100
AcDbLine
 10
2763.477739912595
 20
273.4806273363266
 30
0.0
 11
2753.477739912595
 21
273.4806273363266
 31
0.0
  0
LINE
  5
E3C9
330
1E
100
AcDbEntity
  8
虛線
 48
0.5
100
AcDbLine
 10
2753.477739912595
 20
292.5306273363267
 30
0.0
 11
2753.477739912595
 21
273.4806273363266
 31
0.0
  0
LINE
  5
E3CA
330
1E
100
AcDbEntity
  8
中心線
 48
0.3
100
AcDbLine
 10
2758.477739912595
 20
295.2806273363276
 30
0.0
 11
2758.477739912595
 21
264.664214303196
 31
0.0
  0
LINE
  5
E3CB
330
1E
100
AcDbEntity
  8
虛線
 48
0.5
100
AcDbLine
 10
2763.477739912595
 20
292.5306273363259
 30
0.0
 11
2763.477739912595
 21
273.4806273363266
 31
0.0
  0
LINE
  5
E3CC
330
1E
100
AcDbEntity
  8
虛線
 48
0.5
100
AcDbLine
 10
2762.727739912595
 20
268.4806273363266
 30
0.0
 11
2754.227739912595
 21
268.4806273363266
 31
0.0
  0
LINE
  5
E3CD
330
1E
100
AcDbEntity
  8
虛線
 48
0.5
100
AcDbLine
 10
2758.477732283201
 20
266.0627081773911
 30
0.0
 11
2754.227739912595
 21
268.4806273363266
 31
0.0
  0
LINE
  5
E3CE
330
1E
100
AcDbEntity
  8
虛線
  6
DASHED
100
AcDbLine
 10
2754.227739912596
 20
291.7806273363264
 30
0.0
 11
2752.727739912594
 21
293.2806273363275
 31
0.0
  0
LINE
  5
E3CF
330
1E
100
AcDbEntity
  8
虛線
  6
DASHED
100
AcDbLine
 10
2762.727739912595
 20
291.7806273363263
 30
0.0
 11
2764.227739912597
 21
293.2806273363274
 31
0.0
  0
LINE
  5
E3D0
330
1E
100
AcDbEntity
  8
中心線
 48
0.3
100
AcDbLine
 10
2728.477739912595
 20
295.2806273363276
 30
0.0
 11
2728.477739912595
 21
221.2806273363277
 31
0.0
  0
LINE
  5
E3D1
330
1E
100
AcDbEntity
  8
中心線
 48
0.3
100
AcDbLine
 10
2698.477739912596
 20
295.2806273363276
 30
0.0
 11
2698.477739912596
 21
264.664214303196
 31
0.0
  0
LINE
  5
E3D2
330
1E
100
AcDbEntity
  8
中心線
 48
0.4
100
AcDbLine
 10
2725.977739912595
 20
273.2806273363276
 30
0.0
 11
2730.977739912595
 21
273.2806273363276
 31
0.0
  0
LINE
  5
E3D3
330
1E
100
AcDbEntity
  8
中心線
 48
0.4
100
AcDbLine
 10
2728.477739912595
 20
270.7806273363276
 30
0.0
 11
2728.477739912595
 21
275.7806273363276
 31
0.0
  0
LWPOLYLINE
  5
E3D5
330
1E
100
AcDbEntity
  8
0
 48
0.27
100
AcDbPolyline
 90
       17
 70
     0
 43
0.0
 10
2739.66900490927
 20
273.2806273363276
 10
2739.710940293024
 20
273.0093307378961
 10
2739.75205403639
 20
272.9307004322647
 10
2739.797766961274
 20
272.8937733802229
 10
2739.840238415117
 20
272.894157480287
 10
2739.885854479985
 20
272.9319128525922
 10
2739.925034362777
 20
273.0066253369441
 10
2739.961767694787
 20
273.1692165899719
 10
2739.967976756824
 20
273.2806273363276
 10
2739.926043043071
 20
273.5519222647588
 10
2739.884927629705
 20
273.6305525703901
 10
2739.839214704821
 20
273.667479622432
 10
2739.796744920978
 20
273.6670955222428
 10
2739.75112718611
 20
273.6293401499374
 10
2739.711948973317
 20
273.5546276655855
 10
2739.675213971307
 20
273.3920364126829
 10
2739.66900490927
 20
273.2806273363276
  0
ARC
  5
E3D6
330
1E
100
AcDbEntity
  8
0
 48
0.27
100
AcDbCircle
 10
2728.47939338148
 20
273.2806273363276
 30
0.0
 40
5.0
100
AcDbArc
 50
48.59037799889628
 51
311.4096220032059
  0
LINE
  5
E3D7
330
1E
100
AcDbEntity
  8
0
 48
0.27
100
AcDbLine
 10
2732.08783369784
 20
277.0306269188274
 30
0.0
 11
2731.366144632568
 21
278.2806273363276
 31
0.0
  0
LINE
  5
E3D8
330
1E
100
AcDbEntity
  8
0
 48
0.27
100
AcDbLine
 10
2725.592642130393
 20
278.2806273363276
 30
0.0
 11
2731.366144632568
 21
278.2806273363276
 31
0.0
  0
LINE
  5
E3D9
330
1E
100
AcDbEntity
  8
0
 48
0.27
100
AcDbLine
 10
2725.592642130393
 20
278.2806273363276
 30
0.0
 11
2722.705890879305
 21
273.2806273363276
 31
0.0
  0
LINE
  5
E3DA
330
1E
100
AcDbEntity
  8
0
 48
0.27
100
AcDbLine
 10
2722.705890879305
 20
273.2806273363276
 30
0.0
 11
2725.592642130393
 21
268.2806256663273
 31
0.0
  0
LINE
  5
E3DB
330
1E
100
AcDbEntity
  8
0
 48
0.27
100
AcDbLine
 10
2731.366146302568
 20
268.2806256663273
 30
0.0
 11
2725.592642130393
 21
268.2806256663273
 31
0.0
  0
LINE
  5
E3DC
330
1E
100
AcDbEntity
  8
0
 48
0.27
100
AcDbLine
 10
2732.08783369784
 20
269.5306260838274
 30
0.0
 11
2731.366146302568
 21
268.2806256663273
 31
0.0
  0
LINE
  5
E3DD
330
1E
100
AcDbEntity
  8
0
 48
0.27
100
AcDbLine
 10
2730.10627618192
 20
269.5306260838274
 30
0.0
 11
2733.873862540107
 21
269.5306260838274
 31
0.0
  0
LINE
  5
E3DE
330
1E
100
AcDbEntity
  8
0
 48
0.27
100
AcDbLine
 10
2733.952486165737
 20
276.674768172774
 30
0.0
 11
2733.873862540107
 21
277.0306269188274
 31
0.0
  0
LINE
  5
E3DF
330
1E
100
AcDbEntity
  8
0
 48
0.27
100
AcDbLine
 10
2733.873862540107
 20
269.5306260838274
 30
0.0
 11
2733.952486165737
 21
269.8864848298808
 31
0.0
  0
LINE
  5
E3E0
330
1E
100
AcDbEntity
  8
0
 48
0.27
100
AcDbLine
 10
2730.10627618192
 20
277.0306269188274
 30
0.0
 11
2733.873862540107
 21
277.0306269188274
 31
0.0
  0
LINE
  5
E3E1
330
1E
100
AcDbEntity
  8
0
 48
0.27
100
AcDbLine
 10
2733.325295751246
 20
269.6026815973605
 30
0.0
 11
2735.827554426998
 21
270.7349503164494
 31
0.0
  0
LINE
  5
E3E2
330
1E
100
AcDbEntity
  8
0
 48
0.27
100
AcDbLine
 10
2740.659073082112
 20
272.8437067638617
 30
0.0
 11
2740.675540957487
 21
273.2806273363276
 31
0.0
  0
LINE
  5
E3E3
330
1E
100
AcDbEntity
  8
0
 48
0.27
100
AcDbLine
 10
2740.610302386217
 20
272.42357637695
 30
0.0
 11
2740.659073082112
 21
272.8437067638617
 31
0.0
  0
LINE
  5
E3E4
330
1E
100
AcDbEntity
  8
0
 48
0.27
100
AcDbLine
 10
2740.675540957487
 20
273.2806273363276
 30
0.0
 11
2740.659073082112
 21
273.7175479087932
 31
0.0
  0
LINE
  5
E3E5
330
1E
100
AcDbEntity
  8
0
 48
0.27
100
AcDbLine
 10
2733.045328509991
 20
269.5306260838274
 30
0.0
 11
2733.325295751246
 21
269.6026815973605
 31
0.0
  0
LINE
  5
E3E6
330
1E
100
AcDbEntity
  8
0
 48
0.27
100
AcDbLine
 10
2733.045328509991
 20
277.0306269188274
 30
0.0
 11
2733.325295751246
 21
276.9585714052941
 31
0.0
  0
LINE
  5
E3E7
330
1E
100
AcDbEntity
  8
0
 48
0.27
100
AcDbLine
 10
2733.325295751246
 20
276.9585714052941
 30
0.0
 11
2735.827554426998
 21
275.8263026862053
 31
0.0
  0
LINE
  5
E3E8
330
1E
100
AcDbEntity
  8
0
 48
0.27
100
AcDbLine
 10
2740.531102610365
 20
272.0363834106638
 30
0.0
 11
2740.610302386217
 21
272.42357637695
 31
0.0
  0
LINE
  5
E3E9
330
1E
100
AcDbEntity
  8
0
 48
0.27
100
AcDbLine
 10
2740.659073082112
 20
273.7175479087932
 30
0.0
 11
2740.610302386217
 21
274.1376766257047
 31
0.0
  0
LINE
  5
E3EA
330
1E
100
AcDbEntity
  8
0
 48
0.27
100
AcDbLine
 10
2740.424516495565
 20
271.6970042301125
 30
0.0
 11
2740.531102610365
 21
272.0363834106638
 31
0.0
  0
LINE
  5
E3EB
330
1E
100
AcDbEntity
  8
0
 48
0.27
100
AcDbLine
 10
2739.475323256176
 20
271.2327407387054
 30
0.0
 11
2739.477696326947
 21
271.2339013890244
 31
0.0
  0
LINE
  5
E3EC
330
1E
100
AcDbEntity
  8
0
 48
0.27
100
AcDbLine
 10
2740.610302386217
 20
274.1376766257047
 30
0.0
 11
2740.531102610365
 21
274.5248712619914
 31
0.0
  0
LINE
  5
E3ED
330
1E
100
AcDbEntity
  8
0
 48
0.27
100
AcDbLine
 10
2732.765361268737
 20
269.6026815973605
 30
0.0
 11
2733.045328509991
 21
269.5306260838274
 31
0.0
  0
LINE
  5
E3EE
330
1E
100
AcDbEntity
  8
0
 48
0.27
100
AcDbLine
 10
2732.765361268737
 20
276.9585714052941
 30
0.0
 11
2733.045328509991
 21
277.0306269188274
 31
0.0
  0
LINE
  5
E3EF
330
1E
100
AcDbEntity
  8
0
 48
0.27
100
AcDbLine
 10
2740.294642223252
 20
271.4184832092244
 30
0.0
 11
2740.424516495565
 21
271.6970042301125
 31
0.0
  0
LINE
  5
E3F0
330
1E
100
AcDbEntity
  8
0
 48
0.27
100
AcDbLine
 10
2740.531102610365
 20
274.5248712619914
 30
0.0
 11
2740.424516495565
 21
274.8642487725424
 31
0.0
  0
LINE
  5
E3F1
330
1E
100
AcDbEntity
  8
0
 48
0.27
100
AcDbLine
 10
2735.827554426998
 20
270.7349503164494
 30
0.0
 11
2736.128957795207
 21
270.8579542064911
 31
0.0
  0
LINE
  5
E3F2
330
1E
100
AcDbEntity
  8
0
 48
0.27
100
AcDbLine
 10
2735.827554426998
 20
275.8263026862053
 30
0.0
 11
2736.128957795207
 21
275.7033004661639
 31
0.0
  0
LINE
  5
E3F3
330
1E
100
AcDbEntity
  8
0
 48
0.27
100
AcDbLine
 10
2740.146469755007
 20
271.2115250517875
 30
0.0
 11
2740.294642223252
 21
271.4184832092244
 31
0.0
  0
LINE
  5
E3F4
330
1E
100
AcDbEntity
  8
0
 48
0.27
100
AcDbLine
 10
2740.424516495565
 20
274.8642487725424
 30
0.0
 11
2740.294642223252
 21
275.1427697934303
 31
0.0
  0
LINE
  5
E3F5
330
1E
100
AcDbEntity
  8
0
 48
0.27
100
AcDbLine
 10
2732.496153840904
 20
269.8160776068728
 30
0.0
 11
2732.765361268737
 21
269.6026815973605
 31
0.0
  0
LINE
  5
E3F6
330
1E
100
AcDbEntity
  8
0
 48
0.27
100
AcDbLine
 10
2732.496153840904
 20
276.7451753957821
 30
0.0
 11
2732.765361268737
 21
276.9585714052941
 31
0.0
  0
LINE
  5
E3F7
330
1E
100
AcDbEntity
  8
0
 48
0.27
100
AcDbLine
 10
2736.128957795207
 20
270.8579542064911
 30
0.0
 11
2736.397612452823
 21
270.8465447628357
 31
0.0
  0
LINE
  5
E3F8
330
1E
100
AcDbEntity
  8
0
 48
0.27
100
AcDbLine
 10
2736.128957795207
 20
275.7033004661639
 30
0.0
 11
2736.397612452823
 21
275.7147082398189
 31
0.0
  0
LINE
  5
E3F9
330
1E
100
AcDbEntity
  8
0
 48
0.27
100
AcDbLine
 10
2738.422600002996
 20
270.150216325799
 30
0.0
 11
2739.985693792533
 21
271.0840789602539
 31
0.0
  0
LINE
  5
E3FA
330
1E
100
AcDbEntity
  8
0
 48
0.27
100
AcDbLine
 10
2739.985693792533
 20
271.0840789602539
 30
0.0
 11
2740.146469755007
 21
271.2115250517875
 31
0.0
  0
LINE
  5
E3FB
330
1E
100
AcDbEntity
  8
0
 48
0.27
100
AcDbLine
 10
2740.294642223252
 20
275.1427697934303
 30
0.0
 11
2740.146469755007
 21
275.3497279508674
 31
0.0
  0
LINE
  5
E3FC
330
1E
100
AcDbEntity
  8
0
 48
0.27
100
AcDbLine
 10
2729.277742151805
 20
273.2806273363276
 30
0.0
 11
2730.10627618192
 21
277.0306269188274
 31
0.0
  0
LINE
  5
E3FD
330
1E
100
AcDbEntity
  8
0
 48
0.27
100
AcDbLine
 10
2729.277742151805
 20
273.2806273363276
 30
0.0
 11
2731.388260449762
 21
273.2806273363276
 31
0.0
  0
LINE
  5
E3FE
330
1E
100
AcDbEntity
  8
0
 48
0.27
100
AcDbLine
 10
2730.10627618192
 20
269.5306260838274
 30
0.0
 11
2729.277742151805
 21
273.2806273363276
 31
0.0
  0
LINE
  5
E3FF
330
1E
100
AcDbEntity
  8
0
 48
0.27
100
AcDbLine
 10
2732.496153840904
 20
269.8160776068728
 30
0.0
 11
2732.248050210096
 21
270.1626144098693
 31
0.0
  0
LINE
  5
E400
330
1E
100
AcDbEntity
  8
0
 48
0.27
100
AcDbLine
 10
2732.248050210096
 20
276.3986385927854
 30
0.0
 11
2732.496153840904
 21
276.7451753957821
 31
0.0
  0
LINE
  5
E401
330
1E
100
AcDbEntity
  8
0
 48
0.27
100
AcDbLine
 10
2738.184312635327
 20
270.088887225807
 30
0.0
 11
2738.422600002996
 21
270.150216325799
 31
0.0
  0
LINE
  5
E402
330
1E
100
AcDbEntity
  8
0
 48
0.27
100
AcDbLine
 10
2737.733272208253
 20
270.1237418071278
 30
0.0
 11
2738.184312635327
 21
270.088887225807
 31
0.0
  0
LINE
  5
E403
330
1E
100
AcDbEntity
  8
0
 48
0.27
100
AcDbLine
 10
2736.397612452823
 20
270.8465447628357
 30
0.0
 11
2737.090046448585
 21
270.3900233939716
 31
0.0
  0
LINE
  5
E404
330
1E
100
AcDbEntity
  8
0
 48
0.27
100
AcDbLine
 10
2739.818491667985
 20
271.0410463861924
 30
0.0
 11
2739.985693792533
 21
271.0840789602539
 31
0.0
  0
LINE
  5
E405
330
1E
100
AcDbEntity
  8
0
 48
0.27
100
AcDbLine
 10
2738.422600002996
 20
276.4110383468562
 30
0.0
 11
2739.985693792533
 21
275.4771740424008
 31
0.0
  0
LINE
  5
E406
330
1E
100
AcDbEntity
  8
0
 48
0.27
100
AcDbLine
 10
2739.985693792533
 20
275.4771740424008
 30
0.0
 11
2740.146469755007
 21
275.3497279508674
 31
0.0
  0
LINE
  5
E407
330
1E
100
AcDbEntity
  8
0
 48
0.27
100
AcDbLine
 10
2738.184312635327
 20
276.4723657768477
 30
0.0
 11
2738.422600002996
 21
276.4110383468562
 31
0.0
  0
LINE
  5
E408
330
1E
100
AcDbEntity
  8
0
 48
0.27
100
AcDbLine
 10
2737.733272208253
 20
276.4375128654024
 30
0.0
 11
2738.184312635327
 21
276.4723657768477
 31
0.0
  0
LINE
  5
E409
330
1E
100
AcDbEntity
  8
0
 48
0.27
100
AcDbLine
 10
2736.159067905111
 20
271.0271736917507
 30
0.0
 11
2736.334169132103
 21
270.8883732664463
 31
0.0
  0
LINE
  5
E40A
330
1E
100
AcDbEntity
  8
0
 48
0.27
100
AcDbLine
 10
2737.090046448585
 20
270.3900233939716
 30
0.0
 11
2737.497586701394
 21
270.1843995670074
 31
0.0
  0
LINE
  5
E40B
330
1E
100
AcDbEntity
  8
0
 48
0.27
100
AcDbLine
 10
2737.497586701394
 20
270.1843995670074
 30
0.0
 11
2737.733272208253
 21
270.1237418071278
 31
0.0
  0
LINE
  5
E40C
330
1E
100
AcDbEntity
  8
0
 48
0.27
100
AcDbLine
 10
2736.397612452823
 20
275.7147082398189
 30
0.0
 11
2737.090046448585
 21
276.171229608683
 31
0.0
  0
LINE
  5
E40D
330
1E
100
AcDbEntity
  8
0
 48
0.27
100
AcDbLine
 10
2736.159067905111
 20
275.534079310904
 30
0.0
 11
2736.334169132103
 21
275.6728797362086
 31
0.0
  0
LINE
  5
E40E
330
1E
100
AcDbEntity
  8
0
 48
0.27
100
AcDbLine
 10
2732.248050210096
 20
270.1626144098693
 30
0.0
 11
2732.030586079155
 21
270.6289754218767
 31
0.0
  0
LINE
  5
E40F
330
1E
100
AcDbEntity
  8
0
 48
0.27
100
AcDbLine
 10
2732.030586079155
 20
275.9322775807782
 30
0.0
 11
2732.248050210096
 21
276.3986385927854
 31
0.0
  0
LINE
  5
E410
330
1E
100
AcDbEntity
  8
0
 48
0.27
100
AcDbLine
 10
2737.946023597658
 20
270.150216325799
 30
0.0
 11
2738.184312635327
 21
270.088887225807
 31
0.0
  0
LINE
  5
E411
330
1E
100
AcDbEntity
  8
0
 48
0.27
100
AcDbLine
 10
2737.497586701394
 20
276.3768534356473
 30
0.0
 11
2737.733272208253
 21
276.4375128654024
 31
0.0
  0
LINE
  5
E412
330
1E
100
AcDbEntity
  8
0
 48
0.27
100
AcDbLine
 10
2737.090046448585
 20
276.171229608683
 30
0.0
 11
2737.497586701394
 21
276.3768534356473
 31
0.0
  0
LINE
  5
E413
330
1E
100
AcDbEntity
  8
0
 48
0.27
100
AcDbLine
 10
2732.216794479877
 20
269.5306260838274
 30
0.0
 11
2731.388260449762
 21
273.2806273363276
 31
0.0
  0
LINE
  5
E414
330
1E
100
AcDbEntity
  8
0
 48
0.27
100
AcDbLine
 10
2731.388260449762
 20
273.2806273363276
 30
0.0
 11
2732.216794479877
 21
277.0306269188274
 31
0.0
  0
LINE
  5
E415
330
1E
100
AcDbEntity
  8
0
 48
0.27
100
AcDbLine
 10
2736.159067905111
 20
271.0271736917507
 30
0.0
 11
2735.997692412411
 21
271.2525719951423
 31
0.0
  0
LINE
  5
E416
330
1E
100
AcDbEntity
  8
0
 48
0.27
100
AcDbLine
 10
2739.651289543562
 20
271.0840789602539
 30
0.0
 11
2739.818491667985
 21
271.0410463861924
 31
0.0
  0
LINE
  5
E417
330
1E
100
AcDbEntity
  8
0
 48
0.27
100
AcDbLine
 10
2739.818491667985
 20
275.5202066164622
 30
0.0
 11
2739.985693792533
 21
275.4771740424008
 31
0.0
  0
LINE
  5
E418
330
1E
100
AcDbEntity
  8
0
 48
0.27
100
AcDbLine
 10
2737.946023597658
 20
276.4110383468562
 30
0.0
 11
2738.184312635327
 21
276.4723657768477
 31
0.0
  0
LINE
  5
E419
330
1E
100
AcDbEntity
  8
0
 48
0.27
100
AcDbLine
 10
2736.878467399626
 20
276.0035147939248
 30
0.0
 11
2737.090046448585
 21
276.171229608683
 31
0.0
  0
LINE
  5
E41A
330
1E
100
AcDbEntity
  8
0
 48
0.27
100
AcDbLine
 10
2735.997692412411
 20
275.3086810075124
 30
0.0
 11
2736.159067905111
 21
275.534079310904
 31
0.0
  0
LINE
  5
E41B
330
1E
100
AcDbEntity
  8
0
 48
0.27
100
AcDbLine
 10
2732.030586079155
 20
270.6289754218767
 30
0.0
 11
2731.852116460975
 21
271.1972381971516
 31
0.0
  0
LINE
  5
E41C
330
1E
100
AcDbEntity
  8
0
 48
0.27
100
AcDbLine
 10
2731.852116460975
 20
275.3640148055033
 30
0.0
 11
2732.030586079155
 21
275.9322775807782
 31
0.0
  0
LINE
  5
E41D
330
1E
100
AcDbEntity
  8
0
 48
0.27
100
AcDbLine
 10
2735.997692412411
 20
271.2525719951423
 30
0.0
 11
2735.856246706415
 21
271.5559075540493
 31
0.0
  0
LINE
  5
E41E
330
1E
100
AcDbEntity
  8
0
 48
0.27
100
AcDbLine
 10
2737.716892842893
 20
270.3318439150057
 30
0.0
 11
2737.946023597658
 21
270.150216325799
 31
0.0
  0
LINE
  5
E41F
330
1E
100
AcDbEntity
  8
0
 48
0.27
100
AcDbLine
 10
2735.856246706415
 20
275.0053454486056
 30
0.0
 11
2735.997692412411
 21
275.3086810075124
 31
0.0
  0
LINE
  5
E420
330
1E
100
AcDbEntity
  8
0
 48
0.27
100
AcDbLine
 10
2739.490511911088
 20
271.2115250517875
 30
0.0
 11
2739.651289543562
 21
271.0840789602539
 31
0.0
  0
LINE
  5
E421
330
1E
100
AcDbEntity
  8
0
 48
0.27
100
AcDbLine
 10
2737.716892842893
 20
276.229409087649
 30
0.0
 11
2737.946023597658
 21
276.4110383468562
 31
0.0
  0
LINE
  5
E422
330
1E
100
AcDbEntity
  8
0
 48
0.27
100
AcDbLine
 10
2739.651289543562
 20
275.4771740424008
 30
0.0
 11
2739.818491667985
 21
275.5202066164622
 31
0.0
  0
LINE
  5
E423
330
1E
100
AcDbEntity
  8
0
 48
0.27
100
AcDbLine
 10
2735.856246706415
 20
271.5559075540493
 30
0.0
 11
2735.740164968529
 21
271.9255237645252
 31
0.0
  0
LINE
  5
E424
330
1E
100
AcDbEntity
  8
0
 48
0.27
100
AcDbLine
 10
2731.852116460975
 20
271.1972381971516
 30
0.0
 11
2731.719503387829
 21
271.8455641385469
 31
0.0
  0
LINE
  5
E425
330
1E
100
AcDbEntity
  8
0
 48
0.27
100
AcDbLine
 10
2731.719503387829
 20
274.715690534108
 30
0.0
 11
2731.852116460975
 21
275.3640148055033
 31
0.0
  0
LINE
  5
E426
330
1E
100
AcDbEntity
  8
0
 48
0.27
100
AcDbLine
 10
2735.740164968529
 20
274.6357292381294
 30
0.0
 11
2735.856246706415
 21
275.0053454486056
 31
0.0
  0
LINE
  5
E427
330
1E
100
AcDbEntity
  8
0
 48
0.27
100
AcDbLine
 10
2737.716892842893
 20
270.3318439150057
 30
0.0
 11
2737.505724614128
 21
270.6267927311371
 31
0.0
  0
LINE
  5
E428
330
1E
100
AcDbEntity
  8
0
 48
0.27
100
AcDbLine
 10
2735.740164968529
 20
271.9255237645252
 30
0.0
 11
2735.653909440375
 21
272.3472156020728
 31
0.0
  0
LINE
  5
E429
330
1E
100
AcDbEntity
  8
0
 48
0.27
100
AcDbLine
 10
2731.719503387829
 20
271.8455641385469
 30
0.0
 11
2731.637840361191
 21
272.5490385077772
 31
0.0
  0
LINE
  5
E42A
330
1E
100
AcDbEntity
  8
0
 48
0.27
100
AcDbLine
 10
2731.637840361191
 20
274.0122161647528
 30
0.0
 11
2731.719503387829
 21
274.715690534108
 31
0.0
  0
LINE
  5
E42B
330
1E
100
AcDbEntity
  8
0
 48
0.27
100
AcDbLine
 10
2739.490511911088
 20
275.3497279508674
 30
0.0
 11
2739.651289543562
 21
275.4771740424008
 31
0.0
  0
LINE
  5
E42C
330
1E
100
AcDbEntity
  8
0
 48
0.27
100
AcDbLine
 10
2739.490511911088
 20
271.2115250517875
 30
0.0
 11
2739.342339442842
 21
271.4184832092244
 31
0.0
  0
LINE
  5
E42D
330
1E
100
AcDbEntity
  8
0
 48
0.27
100
AcDbLine
 10
2737.505724614128
 20
275.9344602715176
 30
0.0
 11
2737.716892842893
 21
276.229409087649
 31
0.0
  0
LINE
  5
E42E
330
1E
100
AcDbEntity
  8
0
 48
0.27
100
AcDbLine
 10
2735.653909440375
 20
274.2140374005821
 30
0.0
 11
2735.740164968529
 21
274.6357292381294
 31
0.0
  0
LINE
  5
E42F
330
1E
100
AcDbEntity
  8
0
 48
0.27
100
AcDbLine
 10
2735.653909440375
 20
272.3472156020728
 30
0.0
 11
2735.600791733129
 21
272.8047773812355
 31
0.0
  0
LINE
  5
E430
330
1E
100
AcDbEntity
  8
0
 48
0.27
100
AcDbLine
 10
2731.637840361191
 20
272.5490385077772
 30
0.0
 11
2731.610265312211
 21
273.2806273363276
 31
0.0
  0
LINE
  5
E431
330
1E
100
AcDbEntity
  8
0
 48
0.27
100
AcDbLine
 10
2731.610265312211
 20
273.2806273363276
 30
0.0
 11
2731.637840361191
 21
274.0122161647528
 31
0.0
  0
LINE
  5
E432
330
1E
100
AcDbEntity
  8
0
 48
0.27
100
AcDbLine
 10
2735.600791733129
 20
273.7564756214192
 30
0.0
 11
2735.653909440375
 21
274.2140374005821
 31
0.0
  0
LINE
  5
E433
330
1E
100
AcDbEntity
  8
0
 48
0.27
100
AcDbLine
 10
2735.600791733129
 20
272.8047773812355
 30
0.0
 11
2735.582857597259
 21
273.2806273363276
 31
0.0
  0
LINE
  5
E434
330
1E
100
AcDbEntity
  8
0
 48
0.27
100
AcDbLine
 10
2735.582857597259
 20
273.2806273363276
 30
0.0
 11
2735.600791733129
 21
273.7564756214192
 31
0.0
  0
LINE
  5
E435
330
1E
100
AcDbEntity
  8
0
 48
0.27
100
AcDbLine
 10
2737.505724614128
 20
270.6267927311371
 30
0.0
 11
2737.320633443717
 21
271.0237268105502
 31
0.0
  0
LINE
  5
E436
330
1E
100
AcDbEntity
  8
0
 48
0.27
100
AcDbLine
 10
2739.342339442842
 20
275.1427697934303
 30
0.0
 11
2739.490511911088
 21
275.3497279508674
 31
0.0
  0
LINE
  5
E437
330
1E
100
AcDbEntity
  8
0
 48
0.27
100
AcDbLine
 10
2739.342339442842
 20
271.4184832092244
 30
0.0
 11
2739.212465170528
 21
271.6970042301125
 31
0.0
  0
LINE
  5
E438
330
1E
100
AcDbEntity
  8
0
 48
0.27
100
AcDbLine
 10
2737.320633443717
 20
275.537527862105
 30
0.0
 11
2737.505724614128
 21
275.9344602715176
 31
0.0
  0
LINE
  5
E439
330
1E
100
AcDbEntity
  8
0
 48
0.27
100
AcDbLine
 10
2739.212465170528
 20
274.8642487725424
 30
0.0
 11
2739.342339442842
 21
275.1427697934303
 31
0.0
  0
LINE
  5
E43A
330
1E
100
AcDbEntity
  8
0
 48
0.27
100
AcDbLine
 10
2737.320633443717
 20
271.0237268105502
 30
0.0
 11
2737.168733534225
 21
271.507390698197
 31
0.0
  0
LINE
  5
E43B
330
1E
100
AcDbEntity
  8
0
 48
0.27
100
AcDbLine
 10
2739.212465170528
 20
271.6970042301125
 30
0.0
 11
2739.105880725729
 21
272.0363834106638
 31
0.0
  0
LINE
  5
E43C
330
1E
100
AcDbEntity
  8
0
 48
0.27
100
AcDbLine
 10
2737.168733534225
 20
275.0538623043328
 30
0.0
 11
2737.320633443717
 21
275.537527862105
 31
0.0
  0
LINE
  5
E43D
330
1E
100
AcDbEntity
  8
0
 48
0.27
100
AcDbLine
 10
2739.105880725729
 20
274.5248712619914
 30
0.0
 11
2739.212465170528
 21
274.8642487725424
 31
0.0
  0
LINE
  5
E43E
330
1E
100
AcDbEntity
  8
0
 48
0.27
100
AcDbLine
 10
2737.168733534225
 20
271.507390698197
 30
0.0
 11
2737.055861537376
 21
272.0592006280992
 31
0.0
  0
LINE
  5
E43F
330
1E
100
AcDbEntity
  8
0
 48
0.27
100
AcDbLine
 10
2739.105880725729
 20
272.0363834106638
 30
0.0
 11
2739.026680949877
 21
272.42357637695
 31
0.0
  0
LINE
  5
E440
330
1E
100
AcDbEntity
  8
0
 48
0.27
100
AcDbLine
 10
2737.055861537376
 20
274.5020523745554
 30
0.0
 11
2737.168733534225
 21
275.0538623043328
 31
0.0
  0
LINE
  5
E441
330
1E
100
AcDbEntity
  8
0
 48
0.27
100
AcDbLine
 10
2739.026680949877
 20
274.1376766257047
 30
0.0
 11
2739.105880725729
 21
274.5248712619914
 31
0.0
  0
LINE
  5
E442
330
1E
100
AcDbEntity
  8
0
 48
0.27
100
AcDbLine
 10
2737.055861537376
 20
272.0592006280992
 30
0.0
 11
2736.986356114768
 21
272.6579492633403
 31
0.0
  0
LINE
  5
E443
330
1E
100
AcDbEntity
  8
0
 48
0.27
100
AcDbLine
 10
2739.026680949877
 20
272.42357637695
 30
0.0
 11
2738.977908583982
 21
272.8437067638617
 31
0.0
  0
LINE
  5
E444
330
1E
100
AcDbEntity
  8
0
 48
0.27
100
AcDbLine
 10
2736.986356114768
 20
273.9033037393144
 30
0.0
 11
2737.055861537376
 21
274.5020523745554
 31
0.0
  0
LINE
  5
E445
330
1E
100
AcDbEntity
  8
0
 48
0.27
100
AcDbLine
 10
2738.977908583982
 20
273.7175479087932
 30
0.0
 11
2739.026680949877
 21
274.1376766257047
 31
0.0
  0
LINE
  5
E446
330
1E
100
AcDbEntity
  8
0
 48
0.27
100
AcDbLine
 10
2736.986356114768
 20
272.6579492633403
 30
0.0
 11
2736.962885927099
 21
273.2806273363276
 31
0.0
  0
LINE
  5
E447
330
1E
100
AcDbEntity
  8
0
 48
0.27
100
AcDbLine
 10
2738.977908583982
 20
272.8437067638617
 30
0.0
 11
2738.961440708608
 21
273.2806273363276
 31
0.0
  0
LINE
  5
E448
330
1E
100
AcDbEntity
  8
0
 48
0.27
100
AcDbLine
 10
2738.961440708608
 20
273.2806273363276
 30
0.0
 11
2738.977908583982
 21
273.7175479087932
 31
0.0
  0
LINE
  5
E449
330
1E
100
AcDbEntity
  8
0
 48
0.27
100
AcDbLine
 10
2736.962885927099
 20
273.2806273363276
 30
0.0
 11
2736.986356114768
 21
273.9033037393144
 31
0.0
  0
LINE
  5
E44A
330
1E
100
AcDbEntity
  8
0
 48
0.27
100
AcDbLine
 10
2736.334169132103
 20
270.8883732664463
 30
0.0
 11
2736.397612452823
 21
270.8465447628357
 31
0.0
  0
LINE
  5
E44B
330
1E
100
AcDbEntity
  8
0
 48
0.27
100
AcDbLine
 10
2736.068515465614
 20
270.8605209974198
 30
0.0
 11
2736.128957795207
 21
270.8579542064911
 31
0.0
  0
LINE
  5
E44C
330
1E
100
AcDbEntity
  8
0
 48
0.27
100
AcDbLine
 10
2736.334169132103
 20
275.6728797362086
 30
0.0
 11
2736.397612452823
 21
275.7147082398189
 31
0.0
  0
LINE
  5
E44D
330
1E
100
AcDbEntity
  8
中心線
 48
0.27
100
AcDbLine
 10
2742.175540957487
 20
273.2806273363276
 30
0.0
 11
2720.416892285542
 21
273.2806273363276
 31
0.0
  0
POINT
  5
E44E
330
1E
100
AcDbEntity
  8
0
100
AcDbPoint
 10
2740.675540957487
 20
273.2806273363276
 30
0.0
1001
pntflag
1000
endpoint
  0
LINE
  5
E44F
330
1E
100
AcDbEntity
  8
中心線
 48
0.3
100
AcDbLine
 10
2742.175540957487
 20
273.2806273363276
 30
0.0
 11
2720.416892285542
 21
273.2806273363276
 31
0.0
  0
LINE
  5
E450
330
1E
100
AcDbEntity
  8
指線
 48
0.27
100
AcDbLine
 10
2761.178829963784
 20
260.481468514515
 30
0.0
 11
2758.060212241978
 21
260.4810620690629
 31
0.0
  0
LINE
  5
E451
330
1E
100
AcDbEntity
  8
指線
 48
0.27
100
AcDbLine
 10
2762.776897054843
 20
260.4817158602206
 30
0.0
 11
2765.889110138104
 21
260.482273811117
 31
0.0
  0
LINE
  5
E452
330
1E
100
AcDbEntity
  8
指線
 48
0.27
100
AcDbLine
 10
2762.776649861407
 20
262.0797861581404
 30
0.0
 11
2765.888862944667
 21
262.080344109037
 31
0.0
  0
ARC
  5
E453
330
1E
100
AcDbEntity
  8
指線
 48
0.27
100
AcDbCircle
 10
2761.977739912595
 20
261.2806273363276
 30
0.0
 40
2.397105012956624
100
AcDbArc
 50
19.48100010832805
 51
70.53767875679579
  0
LINE
  5
E454
330
1E
100
AcDbEntity
  8
指線
 48
0.27
100
AcDbLine
 10
2762.776423873855
 20
263.5407636979592
 30
0.0
 11
2762.776649861407
 21
262.0797861581404
 31
0.0
  0
ARC
  5
E455
330
1E
100
AcDbEntity
  8
指線
 48
0.27
100
AcDbCircle
 10
2761.977739912595
 20
261.2806273363276
 30
0.0
 40
2.397105012956624
100
AcDbArc
 50
289.4623212432186
 51
340.5208129039578
  0
ARC
  5
E456
330
1E
100
AcDbEntity
  8
指線
 48
0.27
100
AcDbCircle
 10
2761.977739912595
 20
261.2806273363276
 30
0.0
 40
2.397105012956624
100
AcDbArc
 50
199.4791870960422
 51
250.5376787567813
  0
LINE
  5
E457
330
1E
100
AcDbEntity
  8
指線
 48
0.27
100
AcDbLine
 10
2761.178829963784
 20
260.481468514515
 30
0.0
 11
2761.179055951336
 21
259.0204909746959
 31
0.0
  0
LINE
  5
E458
330
1E
100
AcDbEntity
  8
指線
 48
0.27
100
AcDbLine
 10
2762.776897054843
 20
260.4817158602206
 30
0.0
 11
2762.777123042715
 21
259.0207383203947
 31
0.0
  0
LINE
  5
E459
330
1E
100
AcDbEntity
  8
指線
 48
0.27
100
AcDbLine
 10
2761.178582770347
 20
262.0795388124345
 30
0.0
 11
2758.059965048541
 21
262.0791323669829
 31
0.0
  0
ARC
  5
E45A
330
1E
100
AcDbEntity
  8
指線
 48
0.27
100
AcDbCircle
 10
2761.977739912595
 20
261.2806273363276
 30
0.0
 40
2.397105012956624
100
AcDbArc
 50
109.4623212432042
 51
160.5189998916719
  0
LINE
  5
E45B
330
1E
100
AcDbEntity
  8
指線
 48
0.27
100
AcDbLine
 10
2761.178356782476
 20
263.5405163522607
 30
0.0
 11
2761.178582770347
 21
262.0795388124345
 31
0.0
  0
CIRCLE
  5
E45C
330
1E
100
AcDbEntity
  8
指線
 48
0.27
100
AcDbCircle
 10
2761.977739912595
 20
261.2806273363276
 30
0.0
 40
4.0
  0
LINE
  5
E45D
330
1E
100
AcDbEntity
  8
指線
 48
0.27
100
AcDbLine
 10
2694.178829963784
 20
260.481468514515
 30
0.0
 11
2691.060212241978
 21
260.4810620690629
 31
0.0
  0
LINE
  5
E45E
330
1E
100
AcDbEntity
  8
指線
 48
0.27
100
AcDbLine
 10
2695.776897054843
 20
260.4817158602206
 30
0.0
 11
2698.889110138103
 21
260.482273811117
 31
0.0
  0
LINE
  5
E45F
330
1E
100
AcDbEntity
  8
指線
 48
0.27
100
AcDbLine
 10
2695.776649861406
 20
262.0797861581404
 30
0.0
 11
2698.888862944667
 21
262.080344109037
 31
0.0
  0
ARC
  5
E460
330
1E
100
AcDbEntity
  8
指線
 48
0.27
100
AcDbCircle
 10
2694.977739912595
 20
261.2806273363276
 30
0.0
 40
2.397105012956624
100
AcDbArc
 50
19.48100010832805
 51
70.53767875679579
  0
LINE
  5
E461
330
1E
100
AcDbEntity
  8
指線
 48
0.27
100
AcDbLine
 10
2695.776423873855
 20
263.5407636979592
 30
0.0
 11
2695.776649861406
 21
262.0797861581404
 31
0.0
  0
ARC
  5
E462
330
1E
100
AcDbEntity
  8
指線
 48
0.27
100
AcDbCircle
 10
2694.977739912595
 20
261.2806273363276
 30
0.0
 40
2.397105012956624
100
AcDbArc
 50
289.4623212432186
 51
340.5208129039578
  0
ARC
  5
E463
330
1E
100
AcDbEntity
  8
指線
 48
0.27
100
AcDbCircle
 10
2694.977739912595
 20
261.2806273363276
 30
0.0
 40
2.397105012956624
100
AcDbArc
 50
199.4791870960422
 51
250.5376787567813
  0
LINE
  5
E464
330
1E
100
AcDbEntity
  8
指線
 48
0.27
100
AcDbLine
 10
2694.178829963784
 20
260.481468514515
 30
0.0
 11
2694.179055951336
 21
259.0204909746959
 31
0.0
  0
LINE
  5
E465
330
1E
100
AcDbEntity
  8
指線
 48
0.27
100
AcDbLine
 10
2695.776897054843
 20
260.4817158602206
 30
0.0
 11
2695.777123042715
 21
259.0207383203947
 31
0.0
  0
LINE
  5
E466
330
1E
100
AcDbEntity
  8
指線
 48
0.27
100
AcDbLine
 10
2694.178582770347
 20
262.0795388124345
 30
0.0
 11
2691.059965048541
 21
262.0791323669829
 31
0.0
  0
ARC
  5
E467
330
1E
100
AcDbEntity
  8
指線
 48
0.27
100
AcDbCircle
 10
2694.977739912595
 20
261.2806273363276
 30
0.0
 40
2.397105012956624
100
AcDbArc
 50
109.4623212432042
 51
160.5189998916719
  0
LINE
  5
E468
330
1E
100
AcDbEntity
  8
指線
 48
0.27
100
AcDbLine
 10
2694.178356782476
 20
263.5405163522607
 30
0.0
 11
2694.178582770347
 21
262.0795388124345
 31
0.0
  0
CIRCLE
  5
E469
330
1E
100
AcDbEntity
  8
指線
 48
0.27
100
AcDbCircle
 10
2694.977739912595
 20
261.2806273363276
 30
0.0
 40
4.0
  0
ARC
  5
E6A9
330
1E
100
AcDbEntity
  8
標註線
  6
Continuous
 62
     1
100
AcDbCircle
 10
2968.518006754844
 20
383.440893093407
 30
0.0
 40
5.0
100
AcDbArc
 50
180.0001748528388
 51
90.00017485283233
  0
ARC
  5
E6AA
330
1E
100
AcDbEntity
  8
標註線
  6
Continuous
 62
     1
100
AcDbCircle
 10
2968.518006754844
 20
413.4408930934069
 30
0.0
 40
5.0
100
AcDbArc
 50
180.0001748528388
 51
90.00017485283233
  0
CIRCLE
  5
E6AB
330
1E
100
AcDbEntity
  8
0
  6
Continuous
 62
     7
100
AcDbCircle
 10
2968.517991496055
 20
383.4408778346181
 30
0.0
 40
4.25
  0
CIRCLE
  5
E6AC
330
1E
100
AcDbEntity
  8
0
  6
Continuous
 62
     7
100
AcDbCircle
 10
2968.517991496055
 20
413.440877834618
 30
0.0
 40
4.25
  0
LINE
  5
E6AD
330
1E
100
AcDbEntity
  8
中心線
 48
0.3
100
AcDbLine
 10
2968.517991496055
 20
435.9408778346181
 30
0.0
 11
2968.517991496055
 21
450.940877834618
 31
0.0
  0
LINE
  5
E6AE
330
1E
100
AcDbEntity
  8
中心線
 48
0.3
100
AcDbLine
 10
2976.018022013633
 20
443.440877834618
 30
0.0
 11
2961.017991496055
 21
443.440877834618
 31
0.0
  0
LINE
  5
E6AF
330
1E
100
AcDbEntity
  8
中心線
 48
0.3
100
AcDbLine
 10
2968.517991496055
 20
405.940877834618
 30
0.0
 11
2968.517991496055
 21
420.9408778346181
 31
0.0
  0
LINE
  5
E6B0
330
1E
100
AcDbEntity
  8
中心線
 48
0.3
100
AcDbLine
 10
2968.517991496055
 20
375.940877834618
 30
0.0
 11
2968.517991496055
 21
390.9408778346181
 31
0.0
  0
LINE
  5
E6B1
330
1E
100
AcDbEntity
  8
中心線
 48
0.3
100
AcDbLine
 10
2976.018022013633
 20
383.4408778346181
 30
0.0
 11
2961.017991496055
 21
383.4408778346181
 31
0.0
  0
CIRCLE
  5
E6B2
330
1E
100
AcDbEntity
  8
0
  6
Continuous
 62
     7
100
AcDbCircle
 10
2968.517991496055
 20
443.440877834618
 30
0.0
 40
4.25
  0
ARC
  5
E6B3
330
1E
100
AcDbEntity
  8
標註線
  6
Continuous
 62
     1
100
AcDbCircle
 10
2968.518006754844
 20
443.4408930934069
 30
0.0
 40
5.0
100
AcDbArc
 50
180.0001748528388
 51
90.00017485283233
  0
ARC
  5
E6C4
330
1E
100
AcDbEntity
  8
標註線
  6
Continuous
 62
     1
100
AcDbCircle
 10
3048.518006754844
 20
383.4408930934072
 30
0.0
 40
5.0
100
AcDbArc
 50
180.0001748528388
 51
90.00017485283233
  0
ARC
  5
E6C5
330
1E
100
AcDbEntity
  8
標註線
  6
Continuous
 62
     1
100
AcDbCircle
 10
3048.518006754844
 20
413.4408930934071
 30
0.0
 40
5.0
100
AcDbArc
 50
180.0001748528388
 51
90.00017485283233
  0
CIRCLE
  5
E6C6
330
1E
100
AcDbEntity
  8
0
  6
Continuous
 62
     7
100
AcDbCircle
 10
3048.517991496055
 20
383.4408778346183
 30
0.0
 40
4.25
  0
CIRCLE
  5
E6C7
330
1E
100
AcDbEntity
  8
0
  6
Continuous
 62
     7
100
AcDbCircle
 10
3048.517991496055
 20
413.4408778346183
 30
0.0
 40
4.25
  0
LINE
  5
E6C8
330
1E
100
AcDbEntity
  8
中心線
 48
0.3
100
AcDbLine
 10
3048.517991496055
 20
435.9408778346183
 30
0.0
 11
3048.517991496055
 21
450.9408778346182
 31
0.0
  0
LINE
  5
E6C9
330
1E
100
AcDbEntity
  8
中心線
 48
0.3
100
AcDbLine
 10
3056.018022013633
 20
443.4408778346183
 30
0.0
 11
3041.017991496055
 21
443.4408778346183
 31
0.0
  0
LINE
  5
E6CA
330
1E
100
AcDbEntity
  8
中心線
 48
0.3
100
AcDbLine
 10
3048.517991496055
 20
405.9408778346183
 30
0.0
 11
3048.517991496055
 21
420.9408778346183
 31
0.0
  0
LINE
  5
E6CB
330
1E
100
AcDbEntity
  8
中心線
 48
0.3
100
AcDbLine
 10
3048.517991496055
 20
375.9408778346182
 30
0.0
 11
3048.517991496055
 21
390.9408778346183
 31
0.0
  0
LINE
  5
E6CC
330
1E
100
AcDbEntity
  8
中心線
 48
0.3
100
AcDbLine
 10
3056.018022013633
 20
383.4408778346183
 30
0.0
 11
3041.017991496055
 21
383.4408778346183
 31
0.0
  0
CIRCLE
  5
E6CD
330
1E
100
AcDbEntity
  8
0
  6
Continuous
 62
     7
100
AcDbCircle
 10
3048.517991496055
 20
443.4408778346183
 30
0.0
 40
4.25
  0
ARC
  5
E6CE
330
1E
100
AcDbEntity
  8
標註線
  6
Continuous
 62
     1
100
AcDbCircle
 10
3048.518006754844
 20
443.4408930934071
 30
0.0
 40
5.0
100
AcDbArc
 50
180.0001748528388
 51
90.00017485283233
  0
LINE
  5
E6E1
330
1E
100
AcDbEntity
  8
虛線
  6
DASHED
100
AcDbLine
 10
2972.767991496055
 20
291.7806273363268
 30
0.0
 11
2974.267991496057
 21
293.2806273363279
 31
0.0
  0
LINE
  5
E6E2
330
1E
100
AcDbEntity
  8
虛線
  6
DASHED
100
AcDbLine
 10
2964.267991496056
 20
291.7806273363268
 30
0.0
 11
2962.767991496054
 21
293.280627336328
 31
0.0
  0
LINE
  5
E6E3
330
1E
100
AcDbEntity
  8
虛線
 48
0.5
100
AcDbLine
 10
2968.517983866661
 20
266.0627081773916
 30
0.0
 11
2964.267991496055
 21
268.4806273363271
 31
0.0
  0
LINE
  5
E6E4
330
1E
100
AcDbEntity
  8
虛線
 48
0.5
100
AcDbLine
 10
2972.767991496055
 20
268.4806273363271
 30
0.0
 11
2964.267991496055
 21
268.4806273363271
 31
0.0
  0
LINE
  5
E6E5
330
1E
100
AcDbEntity
  8
虛線
 48
0.5
100
AcDbLine
 10
2973.517991496055
 20
292.5306273363265
 30
0.0
 11
2973.517991496055
 21
273.4806273363271
 31
0.0
  0
LINE
  5
E6E6
330
1E
100
AcDbEntity
  8
虛線
 48
0.5
100
AcDbLine
 10
2963.517991496055
 20
292.5306273363272
 30
0.0
 11
2963.517991496055
 21
273.4806273363271
 31
0.0
  0
LINE
  5
E6E7
330
1E
100
AcDbEntity
  8
虛線
 48
0.5
100
AcDbLine
 10
2973.517991496055
 20
273.4806273363271
 30
0.0
 11
2963.517991496055
 21
273.4806273363271
 31
0.0
  0
LINE
  5
E6E8
330
1E
100
AcDbEntity
  8
虛線
 48
0.5
100
AcDbLine
 10
2968.518008662193
 20
266.0627348802724
 30
0.0
 11
2972.767991496055
 21
268.4806273363271
 31
0.0
  0
LINE
  5
E6E9
330
1E
100
AcDbEntity
  8
虛線
  6
DASHED
100
AcDbLine
 10
2964.267991496055
 20
291.7806273363274
 30
0.0
 11
2972.767991496055
 21
291.7806273363268
 31
0.0
  0
LINE
  5
E6EA
330
1E
100
AcDbEntity
  8
虛線
 48
0.5
100
AcDbLine
 10
2972.767991496055
 20
291.7806273363268
 30
0.0
 11
2972.767991496055
 21
268.4806273363271
 31
0.0
  0
LINE
  5
E6EB
330
1E
100
AcDbEntity
  8
虛線
 48
0.5
100
AcDbLine
 10
2964.267991496055
 20
291.7806273363274
 30
0.0
 11
2964.267991496055
 21
268.4806273363271
 31
0.0
  0
LINE
  5
E6EC
330
1E
100
AcDbEntity
  8
中心線
 48
0.3
100
AcDbLine
 10
2968.517991496055
 20
295.2806273363281
 30
0.0
 11
2968.517991496055
 21
264.6642143031965
 31
0.0
  0
LINE
  5
E6FE
330
1E
100
AcDbEntity
  8
虛線
  6
DASHED
100
AcDbLine
 10
3052.767991496056
 20
291.7806273363263
 30
0.0
 11
3054.267991496057
 21
293.2806273363274
 31
0.0
  0
LINE
  5
E6FF
330
1E
100
AcDbEntity
  8
虛線
  6
DASHED
100
AcDbLine
 10
3044.267991496056
 20
291.7806273363264
 30
0.0
 11
3042.767991496055
 21
293.2806273363275
 31
0.0
  0
LINE
  5
E700
330
1E
100
AcDbEntity
  8
虛線
 48
0.5
100
AcDbLine
 10
3048.517983866661
 20
266.0627081773911
 30
0.0
 11
3044.267991496055
 21
268.4806273363266
 31
0.0
  0
LINE
  5
E701
330
1E
100
AcDbEntity
  8
虛線
 48
0.5
100
AcDbLine
 10
3052.767991496056
 20
268.4806273363266
 30
0.0
 11
3044.267991496055
 21
268.4806273363266
 31
0.0
  0
LINE
  5
E702
330
1E
100
AcDbEntity
  8
虛線
 48
0.5
100
AcDbLine
 10
3053.517991496056
 20
292.5306273363259
 30
0.0
 11
3053.517991496056
 21
273.4806273363266
 31
0.0
  0
LINE
  5
E703
330
1E
100
AcDbEntity
  8
虛線
 48
0.5
100
AcDbLine
 10
3043.517991496055
 20
292.5306273363267
 30
0.0
 11
3043.517991496055
 21
273.4806273363266
 31
0.0
  0
LINE
  5
E704
330
1E
100
AcDbEntity
  8
虛線
 48
0.5
100
AcDbLine
 10
3053.517991496056
 20
273.4806273363266
 30
0.0
 11
3043.517991496055
 21
273.4806273363266
 31
0.0
  0
LINE
  5
E705
330
1E
100
AcDbEntity
  8
虛線
 48
0.5
100
AcDbLine
 10
3048.518008662193
 20
266.0627348802719
 30
0.0
 11
3052.767991496056
 21
268.4806273363266
 31
0.0
  0
LINE
  5
E706
330
1E
100
AcDbEntity
  8
虛線
  6
DASHED
100
AcDbLine
 10
3044.267991496055
 20
291.7806273363269
 30
0.0
 11
3052.767991496056
 21
291.7806273363263
 31
0.0
  0
LINE
  5
E707
330
1E
100
AcDbEntity
  8
虛線
 48
0.5
100
AcDbLine
 10
3052.767991496056
 20
291.7806273363263
 30
0.0
 11
3052.767991496056
 21
268.4806273363266
 31
0.0
  0
LINE
  5
E708
330
1E
100
AcDbEntity
  8
虛線
 48
0.5
100
AcDbLine
 10
3044.267991496055
 20
291.7806273363269
 30
0.0
 11
3044.267991496055
 21
268.4806273363266
 31
0.0
  0
LINE
  5
E709
330
1E
100
AcDbEntity
  8
中心線
 48
0.3
100
AcDbLine
 10
3048.517991496055
 20
295.2806273363276
 30
0.0
 11
3048.517991496055
 21
264.664214303196
 31
0.0
  0
LINE
  5
E712
330
1E
100
AcDbEntity
  8
中心線
 48
0.27
100
AcDbLine
 10
2922.780400182237
 20
269.2806273363276
 30
0.0
 11
2934.455582809873
 21
269.2806273363276
 31
0.0
  0
LINE
  5
E713
330
1E
100
AcDbEntity
  8
中心線
 48
0.27
100
AcDbLine
 10
2928.617991496055
 20
263.4430360225098
 30
0.0
 11
2928.617991496055
 21
275.1182186501452
 31
0.0
  0
LINE
  5
E725
330
1E
100
AcDbEntity
  8
中心線
 48
0.27
100
AcDbLine
 10
3082.580400182238
 20
269.2806273363276
 30
0.0
 11
3094.255582809873
 21
269.2806273363276
 31
0.0
  0
LINE
  5
E726
330
1E
100
AcDbEntity
  8
中心線
 48
0.27
100
AcDbLine
 10
3088.417991496055
 20
263.4430360225098
 30
0.0
 11
3088.417991496055
 21
275.1182186501452
 31
0.0
  0
LINE
  5
E727
330
1E
100
AcDbEntity
  8
0
100
AcDbLine
 10
2841.017991496054
 20
244.2806273363294
 30
0.0
 11
2861.017991496055
 21
244.2806273363294
 31
0.0
  0
LINE
  5
E728
330
1E
100
AcDbEntity
  8
0
100
AcDbLine
 10
2841.017991496054
 20
260.8806273363295
 30
0.0
 11
2861.017991496055
 21
260.8806273363295
 31
0.0
  0
LINE
  5
E729
330
1E
100
AcDbEntity
  8
0
100
AcDbLine
 10
2844.017991496055
 20
243.9806273363295
 30
0.0
 11
2858.017991496055
 21
243.9806273363295
 31
0.0
  0
LINE
  5
E72A
330
1E
100
AcDbEntity
  8
0
100
AcDbLine
 10
2844.017991496055
 20
243.9806273363295
 30
0.0
 11
2844.017991496055
 21
223.9806273363297
 31
0.0
  0
LINE
  5
E72B
330
1E
100
AcDbEntity
  8
0
100
AcDbLine
 10
2841.017991496054
 20
260.8806273363295
 30
0.0
 11
2841.017991496054
 21
244.2806273363294
 31
0.0
  0
LINE
  5
E72C
330
1E
100
AcDbEntity
  8
0
100
AcDbLine
 10
2844.017991496054
 20
243.9806273363295
 30
0.0
 11
2843.717991496055
 21
244.2806273363294
 31
0.0
  0
LINE
  5
E72D
330
1E
100
AcDbEntity
  8
0
100
AcDbLine
 10
2841.017991496054
 20
260.8806273363295
 30
0.0
 11
2840.78705138838
 21
261.2806273363274
 31
0.0
  0
LINE
  5
E72E
330
1E
100
AcDbEntity
  8
0
100
AcDbLine
 10
2858.017991496055
 20
243.9806273363295
 30
0.0
 11
2858.017991496055
 21
223.9806273363297
 31
0.0
  0
LINE
  5
E72F
330
1E
100
AcDbEntity
  8
0
100
AcDbLine
 10
2861.017991496055
 20
260.8806273363295
 30
0.0
 11
2861.017991496055
 21
244.2806273363294
 31
0.0
  0
LINE
  5
E730
330
1E
100
AcDbEntity
  8
0
100
AcDbLine
 10
2858.017991496055
 20
243.9806273363295
 30
0.0
 11
2858.317991496054
 21
244.2806273363294
 31
0.0
  0
LINE
  5
E731
330
1E
100
AcDbEntity
  8
0
100
AcDbLine
 10
2861.017991496055
 20
260.8806273363295
 30
0.0
 11
2861.248931603729
 21
261.2806273363276
 31
0.0
  0
LINE
  5
E732
330
1E
100
AcDbEntity
  8
0
100
AcDbLine
 10
2844.017991496052
 20
223.9806273363297
 30
0.0
 11
2858.017991496052
 21
223.9806273363297
 31
0.0
  0
LINE
  5
E733
330
1E
100
AcDbEntity
  8
0
100
AcDbLine
 10
2844.017991496052
 20
223.9806273363297
 30
0.0
 11
2843.31799149605
 21
223.2806273363278
 31
0.0
  0
LINE
  5
E734
330
1E
100
AcDbEntity
  8
0
100
AcDbLine
 10
2858.01799149606
 20
223.9806273363297
 30
0.0
 11
2858.717991496062
 21
223.2806273363278
 31
0.0
  0
LINE
  5
E735
330
1E
100
AcDbEntity
  8
中心線
 48
0.4
100
AcDbLine
 10
2851.017991496055
 20
263.2806273363276
 30
0.0
 11
2851.017991496055
 21
221.2806273363276
 31
0.0
  0
LINE
  5
E736
330
1E
100
AcDbEntity
  8
0
100
AcDbLine
 10
2873.266262225832
 20
261.2806273363277
 30
0.0
 11
2870.343489078102
 21
254.4065315689768
 31
0.0
  0
LINE
  5
E737
330
1E
100
AcDbEntity
  8
0
100
AcDbLine
 10
2870.343489078102
 20
254.4065315689768
 30
0.0
 11
2875.228675251285
 21
245.9832800732638
 31
0.0
  0
LINE
  5
E738
330
1E
100
AcDbEntity
  8
0
100
AcDbLine
 10
2875.228675251285
 20
245.9832800732638
 30
0.0
 11
2870.709870935631
 21
237.071725249687
 31
0.0
  0
LINE
  5
E739
330
1E
100
AcDbEntity
  8
0
100
AcDbLine
 10
2870.709870935631
 20
237.071725249687
 30
0.0
 11
2875.350807950812
 21
228.8926279632478
 31
0.0
  0
LINE
  5
E73A
330
1E
100
AcDbEntity
  8
0
100
AcDbLine
 10
2875.350807950812
 20
228.8926279632478
 30
0.0
 11
2873.02758065106
 21
223.2806273363276
 31
0.0
  0
LINE
  5
E73B
330
1E
100
AcDbEntity
  8
中心線
 48
0.4
100
AcDbLine
 10
2903.517991496056
 20
263.2806273363276
 30
0.0
 11
2903.517991496056
 21
221.2806273363276
 31
0.0
  0
LINE
  5
E73C
330
1E
100
AcDbEntity
  8
中心線
 48
0.4
100
AcDbLine
 10
2956.017991496056
 20
231.2806273362276
 30
0.0
 11
2956.017991496056
 21
221.2806273363276
 31
0.0
  0
LINE
  5
E73D
330
1E
100
AcDbEntity
  8
虛線
 48
0.4
100
AcDbLine
 10
2949.017991496054
 20
231.2806273362276
 30
0.0
 11
2949.017991496054
 21
223.9806273363297
 31
0.0
  0
LINE
  5
E73E
330
1E
100
AcDbEntity
  8
虛線
 48
0.4
100
AcDbLine
 10
2963.017991496055
 20
231.2806273362276
 30
0.0
 11
2963.017991496055
 21
223.9806273363297
 31
0.0
  0
LINE
  5
E73F
330
1E
100
AcDbEntity
  8
虛線
 48
0.4
100
AcDbLine
 10
2949.017991496052
 20
223.9806273363297
 30
0.0
 11
2963.017991496052
 21
223.9806273363297
 31
0.0
  0
LINE
  5
E740
330
1E
100
AcDbEntity
  8
虛線
 48
0.4
100
AcDbLine
 10
2949.017991496052
 20
223.9806273363297
 30
0.0
 11
2948.31799149605
 21
223.2806273363279
 31
0.0
  0
LINE
  5
E741
330
1E
100
AcDbEntity
  8
虛線
 48
0.4
100
AcDbLine
 10
2963.01799149606
 20
223.9806273363297
 30
0.0
 11
2963.717991496062
 21
223.2806273363279
 31
0.0
  0
LINE
  5
E742
330
1E
100
AcDbEntity
  8
中心線
 48
0.4
100
AcDbLine
 10
3008.517991496056
 20
231.2806273362276
 30
0.0
 11
3008.517991496056
 21
221.2806273363276
 31
0.0
  0
LINE
  5
E743
330
1E
100
AcDbEntity
  8
虛線
 48
0.4
100
AcDbLine
 10
3001.517991496055
 20
231.2806273362276
 30
0.0
 11
3001.517991496055
 21
223.9806273363297
 31
0.0
  0
LINE
  5
E744
330
1E
100
AcDbEntity
  8
虛線
 48
0.4
100
AcDbLine
 10
3015.517991496055
 20
231.2806273362276
 30
0.0
 11
3015.517991496055
 21
223.9806273363297
 31
0.0
  0
LINE
  5
E745
330
1E
100
AcDbEntity
  8
虛線
 48
0.4
100
AcDbLine
 10
3001.517991496052
 20
223.9806273363297
 30
0.0
 11
3015.517991496052
 21
223.9806273363297
 31
0.0
  0
LINE
  5
E746
330
1E
100
AcDbEntity
  8
虛線
 48
0.4
100
AcDbLine
 10
3001.517991496052
 20
223.9806273363297
 30
0.0
 11
3000.81799149605
 21
223.2806273363278
 31
0.0
  0
LINE
  5
E747
330
1E
100
AcDbEntity
  8
虛線
 48
0.4
100
AcDbLine
 10
3015.51799149606
 20
223.9806273363297
 30
0.0
 11
3016.217991496062
 21
223.2806273363278
 31
0.0
  0
LINE
  5
E748
330
1E
100
AcDbEntity
  8
中心線
 48
0.4
100
AcDbLine
 10
3061.017991496056
 20
231.2806273362276
 30
0.0
 11
3061.017991496056
 21
221.2806273363276
 31
0.0
  0
LINE
  5
E749
330
1E
100
AcDbEntity
  8
虛線
 48
0.4
100
AcDbLine
 10
3068.01799149606
 20
223.9806273363297
 30
0.0
 11
3068.717991496062
 21
223.2806273363278
 31
0.0
  0
LINE
  5
E74A
330
1E
100
AcDbEntity
  8
虛線
 48
0.4
100
AcDbLine
 10
3054.017991496052
 20
223.9806273363297
 30
0.0
 11
3053.31799149605
 21
223.2806273363278
 31
0.0
  0
LINE
  5
E74B
330
1E
100
AcDbEntity
  8
虛線
 48
0.4
100
AcDbLine
 10
3054.017991496052
 20
223.9806273363297
 30
0.0
 11
3068.017991496052
 21
223.9806273363297
 31
0.0
  0
LINE
  5
E74C
330
1E
100
AcDbEntity
  8
虛線
 48
0.4
100
AcDbLine
 10
3068.017991496055
 20
231.2806273362276
 30
0.0
 11
3068.017991496055
 21
223.9806273363297
 31
0.0
  0
LINE
  5
E74D
330
1E
100
AcDbEntity
  8
虛線
 48
0.4
100
AcDbLine
 10
3054.017991496055
 20
231.2806273362276
 30
0.0
 11
3054.017991496055
 21
223.9806273363297
 31
0.0
  0
LINE
  5
E74E
330
1E
100
AcDbEntity
  8
中心線
 48
0.4
100
AcDbLine
 10
3113.517991496056
 20
263.2806273363276
 30
0.0
 11
3113.517991496056
 21
221.2806273363276
 31
0.0
  0
LINE
  5
E74F
330
1E
100
AcDbEntity
  8
中心線
 48
0.4
100
AcDbLine
 10
3166.017991496056
 20
263.2806273363276
 30
0.0
 11
3166.017991496056
 21
221.2806273363276
 31
0.0
  0
ARC
  5
E771
330
1E
100
AcDbEntity
  8
0
  6
Continuous
 62
     7
100
AcDbCircle
 10
3097.417991496055
 20
242.9862366769398
 30
0.0
 40
0.5
100
AcDbArc
 50
270.0
 51
0.0
  0
ARC
  5
E772
330
1E
100
AcDbEntity
  8
0
  6
Continuous
 62
     7
100
AcDbCircle
 10
3097.417991496055
 20
247.4862366769398
 30
0.0
 40
0.5
100
AcDbArc
 50
0.0
 51
90.0
  0
LINE
  5
E773
330
1E
100
AcDbEntity
  8
0
  6
Continuous
 62
     7
100
AcDbLine
 10
3097.417991496055
 20
247.9862366769398
 30
0.0
 11
3094.917991496056
 21
247.9862366769398
 31
0.0
  0
LINE
  5
E774
330
1E
100
AcDbEntity
  8
0
  6
Continuous
 62
     7
100
AcDbLine
 10
3097.417991496055
 20
242.4862366769398
 30
0.0
 11
3094.917991496056
 21
242.4862366769398
 31
0.0
  0
LINE
  5
E775
330
1E
100
AcDbEntity
  8
0
  6
Continuous
 62
     7
100
AcDbLine
 10
3097.917991496055
 20
242.9862383199397
 30
0.0
 11
3097.917991496055
 21
247.48623503404
 31
0.0
  0
LINE
  5
E776
330
1E
100
AcDbEntity
  8
0
  6
Continuous
 62
     7
100
AcDbLine
 10
2919.117991496055
 20
242.9862383199397
 30
0.0
 11
2919.117991496055
 21
247.48623503404
 31
0.0
  0
LINE
  5
E777
330
1E
100
AcDbEntity
  8
0
  6
Continuous
 62
     7
100
AcDbLine
 10
2919.617991496055
 20
242.4862366769398
 30
0.0
 11
2922.117991496055
 21
242.4862366769398
 31
0.0
  0
LINE
  5
E778
330
1E
100
AcDbEntity
  8
0
  6
Continuous
 62
     7
100
AcDbLine
 10
2919.617991496055
 20
247.9862366769398
 30
0.0
 11
2922.117991496055
 21
247.9862366769398
 31
0.0
  0
ARC
  5
E779
330
1E
100
AcDbEntity
  8
0
  6
Continuous
 62
     7
100
AcDbCircle
 10
2919.617991496055
 20
247.4862366769398
 30
0.0
 40
0.5
100
AcDbArc
 50
90.0
 51
180.0
  0
ARC
  5
E77A
330
1E
100
AcDbEntity
  8
0
  6
Continuous
 62
     7
100
AcDbCircle
 10
2919.617991496055
 20
242.9862366769398
 30
0.0
 40
0.5
100
AcDbArc
 50
180.0
 51
270.0
  0
LINE
  5
E77B
330
1E
100
AcDbEntity
  8
中心線
100
AcDbLine
 10
3105.319570408392
 20
379.9408778346147
 30
0.0
 11
3094.674344880464
 21
379.9408778346147
 31
0.0
  0
LINE
  5
E77C
330
1E
100
AcDbEntity
  8
中心線
100
AcDbLine
 10
3105.319570408392
 20
446.9408778346147
 30
0.0
 11
3094.674344880464
 21
446.9408778346147
 31
0.0
  0
LINE
  5
E77D
330
1E
100
AcDbEntity
  8
中心線
100
AcDbLine
 10
2911.716412583719
 20
446.9408778346147
 30
0.0
 11
2922.361638111647
 21
446.9408778346147
 31
0.0
  0
LINE
  5
E77E
330
1E
100
AcDbEntity
  8
中心線
100
AcDbLine
 10
2911.716412583719
 20
379.9408778346147
 30
0.0
 11
2922.361638111647
 21
379.9408778346147
 31
0.0
  0
LINE
  5
E793
330
1E
100
AcDbEntity
  8
中心線
100
AcDbLine
 10
3008.517991496056
 20
461.440877834618
 30
0.0
 11
3008.517991496056
 21
365.4408778346164
 31
0.0
  0
LINE
  5
E794
330
1E
100
AcDbEntity
  8
中心線
100
AcDbLine
 10
3083.417991496055
 20
413.4408778346171
 30
0.0
 11
2933.617991496055
 21
413.4408778346172
 31
0.0
  0
LINE
  5
E795
330
1E
100
AcDbEntity
  8
中心線
 48
0.4
100
AcDbLine
 10
2903.517991496056
 20
411.7710684363006
 30
0.0
 11
2903.517991496056
 21
410.9083741454877
 31
0.0
  0
LINE
  5
E79E
330
1E
100
AcDbEntity
  8
中心線
100
AcDbLine
 10
3105.319570408392
 20
261.2806273363277
 30
0.0
 11
3094.674344880464
 21
261.2806273363277
 31
0.0
  0
LINE
  5
E79F
330
1E
100
AcDbEntity
  8
中心線
100
AcDbLine
 10
2911.716412583719
 20
261.2806273363277
 30
0.0
 11
2922.361638111647
 21
261.2806273363277
 31
0.0
  0
LINE
  5
EAA2
330
1E
100
AcDbEntity
  8
0
100
AcDbLine
 10
3188.517991496056
 20
260.2806273363273
 30
0.0
 11
3103.654720237754
 21
260.2806273363272
 31
0.0
  0
LINE
  5
EAA3
330
1E
100
AcDbEntity
  8
0
100
AcDbLine
 10
3188.517991496056
 20
256.9841807343451
 30
0.0
 11
3102.017991503756
 21
256.9841807343451
 31
0.0
  0
LINE
  5
EAA4
330
1E
100
AcDbEntity
  8
0
100
AcDbLine
 10
3188.517991496056
 20
249.4841807185216
 30
0.0
 11
3102.017991503756
 21
249.4841807185209
 31
0.0
  0
LINE
  5
EAA5
330
1E
100
AcDbEntity
  8
0
100
AcDbLine
 10
3188.517991496056
 20
241.0770739545858
 30
0.0
 11
3102.017991503756
 21
241.0770739545858
 31
0.0
  0
LINE
  5
EAA6
330
1E
100
AcDbEntity
  8
0
100
AcDbLine
 10
3188.517991496056
 20
233.577073941354
 30
0.0
 11
3102.017991503756
 21
233.577073941354
 31
0.0
  0
LINE
  5
EAA7
330
1E
100
AcDbEntity
  8
0
100
AcDbLine
 10
2913.381262785157
 20
260.2806273363273
 30
0.0
 11
2872.841075663606
 21
260.2806273363273
 31
0.0
  0
LINE
  5
EAA9
330
1E
100
AcDbEntity
  8
0
100
AcDbLine
 10
2915.017991503755
 20
256.9841807343451
 30
0.0
 11
2871.439470865349
 21
256.9841807343451
 31
0.0
  0
LINE
  5
EAAA
330
1E
100
AcDbEntity
  8
0
100
AcDbLine
 10
2915.017991503755
 20
249.4841807185197
 30
0.0
 11
2873.198277437021
 21
249.4841807185194
 31
0.0
  0
LINE
  5
EAAB
330
1E
100
AcDbEntity
  8
0
100
AcDbLine
 10
2915.017991503755
 20
241.0770739545858
 30
0.0
 11
2872.740873086402
 21
241.0770739545858
 31
0.0
  0
LINE
  5
EAAC
330
1E
100
AcDbEntity
  8
0
100
AcDbLine
 10
2915.017991503755
 20
233.577073941354
 30
0.0
 11
2872.692786169917
 21
233.577073941354
 31
0.0
  0
LINE
  5
EAB2
330
1E
100
AcDbEntity
  8
0
100
AcDbLine
 10
3188.517991496056
 20
225.2806273363277
 30
0.0
 11
2873.855530415929
 21
225.2806273363277
 31
0.0
  0
ENDSEC
  0
SECTION
  2
OBJECTS
  0
DICTIONARY
  5
C
330
0
100
AcDbDictionary
281
     1
  3
ACAD_COLOR
350
3D97
  3
ACAD_GROUP
350
D
  3
ACAD_LAYOUT
350
19
  3
ACAD_MATERIAL
350
3D96
  3
ACAD_MLINESTYLE
350
16
  3
ACAD_PLOTSETTINGS
350
18
  3
ACAD_PLOTSTYLENAME
350
E
  3
ACAD_TABLESTYLE
350
E7A3
  3
ACDBHEADERROUNDTRIPXREC
350
EACD
  3
AcDbVariableDictionary
350
3E63
  0
DICTIONARY
  5
43C2
330
2
100
AcDbDictionary
280
     1
281
     1
  3
ACAD_LAYERSTATES
360
43C3
  0
DICTIONARY
  5
3D1E
330
1E
100
AcDbDictionary
280
     1
281
     1
  3
ACAD_LAYOUTSELFREF
360
3D92
  3
ACAD_SORTENTS
360
EAA8
  0
DICTIONARY
  5
3D20
330
1A
100
AcDbDictionary
280
     1
281
     1
  3
ACAD_LAYOUTSELFREF
360
3D91
  0
DICTIONARY
  5
69B8
330
69B7
100
AcDbDictionary
280
     1
281
     1
  3
ACAD_SORTENTS
360
69B9
  0
DICTIONARY
  5
69CC
330
69CB
100
AcDbDictionary
280
     1
281
     1
  3
ACAD_SORTENTS
360
69CD
  0
DICTIONARY
  5
3D97
102
{ACAD_REACTORS
330
C
102
}
330
C
100
AcDbDictionary
281
     1
  0
DICTIONARY
  5
D
102
{ACAD_REACTORS
330
C
102
}
330
C
100
AcDbDictionary
281
     1
  3
*A1
350
4143
  3
*A10
350
4378
  3
*A11
350
43BF
  3
*A12
350
423A
  3
*A13
350
414C
  3
*A14
350
579E
  3
*A15
350
4235
  3
*A16
350
437C
  3
*A17
350
414F
  3
*A18
350
437E
  3
*A19
350
4149
  3
*A2
350
4241
  3
*A20
350
4239
  3
*A21
350
4237
  3
*A22
350
423C
  3
*A23
350
43B6
  3
*A24
350
423B
  3
*A25
350
43B8
  3
*A26
350
576A
  3
*A27
350
4240
  3
*A28
350
423E
  3
*A29
350
4374
  3
*A3
350
43BB
  3
*A30
350
4373
  3
*A31
350
43BD
  3
*A32
350
4236
  3
*A33
350
4377
  3
*A34
350
4145
  3
*A35
350
437A
  3
*A36
350
4379
  3
*A37
350
43C1
  3
*A38
350
423D
  3
*A39
350
437D
  3
*A4
350
414D
  3
*A40
350
4146
  3
*A41
350
437F
  3
*A42
350
414B
  3
*A43
350
4375
  3
*A44
350
43B7
  3
*A45
350
414E
  3
*A46
350
43B9
  3
*A47
350
57D9
  3
*A48
350
437B
  3
*A49
350
43BC
  3
*A5
350
4144
  3
*A50
350
43BE
  3
*A51
350
4238
  3
*A52
350
43B5
  3
*A53
350
43C0
  3
*A54
350
4148
  3
*A55
350
423F
  3
*A56
350
43BA
  3
*A6
350
414A
  3
*A7
350
5691
  3
*A8
350
4376
  3
*A9
350
4147
  0
DICTIONARY
  5
19
102
{ACAD_REACTORS
330
C
102
}
330
C
100
AcDbDictionary
281
     1
  3
Model
350
21
  3
配置1
350
1D
  0
DICTIONARY
  5
3D96
102
{ACAD_REACTORS
330
C
102
}
330
C
100
AcDbDictionary
281
     1
  0
DICTIONARY
  5
16
102
{ACAD_REACTORS
330
C
102
}
330
C
100
AcDbDictionary
281
     1
  3
Standard
350
17
  0
DICTIONARY
  5
18
102
{ACAD_REACTORS
330
C
102
}
330
C
100
AcDbDictionary
281
     1
  3
LANSRO
350
4150
  0
ACDBDICTIONARYWDFLT
  5
E
102
{ACAD_REACTORS
330
C
102
}
330
C
100
AcDbDictionary
281
     1
  3
Normal
350
F
100
AcDbDictionaryWithDefault
340
F
  0
DICTIONARY
  5
E7A3
102
{ACAD_REACTORS
330
C
102
}
330
C
100
AcDbDictionary
281
     1
  3
Standard
350
E7A4
  0
DICTIONARY
  5
EACD
102
{ACAD_REACTORS
330
C
102
}
330
C
100
AcDbDictionary
281
     1
  3
COLORDICT
350
EACF
  3
MATERIALDICT
350
EACE
  0
DICTIONARY
  5
3E63
102
{ACAD_REACTORS
330
C
102
}
330
C
100
AcDbDictionary
281
     1
  3
CTABLESTYLE
350
E8F8
  3
DIMASSOC
350
3E64
  3
PROJECTNAME
350
3E65
  0
DICTIONARY
  5
43C3
102
{ACAD_REACTORS
330
43C2
102
}
330
43C2
100
AcDbDictionary
281
     1
  0
XRECORD
  5
3D92
102
{ACAD_REACTORS
330
3D1E
102
}
330
3D1E
100
AcDbXrecord
280
     1
340
1E
  0
SORTENTSTABLE
  5
EAA8
102
{ACAD_REACTORS
330
3D1E
102
}
330
3D1E
100
AcDbSortentsTable
330
1E
331
ADE5
  5
ADE5
331
A1F8
  5
A1F8
331
A1C1
  5
A1C1
331
AD8E
  5
AD8E
331
ADED
  5
ADED
331
A1C9
  5
A1C9
331
A200
  5
A200
331
ADF5
  5
ADF5
331
A192
  5
A192
331
AD67
  5
AD67
331
ADA6
  5
ADA6
331
ADAE
  5
ADAE
331
E730
  5
E730
331
E738
  5
E738
331
E421
  5
E421
331
E458
  5
E458
331
E3AB
  5
E3AB
331
E3E2
  5
E3E2
331
AE1E
  5
AE1E
331
E740
  5
E740
331
E36C
  5
E36C
331
E429
  5
E429
331
E460
  5
E460
331
E374
  5
E374
331
AE26
  5
AE26
331
E748
  5
E748
331
E3B3
  5
E3B3
331
E3EA
  5
E3EA
331
E6FF
  5
E6FF
331
E431
  5
E431
331
E468
  5
E468
331
E345
  5
E345
331
E37C
  5
E37C
331
AE2E
  5
AE2E
331
E3BB
  5
E3BB
331
E3F2
  5
E3F2
331
E3FA
  5
E3FA
331
E707
  5
E707
331
E384
  5
E384
331
AE36
  5
AE36
331
ACF8
  5
ACF8
331
A19A
  5
A19A
331
A1D1
  5
A1D1
331
AD6F
  5
AD6F
331
A1A2
  5
A1A2
331
A1D9
  5
A1D9
331
ADCE
  5
ADCE
331
A1E1
  5
A1E1
331
AD10
  5
AD10
331
A1AA
  5
A1AA
331
AD77
  5
AD77
331
AD7F
  5
AD7F
331
A1B2
  5
A1B2
331
A1E9
  5
A1E9
331
AD18
  5
AD18
331
ADDE
  5
ADDE
331
AD87
  5
AD87
331
E709
  5
E709
331
EAA7
  5
EAA3
331
E778
  5
E778
331
E6B0
  5
E6B0
331
E3C3
  5
E3C3
331
E402
  5
E402
331
AE3E
  5
AE3E
331
E34D
  5
E34D
331
ADFF
  5
ADFF
331
E38C
  5
E38C
331
E439
  5
E439
331
E441
  5
E441
331
E3CB
  5
E3CB
331
AE46
  5
AE46
331
E355
  5
E355
331
E40A
  5
E40A
331
E729
  5
E729
331
AE07
  5
AE07
331
E449
  5
E449
331
E6C8
  5
E6C8
331
E39C
  5
E39C
331
E3D3
  5
E3D3
331
AE0F
  5
AE0F
331
E35D
  5
E35D
331
E412
  5
E412
331
E41A
  5
E41A
331
E451
  5
E451
331
E365
  5
E365
331
AE17
  5
AE17
331
E3A4
  5
E3A4
331
E3DB
  5
E3DB
331
A1BA
  5
A1BA
331
A1F1
  5
A1F1
331
AD20
  5
AD20
331
ADE6
  5
ADE6
331
AD8F
  5
AD8F
331
A1C2
  5
A1C2
331
A1F9
  5
A1F9
331
A201
  5
A201
331
ADEE
  5
ADEE
331
A18B
  5
A18B
331
A1CA
  5
A1CA
331
ADF6
  5
ADF6
331
A193
  5
A193
331
ADA7
  5
ADA7
331
ADAF
  5
ADAF
331
E731
  5
E731
331
E739
  5
E739
331
E6E8
  5
E6E8
331
E3E3
  5
E3E3
331
E422
  5
E422
331
E459
  5
E459
331
E36D
  5
E36D
331
AE1F
  5
AE1F
331
E741
  5
E741
331
E3AC
  5
E3AC
331
E3B4
  5
E3B4
331
E3EB
  5
E3EB
331
E375
  5
E375
331
E42A
  5
E42A
331
AE27
  5
AE27
331
E749
  5
E749
331
E461
  5
E461
331
E432
  5
E432
331
E469
  5
E469
331
E3BC
  5
E3BC
331
E3F3
  5
E3F3
331
E700
  5
E700
331
AE2F
  5
AE2F
331
E346
  5
E346
331
E37D
  5
E37D
331
E6A9
  5
E6A9
331
E385
  5
E385
331
AE37
  5
AE37
331
E3FB
  5
E3FB
331
A1D2
  5
A1D2
331
ACF9
  5
ACF9
331
A19B
  5
A19B
331
AD70
  5
AD70
331
A1A3
  5
A1A3
331
A1DA
  5
A1DA
331
AD11
  5
AD11
331
AD78
  5
AD78
331
A1AB
  5
A1AB
331
A1E2
  5
A1E2
331
ADCF
  5
ADCF
331
AD19
  5
AD19
331
AD80
  5
AD80
331
A1B3
  5
A1B3
331
A1EA
  5
A1EA
331
ADD7
  5
ADD7
331
ADDF
  5
ADDF
331
E771
  5
E771
331
E712
  5
E712
331
E779
  5
E779
331
ADF8
  5
ADF8
331
E43A
  5
E43A
331
E6B1
  5
E6B1
331
E38D
  5
E38D
331
E3C4
  5
E3C4
331
AE00
  5
AE00
331
AE3F
  5
AE3F
331
E34E
  5
E34E
331
E403
  5
E403
331
E40B
  5
E40B
331
E442
  5
E442
331
E356
  5
E356
331
E395
  5
E395
331
AE08
  5
AE08
331
E72A
  5
E72A
331
AE47
  5
AE47
331
E3CC
  5
E3CC
331
E6C9
  5
E6C9
331
E413
  5
E413
331
E35E
  5
E35E
331
AE10
  5
AE10
331
E39D
  5
E39D
331
E44A
  5
E44A
331
E452
  5
E452
331
E6E1
  5
E6E1
331
E3A5
  5
E3A5
331
E3DC
  5
E3DC
331
E366
  5
E366
331
E41B
  5
E41B
331
A1F2
  5
A1F2
331
AD21
  5
AD21
331
A1BB
  5
A1BB
331
AD88
  5
AD88
331
AD90
  5
AD90
331
A1C3
  5
A1C3
331
A1FA
  5
A1FA
331
ADE7
  5
ADE7
331
ADEF
  5
ADEF
331
A1CB
  5
A1CB
331
A202
  5
A202
331
A18C
  5
A18C
331
ADF7
  5
ADF7
331
A194
  5
A194
331
ADA8
  5
ADA8
331
E732
  5
E732
331
E73A
  5
E73A
331
AE18
  5
AE18
331
E423
  5
E423
331
E45A
  5
E45A
331
E3AD
  5
E3AD
331
E3E4
  5
E3E4
331
E6E9
  5
E6E9
331
AE20
  5
AE20
331
E742
  5
E742
331
E36E
  5
E36E
331
E42B
  5
E42B
331
E462
  5
E462
331
E376
  5
E376
331
AE28
  5
AE28
331
E74A
  5
E74A
331
E3B5
  5
E3B5
331
E3EC
  5
E3EC
331
E701
  5
E701
331
E3F4
  5
E3F4
331
E433
  5
E433
331
E347
  5
E347
331
E37E
  5
E37E
331
AE30
  5
AE30
331
E3BD
  5
E3BD
331
E3FC
  5
E3FC
331
E386
  5
E386
331
E6AA
  5
E6AA
331
ACFA
  5
ACFA
331
A19C
  5
A19C
331
A1D3
  5
A1D3
331
ADB0
  5
ADB0
331
AD71
  5
AD71
331
A1A4
  5
A1A4
331
A1DB
  5
A1DB
331
ADC8
  5
ADC8
331
ADD0
  5
ADD0
331
A1E3
  5
A1E3
331
AD12
  5
AD12
331
A1AC
  5
A1AC
331
AD79
  5
AD79
331
ADD8
  5
ADD8
331
AD81
  5
AD81
331
A1B4
  5
A1B4
331
A1EB
  5
A1EB
331
AD1A
  5
AD1A
331
E772
  5
E772
331
ADF9
  5
ADF9
331
EAA9
  5
EAA6
331
AE38
  5
AE38
331
E713
  5
E713
331
E77A
  5
E77A
331
E6B2
  5
E6B2
331
E3C5
  5
E3C5
331
E404
  5
E404
331
AE40
  5
AE40
331
E34F
  5
E34F
331
AE01
  5
AE01
331
E38E
  5
E38E
331
E43B
  5
E43B
331
E443
  5
E443
331
E396
  5
E396
331
E3CD
  5
E3CD
331
AE48
  5
AE48
331
E357
  5
E357
331
E40C
  5
E40C
331
E72B
  5
E72B
331
AE09
  5
AE09
331
E44B
  5
E44B
331
E6CA
  5
E6CA
331
E39E
  5
E39E
331
E3D5
  5
E3D5
331
AE11
  5
AE11
331
AFF0
  5
AFF0
331
E35F
  5
E35F
331
E414
  5
E414
331
E41C
  5
E41C
331
E453
  5
E453
331
E367
  5
E367
331
E3A6
  5
E3A6
331
E3DD
  5
E3DD
331
E6E2
  5
E6E2
331
ADE0
  5
ADE0
331
AD22
  5
AD22
331
AD89
  5
AD89
331
A1BC
  5
A1BC
331
A1F3
  5
A1F3
331
ADE8
  5
ADE8
331
AD91
  5
AD91
331
A1C4
  5
A1C4
331
A1FB
  5
A1FB
331
A203
  5
A203
331
ADF0
  5
ADF0
331
A18D
  5
A18D
331
A1CC
  5
A1CC
331
ADA9
  5
ADA9
331
A195
  5
A195
331
E733
  5
E733
331
AE19
  5
AE19
331
E73B
  5
E73B
331
E6EA
  5
E6EA
331
E3E5
  5
E3E5
331
E424
  5
E424
331
E45B
  5
E45B
331
E0B0
  5
E0B0
331
E36F
  5
E36F
331
AE21
  5
AE21
331
E743
  5
E743
331
E3AE
  5
E3AE
331
E463
  5
E463
331
E3B6
  5
E3B6
331
E3ED
  5
E3ED
331
E377
  5
E377
331
E42C
  5
E42C
331
E74B
  5
E74B
331
AE29
  5
AE29
331
E434
  5
E434
331
E3BE
  5
E3BE
331
E3F5
  5
E3F5
331
E702
  5
E702
331
AE31
  5
AE31
331
E37F
  5
E37F
331
E6AB
  5
E6AB
331
E387
  5
E387
331
E3FD
  5
E3FD
331
ADB1
  5
ADB1
331
A1D4
  5
A1D4
331
ACFB
  5
ACFB
331
A19D
  5
A19D
331
AD72
  5
AD72
331
A1A5
  5
A1A5
331
A1DC
  5
A1DC
331
ADC9
  5
ADC9
331
AD13
  5
AD13
331
AD7A
  5
AD7A
331
A1AD
  5
A1AD
331
A1E4
  5
A1E4
331
ADD1
  5
ADD1
331
ADD9
  5
ADD9
331
AD1B
  5
AD1B
331
AD82
  5
AD82
331
A1B5
  5
A1B5
331
A1EC
  5
A1EC
331
E773
  5
E773
331
EAA2
  5
EAA2
331
ADFA
  5
ADFA
331
EAAA
  5
EAAA
331
AE39
  5
AE39
331
E77B
  5
E77B
331
E348
  5
E348
331
E405
  5
E405
331
E43C
  5
E43C
331
E3C6
  5
E3C6
331
E6B3
  5
E6B3
331
AE02
  5
AE02
331
EAB2
  5
EAB2
331
AE41
  5
AE41
331
E793
  5
E793
331
E350
  5
E350
331
E40D
  5
E40D
331
E444
  5
E444
331
E358
  5
E358
331
AE0A
  5
AE0A
331
E397
  5
E397
331
E72C
  5
E72C
331
E3CE
  5
E3CE
331
E6CB
  5
E6CB
331
E3D6
  5
E3D6
331
E415
  5
E415
331
AFF1
  5
AFF1
331
E360
  5
E360
331
AE12
  5
AE12
331
E39F
  5
E39F
331
E44C
  5
E44C
331
E454
  5
E454
331
E6E3
  5
E6E3
331
E3A7
  5
E3A7
331
E3DE
  5
E3DE
331
E41D
  5
E41D
331
ADE1
  5
ADE1
331
A1F4
  5
A1F4
331
AD23
  5
AD23
331
A1BD
  5
A1BD
331
AD8A
  5
AD8A
331
ADE9
  5
ADE9
331
AD92
  5
AD92
331
A1C5
  5
A1C5
331
A1FC
  5
A1FC
331
AD63
  5
AD63
331
ADF1
  5
ADF1
331
A1CD
  5
A1CD
331
A18E
  5
A18E
331
ADAA
  5
ADAA
331
A196
  5
A196
331
ACF4
  5
ACF4
331
E734
  5
E734
331
E368
  5
E368
331
E73C
  5
E73C
331
AE1A
  5
AE1A
331
E425
  5
E425
331
E45C
  5
E45C
331
E3AF
  5
E3AF
331
E3E6
  5
E3E6
331
E6EB
  5
E6EB
331
AE22
  5
AE22
331
E744
  5
E744
331
E370
  5
E370
331
E42D
  5
E42D
331
E464
  5
E464
331
E378
  5
E378
331
E74C
  5
E74C
331
E3B7
  5
E3B7
331
E3EE
  5
E3EE
331
E703
  5
E703
331
E3F6
  5
E3F6
331
E435
  5
E435
331
E380
  5
E380
331
AE32
  5
AE32
331
E3BF
  5
E3BF
331
E6AC
  5
E6AC
331
E3FE
  5
E3FE
331
ACFC
  5
ACFC
331
A19E
  5
A19E
331
A1D5
  5
A1D5
331
ADCA
  5
ADCA
331
A1DD
  5
A1DD
331
A1A6
  5
A1A6
331
AD73
  5
AD73
331
ADD2
  5
ADD2
331
A1E5
  5
A1E5
331
AD14
  5
AD14
331
A1AE
  5
A1AE
331
AD7B
  5
AD7B
331
ADDA
  5
ADDA
331
AD83
  5
AD83
331
A1B6
  5
A1B6
331
A1ED
  5
A1ED
331
EAA3
  5
EAA5
331
E774
  5
E774
331
E349
  5
E349
331
E388
  5
E388
331
ADFB
  5
ADFB
331
E77C
  5
E77C
331
EAAB
  5
EAAD
331
AE3A
  5
AE3A
331
E3C7
  5
E3C7
331
AE42
  5
AE42
331
E351
  5
E351
331
E406
  5
E406
331
E794
  5
E794
331
AE03
  5
AE03
331
E725
  5
E725
331
E43D
  5
E43D
331
E445
  5
E445
331
E6C4
  5
E6C4
331
E398
  5
E398
331
E3CF
  5
E3CF
331
AE0B
  5
AE0B
331
E72D
  5
E72D
331
E359
  5
E359
331
E40E
  5
E40E
331
E416
  5
E416
331
E44D
  5
E44D
331
E3A0
  5
E3A0
331
E3D7
  5
E3D7
331
E6CC
  5
E6CC
331
AE13
  5
AE13
331
AFF2
  5
AFF2
331
E361
  5
E361
331
E41E
  5
E41E
331
E455
  5
E455
331
E3DF
  5
E3DF
331
E6E4
  5
E6E4
331
ADE2
  5
ADE2
331
AD24
  5
AD24
331
AD8B
  5
AD8B
331
A1BE
  5
A1BE
331
A1F5
  5
A1F5
331
ADEA
  5
ADEA
331
AD93
  5
AD93
331
A1C6
  5
A1C6
331
A1FD
  5
A1FD
331
AD64
  5
AD64
331
ADF2
  5
ADF2
331
A18F
  5
A18F
331
A1CE
  5
A1CE
331
ADAB
  5
ADAB
331
ACF5
  5
ACF5
331
A197
  5
A197
331
E735
  5
E735
331
E369
  5
E369
331
AE1B
  5
AE1B
331
E73D
  5
E73D
331
E3A8
  5
E3A8
331
E6EC
  5
E6EC
331
E3B0
  5
E3B0
331
E3E7
  5
E3E7
331
E371
  5
E371
331
E426
  5
E426
331
AE23
  5
AE23
331
E745
  5
E745
331
E45D
  5
E45D
331
E465
  5
E465
331
E3B8
  5
E3B8
331
E3EF
  5
E3EF
331
E74D
  5
E74D
331
E379
  5
E379
331
E42E
  5
E42E
331
E436
  5
E436
331
E3F7
  5
E3F7
331
E704
  5
E704
331
AE33
  5
AE33
331
E381
  5
E381
331
E6AD
  5
E6AD
331
E3FF
  5
E3FF
331
A1D6
  5
A1D6
331
ACFD
  5
ACFD
331
A19F
  5
A19F
331
AD74
  5
AD74
331
A1A7
  5
A1A7
331
A1DE
  5
A1DE
331
ADCB
  5
ADCB
331
AD15
  5
AD15
331
AD7C
  5
AD7C
331
A1AF
  5
A1AF
331
A1E6
  5
A1E6
331
ADD3
  5
ADD3
331
ADDB
  5
ADDB
331
A1EE
  5
A1EE
331
AD1D
  5
AD1D
331
A1B7
  5
A1B7
331
AD84
  5
AD84
331
E775
  5
E775
331
EAA4
  5
EAA9
331
E389
  5
E389
331
E3C0
  5
E3C0
331
ADFC
  5
ADFC
331
EAAC
  5
EAB0
331
AE3B
  5
AE3B
331
E77D
  5
E77D
331
E34A
  5
E34A
331
E407
  5
E407
331
E43E
  5
E43E
331
E352
  5
E352
331
AE04
  5
AE04
331
AE43
  5
AE43
331
E3C8
  5
E3C8
331
E726
  5
E726
331
E795
  5
E795
331
E6C5
  5
E6C5
331
E40F
  5
E40F
331
E446
  5
E446
331
E35A
  5
E35A
331
AE0C
  5
AE0C
331
E399
  5
E399
331
E72E
  5
E72E
331
E3D0
  5
E3D0
331
E6CD
  5
E6CD
331
E3A1
  5
E3A1
331
E3D8
  5
E3D8
331
AFF3
  5
AFF3
331
E362
  5
E362
331
E417
  5
E417
331
AE14
  5
AE14
331
E44E
  5
E44E
331
E41F
  5
E41F
331
E456
  5
E456
331
E6E5
  5
E6E5
331
ADE3
  5
ADE3
331
A1F6
  5
A1F6
331
A1BF
  5
A1BF
331
AD8C
  5
AD8C
331
ADEB
  5
ADEB
331
AD94
  5
AD94
331
A1C7
  5
A1C7
331
A1FE
  5
A1FE
331
AD3D
  5
AD3D
331
AD65
  5
AD65
331
ADF3
  5
ADF3
331
A190
  5
A190
331
A1CF
  5
A1CF
331
ADAC
  5
ADAC
331
ACF6
  5
ACF6
331
E736
  5
E736
331
E3A9
  5
E3A9
331
E3E0
  5
E3E0
331
AE1C
  5
AE1C
331
E73E
  5
E73E
331
E36A
  5
E36A
331
E427
  5
E427
331
E45E
  5
E45E
331
E3B1
  5
E3B1
331
E3E8
  5
E3E8
331
AE24
  5
AE24
331
E746
  5
E746
331
E372
  5
E372
331
E42F
  5
E42F
331
E466
  5
E466
331
E343
  5
E343
331
E37A
  5
E37A
331
AE2C
  5
AE2C
331
E74E
  5
E74E
331
E3B9
  5
E3B9
331
E3F0
  5
E3F0
331
E705
  5
E705
331
E3F8
  5
E3F8
331
E382
  5
E382
331
E437
  5
E437
331
AE34
  5
AE34
331
E6AE
  5
E6AE
331
A198
  5
A198
331
AD6D
  5
AD6D
331
A1A0
  5
A1A0
331
A1D7
  5
A1D7
331
ADCC
  5
ADCC
331
A1DF
  5
A1DF
331
AD0E
  5
AD0E
331
A1A8
  5
A1A8
331
AD75
  5
AD75
331
ADD4
  5
ADD4
331
A1E7
  5
A1E7
331
AD16
  5
AD16
331
A1B0
  5
A1B0
331
AD7D
  5
AD7D
331
ADDC
  5
ADDC
331
AD85
  5
AD85
331
A1EF
  5
A1EF
331
AD1E
  5
AD1E
331
EAA5
  5
EAAC
331
E776
  5
E776
331
E3C1
  5
E3C1
331
E400
  5
E400
331
E34B
  5
E34B
331
E38A
  5
E38A
331
E77E
  5
E77E
331
ADFD
  5
ADFD
331
AE3C
  5
AE3C
331
E3C9
  5
E3C9
331
AE44
  5
AE44
331
E353
  5
E353
331
E408
  5
E408
331
AE05
  5
AE05
331
E727
  5
E727
331
E43F
  5
E43F
331
E447
  5
E447
331
E6C6
  5
E6C6
331
E39A
  5
E39A
331
E3D1
  5
E3D1
331
AE0D
  5
AE0D
331
E35B
  5
E35B
331
E72F
  5
E72F
331
E79E
  5
E79E
331
E410
  5
E410
331
E418
  5
E418
331
E44F
  5
E44F
331
E363
  5
E363
331
E3A2
  5
E3A2
331
E3D9
  5
E3D9
331
E6CE
  5
E6CE
331
AE15
  5
AE15
331
AFF4
  5
AFF4
331
E6E6
  5
E6E6
331
E457
  5
E457
331
A1B8
  5
A1B8
331
ADE4
  5
ADE4
331
AD8D
  5
AD8D
331
A1C0
  5
A1C0
331
A1F7
  5
A1F7
331
A1FF
  5
A1FF
331
ADEC
  5
ADEC
331
A1C8
  5
A1C8
331
ADF4
  5
ADF4
331
A191
  5
A191
331
AD66
  5
AD66
331
ADA5
  5
ADA5
331
ADAD
  5
ADAD
331
ACF7
  5
ACF7
331
E737
  5
E737
331
E420
  5
E420
331
E36B
  5
E36B
331
AE1D
  5
AE1D
331
E73F
  5
E73F
331
E3AA
  5
E3AA
331
E3E1
  5
E3E1
331
E3B2
  5
E3B2
331
E3E9
  5
E3E9
331
E373
  5
E373
331
E428
  5
E428
331
AE25
  5
AE25
331
E747
  5
E747
331
E45F
  5
E45F
331
E430
  5
E430
331
E467
  5
E467
331
E3BA
  5
E3BA
331
E3F1
  5
E3F1
331
E6FE
  5
E6FE
331
AE2D
  5
AE2D
331
E74F
  5
E74F
331
E344
  5
E344
331
E37B
  5
E37B
331
E3F9
  5
E3F9
331
E706
  5
E706
331
AE35
  5
AE35
331
E383
  5
E383
331
E6AF
  5
E6AF
331
A1D0
  5
A1D0
331
A199
  5
A199
331
AD6E
  5
AD6E
331
A1A1
  5
A1A1
331
A1D8
  5
A1D8
331
AD76
  5
AD76
331
ADCD
  5
ADCD
331
A1A9
  5
A1A9
331
A1E0
  5
A1E0
331
AD0F
  5
AD0F
331
AD17
  5
AD17
331
AD7E
  5
AD7E
331
A1B1
  5
A1B1
331
A1E8
  5
A1E8
331
ADDD
  5
ADDD
331
AD1F
  5
AD1F
331
AD86
  5
AD86
331
E708
  5
E708
331
E777
  5
E777
331
EAA6
  5
EAAF
331
E438
  5
E438
331
E38B
  5
E38B
331
E3C2
  5
E3C2
331
ADFE
  5
ADFE
331
AE3D
  5
AE3D
331
E34C
  5
E34C
331
E401
  5
E401
331
E409
  5
E409
331
E440
  5
E440
331
E354
  5
E354
331
AE06
  5
AE06
331
E728
  5
E728
331
AE45
  5
AE45
331
E3CA
  5
E3CA
331
E6C7
  5
E6C7
331
E3D2
  5
E3D2
331
E411
  5
E411
331
E35C
  5
E35C
331
E79F
  5
E79F
331
AE0E
  5
AE0E
331
E39B
  5
E39B
331
E448
  5
E448
331
E3A3
  5
E3A3
331
E3DA
  5
E3DA
331
AFF5
  5
AFF5
331
E364
  5
E364
331
AE16
  5
AE16
331
E419
  5
E419
331
E450
  5
E450
331
E6E7
  5
E6E7
331
A1F0
  5
A1F0
331
A1B9
  5
A1B9
  0
XRECORD
  5
3D91
102
{ACAD_REACTORS
330
3D20
102
}
330
3D20
100
AcDbXrecord
280
     1
340
1A
  0
SORTENTSTABLE
  5
69B9
102
{ACAD_REACTORS
330
69B8
102
}
330
69B8
100
AcDbSortentsTable
330
69B7
  0
SORTENTSTABLE
  5
69CD
102
{ACAD_REACTORS
330
69CC
102
}
330
69CC
100
AcDbSortentsTable
330
69CB
  0
GROUP
  5
4143
102
{ACAD_REACTORS
330
D
102
}
330
D
100
AcDbGroup
300

 70
     1
 71
     1
  0
GROUP
  5
4378
102
{ACAD_REACTORS
330
D
102
}
330
D
100
AcDbGroup
300

 70
     1
 71
     1
  0
GROUP
  5
43BF
102
{ACAD_REACTORS
330
D
102
}
330
D
100
AcDbGroup
300

 70
     1
 71
     1
  0
GROUP
  5
423A
102
{ACAD_REACTORS
330
D
102
}
330
D
100
AcDbGroup
300

 70
     1
 71
     1
  0
GROUP
  5
414C
102
{ACAD_REACTORS
330
D
102
}
330
D
100
AcDbGroup
300

 70
     1
 71
     1
  0
GROUP
  5
579E
102
{ACAD_REACTORS
330
D
102
}
330
D
100
AcDbGroup
300

 70
     1
 71
     1
  0
GROUP
  5
4235
102
{ACAD_REACTORS
330
D
102
}
330
D
100
AcDbGroup
300

 70
     1
 71
     1
  0
GROUP
  5
437C
102
{ACAD_REACTORS
330
D
102
}
330
D
100
AcDbGroup
300

 70
     1
 71
     1
  0
GROUP
  5
414F
102
{ACAD_REACTORS
330
D
102
}
330
D
100
AcDbGroup
300

 70
     1
 71
     1
  0
GROUP
  5
437E
102
{ACAD_REACTORS
330
D
102
}
330
D
100
AcDbGroup
300

 70
     1
 71
     1
  0
GROUP
  5
4149
102
{ACAD_REACTORS
330
D
102
}
330
D
100
AcDbGroup
300

 70
     1
 71
     1
  0
GROUP
  5
4241
102
{ACAD_REACTORS
330
D
102
}
330
D
100
AcDbGroup
300

 70
     1
 71
     1
  0
GROUP
  5
4239
102
{ACAD_REACTORS
330
D
102
}
330
D
100
AcDbGroup
300

 70
     1
 71
     1
  0
GROUP
  5
4237
102
{ACAD_REACTORS
330
D
102
}
330
D
100
AcDbGroup
300

 70
     1
 71
     1
  0
GROUP
  5
423C
102
{ACAD_REACTORS
330
D
102
}
330
D
100
AcDbGroup
300

 70
     1
 71
     1
  0
GROUP
  5
43B6
102
{ACAD_REACTORS
330
D
102
}
330
D
100
AcDbGroup
300

 70
     1
 71
     1
  0
GROUP
  5
423B
102
{ACAD_REACTORS
330
D
102
}
330
D
100
AcDbGroup
300

 70
     1
 71
     1
  0
GROUP
  5
43B8
102
{ACAD_REACTORS
330
D
102
}
330
D
100
AcDbGroup
300

 70
     1
 71
     1
  0
GROUP
  5
576A
102
{ACAD_REACTORS
330
D
102
}
330
D
100
AcDbGroup
300

 70
     1
 71
     1
  0
GROUP
  5
4240
102
{ACAD_REACTORS
330
D
102
}
330
D
100
AcDbGroup
300

 70
     1
 71
     1
  0
GROUP
  5
423E
102
{ACAD_REACTORS
330
D
102
}
330
D
100
AcDbGroup
300

 70
     1
 71
     1
  0
GROUP
  5
4374
102
{ACAD_REACTORS
330
D
102
}
330
D
100
AcDbGroup
300

 70
     1
 71
     1
  0
GROUP
  5
43BB
102
{ACAD_REACTORS
330
D
102
}
330
D
100
AcDbGroup
300

 70
     1
 71
     1
  0
GROUP
  5
4373
102
{ACAD_REACTORS
330
D
102
}
330
D
100
AcDbGroup
300

 70
     1
 71
     1
  0
GROUP
  5
43BD
102
{ACAD_REACTORS
330
D
102
}
330
D
100
AcDbGroup
300

 70
     1
 71
     1
  0
GROUP
  5
4236
102
{ACAD_REACTORS
330
D
102
}
330
D
100
AcDbGroup
300

 70
     1
 71
     1
  0
GROUP
  5
4377
102
{ACAD_REACTORS
330
D
102
}
330
D
100
AcDbGroup
300

 70
     1
 71
     1
  0
GROUP
  5
4145
102
{ACAD_REACTORS
330
D
102
}
330
D
100
AcDbGroup
300

 70
     1
 71
     1
  0
GROUP
  5
437A
102
{ACAD_REACTORS
330
D
102
}
330
D
100
AcDbGroup
300

 70
     1
 71
     1
  0
GROUP
  5
4379
102
{ACAD_REACTORS
330
D
102
}
330
D
100
AcDbGroup
300

 70
     1
 71
     1
  0
GROUP
  5
43C1
102
{ACAD_REACTORS
330
D
102
}
330
D
100
AcDbGroup
300

 70
     1
 71
     1
  0
GROUP
  5
423D
102
{ACAD_REACTORS
330
D
102
}
330
D
100
AcDbGroup
300

 70
     1
 71
     1
  0
GROUP
  5
437D
102
{ACAD_REACTORS
330
D
102
}
330
D
100
AcDbGroup
300

 70
     1
 71
     1
  0
GROUP
  5
414D
102
{ACAD_REACTORS
330
D
102
}
330
D
100
AcDbGroup
300

 70
     1
 71
     1
  0
GROUP
  5
4146
102
{ACAD_REACTORS
330
D
102
}
330
D
100
AcDbGroup
300

 70
     1
 71
     1
  0
GROUP
  5
437F
102
{ACAD_REACTORS
330
D
102
}
330
D
100
AcDbGroup
300

 70
     1
 71
     1
  0
GROUP
  5
414B
102
{ACAD_REACTORS
330
D
102
}
330
D
100
AcDbGroup
300

 70
     1
 71
     1
  0
GROUP
  5
4375
102
{ACAD_REACTORS
330
D
102
}
330
D
100
AcDbGroup
300

 70
     1
 71
     1
  0
GROUP
  5
43B7
102
{ACAD_REACTORS
330
D
102
}
330
D
100
AcDbGroup
300

 70
     1
 71
     1
  0
GROUP
  5
414E
102
{ACAD_REACTORS
330
D
102
}
330
D
100
AcDbGroup
300

 70
     1
 71
     1
  0
GROUP
  5
43B9
102
{ACAD_REACTORS
330
D
102
}
330
D
100
AcDbGroup
300

 70
     1
 71
     1
  0
GROUP
  5
57D9
102
{ACAD_REACTORS
330
D
102
}
330
D
100
AcDbGroup
300

 70
     1
 71
     1
  0
GROUP
  5
437B
102
{ACAD_REACTORS
330
D
102
}
330
D
100
AcDbGroup
300

 70
     1
 71
     1
  0
GROUP
  5
43BC
102
{ACAD_REACTORS
330
D
102
}
330
D
100
AcDbGroup
300

 70
     1
 71
     1
  0
GROUP
  5
4144
102
{ACAD_REACTORS
330
D
102
}
330
D
100
AcDbGroup
300

 70
     1
 71
     1
  0
GROUP
  5
43BE
102
{ACAD_REACTORS
330
D
102
}
330
D
100
AcDbGroup
300

 70
     1
 71
     1
  0
GROUP
  5
4238
102
{ACAD_REACTORS
330
D
102
}
330
D
100
AcDbGroup
300

 70
     1
 71
     1
  0
GROUP
  5
43B5
102
{ACAD_REACTORS
330
D
102
}
330
D
100
AcDbGroup
300

 70
     1
 71
     1
  0
GROUP
  5
43C0
102
{ACAD_REACTORS
330
D
102
}
330
D
100
AcDbGroup
300

 70
     1
 71
     1
  0
GROUP
  5
4148
102
{ACAD_REACTORS
330
D
102
}
330
D
100
AcDbGroup
300

 70
     1
 71
     1
  0
GROUP
  5
423F
102
{ACAD_REACTORS
330
D
102
}
330
D
100
AcDbGroup
300

 70
     1
 71
     1
  0
GROUP
  5
43BA
102
{ACAD_REACTORS
330
D
102
}
330
D
100
AcDbGroup
300

 70
     1
 71
     1
  0
GROUP
  5
414A
102
{ACAD_REACTORS
330
D
102
}
330
D
100
AcDbGroup
300

 70
     1
 71
     1
  0
GROUP
  5
5691
102
{ACAD_REACTORS
330
D
102
}
330
D
100
AcDbGroup
300

 70
     1
 71
     1
  0
GROUP
  5
4376
102
{ACAD_REACTORS
330
D
102
}
330
D
100
AcDbGroup
300

 70
     1
 71
     1
  0
GROUP
  5
4147
102
{ACAD_REACTORS
330
D
102
}
330
D
100
AcDbGroup
300

 70
     1
 71
     1
  0
LAYOUT
  5
21
102
{ACAD_XDICTIONARY
360
EAD2
102
}
102
{ACAD_REACTORS
330
19
102
}
330
19
100
AcDbPlotSettings
  1

  2
HP 2200
  4

  6

 40
0.0
 41
0.0
 42
0.0
 43
0.0
 44
0.0
 45
0.0
 46
0.0
 47
0.0
 48
0.0
 49
0.0
140
0.0
141
0.0
142
1.0
143
1.0
 70
  1712
 72
     0
 73
     0
 74
     0
  7
AAA.ctb
 75
     0
147
1.0
148
0.0
149
0.0
100
AcDbLayout
  1
Model
 70
     1
 71
     0
 10
0.0
 20
0.0
 11
12.0
 21
9.0
 12
0.0
 22
0.0
 32
0.0
 14
0.0
 24
0.0
 34
0.0
 15
0.0
 25
0.0
 35
0.0
146
0.0
 13
0.0
 23
0.0
 33
0.0
 16
1.0
 26
0.0
 36
0.0
 17
0.0
 27
1.0
 37
0.0
 76
     0
330
1E
  0
LAYOUT
  5
1D
102
{ACAD_XDICTIONARY
360
EAD0
102
}
102
{ACAD_REACTORS
330
19
102
}
330
19
100
AcDbPlotSettings
  1

  2
HP 2200
  4

  6

 40
0.0
 41
0.0
 42
0.0
 43
0.0
 44
0.0
 45
0.0
 46
0.0
 47
0.0
 48
0.0
 49
0.0
140
0.0
141
0.0
142
1.0
143
1.0
 70
   688
 72
     0
 73
     0
 74
     5
  7
AAA.ctb
 75
    16
147
1.0
148
0.0
149
0.0
100
AcDbLayout
  1
配置1
 70
     0
 71
     1
 10
0.0
 20
0.0
 11
12.0
 21
9.0
 12
0.0
 22
0.0
 32
0.0
 14
1.000000000000000E+20
 24
1.000000000000000E+20
 34
1.000000000000000E+20
 15
-1.000000000000000E+20
 25
-1.000000000000000E+20
 35
-1.000000000000000E+20
146
0.0
 13
0.0
 23
0.0
 33
0.0
 16
1.0
 26
0.0
 36
0.0
 17
0.0
 27
1.0
 37
0.0
 76
     0
330
1A
  0
MLINESTYLE
  5
17
102
{ACAD_REACTORS
330
16
102
}
330
16
100
AcDbMlineStyle
  2
STANDARD
 70
     0
  3

 62
   256
 51
90.0
 52
90.0
 71
     2
 49
0.5
 62
   256
  6
BYLAYER
 49
-0.5
 62
   256
  6
BYLAYER
  0
PLOTSETTINGS
  5
4150
102
{ACAD_XDICTIONARY
360
EAD4
102
}
102
{ACAD_REACTORS
330
18
102
}
330
18
100
AcDbPlotSettings
  1
LANSRO
  2
\\1260\HP2200
  4
A4
  6

 40
6.043083190917968
 41
6.762742042541503
 42
7.736419677734375
 43
5.027069091796875
 44
209.9733276367187
 45
296.9683227539062
 46
5.15
 47
0.0
 48
0.0
 49
0.0
140
0.0
141
0.0
142
1.0
143
0.8829829263240881
 70
  1716
 72
     1
 73
     1
 74
     0
  7
AAA.ctb
 75
     0
147
1.132524729739748
148
-132.297014905803
149
-71.78507365635891
  0
ACDBPLACEHOLDER
  5
F
102
{ACAD_REACTORS
330
E
102
}
330
E
  0
ACAD_PROXY_OBJECT
  5
E7A4
102
{ACAD_REACTORS
330
E7A3
102
}
330
E7A3
100
AcDbProxyObject
 90
      499
 91
      514
 95
   983063
 70
     0
 93
     1841
310
4214DD185B99185C9928B81E85EB51B8AE3F2E07A17AD46E2B8FC02B5E8DC0F42B1CFD028000000C1008070000C3001FDFF8000000C1003FBFF000000182007F7FE00000030400FEFFC00000060801FDFF8000000C1003FBFF00000018200000000000000681FA0B0000001820100E000186003FBFF000000182007F7FE000
310
00030400FEFFC00000060801FDFF8000000C1003FBFF000000182007F7FE000000304000AD7A3703D0AC73F4160000003040201C00030C007F7FE00000030400FEFFC00000060801FDFF8000000C1003FBFF000000182007F7FE00000030400FEFFC000000608063
340
11
340
11
340
11
 94
        0
1001
ACAD
1000
AcRTDxfName
1000
TABLESTYLE
  0
XRECORD
  5
EACF
102
{ACAD_REACTORS
330
EACD
102
}
330
EACD
100
AcDbXrecord
280
     1
340
3D97
  0
XRECORD
  5
EACE
102
{ACAD_REACTORS
330
EACD
102
}
330
EACD
100
AcDbXrecord
280
     1
340
3D96
  0
DICTIONARYVAR
  5
E8F8
102
{ACAD_REACTORS
330
3E63
102
}
330
3E63
100
DictionaryVariables
280
     0
  1
STANDARD
  0
DICTIONARYVAR
  5
3E64
102
{ACAD_REACTORS
330
3E63
102
}
330
3E63
100
DictionaryVariables
280
     0
  1
1
  0
DICTIONARYVAR
  5
3E65
102
{ACAD_REACTORS
330
3E63
102
}
330
3E63
100
DictionaryVariables
280
     0
  1

  0
DICTIONARY
  5
EAD2
330
21
100
AcDbDictionary
280
     1
281
     1
  3
ACAD_XREC_ROUNDTRIP
360
EAD3
  0
DICTIONARY
  5
EAD0
330
1D
100
AcDbDictionary
280
     1
281
     1
  3
ACAD_XREC_ROUNDTRIP
360
EAD1
  0
DICTIONARY
  5
EAD4
330
4150
100
AcDbDictionary
280
     1
281
     1
  3
ACAD_XREC_ROUNDTRIP
360
EAD5
  0
XRECORD
  5
EAD3
102
{ACAD_REACTORS
330
EAD2
102
}
330
EAD2
100
AcDbXrecord
280
     1
102
SHADEPLOT
 70
     0
102
SHADEPLOTRESLEVEL
 70
     2
102
SHADEPLOTCUSTOMDPI
 70
   300
  0
XRECORD
  5
EAD1
102
{ACAD_REACTORS
330
EAD0
102
}
330
EAD0
100
AcDbXrecord
280
     1
102
SHADEPLOT
 70
     0
102
SHADEPLOTRESLEVEL
 70
     2
102
SHADEPLOTCUSTOMDPI
 70
   300
  0
XRECORD
  5
EAD5
102
{ACAD_REACTORS
330
EAD4
102
}
330
EAD4
100
AcDbXrecord
280
     1
102
SHADEPLOT
 70
     0
102
SHADEPLOTRESLEVEL
 70
     2
102
SHADEPLOTCUSTOMDPI
 70
   300
  0
ENDSEC
  0
EOF
