ISO-10303-21;
HEADER;
FILE_DESCRIPTION(('STEP AP203'),'1');
FILE_NAME('C:/TPO v2/SharedFS/Outgoing/rail_gs10wv-2500.stp','2015-11-01T15:31:02',('TraceParts'),('TraceParts S.A.'),'Spatial InterOp 3D',' ',' ');
FILE_SCHEMA(('CONFIG_CONTROL_DESIGN'));
ENDSEC;
DATA;
#1=DESIGN_CONTEXT('',#27,'design');
#2=APPLICATION_PROTOCOL_DEFINITION('INTERNATIONAL STANDARD','config_control_design',1994,#27);
#3=PRODUCT_CATEGORY_RELATIONSHIP('NONE','NONE',#28,#29);
#4=DATE_AND_TIME(#30,#31);
#5=DATE_TIME_ROLE('creation_date');
#6=DATE_TIME_ROLE('classification_date');
#7=PERSON_AND_ORGANIZATION_ROLE('creator');
#8=PERSON_AND_ORGANIZATION_ROLE('design_supplier');
#9=PERSON_AND_ORGANIZATION_ROLE('classification_officer');
#10=PERSON_AND_ORGANIZATION_ROLE('design_owner');
#11=APPROVAL_PERSON_ORGANIZATION(#32,#33,#34);
#12=APPROVAL_DATE_TIME(#4,#33);
#13=CC_DESIGN_APPROVAL(#33,(#35,#36,#37));
#14=CC_DESIGN_DATE_AND_TIME_ASSIGNMENT(#4,#5,(#37));
#15=CC_DESIGN_DATE_AND_TIME_ASSIGNMENT(#4,#6,(#35));
#16=CC_DESIGN_PERSON_AND_ORGANIZATION_ASSIGNMENT(#32,#10,(#38));
#17=CC_DESIGN_PERSON_AND_ORGANIZATION_ASSIGNMENT(#32,#7,(#37));
#18=CC_DESIGN_PERSON_AND_ORGANIZATION_ASSIGNMENT(#32,#7,(#36));
#19=CC_DESIGN_PERSON_AND_ORGANIZATION_ASSIGNMENT(#32,#8,(#36));
#20=CC_DESIGN_SECURITY_CLASSIFICATION(#35,(#36));
#21=CC_DESIGN_PERSON_AND_ORGANIZATION_ASSIGNMENT(#32,#9,(#35));
#22=SHAPE_DEFINITION_REPRESENTATION(#39,#40);
#23= (GEOMETRIC_REPRESENTATION_CONTEXT(3)GLOBAL_UNCERTAINTY_ASSIGNED_CONTEXT((#43))GLOBAL_UNIT_ASSIGNED_CONTEXT((#45,#46,#47))REPRESENTATION_CONTEXT('NONE','WORKSPACE'));
#27=APPLICATION_CONTEXT('CONFIGURATION CONTROLLED 3D DESIGNS OF MECHANICAL PARTS AND ASSEMBLIES');
#28=PRODUCT_CATEGORY('part','NONE');
#29=PRODUCT_RELATED_PRODUCT_CATEGORY('detail',' ',(#38));
#30=CALENDAR_DATE(2015,1,10);
#31=LOCAL_TIME(16,31,2.0,#49);
#32=PERSON_AND_ORGANIZATION(#50,#51);
#33=APPROVAL(#52,'SOLID MODEL');
#34=APPROVAL_ROLE('APPROVED');
#35=SECURITY_CLASSIFICATION('','',#53);
#36=PRODUCT_DEFINITION_FORMATION_WITH_SPECIFIED_SOURCE(' ','NONE',#38,.NOT_KNOWN.);
#37=PRODUCT_DEFINITION('NONE','NONE',#36,#1);
#38=PRODUCT('1','1','PART-1-DESC',(#54));
#39=PRODUCT_DEFINITION_SHAPE('NONE','NONE',#37);
#40=ADVANCED_BREP_SHAPE_REPRESENTATION('1',(#55,#56),#23);
#43=UNCERTAINTY_MEASURE_WITH_UNIT(LENGTH_MEASURE(1.0E-006),#45,'','');
#45= (CONVERSION_BASED_UNIT('MILLIMETRE',#59)LENGTH_UNIT()NAMED_UNIT(#62));
#46= (NAMED_UNIT(#64)PLANE_ANGLE_UNIT()SI_UNIT($,.RADIAN.));
#47= (NAMED_UNIT(#64)SOLID_ANGLE_UNIT()SI_UNIT($,.STERADIAN.));
#49=COORDINATED_UNIVERSAL_TIME_OFFSET(1,0,.AHEAD.);
#50=PERSON('','UNSPECIFIED',$,$,$,$);
#51=ORGANIZATION('UNSPECIFIED','UNSPECIFIED','UNSPECIFIED');
#52=APPROVAL_STATUS('approved');
#53=SECURITY_CLASSIFICATION_LEVEL('unclassified');
#54=MECHANICAL_CONTEXT('',#27,'mechanical');
#55=MANIFOLD_SOLID_BREP('1',#70);
#56=AXIS2_PLACEMENT_3D('',#71,#72,#73);
#59=LENGTH_MEASURE_WITH_UNIT(LENGTH_MEASURE(1.0),#74);
#62=DIMENSIONAL_EXPONENTS(1.0,0.0,0.0,0.0,0.0,0.0,0.0);
#64=DIMENSIONAL_EXPONENTS(0.0,0.0,0.0,0.0,0.0,0.0,0.0);
#70=CLOSED_SHELL('',(#75,#76,#77,#78,#79,#80,#81,#82,#83,#84,#85,#86,#87,#88,#89));
#71=CARTESIAN_POINT('',(0.0,0.0,0.0));
#72=DIRECTION('',(0.0,0.0,1.0));
#73=DIRECTION('',(1.0,0.0,0.0));
#74= (NAMED_UNIT(#62)LENGTH_UNIT()SI_UNIT(.MILLI.,.METRE.));
#75=ADVANCED_FACE('',(#91),#92,.T.);
#76=ADVANCED_FACE('',(#93),#94,.T.);
#77=ADVANCED_FACE('',(#95),#96,.T.);
#78=ADVANCED_FACE('',(#97),#98,.T.);
#79=ADVANCED_FACE('',(#99),#100,.T.);
#80=ADVANCED_FACE('',(#101),#102,.F.);
#81=ADVANCED_FACE('',(#103),#104,.T.);
#82=ADVANCED_FACE('',(#105),#106,.T.);
#83=ADVANCED_FACE('',(#107),#108,.T.);
#84=ADVANCED_FACE('',(#109),#110,.T.);
#85=ADVANCED_FACE('',(#111),#112,.T.);
#86=ADVANCED_FACE('',(#113),#114,.T.);
#87=ADVANCED_FACE('',(#115),#116,.T.);
#88=ADVANCED_FACE('',(#117),#118,.T.);
#89=ADVANCED_FACE('',(#119),#120,.T.);
#91=FACE_OUTER_BOUND('',#121,.T.);
#92=CYLINDRICAL_SURFACE('',#122,5.0);
#93=FACE_OUTER_BOUND('',#123,.T.);
#94=PLANE('',#124);
#95=FACE_OUTER_BOUND('',#125,.T.);
#96=PLANE('',#126);
#97=FACE_OUTER_BOUND('',#127,.T.);
#98=PLANE('',#128);
#99=FACE_OUTER_BOUND('',#129,.T.);
#100=PLANE('',#130);
#101=FACE_OUTER_BOUND('',#131,.T.);
#102=PLANE('',#132);
#103=FACE_OUTER_BOUND('',#133,.T.);
#104=CYLINDRICAL_SURFACE('',#134,5.0);
#105=FACE_OUTER_BOUND('',#135,.T.);
#106=PLANE('',#136);
#107=FACE_OUTER_BOUND('',#137,.T.);
#108=PLANE('',#138);
#109=FACE_OUTER_BOUND('',#139,.T.);
#110=PLANE('',#140);
#111=FACE_OUTER_BOUND('',#141,.T.);
#112=CYLINDRICAL_SURFACE('',#142,1.11538461538462);
#113=FACE_OUTER_BOUND('',#143,.T.);
#114=CYLINDRICAL_SURFACE('',#144,0.557692307692308);
#115=FACE_OUTER_BOUND('',#145,.T.);
#116=CYLINDRICAL_SURFACE('',#146,1.11538461538462);
#117=FACE_OUTER_BOUND('',#147,.T.);
#118=PLANE('',#148);
#119=FACE_OUTER_BOUND('',#149,.T.);
#120=PLANE('',#150);
#121=EDGE_LOOP('',(#151,#152,#153,#154));
#122=AXIS2_PLACEMENT_3D('',#155,#156,#157);
#123=EDGE_LOOP('',(#158,#159,#160,#161));
#124=AXIS2_PLACEMENT_3D('',#162,#163,#164);
#125=EDGE_LOOP('',(#165,#166,#167,#168));
#126=AXIS2_PLACEMENT_3D('',#169,#170,#171);
#127=EDGE_LOOP('',(#172,#173,#174,#175));
#128=AXIS2_PLACEMENT_3D('',#176,#177,#178);
#129=EDGE_LOOP('',(#179,#180,#181,#182));
#130=AXIS2_PLACEMENT_3D('',#183,#184,#185);
#131=EDGE_LOOP('',(#186,#187,#188,#189,#190,#191,#192,#193,#194,#195,#196,#197,#198));
#132=AXIS2_PLACEMENT_3D('',#199,#200,#201);
#133=EDGE_LOOP('',(#202,#203,#204,#205));
#134=AXIS2_PLACEMENT_3D('',#206,#207,#208);
#135=EDGE_LOOP('',(#209,#210,#211,#212));
#136=AXIS2_PLACEMENT_3D('',#213,#214,#215);
#137=EDGE_LOOP('',(#216,#217,#218,#219));
#138=AXIS2_PLACEMENT_3D('',#220,#221,#222);
#139=EDGE_LOOP('',(#223,#224,#225,#226));
#140=AXIS2_PLACEMENT_3D('',#227,#228,#229);
#141=EDGE_LOOP('',(#230,#231,#232,#233));
#142=AXIS2_PLACEMENT_3D('',#234,#235,#236);
#143=EDGE_LOOP('',(#237,#238,#239,#240));
#144=AXIS2_PLACEMENT_3D('',#241,#242,#243);
#145=EDGE_LOOP('',(#244,#245,#246,#247));
#146=AXIS2_PLACEMENT_3D('',#248,#249,#250);
#147=EDGE_LOOP('',(#251,#252,#253,#254));
#148=AXIS2_PLACEMENT_3D('',#255,#256,#257);
#149=EDGE_LOOP('',(#258,#259,#260,#261,#262,#263,#264,#265,#266,#267,#268,#269,#270));
#150=AXIS2_PLACEMENT_3D('',#271,#272,#273);
#151=ORIENTED_EDGE('',*,*,#274,.F.);
#152=ORIENTED_EDGE('',*,*,#275,.F.);
#153=ORIENTED_EDGE('',*,*,#276,.F.);
#154=ORIENTED_EDGE('',*,*,#277,.F.);
#155=CARTESIAN_POINT('',(15.5,8.0,1250.0));
#156=DIRECTION('',(0.0,0.0,1.0));
#157=DIRECTION('',(1.0,0.0,0.0));
#158=ORIENTED_EDGE('',*,*,#278,.F.);
#159=ORIENTED_EDGE('',*,*,#279,.T.);
#160=ORIENTED_EDGE('',*,*,#280,.F.);
#161=ORIENTED_EDGE('',*,*,#281,.F.);
#162=CARTESIAN_POINT('',(5.94644660940673,14.3464466094067,1250.0));
#163=DIRECTION('',(0.707106781186548,0.707106781186548,0.0));
#164=DIRECTION('',(0.0,0.0,-1.0));
#165=ORIENTED_EDGE('',*,*,#282,.F.);
#166=ORIENTED_EDGE('',*,*,#283,.F.);
#167=ORIENTED_EDGE('',*,*,#284,.F.);
#168=ORIENTED_EDGE('',*,*,#279,.F.);
#169=CARTESIAN_POINT('',(6.65355339059327,14.3464466094067,1250.0));
#170=DIRECTION('',(-0.707106781186548,0.707106781186548,0.0));
#171=DIRECTION('',(0.0,0.0,1.0));
#172=ORIENTED_EDGE('',*,*,#283,.T.);
#173=ORIENTED_EDGE('',*,*,#285,.T.);
#174=ORIENTED_EDGE('',*,*,#286,.F.);
#175=ORIENTED_EDGE('',*,*,#287,.F.);
#176=CARTESIAN_POINT('',(8.77884615384616,14.5,0.0));
#177=DIRECTION('',(1.15897811353592E-016,1.0,-0.0));
#178=DIRECTION('',(-1.0,1.15897811353592E-016,0.0));
#179=ORIENTED_EDGE('',*,*,#281,.T.);
#180=ORIENTED_EDGE('',*,*,#288,.F.);
#181=ORIENTED_EDGE('',*,*,#289,.T.);
#182=ORIENTED_EDGE('',*,*,#290,.T.);
#183=CARTESIAN_POINT('',(8.77884615384616,14.5,0.0));
#184=DIRECTION('',(1.15897811353592E-016,1.0,-0.0));
#185=DIRECTION('',(-1.0,1.15897811353592E-016,0.0));
#186=ORIENTED_EDGE('',*,*,#280,.T.);
#187=ORIENTED_EDGE('',*,*,#284,.T.);
#188=ORIENTED_EDGE('',*,*,#287,.T.);
#189=ORIENTED_EDGE('',*,*,#291,.F.);
#190=ORIENTED_EDGE('',*,*,#292,.F.);
#191=ORIENTED_EDGE('',*,*,#275,.T.);
#192=ORIENTED_EDGE('',*,*,#293,.T.);
#193=ORIENTED_EDGE('',*,*,#294,.F.);
#194=ORIENTED_EDGE('',*,*,#295,.F.);
#195=ORIENTED_EDGE('',*,*,#296,.F.);
#196=ORIENTED_EDGE('',*,*,#297,.T.);
#197=ORIENTED_EDGE('',*,*,#298,.F.);
#198=ORIENTED_EDGE('',*,*,#288,.T.);
#199=CARTESIAN_POINT('',(8.46661565084454,7.22145689807044,0.0));
#200=DIRECTION('',(0.0,0.0,1.0));
#201=DIRECTION('',(1.0,0.0,0.0));
#202=ORIENTED_EDGE('',*,*,#274,.T.);
#203=ORIENTED_EDGE('',*,*,#299,.F.);
#204=ORIENTED_EDGE('',*,*,#300,.F.);
#205=ORIENTED_EDGE('',*,*,#293,.F.);
#206=CARTESIAN_POINT('',(15.5,8.0,1250.0));
#207=DIRECTION('',(0.0,0.0,1.0));
#208=DIRECTION('',(1.0,0.0,0.0));
#209=ORIENTED_EDGE('',*,*,#300,.T.);
#210=ORIENTED_EDGE('',*,*,#301,.T.);
#211=ORIENTED_EDGE('',*,*,#302,.F.);
#212=ORIENTED_EDGE('',*,*,#294,.T.);
#213=CARTESIAN_POINT('',(17.0,7.52884615384615,0.0));
#214=DIRECTION('',(1.0,0.0,0.0));
#215=DIRECTION('',(0.0,1.0,0.0));
#216=ORIENTED_EDGE('',*,*,#276,.T.);
#217=ORIENTED_EDGE('',*,*,#292,.T.);
#218=ORIENTED_EDGE('',*,*,#303,.T.);
#219=ORIENTED_EDGE('',*,*,#304,.T.);
#220=CARTESIAN_POINT('',(17.0,7.52884615384615,0.0));
#221=DIRECTION('',(1.0,0.0,0.0));
#222=DIRECTION('',(0.0,1.0,0.0));
#223=ORIENTED_EDGE('',*,*,#305,.T.);
#224=ORIENTED_EDGE('',*,*,#306,.F.);
#225=ORIENTED_EDGE('',*,*,#297,.F.);
#226=ORIENTED_EDGE('',*,*,#307,.T.);
#227=CARTESIAN_POINT('',(4.09772126086719E-016,6.69230769230769,0.0));
#228=DIRECTION('',(-1.0,6.12303176911189E-017,0.0));
#229=DIRECTION('',(-6.12303176911189E-017,-1.0,-0.0));
#230=ORIENTED_EDGE('',*,*,#308,.T.);
#231=ORIENTED_EDGE('',*,*,#289,.F.);
#232=ORIENTED_EDGE('',*,*,#298,.T.);
#233=ORIENTED_EDGE('',*,*,#306,.T.);
#234=CARTESIAN_POINT('',(1.11538461538462,13.3846153846154,0.0));
#235=DIRECTION('',(0.0,0.0,1.0));
#236=DIRECTION('',(1.0,0.0,0.0));
#237=ORIENTED_EDGE('',*,*,#309,.T.);
#238=ORIENTED_EDGE('',*,*,#303,.F.);
#239=ORIENTED_EDGE('',*,*,#291,.T.);
#240=ORIENTED_EDGE('',*,*,#286,.T.);
#241=CARTESIAN_POINT('',(16.4423076923077,13.9423076923077,0.0));
#242=DIRECTION('',(0.0,0.0,1.0));
#243=DIRECTION('',(1.0,0.0,0.0));
#244=ORIENTED_EDGE('',*,*,#310,.T.);
#245=ORIENTED_EDGE('',*,*,#311,.F.);
#246=ORIENTED_EDGE('',*,*,#295,.T.);
#247=ORIENTED_EDGE('',*,*,#302,.T.);
#248=CARTESIAN_POINT('',(15.8846153846154,1.11538461538462,0.0));
#249=DIRECTION('',(0.0,0.0,1.0));
#250=DIRECTION('',(1.0,0.0,0.0));
#251=ORIENTED_EDGE('',*,*,#312,.T.);
#252=ORIENTED_EDGE('',*,*,#307,.F.);
#253=ORIENTED_EDGE('',*,*,#296,.T.);
#254=ORIENTED_EDGE('',*,*,#311,.T.);
#255=CARTESIAN_POINT('',(7.94230769230769,0.0,0.0));
#256=DIRECTION('',(0.0,-1.0,0.0));
#257=DIRECTION('',(1.0,0.0,0.0));
#258=ORIENTED_EDGE('',*,*,#278,.T.);
#259=ORIENTED_EDGE('',*,*,#290,.F.);
#260=ORIENTED_EDGE('',*,*,#308,.F.);
#261=ORIENTED_EDGE('',*,*,#305,.F.);
#262=ORIENTED_EDGE('',*,*,#312,.F.);
#263=ORIENTED_EDGE('',*,*,#310,.F.);
#264=ORIENTED_EDGE('',*,*,#301,.F.);
#265=ORIENTED_EDGE('',*,*,#299,.T.);
#266=ORIENTED_EDGE('',*,*,#277,.T.);
#267=ORIENTED_EDGE('',*,*,#304,.F.);
#268=ORIENTED_EDGE('',*,*,#309,.F.);
#269=ORIENTED_EDGE('',*,*,#285,.F.);
#270=ORIENTED_EDGE('',*,*,#282,.T.);
#271=CARTESIAN_POINT('',(8.46661565084454,7.22145689807044,2500.0));
#272=DIRECTION('',(0.0,0.0,1.0));
#273=DIRECTION('',(1.0,0.0,0.0));
#274=EDGE_CURVE('',#313,#314,#315,.T.);
#275=EDGE_CURVE('',#316,#313,#317,.T.);
#276=EDGE_CURVE('',#318,#316,#319,.T.);
#277=EDGE_CURVE('',#314,#318,#320,.T.);
#278=EDGE_CURVE('',#321,#322,#323,.T.);
#279=EDGE_CURVE('',#321,#324,#325,.T.);
#280=EDGE_CURVE('',#326,#324,#327,.T.);
#281=EDGE_CURVE('',#322,#326,#328,.T.);
#282=EDGE_CURVE('',#329,#321,#330,.T.);
#283=EDGE_CURVE('',#331,#329,#332,.T.);
#284=EDGE_CURVE('',#324,#331,#333,.T.);
#285=EDGE_CURVE('',#329,#334,#335,.T.);
#286=EDGE_CURVE('',#336,#334,#337,.T.);
#287=EDGE_CURVE('',#331,#336,#338,.T.);
#288=EDGE_CURVE('',#339,#326,#340,.T.);
#289=EDGE_CURVE('',#339,#341,#342,.T.);
#290=EDGE_CURVE('',#341,#322,#343,.T.);
#291=EDGE_CURVE('',#344,#336,#345,.T.);
#292=EDGE_CURVE('',#316,#344,#346,.T.);
#293=EDGE_CURVE('',#313,#347,#348,.T.);
#294=EDGE_CURVE('',#349,#347,#350,.T.);
#295=EDGE_CURVE('',#351,#349,#352,.T.);
#296=EDGE_CURVE('',#353,#351,#354,.T.);
#297=EDGE_CURVE('',#353,#355,#356,.T.);
#298=EDGE_CURVE('',#339,#355,#357,.T.);
#299=EDGE_CURVE('',#358,#314,#359,.T.);
#300=EDGE_CURVE('',#347,#358,#360,.T.);
#301=EDGE_CURVE('',#358,#361,#362,.T.);
#302=EDGE_CURVE('',#349,#361,#363,.T.);
#303=EDGE_CURVE('',#344,#364,#365,.T.);
#304=EDGE_CURVE('',#364,#318,#366,.T.);
#305=EDGE_CURVE('',#367,#368,#369,.T.);
#306=EDGE_CURVE('',#355,#368,#370,.T.);
#307=EDGE_CURVE('',#353,#367,#371,.T.);
#308=EDGE_CURVE('',#368,#341,#372,.T.);
#309=EDGE_CURVE('',#334,#364,#373,.T.);
#310=EDGE_CURVE('',#361,#374,#375,.T.);
#311=EDGE_CURVE('',#351,#374,#376,.T.);
#312=EDGE_CURVE('',#374,#367,#377,.T.);
#313=VERTEX_POINT('',#378);
#314=VERTEX_POINT('',#379);
#315=LINE('',#380,#381);
#316=VERTEX_POINT('',#382);
#317=CIRCLE('',#383,5.0);
#318=VERTEX_POINT('',#384);
#319=LINE('',#385,#386);
#320=CIRCLE('',#387,5.0);
#321=VERTEX_POINT('',#388);
#322=VERTEX_POINT('',#389);
#323=LINE('',#390,#391);
#324=VERTEX_POINT('',#392);
#325=LINE('',#393,#394);
#326=VERTEX_POINT('',#395);
#327=LINE('',#396,#397);
#328=LINE('',#398,#399);
#329=VERTEX_POINT('',#400);
#330=LINE('',#401,#402);
#331=VERTEX_POINT('',#403);
#332=LINE('',#404,#405);
#333=LINE('',#406,#407);
#334=VERTEX_POINT('',#408);
#335=LINE('',#409,#410);
#336=VERTEX_POINT('',#411);
#337=LINE('',#412,#413);
#338=LINE('',#414,#415);
#339=VERTEX_POINT('',#416);
#340=LINE('',#417,#418);
#341=VERTEX_POINT('',#419);
#342=LINE('',#420,#421);
#343=LINE('',#422,#423);
#344=VERTEX_POINT('',#424);
#345=CIRCLE('',#425,0.557692307692308);
#346=LINE('',#426,#427);
#347=VERTEX_POINT('',#428);
#348=CIRCLE('',#429,5.0);
#349=VERTEX_POINT('',#430);
#350=LINE('',#431,#432);
#351=VERTEX_POINT('',#433);
#352=CIRCLE('',#434,1.11538461538462);
#353=VERTEX_POINT('',#435);
#354=LINE('',#436,#437);
#355=VERTEX_POINT('',#438);
#356=LINE('',#439,#440);
#357=CIRCLE('',#441,1.11538461538462);
#358=VERTEX_POINT('',#442);
#359=CIRCLE('',#443,5.0);
#360=LINE('',#444,#445);
#361=VERTEX_POINT('',#446);
#362=LINE('',#447,#448);
#363=LINE('',#449,#450);
#364=VERTEX_POINT('',#451);
#365=LINE('',#452,#453);
#366=LINE('',#454,#455);
#367=VERTEX_POINT('',#456);
#368=VERTEX_POINT('',#457);
#369=LINE('',#458,#459);
#370=LINE('',#460,#461);
#371=LINE('',#462,#463);
#372=CIRCLE('',#464,1.11538461538462);
#373=CIRCLE('',#465,0.557692307692308);
#374=VERTEX_POINT('',#466);
#375=CIRCLE('',#467,1.11538461538462);
#376=LINE('',#468,#469);
#377=LINE('',#470,#471);
#378=CARTESIAN_POINT('',(20.5,8.0,0.0));
#379=CARTESIAN_POINT('',(20.5,8.0,2500.0));
#380=CARTESIAN_POINT('',(20.5,8.0,1250.0));
#381=VECTOR('',#472,1.0);
#382=CARTESIAN_POINT('',(17.0,12.7696960070847,0.0));
#383=AXIS2_PLACEMENT_3D('',#473,#474,#475);
#384=CARTESIAN_POINT('',(17.0,12.7696960070847,2500.0));
#385=CARTESIAN_POINT('',(17.0,12.7696960070847,1250.0));
#386=VECTOR('',#476,1.0);
#387=AXIS2_PLACEMENT_3D('',#477,#478,#479);
#388=CARTESIAN_POINT('',(6.3,13.9928932188135,2500.0));
#389=CARTESIAN_POINT('',(5.79289321881345,14.5,2500.0));
#390=CARTESIAN_POINT('',(8.35773629760025,11.9351569212132,2500.0));
#391=VECTOR('',#480,1.0);
#392=CARTESIAN_POINT('',(6.3,13.9928932188135,0.0));
#393=CARTESIAN_POINT('',(6.3,13.9928932188135,1250.0));
#394=VECTOR('',#481,1.0);
#395=CARTESIAN_POINT('',(5.79289321881345,14.5,0.0));
#396=CARTESIAN_POINT('',(8.35773629760025,11.9351569212132,0.0));
#397=VECTOR('',#482,1.0);
#398=CARTESIAN_POINT('',(5.79289321881345,14.5,625.0));
#399=VECTOR('',#483,1.0);
#400=CARTESIAN_POINT('',(6.80710678118655,14.5,2500.0));
#401=CARTESIAN_POINT('',(5.32557152782202,13.0184647466355,2500.0));
#402=VECTOR('',#484,1.0);
#403=CARTESIAN_POINT('',(6.80710678118655,14.5,0.0));
#404=CARTESIAN_POINT('',(6.80710678118655,14.5,625.0));
#405=VECTOR('',#485,1.0);
#406=CARTESIAN_POINT('',(5.32557152782202,13.0184647466355,0.0));
#407=VECTOR('',#486,1.0);
#408=CARTESIAN_POINT('',(16.4423076923077,14.5,2500.0));
#409=CARTESIAN_POINT('',(1.11538461538462,14.5,2500.0));
#410=VECTOR('',#487,1.0);
#411=CARTESIAN_POINT('',(16.4423076923077,14.5,0.0));
#412=CARTESIAN_POINT('',(16.4423076923077,14.5,0.0));
#413=VECTOR('',#488,1.0);
#414=CARTESIAN_POINT('',(1.11538461538462,14.5,0.0));
#415=VECTOR('',#489,1.0);
#416=CARTESIAN_POINT('',(1.11538461538462,14.5,0.0));
#417=CARTESIAN_POINT('',(1.11538461538462,14.5,0.0));
#418=VECTOR('',#490,1.0);
#419=CARTESIAN_POINT('',(1.11538461538462,14.5,2500.0));
#420=CARTESIAN_POINT('',(1.11538461538462,14.5,0.0));
#421=VECTOR('',#491,1.0);
#422=CARTESIAN_POINT('',(1.11538461538462,14.5,2500.0));
#423=VECTOR('',#492,1.0);
#424=CARTESIAN_POINT('',(17.0,13.9423076923077,0.0));
#425=AXIS2_PLACEMENT_3D('',#493,#494,#495);
#426=CARTESIAN_POINT('',(17.0,1.11538461538462,0.0));
#427=VECTOR('',#496,1.0);
#428=CARTESIAN_POINT('',(17.0,3.23030399291527,0.0));
#429=AXIS2_PLACEMENT_3D('',#497,#498,#499);
#430=CARTESIAN_POINT('',(17.0,1.11538461538462,0.0));
#431=CARTESIAN_POINT('',(17.0,1.11538461538462,0.0));
#432=VECTOR('',#500,1.0);
#433=CARTESIAN_POINT('',(15.8846153846154,0.0,0.0));
#434=AXIS2_PLACEMENT_3D('',#501,#502,#503);
#435=CARTESIAN_POINT('',(0.0,0.0,0.0));
#436=CARTESIAN_POINT('',(0.0,0.0,0.0));
#437=VECTOR('',#504,1.0);
#438=CARTESIAN_POINT('',(0.0,13.3846153846154,0.0));
#439=CARTESIAN_POINT('',(0.0,0.0,0.0));
#440=VECTOR('',#505,1.0);
#441=AXIS2_PLACEMENT_3D('',#506,#507,#508);
#442=CARTESIAN_POINT('',(17.0,3.23030399291527,2500.0));
#443=AXIS2_PLACEMENT_3D('',#509,#510,#511);
#444=CARTESIAN_POINT('',(17.0,3.23030399291527,1250.0));
#445=VECTOR('',#512,1.0);
#446=CARTESIAN_POINT('',(17.0,1.11538461538462,2500.0));
#447=CARTESIAN_POINT('',(17.0,1.11538461538462,2500.0));
#448=VECTOR('',#513,1.0);
#449=CARTESIAN_POINT('',(17.0,1.11538461538462,0.0));
#450=VECTOR('',#514,1.0);
#451=CARTESIAN_POINT('',(17.0,13.9423076923077,2500.0));
#452=CARTESIAN_POINT('',(17.0,13.9423076923077,0.0));
#453=VECTOR('',#515,1.0);
#454=CARTESIAN_POINT('',(17.0,1.11538461538462,2500.0));
#455=VECTOR('',#516,1.0);
#456=CARTESIAN_POINT('',(0.0,0.0,2500.0));
#457=CARTESIAN_POINT('',(0.0,13.3846153846154,2500.0));
#458=CARTESIAN_POINT('',(0.0,0.0,2500.0));
#459=VECTOR('',#517,1.0);
#460=CARTESIAN_POINT('',(0.0,13.3846153846154,0.0));
#461=VECTOR('',#518,1.0);
#462=CARTESIAN_POINT('',(0.0,0.0,0.0));
#463=VECTOR('',#519,1.0);
#464=AXIS2_PLACEMENT_3D('',#520,#521,#522);
#465=AXIS2_PLACEMENT_3D('',#523,#524,#525);
#466=CARTESIAN_POINT('',(15.8846153846154,0.0,2500.0));
#467=AXIS2_PLACEMENT_3D('',#526,#527,#528);
#468=CARTESIAN_POINT('',(15.8846153846154,0.0,0.0));
#469=VECTOR('',#529,1.0);
#470=CARTESIAN_POINT('',(0.0,0.0,2500.0));
#471=VECTOR('',#530,1.0);
#472=DIRECTION('',(0.0,0.0,1.0));
#473=CARTESIAN_POINT('',(15.5,8.0,0.0));
#474=DIRECTION('',(0.0,0.0,-1.0));
#475=DIRECTION('',(1.0,0.0,0.0));
#476=DIRECTION('',(-0.0,-0.0,-1.0));
#477=CARTESIAN_POINT('',(15.5,8.0,2500.0));
#478=DIRECTION('',(0.0,0.0,1.0));
#479=DIRECTION('',(1.0,0.0,0.0));
#480=DIRECTION('',(-0.707106781186548,0.707106781186548,0.0));
#481=DIRECTION('',(0.0,0.0,-1.0));
#482=DIRECTION('',(0.707106781186548,-0.707106781186548,0.0));
#483=DIRECTION('',(0.0,-0.0,-1.0));
#484=DIRECTION('',(-0.707106781186548,-0.707106781186548,0.0));
#485=DIRECTION('',(0.0,0.0,1.0));
#486=DIRECTION('',(0.707106781186548,0.707106781186548,-0.0));
#487=DIRECTION('',(1.0,-1.15897811353592E-016,0.0));
#488=DIRECTION('',(0.0,0.0,1.0));
#489=DIRECTION('',(1.0,-1.15897811353592E-016,0.0));
#490=DIRECTION('',(1.0,-1.15897811353592E-016,0.0));
#491=DIRECTION('',(0.0,0.0,1.0));
#492=DIRECTION('',(1.0,-1.15897811353592E-016,0.0));
#493=CARTESIAN_POINT('',(16.4423076923077,13.9423076923077,0.0));
#494=DIRECTION('',(0.0,0.0,1.0));
#495=DIRECTION('',(1.0,0.0,0.0));
#496=DIRECTION('',(0.0,1.0,0.0));
#497=CARTESIAN_POINT('',(15.5,8.0,0.0));
#498=DIRECTION('',(0.0,0.0,-1.0));
#499=DIRECTION('',(1.0,0.0,0.0));
#500=DIRECTION('',(0.0,1.0,0.0));
#501=CARTESIAN_POINT('',(15.8846153846154,1.11538461538462,0.0));
#502=DIRECTION('',(0.0,0.0,1.0));
#503=DIRECTION('',(1.0,0.0,0.0));
#504=DIRECTION('',(1.0,0.0,0.0));
#505=DIRECTION('',(6.12303176911189E-017,1.0,0.0));
#506=CARTESIAN_POINT('',(1.11538461538462,13.3846153846154,0.0));
#507=DIRECTION('',(0.0,0.0,1.0));
#508=DIRECTION('',(1.0,0.0,0.0));
#509=CARTESIAN_POINT('',(15.5,8.0,2500.0));
#510=DIRECTION('',(0.0,0.0,1.0));
#511=DIRECTION('',(1.0,0.0,0.0));
#512=DIRECTION('',(0.0,0.0,1.0));
#513=DIRECTION('',(-0.0,-1.0,-0.0));
#514=DIRECTION('',(0.0,0.0,1.0));
#515=DIRECTION('',(0.0,0.0,1.0));
#516=DIRECTION('',(-0.0,-1.0,-0.0));
#517=DIRECTION('',(6.12303176911189E-017,1.0,0.0));
#518=DIRECTION('',(0.0,0.0,1.0));
#519=DIRECTION('',(0.0,0.0,1.0));
#520=CARTESIAN_POINT('',(1.11538461538462,13.3846153846154,2500.0));
#521=DIRECTION('',(0.0,0.0,-1.0));
#522=DIRECTION('',(1.0,0.0,0.0));
#523=CARTESIAN_POINT('',(16.4423076923077,13.9423076923077,2500.0));
#524=DIRECTION('',(0.0,0.0,-1.0));
#525=DIRECTION('',(1.0,0.0,0.0));
#526=CARTESIAN_POINT('',(15.8846153846154,1.11538461538462,2500.0));
#527=DIRECTION('',(0.0,0.0,-1.0));
#528=DIRECTION('',(1.0,0.0,0.0));
#529=DIRECTION('',(0.0,0.0,1.0));
#530=DIRECTION('',(-1.0,-0.0,-0.0));
ENDSEC;
END-ISO-10303-21;
