ISO-10303-21;
HEADER;
FILE_DESCRIPTION(('STEP AP203'),'1');
FILE_NAME('C:/TPO v2/SharedFS/Outgoing/standard_2_inox_10.stp','2014-08-06T07:19:02',('TraceParts'),('TraceParts S.A.'),'XStep 1.0',' ',' ');
FILE_SCHEMA(('CONFIG_CONTROL_DESIGN'));
ENDSEC;
DATA;
#1=DESIGN_CONTEXT('',#27,'design');
#2=APPLICATION_PROTOCOL_DEFINITION('INTERNATIONAL STANDARD','config_control_design',1994,#27);
#3=PRODUCT_CATEGORY_RELATIONSHIP('NONE','NONE',#28,#29);
#4=DATE_AND_TIME(#30,#31);
#5=DATE_TIME_ROLE('creation_date');
#6=DATE_TIME_ROLE('classification_date');
#7=PERSON_AND_ORGANIZATION_ROLE('creator');
#8=PERSON_AND_ORGANIZATION_ROLE('design_supplier');
#9=PERSON_AND_ORGANIZATION_ROLE('classification_officer');
#10=PERSON_AND_ORGANIZATION_ROLE('design_owner');
#11=APPROVAL_PERSON_ORGANIZATION(#32,#33,#34);
#12=APPROVAL_DATE_TIME(#4,#33);
#13=CC_DESIGN_APPROVAL(#33,(#35,#36,#37));
#14=CC_DESIGN_DATE_AND_TIME_ASSIGNMENT(#4,#5,(#37));
#15=CC_DESIGN_DATE_AND_TIME_ASSIGNMENT(#4,#6,(#35));
#16=CC_DESIGN_PERSON_AND_ORGANIZATION_ASSIGNMENT(#32,#10,(#38));
#17=CC_DESIGN_PERSON_AND_ORGANIZATION_ASSIGNMENT(#32,#7,(#37));
#18=CC_DESIGN_PERSON_AND_ORGANIZATION_ASSIGNMENT(#32,#7,(#36));
#19=CC_DESIGN_PERSON_AND_ORGANIZATION_ASSIGNMENT(#32,#8,(#36));
#20=CC_DESIGN_SECURITY_CLASSIFICATION(#35,(#36));
#21=CC_DESIGN_PERSON_AND_ORGANIZATION_ASSIGNMENT(#32,#9,(#35));
#22=SHAPE_DEFINITION_REPRESENTATION(#39,#40);
#23= (GEOMETRIC_REPRESENTATION_CONTEXT(3)GLOBAL_UNCERTAINTY_ASSIGNED_CONTEXT((#43))GLOBAL_UNIT_ASSIGNED_CONTEXT((#45,#46,#47))REPRESENTATION_CONTEXT('NONE','WORKSPACE'));
#27=APPLICATION_CONTEXT('CONFIGURATION CONTROLLED 3D DESIGNS OF MECHANICAL PARTS AND ASSEMBLIES');
#28=PRODUCT_CATEGORY('part','NONE');
#29=PRODUCT_RELATED_PRODUCT_CATEGORY('detail',' ',(#38));
#30=CALENDAR_DATE(2014,6,7);
#31=LOCAL_TIME(9,19,2.0,#49);
#32=PERSON_AND_ORGANIZATION(#50,#51);
#33=APPROVAL(#52,'SOLID MODEL');
#34=APPROVAL_ROLE('APPROVED');
#35=SECURITY_CLASSIFICATION('','',#53);
#36=PRODUCT_DEFINITION_FORMATION_WITH_SPECIFIED_SOURCE(' ','NONE',#38,.NOT_KNOWN.);
#37=PRODUCT_DEFINITION('NONE','NONE',#36,#1);
#38=PRODUCT('1','1','PART-1-DESC',(#54));
#39=PRODUCT_DEFINITION_SHAPE('NONE','NONE',#37);
#40=ADVANCED_BREP_SHAPE_REPRESENTATION('1',(#55,#56),#23);
#43=UNCERTAINTY_MEASURE_WITH_UNIT(LENGTH_MEASURE(1.0E-006),#45,'','');
#45= (CONVERSION_BASED_UNIT('MILLIMETRE',#59)LENGTH_UNIT()NAMED_UNIT(#62));
#46= (NAMED_UNIT(#64)PLANE_ANGLE_UNIT()SI_UNIT($,.RADIAN.));
#47= (NAMED_UNIT(#64)SOLID_ANGLE_UNIT()SI_UNIT($,.STERADIAN.));
#49=COORDINATED_UNIVERSAL_TIME_OFFSET(1,0,.AHEAD.);
#50=PERSON('','UNSPECIFIED',$,$,$,$);
#51=ORGANIZATION('UNSPECIFIED','UNSPECIFIED','UNSPECIFIED');
#52=APPROVAL_STATUS('approved');
#53=SECURITY_CLASSIFICATION_LEVEL('unclassified');
#54=MECHANICAL_CONTEXT('',#27,'mechanical');
#55=MANIFOLD_SOLID_BREP('1',#70);
#56=AXIS2_PLACEMENT_3D('',#71,#72,#73);
#59=LENGTH_MEASURE_WITH_UNIT(LENGTH_MEASURE(1.0),#74);
#62=DIMENSIONAL_EXPONENTS(1.0,0.0,0.0,0.0,0.0,0.0,0.0);
#64=DIMENSIONAL_EXPONENTS(0.0,0.0,0.0,0.0,0.0,0.0,0.0);
#70=CLOSED_SHELL('',(#75,#76,#77,#78,#79,#80,#81,#82,#83,#84,#85,#86,#87,#88,#89,#90,#91,#92,#93,#94));
#71=CARTESIAN_POINT('',(0.0,0.0,0.0));
#72=DIRECTION('',(0.0,0.0,1.0));
#73=DIRECTION('',(1.0,0.0,0.0));
#74= (NAMED_UNIT(#62)LENGTH_UNIT()SI_UNIT(.MILLI.,.METRE.));
#75=ADVANCED_FACE('',(#96),#97,.F.);
#76=ADVANCED_FACE('',(#98),#99,.T.);
#77=ADVANCED_FACE('',(#100),#101,.T.);
#78=ADVANCED_FACE('',(#102),#103,.T.);
#79=ADVANCED_FACE('',(#104),#105,.T.);
#80=ADVANCED_FACE('',(#106),#107,.T.);
#81=ADVANCED_FACE('',(#108),#109,.T.);
#82=ADVANCED_FACE('',(#110),#111,.T.);
#83=ADVANCED_FACE('',(#112),#113,.F.);
#84=ADVANCED_FACE('',(#114),#115,.T.);
#85=ADVANCED_FACE('',(#116),#117,.T.);
#86=ADVANCED_FACE('',(#118),#119,.T.);
#87=ADVANCED_FACE('',(#120),#121,.T.);
#88=ADVANCED_FACE('',(#122),#123,.T.);
#89=ADVANCED_FACE('',(#124),#125,.T.);
#90=ADVANCED_FACE('',(#126),#127,.T.);
#91=ADVANCED_FACE('',(#128),#129,.F.);
#92=ADVANCED_FACE('',(#130),#131,.T.);
#93=ADVANCED_FACE('',(#132),#133,.T.);
#94=ADVANCED_FACE('',(#134),#135,.T.);
#96=FACE_OUTER_BOUND('',#136,.T.);
#97=CYLINDRICAL_SURFACE('',#137,2.0);
#98=FACE_OUTER_BOUND('',#138,.T.);
#99=PLANE('',#139);
#100=FACE_OUTER_BOUND('',#140,.T.);
#101=PLANE('',#141);
#102=FACE_OUTER_BOUND('',#142,.T.);
#103=CYLINDRICAL_SURFACE('',#143,2.0);
#104=FACE_OUTER_BOUND('',#144,.T.);
#105=PLANE('',#145);
#106=FACE_OUTER_BOUND('',#146,.T.);
#107=CYLINDRICAL_SURFACE('',#147,2.0);
#108=FACE_OUTER_BOUND('',#148,.T.);
#109=CYLINDRICAL_SURFACE('',#149,2.0);
#110=FACE_OUTER_BOUND('',#150,.T.);
#111=PLANE('',#151);
#112=FACE_OUTER_BOUND('',#152,.T.);
#113=CYLINDRICAL_SURFACE('',#153,2.0);
#114=FACE_OUTER_BOUND('',#154,.T.);
#115=PLANE('',#155);
#116=FACE_OUTER_BOUND('',#156,.T.);
#117=PLANE('',#157);
#118=FACE_OUTER_BOUND('',#158,.T.);
#119=CYLINDRICAL_SURFACE('',#159,2.0);
#120=FACE_OUTER_BOUND('',#160,.T.);
#121=PLANE('',#161);
#122=FACE_OUTER_BOUND('',#162,.T.);
#123=PLANE('',#163);
#124=FACE_OUTER_BOUND('',#164,.T.);
#125=CYLINDRICAL_SURFACE('',#165,2.0);
#126=FACE_OUTER_BOUND('',#166,.T.);
#127=CYLINDRICAL_SURFACE('',#167,2.0);
#128=FACE_OUTER_BOUND('',#168,.T.);
#129=PLANE('',#169);
#130=FACE_OUTER_BOUND('',#170,.T.);
#131=PLANE('',#171);
#132=FACE_OUTER_BOUND('',#172,.T.);
#133=PLANE('',#173);
#134=FACE_OUTER_BOUND('',#174,.T.);
#135=PLANE('',#175);
#136=EDGE_LOOP('',(#176,#177,#178,#179));
#137=AXIS2_PLACEMENT_3D('',#180,#181,#182);
#138=EDGE_LOOP('',(#183,#184,#185,#186));
#139=AXIS2_PLACEMENT_3D('',#187,#188,#189);
#140=EDGE_LOOP('',(#190,#191,#192,#193));
#141=AXIS2_PLACEMENT_3D('',#194,#195,#196);
#142=EDGE_LOOP('',(#197,#198,#199,#200));
#143=AXIS2_PLACEMENT_3D('',#201,#202,#203);
#144=EDGE_LOOP('',(#204,#205,#206,#207));
#145=AXIS2_PLACEMENT_3D('',#208,#209,#210);
#146=EDGE_LOOP('',(#211,#212,#213,#214));
#147=AXIS2_PLACEMENT_3D('',#215,#216,#217);
#148=EDGE_LOOP('',(#218,#219,#220,#221));
#149=AXIS2_PLACEMENT_3D('',#222,#223,#224);
#150=EDGE_LOOP('',(#225,#226,#227,#228));
#151=AXIS2_PLACEMENT_3D('',#229,#230,#231);
#152=EDGE_LOOP('',(#232,#233,#234,#235));
#153=AXIS2_PLACEMENT_3D('',#236,#237,#238);
#154=EDGE_LOOP('',(#239,#240,#241,#242));
#155=AXIS2_PLACEMENT_3D('',#243,#244,#245);
#156=EDGE_LOOP('',(#246,#247,#248,#249));
#157=AXIS2_PLACEMENT_3D('',#250,#251,#252);
#158=EDGE_LOOP('',(#253,#254,#255,#256));
#159=AXIS2_PLACEMENT_3D('',#257,#258,#259);
#160=EDGE_LOOP('',(#260,#261,#262,#263,#264,#265,#266,#267,#268,#269,#270,#271,#272,#273,#274,#275,#276,#277));
#161=AXIS2_PLACEMENT_3D('',#278,#279,#280);
#162=EDGE_LOOP('',(#281,#282,#283,#284));
#163=AXIS2_PLACEMENT_3D('',#285,#286,#287);
#164=EDGE_LOOP('',(#288,#289,#290,#291));
#165=AXIS2_PLACEMENT_3D('',#292,#293,#294);
#166=EDGE_LOOP('',(#295,#296,#297,#298));
#167=AXIS2_PLACEMENT_3D('',#299,#300,#301);
#168=EDGE_LOOP('',(#302,#303,#304,#305,#306,#307,#308,#309,#310,#311,#312,#313,#314,#315,#316,#317,#318,#319));
#169=AXIS2_PLACEMENT_3D('',#320,#321,#322);
#170=EDGE_LOOP('',(#323,#324,#325,#326));
#171=AXIS2_PLACEMENT_3D('',#327,#328,#329);
#172=EDGE_LOOP('',(#330,#331,#332,#333));
#173=AXIS2_PLACEMENT_3D('',#334,#335,#336);
#174=EDGE_LOOP('',(#337,#338,#339,#340));
#175=AXIS2_PLACEMENT_3D('',#341,#342,#343);
#176=ORIENTED_EDGE('',*,*,#344,.T.);
#177=ORIENTED_EDGE('',*,*,#345,.F.);
#178=ORIENTED_EDGE('',*,*,#346,.F.);
#179=ORIENTED_EDGE('',*,*,#347,.F.);
#180=CARTESIAN_POINT('',(-37.35,15.0,-5.32907051820075E-015));
#181=DIRECTION('',(2.44921270764475E-016,0.0,-1.0));
#182=DIRECTION('',(1.0,0.0,2.44921270764475E-016));
#183=ORIENTED_EDGE('',*,*,#348,.T.);
#184=ORIENTED_EDGE('',*,*,#349,.F.);
#185=ORIENTED_EDGE('',*,*,#350,.F.);
#186=ORIENTED_EDGE('',*,*,#345,.T.);
#187=CARTESIAN_POINT('',(-37.9824555320337,13.102633403899,-5.32907051820075E-015));
#188=DIRECTION('',(0.221916814574261,0.975065601592638,5.43521482295324E-017));
#189=DIRECTION('',(-0.975065601592638,0.221916814574261,-2.38814306220797E-016));
#190=ORIENTED_EDGE('',*,*,#347,.T.);
#191=ORIENTED_EDGE('',*,*,#351,.T.);
#192=ORIENTED_EDGE('',*,*,#352,.T.);
#193=ORIENTED_EDGE('',*,*,#353,.T.);
#194=CARTESIAN_POINT('',(-39.35,10.0,9.99999999999999));
#195=DIRECTION('',(1.0,0.0,1.22460635382238E-016));
#196=DIRECTION('',(0.0,-1.0,0.0));
#197=ORIENTED_EDGE('',*,*,#354,.F.);
#198=ORIENTED_EDGE('',*,*,#355,.T.);
#199=ORIENTED_EDGE('',*,*,#356,.F.);
#200=ORIENTED_EDGE('',*,*,#357,.F.);
#201=CARTESIAN_POINT('',(-58.65,2.0,9.99999999999999));
#202=DIRECTION('',(-1.22460635382238E-016,0.0,1.0));
#203=DIRECTION('',(1.83690953073357E-016,-1.0,2.24949108273321E-032));
#204=ORIENTED_EDGE('',*,*,#357,.T.);
#205=ORIENTED_EDGE('',*,*,#358,.T.);
#206=ORIENTED_EDGE('',*,*,#359,.F.);
#207=ORIENTED_EDGE('',*,*,#360,.T.);
#208=CARTESIAN_POINT('',(-60.65,41.0,9.99999999999999));
#209=DIRECTION('',(-1.0,0.0,-1.22460635382238E-016));
#210=DIRECTION('',(0.0,1.0,0.0));
#211=ORIENTED_EDGE('',*,*,#361,.F.);
#212=ORIENTED_EDGE('',*,*,#362,.T.);
#213=ORIENTED_EDGE('',*,*,#363,.F.);
#214=ORIENTED_EDGE('',*,*,#352,.F.);
#215=CARTESIAN_POINT('',(-41.35,39.0,9.99999999999999));
#216=DIRECTION('',(-1.22460635382238E-016,0.0,1.0));
#217=DIRECTION('',(-6.12303176911189E-017,1.0,-7.49830360911069E-033));
#218=ORIENTED_EDGE('',*,*,#364,.F.);
#219=ORIENTED_EDGE('',*,*,#359,.T.);
#220=ORIENTED_EDGE('',*,*,#365,.F.);
#221=ORIENTED_EDGE('',*,*,#366,.F.);
#222=CARTESIAN_POINT('',(-58.65,39.0,9.99999999999999));
#223=DIRECTION('',(-1.22460635382238E-016,0.0,1.0));
#224=DIRECTION('',(-1.0,0.0,-1.22460635382238E-016));
#225=ORIENTED_EDGE('',*,*,#362,.F.);
#226=ORIENTED_EDGE('',*,*,#367,.T.);
#227=ORIENTED_EDGE('',*,*,#366,.T.);
#228=ORIENTED_EDGE('',*,*,#368,.T.);
#229=CARTESIAN_POINT('',(-39.35,41.0,9.99999999999999));
#230=DIRECTION('',(0.0,1.0,0.0));
#231=DIRECTION('',(1.0,0.0,1.22460635382238E-016));
#232=ORIENTED_EDGE('',*,*,#369,.T.);
#233=ORIENTED_EDGE('',*,*,#370,.F.);
#234=ORIENTED_EDGE('',*,*,#371,.F.);
#235=ORIENTED_EDGE('',*,*,#372,.F.);
#236=CARTESIAN_POINT('',(37.35,15.0,10.0));
#237=DIRECTION('',(-1.22460635382238E-016,0.0,1.0));
#238=DIRECTION('',(-1.0,0.0,-1.22460635382238E-016));
#239=ORIENTED_EDGE('',*,*,#373,.T.);
#240=ORIENTED_EDGE('',*,*,#374,.F.);
#241=ORIENTED_EDGE('',*,*,#375,.F.);
#242=ORIENTED_EDGE('',*,*,#370,.T.);
#243=CARTESIAN_POINT('',(37.9824555320337,13.102633403899,10.0));
#244=DIRECTION('',(-0.221916814574261,0.975065601592638,-2.71760741147662E-017));
#245=DIRECTION('',(0.975065601592638,0.221916814574261,1.19407153110398E-016));
#246=ORIENTED_EDGE('',*,*,#372,.T.);
#247=ORIENTED_EDGE('',*,*,#376,.T.);
#248=ORIENTED_EDGE('',*,*,#377,.T.);
#249=ORIENTED_EDGE('',*,*,#378,.T.);
#250=CARTESIAN_POINT('',(39.35,10.0,0.0));
#251=DIRECTION('',(-1.0,0.0,0.0));
#252=DIRECTION('',(0.0,-1.0,0.0));
#253=ORIENTED_EDGE('',*,*,#379,.F.);
#254=ORIENTED_EDGE('',*,*,#380,.T.);
#255=ORIENTED_EDGE('',*,*,#381,.F.);
#256=ORIENTED_EDGE('',*,*,#382,.F.);
#257=CARTESIAN_POINT('',(58.65,2.0,0.0));
#258=DIRECTION('',(0.0,0.0,-1.0));
#259=DIRECTION('',(-1.83690953073357E-016,-1.0,0.0));
#260=ORIENTED_EDGE('',*,*,#379,.T.);
#261=ORIENTED_EDGE('',*,*,#383,.F.);
#262=ORIENTED_EDGE('',*,*,#384,.T.);
#263=ORIENTED_EDGE('',*,*,#385,.F.);
#264=ORIENTED_EDGE('',*,*,#386,.T.);
#265=ORIENTED_EDGE('',*,*,#376,.F.);
#266=ORIENTED_EDGE('',*,*,#371,.T.);
#267=ORIENTED_EDGE('',*,*,#375,.T.);
#268=ORIENTED_EDGE('',*,*,#387,.F.);
#269=ORIENTED_EDGE('',*,*,#348,.F.);
#270=ORIENTED_EDGE('',*,*,#344,.F.);
#271=ORIENTED_EDGE('',*,*,#353,.F.);
#272=ORIENTED_EDGE('',*,*,#363,.T.);
#273=ORIENTED_EDGE('',*,*,#368,.F.);
#274=ORIENTED_EDGE('',*,*,#365,.T.);
#275=ORIENTED_EDGE('',*,*,#358,.F.);
#276=ORIENTED_EDGE('',*,*,#356,.T.);
#277=ORIENTED_EDGE('',*,*,#388,.F.);
#278=CARTESIAN_POINT('',(36.3252459419577,14.4997540580423,10.0));
#279=DIRECTION('',(0.0,0.0,1.0));
#280=DIRECTION('',(1.0,0.0,0.0));
#281=ORIENTED_EDGE('',*,*,#382,.T.);
#282=ORIENTED_EDGE('',*,*,#389,.T.);
#283=ORIENTED_EDGE('',*,*,#390,.F.);
#284=ORIENTED_EDGE('',*,*,#383,.T.);
#285=CARTESIAN_POINT('',(60.65,41.0,0.0));
#286=DIRECTION('',(1.0,0.0,0.0));
#287=DIRECTION('',(0.0,1.0,0.0));
#288=ORIENTED_EDGE('',*,*,#386,.F.);
#289=ORIENTED_EDGE('',*,*,#391,.T.);
#290=ORIENTED_EDGE('',*,*,#392,.F.);
#291=ORIENTED_EDGE('',*,*,#377,.F.);
#292=CARTESIAN_POINT('',(41.35,39.0,0.0));
#293=DIRECTION('',(0.0,0.0,-1.0));
#294=DIRECTION('',(6.12303176911189E-017,1.0,0.0));
#295=ORIENTED_EDGE('',*,*,#384,.F.);
#296=ORIENTED_EDGE('',*,*,#390,.T.);
#297=ORIENTED_EDGE('',*,*,#393,.F.);
#298=ORIENTED_EDGE('',*,*,#394,.F.);
#299=CARTESIAN_POINT('',(58.65,39.0,0.0));
#300=DIRECTION('',(0.0,0.0,-1.0));
#301=DIRECTION('',(1.0,0.0,0.0));
#302=ORIENTED_EDGE('',*,*,#381,.T.);
#303=ORIENTED_EDGE('',*,*,#395,.F.);
#304=ORIENTED_EDGE('',*,*,#354,.T.);
#305=ORIENTED_EDGE('',*,*,#360,.F.);
#306=ORIENTED_EDGE('',*,*,#364,.T.);
#307=ORIENTED_EDGE('',*,*,#367,.F.);
#308=ORIENTED_EDGE('',*,*,#361,.T.);
#309=ORIENTED_EDGE('',*,*,#351,.F.);
#310=ORIENTED_EDGE('',*,*,#346,.T.);
#311=ORIENTED_EDGE('',*,*,#350,.T.);
#312=ORIENTED_EDGE('',*,*,#396,.F.);
#313=ORIENTED_EDGE('',*,*,#373,.F.);
#314=ORIENTED_EDGE('',*,*,#369,.F.);
#315=ORIENTED_EDGE('',*,*,#378,.F.);
#316=ORIENTED_EDGE('',*,*,#392,.T.);
#317=ORIENTED_EDGE('',*,*,#397,.F.);
#318=ORIENTED_EDGE('',*,*,#393,.T.);
#319=ORIENTED_EDGE('',*,*,#389,.F.);
#320=CARTESIAN_POINT('',(36.3252459419577,14.4997540580423,0.0));
#321=DIRECTION('',(0.0,0.0,1.0));
#322=DIRECTION('',(1.0,0.0,0.0));
#323=ORIENTED_EDGE('',*,*,#374,.T.);
#324=ORIENTED_EDGE('',*,*,#396,.T.);
#325=ORIENTED_EDGE('',*,*,#349,.T.);
#326=ORIENTED_EDGE('',*,*,#387,.T.);
#327=CARTESIAN_POINT('',(-7.105427357601E-015,10.0,0.0));
#328=DIRECTION('',(1.35427459166474E-016,1.0,0.0));
#329=DIRECTION('',(-1.0,1.35427459166474E-016,0.0));
#330=ORIENTED_EDGE('',*,*,#391,.F.);
#331=ORIENTED_EDGE('',*,*,#385,.T.);
#332=ORIENTED_EDGE('',*,*,#394,.T.);
#333=ORIENTED_EDGE('',*,*,#397,.T.);
#334=CARTESIAN_POINT('',(39.35,41.0,0.0));
#335=DIRECTION('',(0.0,1.0,0.0));
#336=DIRECTION('',(-1.0,0.0,0.0));
#337=ORIENTED_EDGE('',*,*,#380,.F.);
#338=ORIENTED_EDGE('',*,*,#388,.T.);
#339=ORIENTED_EDGE('',*,*,#355,.F.);
#340=ORIENTED_EDGE('',*,*,#395,.T.);
#341=CARTESIAN_POINT('',(60.65,0.0,0.0));
#342=DIRECTION('',(0.0,-1.0,0.0));
#343=DIRECTION('',(1.0,0.0,0.0));
#344=EDGE_CURVE('',#398,#399,#400,.T.);
#345=EDGE_CURVE('',#401,#399,#402,.T.);
#346=EDGE_CURVE('',#403,#401,#404,.T.);
#347=EDGE_CURVE('',#398,#403,#405,.T.);
#348=EDGE_CURVE('',#399,#406,#407,.T.);
#349=EDGE_CURVE('',#408,#406,#409,.T.);
#350=EDGE_CURVE('',#401,#408,#410,.T.);
#351=EDGE_CURVE('',#403,#411,#412,.T.);
#352=EDGE_CURVE('',#411,#413,#414,.T.);
#353=EDGE_CURVE('',#413,#398,#415,.T.);
#354=EDGE_CURVE('',#416,#417,#418,.T.);
#355=EDGE_CURVE('',#416,#419,#420,.T.);
#356=EDGE_CURVE('',#421,#419,#422,.T.);
#357=EDGE_CURVE('',#417,#421,#423,.T.);
#358=EDGE_CURVE('',#421,#424,#425,.T.);
#359=EDGE_CURVE('',#426,#424,#427,.T.);
#360=EDGE_CURVE('',#426,#417,#428,.T.);
#361=EDGE_CURVE('',#429,#411,#430,.T.);
#362=EDGE_CURVE('',#429,#431,#432,.T.);
#363=EDGE_CURVE('',#413,#431,#433,.T.);
#364=EDGE_CURVE('',#426,#434,#435,.T.);
#365=EDGE_CURVE('',#436,#424,#437,.T.);
#366=EDGE_CURVE('',#434,#436,#438,.T.);
#367=EDGE_CURVE('',#429,#434,#439,.T.);
#368=EDGE_CURVE('',#436,#431,#440,.T.);
#369=EDGE_CURVE('',#441,#442,#443,.T.);
#370=EDGE_CURVE('',#444,#442,#445,.T.);
#371=EDGE_CURVE('',#446,#444,#447,.T.);
#372=EDGE_CURVE('',#441,#446,#448,.T.);
#373=EDGE_CURVE('',#442,#449,#450,.T.);
#374=EDGE_CURVE('',#451,#449,#452,.T.);
#375=EDGE_CURVE('',#444,#451,#453,.T.);
#376=EDGE_CURVE('',#446,#454,#455,.T.);
#377=EDGE_CURVE('',#454,#456,#457,.T.);
#378=EDGE_CURVE('',#456,#441,#458,.T.);
#379=EDGE_CURVE('',#459,#460,#461,.T.);
#380=EDGE_CURVE('',#459,#462,#463,.T.);
#381=EDGE_CURVE('',#464,#462,#465,.T.);
#382=EDGE_CURVE('',#460,#464,#466,.T.);
#383=EDGE_CURVE('',#467,#460,#468,.T.);
#384=EDGE_CURVE('',#467,#469,#470,.T.);
#385=EDGE_CURVE('',#471,#469,#472,.T.);
#386=EDGE_CURVE('',#471,#454,#473,.T.);
#387=EDGE_CURVE('',#406,#451,#474,.T.);
#388=EDGE_CURVE('',#459,#419,#475,.T.);
#389=EDGE_CURVE('',#464,#476,#477,.T.);
#390=EDGE_CURVE('',#467,#476,#478,.T.);
#391=EDGE_CURVE('',#471,#479,#480,.T.);
#392=EDGE_CURVE('',#456,#479,#481,.T.);
#393=EDGE_CURVE('',#482,#476,#483,.T.);
#394=EDGE_CURVE('',#469,#482,#484,.T.);
#395=EDGE_CURVE('',#416,#462,#485,.T.);
#396=EDGE_CURVE('',#449,#408,#486,.T.);
#397=EDGE_CURVE('',#482,#479,#487,.T.);
#398=VERTEX_POINT('',#488);
#399=VERTEX_POINT('',#489);
#400=CIRCLE('',#490,2.0);
#401=VERTEX_POINT('',#491);
#402=LINE('',#492,#493);
#403=VERTEX_POINT('',#494);
#404=CIRCLE('',#495,2.0);
#405=LINE('',#496,#497);
#406=VERTEX_POINT('',#498);
#407=LINE('',#499,#500);
#408=VERTEX_POINT('',#501);
#409=LINE('',#502,#503);
#410=LINE('',#504,#505);
#411=VERTEX_POINT('',#506);
#412=LINE('',#507,#508);
#413=VERTEX_POINT('',#509);
#414=LINE('',#510,#511);
#415=LINE('',#512,#513);
#416=VERTEX_POINT('',#514);
#417=VERTEX_POINT('',#515);
#418=CIRCLE('',#516,2.0);
#419=VERTEX_POINT('',#517);
#420=LINE('',#518,#519);
#421=VERTEX_POINT('',#520);
#422=CIRCLE('',#521,2.0);
#423=LINE('',#522,#523);
#424=VERTEX_POINT('',#524);
#425=LINE('',#525,#526);
#426=VERTEX_POINT('',#527);
#427=LINE('',#528,#529);
#428=LINE('',#530,#531);
#429=VERTEX_POINT('',#532);
#430=CIRCLE('',#533,2.0);
#431=VERTEX_POINT('',#534);
#432=LINE('',#535,#536);
#433=CIRCLE('',#537,2.0);
#434=VERTEX_POINT('',#538);
#435=CIRCLE('',#539,2.0);
#436=VERTEX_POINT('',#540);
#437=CIRCLE('',#541,2.0);
#438=LINE('',#542,#543);
#439=LINE('',#544,#545);
#440=LINE('',#546,#547);
#441=VERTEX_POINT('',#548);
#442=VERTEX_POINT('',#549);
#443=CIRCLE('',#550,2.0);
#444=VERTEX_POINT('',#551);
#445=LINE('',#552,#553);
#446=VERTEX_POINT('',#554);
#447=CIRCLE('',#555,2.0);
#448=LINE('',#556,#557);
#449=VERTEX_POINT('',#558);
#450=LINE('',#559,#560);
#451=VERTEX_POINT('',#561);
#452=LINE('',#562,#563);
#453=LINE('',#564,#565);
#454=VERTEX_POINT('',#566);
#455=LINE('',#567,#568);
#456=VERTEX_POINT('',#569);
#457=LINE('',#570,#571);
#458=LINE('',#572,#573);
#459=VERTEX_POINT('',#574);
#460=VERTEX_POINT('',#575);
#461=CIRCLE('',#576,2.0);
#462=VERTEX_POINT('',#577);
#463=LINE('',#578,#579);
#464=VERTEX_POINT('',#580);
#465=CIRCLE('',#581,2.0);
#466=LINE('',#582,#583);
#467=VERTEX_POINT('',#584);
#468=LINE('',#585,#586);
#469=VERTEX_POINT('',#587);
#470=CIRCLE('',#588,2.0);
#471=VERTEX_POINT('',#589);
#472=LINE('',#590,#591);
#473=CIRCLE('',#592,2.0);
#474=LINE('',#593,#594);
#475=LINE('',#595,#596);
#476=VERTEX_POINT('',#597);
#477=LINE('',#598,#599);
#478=LINE('',#600,#601);
#479=VERTEX_POINT('',#602);
#480=LINE('',#603,#604);
#481=CIRCLE('',#605,2.0);
#482=VERTEX_POINT('',#606);
#483=CIRCLE('',#607,2.0);
#484=LINE('',#608,#609);
#485=LINE('',#610,#611);
#486=LINE('',#612,#613);
#487=LINE('',#614,#615);
#488=CARTESIAN_POINT('',(-39.35,15.0,9.99999999999999));
#489=CARTESIAN_POINT('',(-37.9824555320337,13.102633403899,9.99999999999999));
#490=AXIS2_PLACEMENT_3D('',#616,#617,#618);
#491=CARTESIAN_POINT('',(-37.9824555320337,13.102633403899,-5.32907051820075E-015));
#492=CARTESIAN_POINT('',(-37.9824555320337,13.102633403899,-5.32907051820075E-015));
#493=VECTOR('',#619,1.0);
#494=CARTESIAN_POINT('',(-39.35,15.0,-5.32907051820075E-015));
#495=AXIS2_PLACEMENT_3D('',#620,#621,#622);
#496=CARTESIAN_POINT('',(-39.35,15.0,5.0));
#497=VECTOR('',#623,1.0);
#498=CARTESIAN_POINT('',(-24.35,10.0,10.0));
#499=CARTESIAN_POINT('',(-37.9824555320337,13.102633403899,9.99999999999999));
#500=VECTOR('',#624,0.999999999999999);
#501=CARTESIAN_POINT('',(-24.35,10.0,-1.77635683940025E-015));
#502=CARTESIAN_POINT('',(-24.35,10.0,5.0));
#503=VECTOR('',#625,1.0);
#504=CARTESIAN_POINT('',(-37.9824555320337,13.102633403899,-5.32907051820075E-015));
#505=VECTOR('',#626,0.999999999999999);
#506=CARTESIAN_POINT('',(-39.35,39.0,-5.32907051820075E-015));
#507=CARTESIAN_POINT('',(-39.35,41.0,-5.32907051820075E-015));
#508=VECTOR('',#627,1.0);
#509=CARTESIAN_POINT('',(-39.35,39.0,9.99999999999999));
#510=CARTESIAN_POINT('',(-39.35,39.0,5.0));
#511=VECTOR('',#628,1.0);
#512=CARTESIAN_POINT('',(-39.35,41.0,9.99999999999999));
#513=VECTOR('',#629,1.0);
#514=CARTESIAN_POINT('',(-58.65,3.67381906146713E-016,-7.105427357601E-015));
#515=CARTESIAN_POINT('',(-60.65,2.0,-7.105427357601E-015));
#516=AXIS2_PLACEMENT_3D('',#630,#631,#632);
#517=CARTESIAN_POINT('',(-58.65,3.67381906146713E-016,9.99999999999999));
#518=CARTESIAN_POINT('',(-58.65,0.0,4.99999999999999));
#519=VECTOR('',#633,1.0);
#520=CARTESIAN_POINT('',(-60.65,2.0,9.99999999999999));
#521=AXIS2_PLACEMENT_3D('',#634,#635,#636);
#522=CARTESIAN_POINT('',(-60.65,2.0,4.99999999999999));
#523=VECTOR('',#637,1.0);
#524=CARTESIAN_POINT('',(-60.65,39.0,9.99999999999999));
#525=CARTESIAN_POINT('',(-60.65,0.0,9.99999999999999));
#526=VECTOR('',#638,1.0);
#527=CARTESIAN_POINT('',(-60.65,39.0,-7.105427357601E-015));
#528=CARTESIAN_POINT('',(-60.65,39.0,4.99999999999999));
#529=VECTOR('',#639,1.0);
#530=CARTESIAN_POINT('',(-60.65,0.0,-7.105427357601E-015));
#531=VECTOR('',#640,1.0);
#532=CARTESIAN_POINT('',(-41.35,41.0,-5.32907051820075E-015));
#533=AXIS2_PLACEMENT_3D('',#641,#642,#643);
#534=CARTESIAN_POINT('',(-41.35,41.0,9.99999999999999));
#535=CARTESIAN_POINT('',(-41.35,41.0,4.99999999999999));
#536=VECTOR('',#644,1.0);
#537=AXIS2_PLACEMENT_3D('',#645,#646,#647);
#538=CARTESIAN_POINT('',(-58.65,41.0,-7.105427357601E-015));
#539=AXIS2_PLACEMENT_3D('',#648,#649,#650);
#540=CARTESIAN_POINT('',(-58.65,41.0,9.99999999999999));
#541=AXIS2_PLACEMENT_3D('',#651,#652,#653);
#542=CARTESIAN_POINT('',(-58.65,41.0,4.99999999999999));
#543=VECTOR('',#654,1.0);
#544=CARTESIAN_POINT('',(-60.65,41.0,-7.105427357601E-015));
#545=VECTOR('',#655,1.0);
#546=CARTESIAN_POINT('',(-60.65,41.0,9.99999999999999));
#547=VECTOR('',#656,1.0);
#548=CARTESIAN_POINT('',(39.35,15.0,0.0));
#549=CARTESIAN_POINT('',(37.9824555320337,13.102633403899,0.0));
#550=AXIS2_PLACEMENT_3D('',#657,#658,#659);
#551=CARTESIAN_POINT('',(37.9824555320337,13.102633403899,10.0));
#552=CARTESIAN_POINT('',(37.9824555320337,13.102633403899,10.0));
#553=VECTOR('',#660,1.0);
#554=CARTESIAN_POINT('',(39.35,15.0,10.0));
#555=AXIS2_PLACEMENT_3D('',#661,#662,#663);
#556=CARTESIAN_POINT('',(39.35,15.0,5.0));
#557=VECTOR('',#664,1.0);
#558=CARTESIAN_POINT('',(24.35,10.0,-1.77635683940025E-015));
#559=CARTESIAN_POINT('',(37.9824555320337,13.102633403899,0.0));
#560=VECTOR('',#665,0.999999999999999);
#561=CARTESIAN_POINT('',(24.35,10.0,10.0));
#562=CARTESIAN_POINT('',(24.35,10.0,5.0));
#563=VECTOR('',#666,1.0);
#564=CARTESIAN_POINT('',(37.9824555320337,13.102633403899,10.0));
#565=VECTOR('',#667,1.0);
#566=CARTESIAN_POINT('',(39.35,39.0,10.0));
#567=CARTESIAN_POINT('',(39.35,41.0,10.0));
#568=VECTOR('',#668,1.0);
#569=CARTESIAN_POINT('',(39.35,39.0,0.0));
#570=CARTESIAN_POINT('',(39.35,39.0,5.0));
#571=VECTOR('',#669,1.0);
#572=CARTESIAN_POINT('',(39.35,41.0,0.0));
#573=VECTOR('',#670,1.0);
#574=CARTESIAN_POINT('',(58.65,3.67381906146713E-016,10.0));
#575=CARTESIAN_POINT('',(60.65,2.0,10.0));
#576=AXIS2_PLACEMENT_3D('',#671,#672,#673);
#577=CARTESIAN_POINT('',(58.65,3.67381906146713E-016,0.0));
#578=CARTESIAN_POINT('',(58.65,0.0,5.0));
#579=VECTOR('',#674,1.0);
#580=CARTESIAN_POINT('',(60.65,2.0,0.0));
#581=AXIS2_PLACEMENT_3D('',#675,#676,#677);
#582=CARTESIAN_POINT('',(60.65,2.0,5.0));
#583=VECTOR('',#678,1.0);
#584=CARTESIAN_POINT('',(60.65,39.0,10.0));
#585=CARTESIAN_POINT('',(60.65,0.0,10.0));
#586=VECTOR('',#679,1.0);
#587=CARTESIAN_POINT('',(58.65,41.0,10.0));
#588=AXIS2_PLACEMENT_3D('',#680,#681,#682);
#589=CARTESIAN_POINT('',(41.35,41.0,10.0));
#590=CARTESIAN_POINT('',(60.65,41.0,10.0));
#591=VECTOR('',#683,1.0);
#592=AXIS2_PLACEMENT_3D('',#684,#685,#686);
#593=CARTESIAN_POINT('',(39.35,10.0,10.0));
#594=VECTOR('',#687,1.0);
#595=CARTESIAN_POINT('',(0.0,0.0,10.0));
#596=VECTOR('',#688,1.0);
#597=CARTESIAN_POINT('',(60.65,39.0,0.0));
#598=CARTESIAN_POINT('',(60.65,0.0,0.0));
#599=VECTOR('',#689,1.0);
#600=CARTESIAN_POINT('',(60.65,39.0,5.0));
#601=VECTOR('',#690,1.0);
#602=CARTESIAN_POINT('',(41.35,41.0,0.0));
#603=CARTESIAN_POINT('',(41.35,41.0,5.0));
#604=VECTOR('',#691,1.0);
#605=AXIS2_PLACEMENT_3D('',#692,#693,#694);
#606=CARTESIAN_POINT('',(58.65,41.0,0.0));
#607=AXIS2_PLACEMENT_3D('',#695,#696,#697);
#608=CARTESIAN_POINT('',(58.65,41.0,5.0));
#609=VECTOR('',#698,1.0);
#610=CARTESIAN_POINT('',(0.0,0.0,0.0));
#611=VECTOR('',#699,1.0);
#612=CARTESIAN_POINT('',(39.35,10.0,0.0));
#613=VECTOR('',#700,1.0);
#614=CARTESIAN_POINT('',(60.65,41.0,0.0));
#615=VECTOR('',#701,1.0);
#616=CARTESIAN_POINT('',(-37.35,15.0,9.99999999999999));
#617=DIRECTION('',(-2.44921270764475E-016,0.0,1.0));
#618=DIRECTION('',(1.0,0.0,2.44921270764475E-016));
#619=DIRECTION('',(-2.44921270764475E-016,0.0,1.0));
#620=CARTESIAN_POINT('',(-37.35,15.0,-5.32907051820075E-015));
#621=DIRECTION('',(-2.44921270764475E-016,0.0,1.0));
#622=DIRECTION('',(1.0,0.0,2.44921270764475E-016));
#623=DIRECTION('',(2.44921270764475E-016,0.0,-1.0));
#624=DIRECTION('',(0.975065601592638,-0.221916814574261,2.38814306220797E-016));
#625=DIRECTION('',(-2.44921270764475E-016,-1.65845326977284E-032,1.0));
#626=DIRECTION('',(0.975065601592638,-0.221916814574261,2.38814306220797E-016));
#627=DIRECTION('',(0.0,1.0,0.0));
#628=DIRECTION('',(-1.22460635382238E-016,0.0,1.0));
#629=DIRECTION('',(0.0,-1.0,0.0));
#630=CARTESIAN_POINT('',(-58.65,2.0,-7.105427357601E-015));
#631=DIRECTION('',(1.22460635382238E-016,0.0,-1.0));
#632=DIRECTION('',(1.83690953073357E-016,-1.0,2.24949108273321E-032));
#633=DIRECTION('',(-1.22460635382238E-016,0.0,1.0));
#634=CARTESIAN_POINT('',(-58.65,2.0,9.99999999999999));
#635=DIRECTION('',(-1.22460635382238E-016,0.0,1.0));
#636=DIRECTION('',(1.83690953073357E-016,-1.0,2.24949108273321E-032));
#637=DIRECTION('',(-1.22460635382238E-016,0.0,1.0));
#638=DIRECTION('',(0.0,1.0,0.0));
#639=DIRECTION('',(-1.22460635382238E-016,0.0,1.0));
#640=DIRECTION('',(0.0,-1.0,0.0));
#641=CARTESIAN_POINT('',(-41.35,39.0,-5.32907051820075E-015));
#642=DIRECTION('',(1.22460635382238E-016,0.0,-1.0));
#643=DIRECTION('',(-6.12303176911189E-017,1.0,-7.49830360911069E-033));
#644=DIRECTION('',(-1.22460635382238E-016,0.0,1.0));
#645=CARTESIAN_POINT('',(-41.35,39.0,9.99999999999999));
#646=DIRECTION('',(-1.22460635382238E-016,0.0,1.0));
#647=DIRECTION('',(-6.12303176911189E-017,1.0,-7.49830360911069E-033));
#648=CARTESIAN_POINT('',(-58.65,39.0,-7.105427357601E-015));
#649=DIRECTION('',(1.22460635382238E-016,0.0,-1.0));
#650=DIRECTION('',(-1.0,0.0,-1.22460635382238E-016));
#651=CARTESIAN_POINT('',(-58.65,39.0,9.99999999999999));
#652=DIRECTION('',(-1.22460635382238E-016,0.0,1.0));
#653=DIRECTION('',(-1.0,0.0,-1.22460635382238E-016));
#654=DIRECTION('',(-1.22460635382238E-016,0.0,1.0));
#655=DIRECTION('',(-1.0,0.0,-1.22460635382238E-016));
#656=DIRECTION('',(1.0,0.0,1.22460635382238E-016));
#657=CARTESIAN_POINT('',(37.35,15.0,0.0));
#658=DIRECTION('',(1.22460635382238E-016,0.0,-1.0));
#659=DIRECTION('',(-1.0,0.0,-1.22460635382238E-016));
#660=DIRECTION('',(1.22460635382238E-016,0.0,-1.0));
#661=CARTESIAN_POINT('',(37.35,15.0,10.0));
#662=DIRECTION('',(1.22460635382238E-016,0.0,-1.0));
#663=DIRECTION('',(-1.0,0.0,-1.22460635382238E-016));
#664=DIRECTION('',(-1.22460635382238E-016,0.0,1.0));
#665=DIRECTION('',(-0.975065601592638,-0.221916814574261,-1.19407153110398E-016));
#666=DIRECTION('',(1.22460635382238E-016,-1.65845326977284E-032,-1.0));
#667=DIRECTION('',(-0.975065601592638,-0.221916814574261,-1.19407153110398E-016));
#668=DIRECTION('',(0.0,1.0,0.0));
#669=DIRECTION('',(0.0,0.0,-1.0));
#670=DIRECTION('',(0.0,-1.0,0.0));
#671=CARTESIAN_POINT('',(58.65,2.0,10.0));
#672=DIRECTION('',(0.0,0.0,1.0));
#673=DIRECTION('',(-1.83690953073357E-016,-1.0,0.0));
#674=DIRECTION('',(0.0,0.0,-1.0));
#675=CARTESIAN_POINT('',(58.65,2.0,0.0));
#676=DIRECTION('',(0.0,0.0,-1.0));
#677=DIRECTION('',(-1.83690953073357E-016,-1.0,0.0));
#678=DIRECTION('',(0.0,0.0,-1.0));
#679=DIRECTION('',(0.0,-1.0,0.0));
#680=CARTESIAN_POINT('',(58.65,39.0,10.0));
#681=DIRECTION('',(0.0,0.0,1.0));
#682=DIRECTION('',(1.0,0.0,0.0));
#683=DIRECTION('',(1.0,0.0,0.0));
#684=CARTESIAN_POINT('',(41.35,39.0,10.0));
#685=DIRECTION('',(0.0,0.0,1.0));
#686=DIRECTION('',(6.12303176911189E-017,1.0,0.0));
#687=DIRECTION('',(1.0,-1.35427459166474E-016,0.0));
#688=DIRECTION('',(-1.0,0.0,-1.22460635382238E-016));
#689=DIRECTION('',(0.0,1.0,0.0));
#690=DIRECTION('',(0.0,0.0,-1.0));
#691=DIRECTION('',(0.0,0.0,-1.0));
#692=CARTESIAN_POINT('',(41.35,39.0,0.0));
#693=DIRECTION('',(0.0,0.0,-1.0));
#694=DIRECTION('',(6.12303176911189E-017,1.0,0.0));
#695=CARTESIAN_POINT('',(58.65,39.0,0.0));
#696=DIRECTION('',(0.0,0.0,-1.0));
#697=DIRECTION('',(1.0,0.0,0.0));
#698=DIRECTION('',(0.0,0.0,-1.0));
#699=DIRECTION('',(1.0,0.0,0.0));
#700=DIRECTION('',(-1.0,1.35427459166474E-016,0.0));
#701=DIRECTION('',(-1.0,0.0,0.0));
ENDSEC;
END-ISO-10303-21;
