ISO-10303-21;
HEADER;
FILE_DESCRIPTION(('STEP AP203'),'1');
FILE_NAME('C:/TPO v2/SharedFS/Outgoing/pa_200_80.stp','2014-08-06T06:54:27',('TraceParts'),('TraceParts S.A.'),'XStep 1.0',' ',' ');
FILE_SCHEMA(('CONFIG_CONTROL_DESIGN'));
ENDSEC;
DATA;
#1=DESIGN_CONTEXT('',#27,'design');
#2=APPLICATION_PROTOCOL_DEFINITION('INTERNATIONAL STANDARD','config_control_design',1994,#27);
#3=PRODUCT_CATEGORY_RELATIONSHIP('NONE','NONE',#28,#29);
#4=DATE_AND_TIME(#30,#31);
#5=DATE_TIME_ROLE('creation_date');
#6=DATE_TIME_ROLE('classification_date');
#7=PERSON_AND_ORGANIZATION_ROLE('creator');
#8=PERSON_AND_ORGANIZATION_ROLE('design_supplier');
#9=PERSON_AND_ORGANIZATION_ROLE('classification_officer');
#10=PERSON_AND_ORGANIZATION_ROLE('design_owner');
#11=APPROVAL_PERSON_ORGANIZATION(#32,#33,#34);
#12=APPROVAL_DATE_TIME(#4,#33);
#13=CC_DESIGN_APPROVAL(#33,(#35,#36,#37));
#14=CC_DESIGN_DATE_AND_TIME_ASSIGNMENT(#4,#5,(#37));
#15=CC_DESIGN_DATE_AND_TIME_ASSIGNMENT(#4,#6,(#35));
#16=CC_DESIGN_PERSON_AND_ORGANIZATION_ASSIGNMENT(#32,#10,(#38));
#17=CC_DESIGN_PERSON_AND_ORGANIZATION_ASSIGNMENT(#32,#7,(#37));
#18=CC_DESIGN_PERSON_AND_ORGANIZATION_ASSIGNMENT(#32,#7,(#36));
#19=CC_DESIGN_PERSON_AND_ORGANIZATION_ASSIGNMENT(#32,#8,(#36));
#20=CC_DESIGN_SECURITY_CLASSIFICATION(#35,(#36));
#21=CC_DESIGN_PERSON_AND_ORGANIZATION_ASSIGNMENT(#32,#9,(#35));
#22=SHAPE_DEFINITION_REPRESENTATION(#39,#40);
#23= (GEOMETRIC_REPRESENTATION_CONTEXT(3)GLOBAL_UNCERTAINTY_ASSIGNED_CONTEXT((#43))GLOBAL_UNIT_ASSIGNED_CONTEXT((#45,#46,#47))REPRESENTATION_CONTEXT('NONE','WORKSPACE'));
#27=APPLICATION_CONTEXT('CONFIGURATION CONTROLLED 3D DESIGNS OF MECHANICAL PARTS AND ASSEMBLIES');
#28=PRODUCT_CATEGORY('part','NONE');
#29=PRODUCT_RELATED_PRODUCT_CATEGORY('detail',' ',(#38));
#30=CALENDAR_DATE(2014,6,7);
#31=LOCAL_TIME(8,54,27.0,#49);
#32=PERSON_AND_ORGANIZATION(#50,#51);
#33=APPROVAL(#52,'SOLID MODEL');
#34=APPROVAL_ROLE('APPROVED');
#35=SECURITY_CLASSIFICATION('','',#53);
#36=PRODUCT_DEFINITION_FORMATION_WITH_SPECIFIED_SOURCE(' ','NONE',#38,.NOT_KNOWN.);
#37=PRODUCT_DEFINITION('NONE','NONE',#36,#1);
#38=PRODUCT('1','1','PART-1-DESC',(#54));
#39=PRODUCT_DEFINITION_SHAPE('NONE','NONE',#37);
#40=ADVANCED_BREP_SHAPE_REPRESENTATION('1',(#55,#56),#23);
#43=UNCERTAINTY_MEASURE_WITH_UNIT(LENGTH_MEASURE(1.0E-006),#45,'','');
#45= (CONVERSION_BASED_UNIT('MILLIMETRE',#59)LENGTH_UNIT()NAMED_UNIT(#62));
#46= (NAMED_UNIT(#64)PLANE_ANGLE_UNIT()SI_UNIT($,.RADIAN.));
#47= (NAMED_UNIT(#64)SOLID_ANGLE_UNIT()SI_UNIT($,.STERADIAN.));
#49=COORDINATED_UNIVERSAL_TIME_OFFSET(1,0,.AHEAD.);
#50=PERSON('','UNSPECIFIED',$,$,$,$);
#51=ORGANIZATION('UNSPECIFIED','UNSPECIFIED','UNSPECIFIED');
#52=APPROVAL_STATUS('approved');
#53=SECURITY_CLASSIFICATION_LEVEL('unclassified');
#54=MECHANICAL_CONTEXT('',#27,'mechanical');
#55=MANIFOLD_SOLID_BREP('1',#70);
#56=AXIS2_PLACEMENT_3D('',#71,#72,#73);
#59=LENGTH_MEASURE_WITH_UNIT(LENGTH_MEASURE(1.0),#74);
#62=DIMENSIONAL_EXPONENTS(1.0,0.0,0.0,0.0,0.0,0.0,0.0);
#64=DIMENSIONAL_EXPONENTS(0.0,0.0,0.0,0.0,0.0,0.0,0.0);
#70=CLOSED_SHELL('',(#75,#76,#77,#78,#79,#80,#81,#82,#83,#84,#85,#86,#87));
#71=CARTESIAN_POINT('',(0.0,0.0,0.0));
#72=DIRECTION('',(0.0,0.0,1.0));
#73=DIRECTION('',(1.0,0.0,0.0));
#74= (NAMED_UNIT(#62)LENGTH_UNIT()SI_UNIT(.MILLI.,.METRE.));
#75=ADVANCED_FACE('',(#89),#90,.T.);
#76=ADVANCED_FACE('',(#91),#92,.T.);
#77=ADVANCED_FACE('',(#93),#94,.T.);
#78=ADVANCED_FACE('',(#95),#96,.F.);
#79=ADVANCED_FACE('',(#97),#98,.F.);
#80=ADVANCED_FACE('',(#99),#100,.F.);
#81=ADVANCED_FACE('',(#101,#102),#103,.T.);
#82=ADVANCED_FACE('',(#104),#105,.F.);
#83=ADVANCED_FACE('',(#106),#107,.T.);
#84=ADVANCED_FACE('',(#108),#109,.T.);
#85=ADVANCED_FACE('',(#110),#111,.T.);
#86=ADVANCED_FACE('',(#112,#113),#114,.T.);
#87=ADVANCED_FACE('',(#115,#116),#117,.T.);
#89=FACE_OUTER_BOUND('',#118,.T.);
#90=CYLINDRICAL_SURFACE('',#119,100.0);
#91=FACE_OUTER_BOUND('',#120,.T.);
#92=TOROIDAL_SURFACE('',#121,98.4,1.6);
#93=FACE_OUTER_BOUND('',#122,.T.);
#94=TOROIDAL_SURFACE('',#123,98.4,1.6);
#95=FACE_OUTER_BOUND('',#124,.T.);
#96=CYLINDRICAL_SURFACE('',#125,70.0);
#97=FACE_OUTER_BOUND('',#126,.T.);
#98=CYLINDRICAL_SURFACE('',#127,27.5);
#99=FACE_OUTER_BOUND('',#128,.T.);
#100=CYLINDRICAL_SURFACE('',#129,27.5);
#101=FACE_BOUND('',#130,.T.);
#102=FACE_OUTER_BOUND('',#131,.T.);
#103=PLANE('',#132);
#104=FACE_OUTER_BOUND('',#133,.T.);
#105=CYLINDRICAL_SURFACE('',#134,70.0);
#106=FACE_OUTER_BOUND('',#135,.T.);
#107=TOROIDAL_SURFACE('',#136,98.4,1.6);
#108=FACE_OUTER_BOUND('',#137,.T.);
#109=TOROIDAL_SURFACE('',#138,98.4,1.6);
#110=FACE_OUTER_BOUND('',#139,.T.);
#111=CYLINDRICAL_SURFACE('',#140,100.0);
#112=FACE_BOUND('',#141,.T.);
#113=FACE_OUTER_BOUND('',#142,.T.);
#114=PLANE('',#143);
#115=FACE_BOUND('',#144,.T.);
#116=FACE_OUTER_BOUND('',#145,.T.);
#117=PLANE('',#146);
#118=EDGE_LOOP('',(#147,#148,#149,#150));
#119=AXIS2_PLACEMENT_3D('',#151,#152,#153);
#120=EDGE_LOOP('',(#154,#155,#156,#157));
#121=AXIS2_PLACEMENT_3D('',#158,#159,#160);
#122=EDGE_LOOP('',(#161,#162,#163,#164));
#123=AXIS2_PLACEMENT_3D('',#165,#166,#167);
#124=EDGE_LOOP('',(#168,#169,#170,#171));
#125=AXIS2_PLACEMENT_3D('',#172,#173,#174);
#126=EDGE_LOOP('',(#175,#176,#177,#178));
#127=AXIS2_PLACEMENT_3D('',#179,#180,#181);
#128=EDGE_LOOP('',(#182,#183,#184,#185));
#129=AXIS2_PLACEMENT_3D('',#186,#187,#188);
#130=EDGE_LOOP('',(#189,#190));
#131=EDGE_LOOP('',(#191,#192));
#132=AXIS2_PLACEMENT_3D('',#193,#194,#195);
#133=EDGE_LOOP('',(#196,#197,#198,#199));
#134=AXIS2_PLACEMENT_3D('',#200,#201,#202);
#135=EDGE_LOOP('',(#203,#204,#205,#206,#207,#208));
#136=AXIS2_PLACEMENT_3D('',#209,#210,#211);
#137=EDGE_LOOP('',(#212,#213,#214,#215,#216,#217));
#138=AXIS2_PLACEMENT_3D('',#218,#219,#220);
#139=EDGE_LOOP('',(#221,#222,#223,#224,#225,#226));
#140=AXIS2_PLACEMENT_3D('',#227,#228,#229);
#141=EDGE_LOOP('',(#230,#231));
#142=EDGE_LOOP('',(#232,#233,#234));
#143=AXIS2_PLACEMENT_3D('',#235,#236,#237);
#144=EDGE_LOOP('',(#238,#239));
#145=EDGE_LOOP('',(#240,#241,#242));
#146=AXIS2_PLACEMENT_3D('',#243,#244,#245);
#147=ORIENTED_EDGE('',*,*,#246,.F.);
#148=ORIENTED_EDGE('',*,*,#247,.T.);
#149=ORIENTED_EDGE('',*,*,#248,.F.);
#150=ORIENTED_EDGE('',*,*,#249,.F.);
#151=CARTESIAN_POINT('',(40.0,0.0,0.0));
#152=DIRECTION('',(-1.0,0.0,0.0));
#153=DIRECTION('',(0.0,0.0,-1.0));
#154=ORIENTED_EDGE('',*,*,#250,.F.);
#155=ORIENTED_EDGE('',*,*,#249,.T.);
#156=ORIENTED_EDGE('',*,*,#251,.F.);
#157=ORIENTED_EDGE('',*,*,#252,.F.);
#158=CARTESIAN_POINT('',(78.4,-9.79685083057902E-017,0.0));
#159=DIRECTION('',(1.0,6.12303176911189E-017,0.0));
#160=DIRECTION('',(0.0,0.0,1.0));
#161=ORIENTED_EDGE('',*,*,#253,.F.);
#162=ORIENTED_EDGE('',*,*,#247,.F.);
#163=ORIENTED_EDGE('',*,*,#254,.F.);
#164=ORIENTED_EDGE('',*,*,#255,.F.);
#165=CARTESIAN_POINT('',(1.6,-9.79685083057902E-017,1.9593701661158E-016));
#166=DIRECTION('',(-1.0,6.12303176911189E-017,-1.22460635382238E-016));
#167=DIRECTION('',(1.22460635382238E-016,0.0,-1.0));
#168=ORIENTED_EDGE('',*,*,#256,.F.);
#169=ORIENTED_EDGE('',*,*,#257,.T.);
#170=ORIENTED_EDGE('',*,*,#258,.F.);
#171=ORIENTED_EDGE('',*,*,#259,.F.);
#172=CARTESIAN_POINT('',(40.0,0.0,0.0));
#173=DIRECTION('',(-1.0,0.0,0.0));
#174=DIRECTION('',(0.0,0.0,-1.0));
#175=ORIENTED_EDGE('',*,*,#260,.F.);
#176=ORIENTED_EDGE('',*,*,#261,.F.);
#177=ORIENTED_EDGE('',*,*,#262,.F.);
#178=ORIENTED_EDGE('',*,*,#263,.F.);
#179=CARTESIAN_POINT('',(40.0,0.0,0.0));
#180=DIRECTION('',(-1.0,0.0,0.0));
#181=DIRECTION('',(0.0,0.0,-1.0));
#182=ORIENTED_EDGE('',*,*,#260,.T.);
#183=ORIENTED_EDGE('',*,*,#264,.F.);
#184=ORIENTED_EDGE('',*,*,#262,.T.);
#185=ORIENTED_EDGE('',*,*,#265,.F.);
#186=CARTESIAN_POINT('',(40.0,0.0,0.0));
#187=DIRECTION('',(-1.0,0.0,0.0));
#188=DIRECTION('',(0.0,0.0,-1.0));
#189=ORIENTED_EDGE('',*,*,#264,.T.);
#190=ORIENTED_EDGE('',*,*,#263,.T.);
#191=ORIENTED_EDGE('',*,*,#257,.F.);
#192=ORIENTED_EDGE('',*,*,#266,.F.);
#193=CARTESIAN_POINT('',(11.0,0.0,0.0));
#194=DIRECTION('',(-1.0,0.0,0.0));
#195=DIRECTION('',(0.0,0.0,1.0));
#196=ORIENTED_EDGE('',*,*,#256,.T.);
#197=ORIENTED_EDGE('',*,*,#267,.F.);
#198=ORIENTED_EDGE('',*,*,#258,.T.);
#199=ORIENTED_EDGE('',*,*,#266,.T.);
#200=CARTESIAN_POINT('',(40.0,0.0,0.0));
#201=DIRECTION('',(-1.0,0.0,0.0));
#202=DIRECTION('',(0.0,0.0,-1.0));
#203=ORIENTED_EDGE('',*,*,#253,.T.);
#204=ORIENTED_EDGE('',*,*,#268,.F.);
#205=ORIENTED_EDGE('',*,*,#269,.F.);
#206=ORIENTED_EDGE('',*,*,#254,.T.);
#207=ORIENTED_EDGE('',*,*,#270,.F.);
#208=ORIENTED_EDGE('',*,*,#271,.F.);
#209=CARTESIAN_POINT('',(1.6,-9.79685083057902E-017,1.9593701661158E-016));
#210=DIRECTION('',(-1.0,6.12303176911189E-017,-1.22460635382238E-016));
#211=DIRECTION('',(1.22460635382238E-016,0.0,-1.0));
#212=ORIENTED_EDGE('',*,*,#250,.T.);
#213=ORIENTED_EDGE('',*,*,#272,.F.);
#214=ORIENTED_EDGE('',*,*,#273,.F.);
#215=ORIENTED_EDGE('',*,*,#251,.T.);
#216=ORIENTED_EDGE('',*,*,#274,.T.);
#217=ORIENTED_EDGE('',*,*,#275,.T.);
#218=CARTESIAN_POINT('',(78.4,-9.79685083057902E-017,0.0));
#219=DIRECTION('',(1.0,6.12303176911189E-017,0.0));
#220=DIRECTION('',(0.0,0.0,1.0));
#221=ORIENTED_EDGE('',*,*,#246,.T.);
#222=ORIENTED_EDGE('',*,*,#275,.F.);
#223=ORIENTED_EDGE('',*,*,#274,.F.);
#224=ORIENTED_EDGE('',*,*,#248,.T.);
#225=ORIENTED_EDGE('',*,*,#271,.T.);
#226=ORIENTED_EDGE('',*,*,#270,.T.);
#227=CARTESIAN_POINT('',(40.0,0.0,0.0));
#228=DIRECTION('',(-1.0,0.0,0.0));
#229=DIRECTION('',(0.0,0.0,-1.0));
#230=ORIENTED_EDGE('',*,*,#267,.T.);
#231=ORIENTED_EDGE('',*,*,#259,.T.);
#232=ORIENTED_EDGE('',*,*,#268,.T.);
#233=ORIENTED_EDGE('',*,*,#255,.T.);
#234=ORIENTED_EDGE('',*,*,#269,.T.);
#235=CARTESIAN_POINT('',(0.0,0.0,0.0));
#236=DIRECTION('',(-1.0,0.0,0.0));
#237=DIRECTION('',(0.0,0.0,1.0));
#238=ORIENTED_EDGE('',*,*,#261,.T.);
#239=ORIENTED_EDGE('',*,*,#265,.T.);
#240=ORIENTED_EDGE('',*,*,#272,.T.);
#241=ORIENTED_EDGE('',*,*,#252,.T.);
#242=ORIENTED_EDGE('',*,*,#273,.T.);
#243=CARTESIAN_POINT('',(80.0,0.0,0.0));
#244=DIRECTION('',(1.0,0.0,0.0));
#245=DIRECTION('',(0.0,0.0,-1.0));
#246=EDGE_CURVE('',#276,#277,#278,.T.);
#247=EDGE_CURVE('',#276,#279,#280,.T.);
#248=EDGE_CURVE('',#281,#279,#282,.T.);
#249=EDGE_CURVE('',#277,#281,#283,.T.);
#250=EDGE_CURVE('',#277,#284,#285,.T.);
#251=EDGE_CURVE('',#286,#281,#287,.T.);
#252=EDGE_CURVE('',#284,#286,#288,.T.);
#253=EDGE_CURVE('',#279,#289,#290,.T.);
#254=EDGE_CURVE('',#291,#276,#292,.T.);
#255=EDGE_CURVE('',#289,#291,#293,.T.);
#256=EDGE_CURVE('',#294,#295,#296,.T.);
#257=EDGE_CURVE('',#294,#297,#298,.T.);
#258=EDGE_CURVE('',#299,#297,#300,.T.);
#259=EDGE_CURVE('',#295,#299,#301,.T.);
#260=EDGE_CURVE('',#302,#303,#304,.T.);
#261=EDGE_CURVE('',#305,#302,#306,.T.);
#262=EDGE_CURVE('',#307,#305,#308,.T.);
#263=EDGE_CURVE('',#303,#307,#309,.T.);
#264=EDGE_CURVE('',#307,#303,#310,.T.);
#265=EDGE_CURVE('',#302,#305,#311,.T.);
#266=EDGE_CURVE('',#297,#294,#312,.T.);
#267=EDGE_CURVE('',#299,#295,#313,.T.);
#268=EDGE_CURVE('',#314,#289,#315,.T.);
#269=EDGE_CURVE('',#291,#314,#316,.T.);
#270=EDGE_CURVE('',#317,#276,#318,.T.);
#271=EDGE_CURVE('',#279,#317,#319,.T.);
#272=EDGE_CURVE('',#320,#284,#321,.T.);
#273=EDGE_CURVE('',#286,#320,#322,.T.);
#274=EDGE_CURVE('',#281,#323,#324,.T.);
#275=EDGE_CURVE('',#323,#277,#325,.T.);
#276=VERTEX_POINT('',#326);
#277=VERTEX_POINT('',#327);
#278=LINE('',#328,#329);
#279=VERTEX_POINT('',#330);
#280=CIRCLE('',#331,100.0);
#281=VERTEX_POINT('',#332);
#282=LINE('',#333,#334);
#283=CIRCLE('',#335,100.0);
#284=VERTEX_POINT('',#336);
#285=CIRCLE('',#337,1.6);
#286=VERTEX_POINT('',#338);
#287=CIRCLE('',#339,1.6);
#288=CIRCLE('',#340,98.4);
#289=VERTEX_POINT('',#341);
#290=CIRCLE('',#342,1.6);
#291=VERTEX_POINT('',#343);
#292=CIRCLE('',#344,1.6);
#293=CIRCLE('',#345,98.4);
#294=VERTEX_POINT('',#346);
#295=VERTEX_POINT('',#347);
#296=LINE('',#348,#349);
#297=VERTEX_POINT('',#350);
#298=CIRCLE('',#351,70.0);
#299=VERTEX_POINT('',#352);
#300=LINE('',#353,#354);
#301=CIRCLE('',#355,70.0);
#302=VERTEX_POINT('',#356);
#303=VERTEX_POINT('',#357);
#304=LINE('',#358,#359);
#305=VERTEX_POINT('',#360);
#306=CIRCLE('',#361,27.5);
#307=VERTEX_POINT('',#362);
#308=LINE('',#363,#364);
#309=CIRCLE('',#365,27.5);
#310=CIRCLE('',#366,27.5);
#311=CIRCLE('',#367,27.5);
#312=CIRCLE('',#368,70.0);
#313=CIRCLE('',#369,70.0);
#314=VERTEX_POINT('',#370);
#315=CIRCLE('',#371,98.4);
#316=CIRCLE('',#372,98.4);
#317=VERTEX_POINT('',#373);
#318=CIRCLE('',#374,100.0);
#319=CIRCLE('',#375,100.0);
#320=VERTEX_POINT('',#376);
#321=CIRCLE('',#377,98.4);
#322=CIRCLE('',#378,98.4);
#323=VERTEX_POINT('',#379);
#324=CIRCLE('',#380,100.0);
#325=CIRCLE('',#381,100.0);
#326=CARTESIAN_POINT('',(1.6,1.2148095029918E-014,-100.0));
#327=CARTESIAN_POINT('',(78.4,-1.23440320465296E-014,-100.0));
#328=CARTESIAN_POINT('',(40.0,-1.22460635382238E-014,-100.0));
#329=VECTOR('',#382,1.0);
#330=CARTESIAN_POINT('',(1.6,-1.23440320465296E-014,100.0));
#331=AXIS2_PLACEMENT_3D('',#383,#384,#385);
#332=CARTESIAN_POINT('',(78.4,1.2148095029918E-014,100.0));
#333=CARTESIAN_POINT('',(40.0,1.22460635382238E-014,100.0));
#334=VECTOR('',#386,1.0);
#335=AXIS2_PLACEMENT_3D('',#387,#388,#389);
#336=CARTESIAN_POINT('',(80.0,-1.20501265216122E-014,-98.4));
#337=AXIS2_PLACEMENT_3D('',#390,#391,#392);
#338=CARTESIAN_POINT('',(80.0,1.20501265216122E-014,98.4));
#339=AXIS2_PLACEMENT_3D('',#393,#394,#395);
#340=AXIS2_PLACEMENT_3D('',#396,#397,#398);
#341=CARTESIAN_POINT('',(0.0,-1.20501265216122E-014,98.4));
#342=AXIS2_PLACEMENT_3D('',#399,#400,#401);
#343=CARTESIAN_POINT('',(0.0,1.20501265216122E-014,-98.4));
#344=AXIS2_PLACEMENT_3D('',#402,#403,#404);
#345=AXIS2_PLACEMENT_3D('',#405,#406,#407);
#346=CARTESIAN_POINT('',(11.0,0.0,-70.0));
#347=CARTESIAN_POINT('',(0.0,-8.57224447675664E-015,-70.0));
#348=CARTESIAN_POINT('',(5.5,-8.57224447675664E-015,-70.0));
#349=VECTOR('',#408,1.0);
#350=CARTESIAN_POINT('',(11.0,8.57224447675664E-015,70.0));
#351=AXIS2_PLACEMENT_3D('',#409,#410,#411);
#352=CARTESIAN_POINT('',(0.0,-8.57224447675664E-015,70.0));
#353=CARTESIAN_POINT('',(5.5,8.57224447675664E-015,70.0));
#354=VECTOR('',#412,1.0);
#355=AXIS2_PLACEMENT_3D('',#413,#414,#415);
#356=CARTESIAN_POINT('',(80.0,-3.36766747301154E-015,-27.5));
#357=CARTESIAN_POINT('',(11.0,-3.36766747301154E-015,-27.5));
#358=CARTESIAN_POINT('',(40.0,-3.36766747301154E-015,-27.5));
#359=VECTOR('',#416,1.0);
#360=CARTESIAN_POINT('',(80.0,3.36766747301154E-015,27.5));
#361=AXIS2_PLACEMENT_3D('',#417,#418,#419);
#362=CARTESIAN_POINT('',(11.0,-3.36766747301154E-015,27.5));
#363=CARTESIAN_POINT('',(40.0,3.36766747301154E-015,27.5));
#364=VECTOR('',#420,1.0);
#365=AXIS2_PLACEMENT_3D('',#421,#422,#423);
#366=AXIS2_PLACEMENT_3D('',#424,#425,#426);
#367=AXIS2_PLACEMENT_3D('',#427,#428,#429);
#368=AXIS2_PLACEMENT_3D('',#430,#431,#432);
#369=AXIS2_PLACEMENT_3D('',#433,#434,#435);
#370=CARTESIAN_POINT('',(-7.105427357601E-015,-98.4,-7.37833075136492E-031));
#371=AXIS2_PLACEMENT_3D('',#436,#437,#438);
#372=AXIS2_PLACEMENT_3D('',#439,#440,#441);
#373=CARTESIAN_POINT('',(1.59999999999999,-100.0,1.9593701661158E-016));
#374=AXIS2_PLACEMENT_3D('',#442,#443,#444);
#375=AXIS2_PLACEMENT_3D('',#445,#446,#447);
#376=CARTESIAN_POINT('',(80.0,-98.4,0.0));
#377=AXIS2_PLACEMENT_3D('',#448,#449,#450);
#378=AXIS2_PLACEMENT_3D('',#451,#452,#453);
#379=CARTESIAN_POINT('',(78.4,-100.0,0.0));
#380=AXIS2_PLACEMENT_3D('',#454,#455,#456);
#381=AXIS2_PLACEMENT_3D('',#457,#458,#459);
#382=DIRECTION('',(1.0,0.0,0.0));
#383=CARTESIAN_POINT('',(1.6,-9.79685083057902E-017,1.9593701661158E-016));
#384=DIRECTION('',(1.0,0.0,0.0));
#385=DIRECTION('',(0.0,0.0,-1.0));
#386=DIRECTION('',(-1.0,0.0,0.0));
#387=CARTESIAN_POINT('',(78.4,-9.79685083057902E-017,0.0));
#388=DIRECTION('',(1.0,0.0,0.0));
#389=DIRECTION('',(0.0,0.0,-1.0));
#390=CARTESIAN_POINT('',(78.4,-1.2148095029918E-014,-98.4));
#391=DIRECTION('',(6.12303176911189E-017,-1.0,1.22460635382238E-016));
#392=DIRECTION('',(7.49830360911069E-033,-1.22460635382238E-016,-1.0));
#393=CARTESIAN_POINT('',(78.4,1.19521580133064E-014,98.4));
#394=DIRECTION('',(6.12303176911189E-017,-1.0,1.22460635382238E-016));
#395=DIRECTION('',(-7.49830360911069E-033,1.22460635382238E-016,1.0));
#396=CARTESIAN_POINT('',(80.0,1.84889274661175E-031,0.0));
#397=DIRECTION('',(1.0,0.0,0.0));
#398=DIRECTION('',(0.0,-1.0,0.0));
#399=CARTESIAN_POINT('',(1.59999999999999,-1.2148095029918E-014,98.4));
#400=DIRECTION('',(-6.12303176911188E-017,-1.0,-1.22460635382238E-016));
#401=DIRECTION('',(-1.22460635382238E-016,-1.22460635382238E-016,1.0));
#402=CARTESIAN_POINT('',(1.60000000000001,1.19521580133064E-014,-98.4));
#403=DIRECTION('',(-6.12303176911188E-017,-1.0,-1.22460635382238E-016));
#404=DIRECTION('',(1.22460635382238E-016,1.22460635382238E-016,-1.0));
#405=CARTESIAN_POINT('',(0.0,1.84889274661175E-031,-3.69778549322349E-031));
#406=DIRECTION('',(-1.0,0.0,0.0));
#407=DIRECTION('',(0.0,-1.0,-7.49830360911069E-033));
#408=DIRECTION('',(-1.0,0.0,0.0));
#409=CARTESIAN_POINT('',(11.0,0.0,0.0));
#410=DIRECTION('',(1.0,0.0,0.0));
#411=DIRECTION('',(0.0,0.0,-1.0));
#412=DIRECTION('',(1.0,0.0,0.0));
#413=CARTESIAN_POINT('',(0.0,0.0,0.0));
#414=DIRECTION('',(1.0,0.0,0.0));
#415=DIRECTION('',(0.0,0.0,-1.0));
#416=DIRECTION('',(-1.0,0.0,0.0));
#417=CARTESIAN_POINT('',(80.0,0.0,0.0));
#418=DIRECTION('',(-1.0,0.0,0.0));
#419=DIRECTION('',(0.0,0.0,-1.0));
#420=DIRECTION('',(1.0,0.0,0.0));
#421=CARTESIAN_POINT('',(11.0,0.0,0.0));
#422=DIRECTION('',(1.0,0.0,0.0));
#423=DIRECTION('',(0.0,0.0,-1.0));
#424=CARTESIAN_POINT('',(11.0,0.0,0.0));
#425=DIRECTION('',(1.0,0.0,0.0));
#426=DIRECTION('',(0.0,0.0,-1.0));
#427=CARTESIAN_POINT('',(80.0,0.0,0.0));
#428=DIRECTION('',(-1.0,0.0,0.0));
#429=DIRECTION('',(0.0,0.0,-1.0));
#430=CARTESIAN_POINT('',(11.0,0.0,0.0));
#431=DIRECTION('',(1.0,0.0,0.0));
#432=DIRECTION('',(0.0,0.0,-1.0));
#433=CARTESIAN_POINT('',(0.0,0.0,0.0));
#434=DIRECTION('',(1.0,0.0,0.0));
#435=DIRECTION('',(0.0,0.0,-1.0));
#436=CARTESIAN_POINT('',(0.0,1.84889274661175E-031,-3.69778549322349E-031));
#437=DIRECTION('',(-1.0,0.0,0.0));
#438=DIRECTION('',(0.0,-1.0,-7.49830360911069E-033));
#439=CARTESIAN_POINT('',(0.0,1.84889274661175E-031,-3.69778549322349E-031));
#440=DIRECTION('',(-1.0,0.0,0.0));
#441=DIRECTION('',(0.0,-1.0,-7.49830360911069E-033));
#442=CARTESIAN_POINT('',(1.6,-9.79685083057902E-017,1.9593701661158E-016));
#443=DIRECTION('',(1.0,0.0,0.0));
#444=DIRECTION('',(0.0,0.0,-1.0));
#445=CARTESIAN_POINT('',(1.6,-9.79685083057902E-017,1.9593701661158E-016));
#446=DIRECTION('',(1.0,0.0,0.0));
#447=DIRECTION('',(0.0,0.0,-1.0));
#448=CARTESIAN_POINT('',(80.0,1.84889274661175E-031,0.0));
#449=DIRECTION('',(1.0,0.0,0.0));
#450=DIRECTION('',(0.0,-1.0,0.0));
#451=CARTESIAN_POINT('',(80.0,1.84889274661175E-031,0.0));
#452=DIRECTION('',(1.0,0.0,0.0));
#453=DIRECTION('',(0.0,-1.0,0.0));
#454=CARTESIAN_POINT('',(78.4,-9.79685083057902E-017,0.0));
#455=DIRECTION('',(1.0,0.0,0.0));
#456=DIRECTION('',(0.0,0.0,-1.0));
#457=CARTESIAN_POINT('',(78.4,-9.79685083057902E-017,0.0));
#458=DIRECTION('',(1.0,0.0,0.0));
#459=DIRECTION('',(0.0,0.0,-1.0));
ENDSEC;
END-ISO-10303-21;
