ISO-10303-21;
HEADER;
FILE_DESCRIPTION(('STEP AP214'),'1');
FILE_NAME('C:/TPO v2/SharedFS/Outgoing/v_50_30.stp','2016-05-12T08:11:31',('TraceParts'),('TraceParts S.A.'),'Spatial InterOp 3D',' ',' ');
FILE_SCHEMA(('automotive_design'));
ENDSEC;
DATA;
#1=PRODUCT_DEFINITION_CONTEXT('',#9,'design');
#2=APPLICATION_PROTOCOL_DEFINITION('INTERNATIONAL STANDARD','automotive_design',1994,#9);
#3=PRODUCT_CATEGORY_RELATIONSHIP('NONE','NONE',#10,#11);
#4=SHAPE_DEFINITION_REPRESENTATION(#12,#13);
#5= (GEOMETRIC_REPRESENTATION_CONTEXT(3)GLOBAL_UNCERTAINTY_ASSIGNED_CONTEXT((#16))GLOBAL_UNIT_ASSIGNED_CONTEXT((#18,#19,#20))REPRESENTATION_CONTEXT('NONE','WORKSPACE'));
#9=APPLICATION_CONTEXT(' ');
#10=PRODUCT_CATEGORY('part','NONE');
#11=PRODUCT_RELATED_PRODUCT_CATEGORY('detail',' ',(#22));
#12=PRODUCT_DEFINITION_SHAPE('NONE','NONE',#23);
#13=ADVANCED_BREP_SHAPE_REPRESENTATION('1',(#24,#25),#5);
#16=UNCERTAINTY_MEASURE_WITH_UNIT(LENGTH_MEASURE(1.0E-006),#18,'','');
#18= (CONVERSION_BASED_UNIT('MILLIMETRE',#28)LENGTH_UNIT()NAMED_UNIT(#31));
#19= (NAMED_UNIT(#33)PLANE_ANGLE_UNIT()SI_UNIT($,.RADIAN.));
#20= (NAMED_UNIT(#33)SOLID_ANGLE_UNIT()SI_UNIT($,.STERADIAN.));
#22=PRODUCT('1','1','PART-1-DESC',(#39));
#23=PRODUCT_DEFINITION('NONE','NONE',#40,#1);
#24=MANIFOLD_SOLID_BREP('1',#41);
#25=AXIS2_PLACEMENT_3D('',#42,#43,#44);
#28=LENGTH_MEASURE_WITH_UNIT(LENGTH_MEASURE(1.0),#45);
#31=DIMENSIONAL_EXPONENTS(1.0,0.0,0.0,0.0,0.0,0.0,0.0);
#33=DIMENSIONAL_EXPONENTS(0.0,0.0,0.0,0.0,0.0,0.0,0.0);
#39=PRODUCT_CONTEXT('',#9,'mechanical');
#40=PRODUCT_DEFINITION_FORMATION_WITH_SPECIFIED_SOURCE(' ','NONE',#22,.NOT_KNOWN.);
#41=CLOSED_SHELL('',(#46,#47,#48,#49,#50,#51,#52,#53,#54,#55,#56,#57,#58,#59,#60,#61,#62,#63,#64,#65,#66,#67));
#42=CARTESIAN_POINT('',(0.0,0.0,0.0));
#43=DIRECTION('',(0.0,0.0,1.0));
#44=DIRECTION('',(1.0,0.0,0.0));
#45= (NAMED_UNIT(#31)LENGTH_UNIT()SI_UNIT(.MILLI.,.METRE.));
#46=ADVANCED_FACE('',(#69),#70,.T.);
#47=ADVANCED_FACE('',(#71),#72,.T.);
#48=ADVANCED_FACE('',(#73),#74,.T.);
#49=ADVANCED_FACE('',(#75),#76,.F.);
#50=ADVANCED_FACE('',(#77),#78,.F.);
#51=ADVANCED_FACE('',(#79),#80,.T.);
#52=ADVANCED_FACE('',(#81),#82,.F.);
#53=ADVANCED_FACE('',(#83),#84,.T.);
#54=ADVANCED_FACE('',(#85),#86,.T.);
#55=ADVANCED_FACE('',(#87),#88,.F.);
#56=ADVANCED_FACE('',(#89,#90),#91,.F.);
#57=ADVANCED_FACE('',(#92,#93),#94,.T.);
#58=ADVANCED_FACE('',(#95),#96,.T.);
#59=ADVANCED_FACE('',(#97),#98,.F.);
#60=ADVANCED_FACE('',(#99,#100),#101,.F.);
#61=ADVANCED_FACE('',(#102,#103),#104,.T.);
#62=ADVANCED_FACE('',(#105),#106,.F.);
#63=ADVANCED_FACE('',(#107),#108,.T.);
#64=ADVANCED_FACE('',(#109),#110,.T.);
#65=ADVANCED_FACE('',(#111),#112,.T.);
#66=ADVANCED_FACE('',(#113,#114),#115,.T.);
#67=ADVANCED_FACE('',(#116,#117),#118,.T.);
#69=FACE_OUTER_BOUND('',#119,.T.);
#70=CYLINDRICAL_SURFACE('',#120,25.0);
#71=FACE_OUTER_BOUND('',#121,.T.);
#72=TOROIDAL_SURFACE('',#122,24.4,0.6);
#73=FACE_OUTER_BOUND('',#123,.T.);
#74=TOROIDAL_SURFACE('',#124,24.4,0.6);
#75=FACE_OUTER_BOUND('',#125,.T.);
#76=CYLINDRICAL_SURFACE('',#126,6.0);
#77=FACE_OUTER_BOUND('',#127,.T.);
#78=CYLINDRICAL_SURFACE('',#128,20.0);
#79=FACE_OUTER_BOUND('',#129,.T.);
#80=CYLINDRICAL_SURFACE('',#130,19.8);
#81=FACE_OUTER_BOUND('',#131,.T.);
#82=CYLINDRICAL_SURFACE('',#132,20.0);
#83=FACE_OUTER_BOUND('',#133,.T.);
#84=CYLINDRICAL_SURFACE('',#134,19.8);
#85=FACE_OUTER_BOUND('',#135,.T.);
#86=CYLINDRICAL_SURFACE('',#136,19.8);
#87=FACE_OUTER_BOUND('',#137,.T.);
#88=CYLINDRICAL_SURFACE('',#138,20.0);
#89=FACE_BOUND('',#139,.T.);
#90=FACE_OUTER_BOUND('',#140,.T.);
#91=PLANE('',#141);
#92=FACE_BOUND('',#142,.T.);
#93=FACE_OUTER_BOUND('',#143,.T.);
#94=PLANE('',#144);
#95=FACE_OUTER_BOUND('',#145,.T.);
#96=CYLINDRICAL_SURFACE('',#146,19.8);
#97=FACE_OUTER_BOUND('',#147,.T.);
#98=CYLINDRICAL_SURFACE('',#148,20.0);
#99=FACE_BOUND('',#149,.T.);
#100=FACE_OUTER_BOUND('',#150,.T.);
#101=PLANE('',#151);
#102=FACE_BOUND('',#152,.T.);
#103=FACE_OUTER_BOUND('',#153,.T.);
#104=PLANE('',#154);
#105=FACE_OUTER_BOUND('',#155,.T.);
#106=CYLINDRICAL_SURFACE('',#156,6.0);
#107=FACE_OUTER_BOUND('',#157,.T.);
#108=TOROIDAL_SURFACE('',#158,24.4,0.6);
#109=FACE_OUTER_BOUND('',#159,.T.);
#110=TOROIDAL_SURFACE('',#160,24.4,0.6);
#111=FACE_OUTER_BOUND('',#161,.T.);
#112=CYLINDRICAL_SURFACE('',#162,25.0);
#113=FACE_OUTER_BOUND('',#163,.T.);
#114=FACE_BOUND('',#164,.T.);
#115=PLANE('',#165);
#116=FACE_OUTER_BOUND('',#166,.T.);
#117=FACE_BOUND('',#167,.T.);
#118=PLANE('',#168);
#119=EDGE_LOOP('',(#169,#170,#171,#172));
#120=AXIS2_PLACEMENT_3D('',#173,#174,#175);
#121=EDGE_LOOP('',(#176,#177,#178,#179));
#122=AXIS2_PLACEMENT_3D('',#180,#181,#182);
#123=EDGE_LOOP('',(#183,#184,#185,#186));
#124=AXIS2_PLACEMENT_3D('',#187,#188,#189);
#125=EDGE_LOOP('',(#190,#191,#192,#193));
#126=AXIS2_PLACEMENT_3D('',#194,#195,#196);
#127=EDGE_LOOP('',(#197,#198,#199,#200));
#128=AXIS2_PLACEMENT_3D('',#201,#202,#203);
#129=EDGE_LOOP('',(#204,#205,#206,#207));
#130=AXIS2_PLACEMENT_3D('',#208,#209,#210);
#131=EDGE_LOOP('',(#211,#212,#213,#214));
#132=AXIS2_PLACEMENT_3D('',#215,#216,#217);
#133=EDGE_LOOP('',(#218,#219,#220,#221));
#134=AXIS2_PLACEMENT_3D('',#222,#223,#224);
#135=EDGE_LOOP('',(#225,#226,#227,#228));
#136=AXIS2_PLACEMENT_3D('',#229,#230,#231);
#137=EDGE_LOOP('',(#232,#233,#234,#235));
#138=AXIS2_PLACEMENT_3D('',#236,#237,#238);
#139=EDGE_LOOP('',(#239,#240));
#140=EDGE_LOOP('',(#241,#242));
#141=AXIS2_PLACEMENT_3D('',#243,#244,#245);
#142=EDGE_LOOP('',(#246,#247));
#143=EDGE_LOOP('',(#248,#249,#250));
#144=AXIS2_PLACEMENT_3D('',#251,#252,#253);
#145=EDGE_LOOP('',(#254,#255,#256,#257));
#146=AXIS2_PLACEMENT_3D('',#258,#259,#260);
#147=EDGE_LOOP('',(#261,#262,#263,#264));
#148=AXIS2_PLACEMENT_3D('',#265,#266,#267);
#149=EDGE_LOOP('',(#268,#269));
#150=EDGE_LOOP('',(#270,#271));
#151=AXIS2_PLACEMENT_3D('',#272,#273,#274);
#152=EDGE_LOOP('',(#275,#276));
#153=EDGE_LOOP('',(#277,#278,#279));
#154=AXIS2_PLACEMENT_3D('',#280,#281,#282);
#155=EDGE_LOOP('',(#283,#284,#285,#286));
#156=AXIS2_PLACEMENT_3D('',#287,#288,#289);
#157=EDGE_LOOP('',(#290,#291,#292,#293,#294,#295));
#158=AXIS2_PLACEMENT_3D('',#296,#297,#298);
#159=EDGE_LOOP('',(#299,#300,#301,#302,#303,#304));
#160=AXIS2_PLACEMENT_3D('',#305,#306,#307);
#161=EDGE_LOOP('',(#308,#309,#310,#311,#312,#313));
#162=AXIS2_PLACEMENT_3D('',#314,#315,#316);
#163=EDGE_LOOP('',(#317,#318));
#164=EDGE_LOOP('',(#319,#320));
#165=AXIS2_PLACEMENT_3D('',#321,#322,#323);
#166=EDGE_LOOP('',(#324,#325));
#167=EDGE_LOOP('',(#326,#327));
#168=AXIS2_PLACEMENT_3D('',#328,#329,#330);
#169=ORIENTED_EDGE('',*,*,#331,.F.);
#170=ORIENTED_EDGE('',*,*,#332,.T.);
#171=ORIENTED_EDGE('',*,*,#333,.F.);
#172=ORIENTED_EDGE('',*,*,#334,.F.);
#173=CARTESIAN_POINT('',(15.0,0.0,0.0));
#174=DIRECTION('',(1.0,0.0,0.0));
#175=DIRECTION('',(0.0,0.0,-1.0));
#176=ORIENTED_EDGE('',*,*,#335,.F.);
#177=ORIENTED_EDGE('',*,*,#334,.T.);
#178=ORIENTED_EDGE('',*,*,#336,.F.);
#179=ORIENTED_EDGE('',*,*,#337,.F.);
#180=CARTESIAN_POINT('',(29.4,-3.67381906146713E-017,0.0));
#181=DIRECTION('',(1.0,6.12303176911189E-017,-0.0));
#182=DIRECTION('',(0.0,0.0,1.0));
#183=ORIENTED_EDGE('',*,*,#338,.F.);
#184=ORIENTED_EDGE('',*,*,#332,.F.);
#185=ORIENTED_EDGE('',*,*,#339,.F.);
#186=ORIENTED_EDGE('',*,*,#340,.F.);
#187=CARTESIAN_POINT('',(0.6,-3.67381906146713E-017,7.34763812293426E-017));
#188=DIRECTION('',(-1.0,6.12303176911189E-017,-1.22460635382238E-016));
#189=DIRECTION('',(1.22460635382238E-016,0.0,-1.0));
#190=ORIENTED_EDGE('',*,*,#341,.F.);
#191=ORIENTED_EDGE('',*,*,#342,.F.);
#192=ORIENTED_EDGE('',*,*,#343,.F.);
#193=ORIENTED_EDGE('',*,*,#344,.F.);
#194=CARTESIAN_POINT('',(15.0,0.0,0.0));
#195=DIRECTION('',(1.0,0.0,0.0));
#196=DIRECTION('',(0.0,0.0,-1.0));
#197=ORIENTED_EDGE('',*,*,#345,.F.);
#198=ORIENTED_EDGE('',*,*,#346,.T.);
#199=ORIENTED_EDGE('',*,*,#347,.F.);
#200=ORIENTED_EDGE('',*,*,#348,.F.);
#201=CARTESIAN_POINT('',(-0.4,0.0,0.0));
#202=DIRECTION('',(1.0,0.0,0.0));
#203=DIRECTION('',(0.0,0.0,-1.0));
#204=ORIENTED_EDGE('',*,*,#349,.F.);
#205=ORIENTED_EDGE('',*,*,#350,.F.);
#206=ORIENTED_EDGE('',*,*,#351,.F.);
#207=ORIENTED_EDGE('',*,*,#352,.T.);
#208=CARTESIAN_POINT('',(-0.4,0.0,0.0));
#209=DIRECTION('',(1.0,0.0,0.0));
#210=DIRECTION('',(0.0,0.0,-1.0));
#211=ORIENTED_EDGE('',*,*,#353,.F.);
#212=ORIENTED_EDGE('',*,*,#354,.F.);
#213=ORIENTED_EDGE('',*,*,#355,.F.);
#214=ORIENTED_EDGE('',*,*,#356,.T.);
#215=CARTESIAN_POINT('',(30.4,0.0,0.0));
#216=DIRECTION('',(1.0,0.0,0.0));
#217=DIRECTION('',(0.0,0.0,-1.0));
#218=ORIENTED_EDGE('',*,*,#357,.F.);
#219=ORIENTED_EDGE('',*,*,#358,.T.);
#220=ORIENTED_EDGE('',*,*,#359,.F.);
#221=ORIENTED_EDGE('',*,*,#360,.F.);
#222=CARTESIAN_POINT('',(30.4,0.0,0.0));
#223=DIRECTION('',(1.0,0.0,0.0));
#224=DIRECTION('',(0.0,0.0,-1.0));
#225=ORIENTED_EDGE('',*,*,#357,.T.);
#226=ORIENTED_EDGE('',*,*,#361,.F.);
#227=ORIENTED_EDGE('',*,*,#359,.T.);
#228=ORIENTED_EDGE('',*,*,#362,.T.);
#229=CARTESIAN_POINT('',(30.4,0.0,0.0));
#230=DIRECTION('',(1.0,0.0,0.0));
#231=DIRECTION('',(0.0,0.0,-1.0));
#232=ORIENTED_EDGE('',*,*,#353,.T.);
#233=ORIENTED_EDGE('',*,*,#363,.T.);
#234=ORIENTED_EDGE('',*,*,#355,.T.);
#235=ORIENTED_EDGE('',*,*,#364,.F.);
#236=CARTESIAN_POINT('',(30.4,0.0,0.0));
#237=DIRECTION('',(1.0,0.0,0.0));
#238=DIRECTION('',(0.0,0.0,-1.0));
#239=ORIENTED_EDGE('',*,*,#358,.F.);
#240=ORIENTED_EDGE('',*,*,#362,.F.);
#241=ORIENTED_EDGE('',*,*,#363,.F.);
#242=ORIENTED_EDGE('',*,*,#356,.F.);
#243=CARTESIAN_POINT('',(29.8,0.0,0.0));
#244=DIRECTION('',(-1.0,0.0,0.0));
#245=DIRECTION('',(0.0,0.0,1.0));
#246=ORIENTED_EDGE('',*,*,#354,.T.);
#247=ORIENTED_EDGE('',*,*,#364,.T.);
#248=ORIENTED_EDGE('',*,*,#365,.T.);
#249=ORIENTED_EDGE('',*,*,#337,.T.);
#250=ORIENTED_EDGE('',*,*,#366,.T.);
#251=CARTESIAN_POINT('',(30.0,0.0,0.0));
#252=DIRECTION('',(1.0,0.0,0.0));
#253=DIRECTION('',(0.0,0.0,-1.0));
#254=ORIENTED_EDGE('',*,*,#349,.T.);
#255=ORIENTED_EDGE('',*,*,#367,.T.);
#256=ORIENTED_EDGE('',*,*,#351,.T.);
#257=ORIENTED_EDGE('',*,*,#368,.F.);
#258=CARTESIAN_POINT('',(-0.4,0.0,0.0));
#259=DIRECTION('',(1.0,0.0,0.0));
#260=DIRECTION('',(0.0,0.0,-1.0));
#261=ORIENTED_EDGE('',*,*,#345,.T.);
#262=ORIENTED_EDGE('',*,*,#369,.F.);
#263=ORIENTED_EDGE('',*,*,#347,.T.);
#264=ORIENTED_EDGE('',*,*,#370,.T.);
#265=CARTESIAN_POINT('',(-0.4,0.0,0.0));
#266=DIRECTION('',(1.0,0.0,0.0));
#267=DIRECTION('',(0.0,0.0,-1.0));
#268=ORIENTED_EDGE('',*,*,#367,.F.);
#269=ORIENTED_EDGE('',*,*,#352,.F.);
#270=ORIENTED_EDGE('',*,*,#346,.F.);
#271=ORIENTED_EDGE('',*,*,#370,.F.);
#272=CARTESIAN_POINT('',(0.199999999999999,0.0,0.0));
#273=DIRECTION('',(1.0,0.0,0.0));
#274=DIRECTION('',(0.0,0.0,-1.0));
#275=ORIENTED_EDGE('',*,*,#369,.T.);
#276=ORIENTED_EDGE('',*,*,#348,.T.);
#277=ORIENTED_EDGE('',*,*,#371,.T.);
#278=ORIENTED_EDGE('',*,*,#340,.T.);
#279=ORIENTED_EDGE('',*,*,#372,.T.);
#280=CARTESIAN_POINT('',(0.0,0.0,0.0));
#281=DIRECTION('',(-1.0,0.0,0.0));
#282=DIRECTION('',(0.0,0.0,1.0));
#283=ORIENTED_EDGE('',*,*,#341,.T.);
#284=ORIENTED_EDGE('',*,*,#373,.F.);
#285=ORIENTED_EDGE('',*,*,#343,.T.);
#286=ORIENTED_EDGE('',*,*,#374,.F.);
#287=CARTESIAN_POINT('',(15.0,0.0,0.0));
#288=DIRECTION('',(1.0,0.0,0.0));
#289=DIRECTION('',(0.0,0.0,-1.0));
#290=ORIENTED_EDGE('',*,*,#338,.T.);
#291=ORIENTED_EDGE('',*,*,#371,.F.);
#292=ORIENTED_EDGE('',*,*,#372,.F.);
#293=ORIENTED_EDGE('',*,*,#339,.T.);
#294=ORIENTED_EDGE('',*,*,#375,.F.);
#295=ORIENTED_EDGE('',*,*,#376,.F.);
#296=CARTESIAN_POINT('',(0.6,-3.67381906146713E-017,7.34763812293426E-017));
#297=DIRECTION('',(-1.0,6.12303176911189E-017,-1.22460635382238E-016));
#298=DIRECTION('',(1.22460635382238E-016,0.0,-1.0));
#299=ORIENTED_EDGE('',*,*,#335,.T.);
#300=ORIENTED_EDGE('',*,*,#365,.F.);
#301=ORIENTED_EDGE('',*,*,#366,.F.);
#302=ORIENTED_EDGE('',*,*,#336,.T.);
#303=ORIENTED_EDGE('',*,*,#377,.T.);
#304=ORIENTED_EDGE('',*,*,#378,.T.);
#305=CARTESIAN_POINT('',(29.4,-3.67381906146713E-017,0.0));
#306=DIRECTION('',(1.0,6.12303176911189E-017,-0.0));
#307=DIRECTION('',(0.0,0.0,1.0));
#308=ORIENTED_EDGE('',*,*,#331,.T.);
#309=ORIENTED_EDGE('',*,*,#378,.F.);
#310=ORIENTED_EDGE('',*,*,#377,.F.);
#311=ORIENTED_EDGE('',*,*,#333,.T.);
#312=ORIENTED_EDGE('',*,*,#376,.T.);
#313=ORIENTED_EDGE('',*,*,#375,.T.);
#314=CARTESIAN_POINT('',(15.0,0.0,0.0));
#315=DIRECTION('',(1.0,0.0,0.0));
#316=DIRECTION('',(0.0,0.0,-1.0));
#317=ORIENTED_EDGE('',*,*,#350,.T.);
#318=ORIENTED_EDGE('',*,*,#368,.T.);
#319=ORIENTED_EDGE('',*,*,#373,.T.);
#320=ORIENTED_EDGE('',*,*,#344,.T.);
#321=CARTESIAN_POINT('',(0.0,0.0,0.0));
#322=DIRECTION('',(-1.0,0.0,0.0));
#323=DIRECTION('',(0.0,0.0,1.0));
#324=ORIENTED_EDGE('',*,*,#361,.T.);
#325=ORIENTED_EDGE('',*,*,#360,.T.);
#326=ORIENTED_EDGE('',*,*,#342,.T.);
#327=ORIENTED_EDGE('',*,*,#374,.T.);
#328=CARTESIAN_POINT('',(30.0,0.0,0.0));
#329=DIRECTION('',(1.0,0.0,0.0));
#330=DIRECTION('',(0.0,0.0,-1.0));
#331=EDGE_CURVE('',#379,#380,#381,.T.);
#332=EDGE_CURVE('',#379,#382,#383,.T.);
#333=EDGE_CURVE('',#384,#382,#385,.T.);
#334=EDGE_CURVE('',#380,#384,#386,.T.);
#335=EDGE_CURVE('',#380,#387,#388,.T.);
#336=EDGE_CURVE('',#389,#384,#390,.T.);
#337=EDGE_CURVE('',#387,#389,#391,.T.);
#338=EDGE_CURVE('',#382,#392,#393,.T.);
#339=EDGE_CURVE('',#394,#379,#395,.T.);
#340=EDGE_CURVE('',#392,#394,#396,.T.);
#341=EDGE_CURVE('',#397,#398,#399,.T.);
#342=EDGE_CURVE('',#400,#397,#401,.T.);
#343=EDGE_CURVE('',#402,#400,#403,.T.);
#344=EDGE_CURVE('',#398,#402,#404,.T.);
#345=EDGE_CURVE('',#405,#406,#407,.T.);
#346=EDGE_CURVE('',#405,#408,#409,.T.);
#347=EDGE_CURVE('',#410,#408,#411,.T.);
#348=EDGE_CURVE('',#406,#410,#412,.T.);
#349=EDGE_CURVE('',#413,#414,#415,.T.);
#350=EDGE_CURVE('',#416,#413,#417,.T.);
#351=EDGE_CURVE('',#418,#416,#419,.T.);
#352=EDGE_CURVE('',#418,#414,#420,.T.);
#353=EDGE_CURVE('',#421,#422,#423,.T.);
#354=EDGE_CURVE('',#424,#421,#425,.T.);
#355=EDGE_CURVE('',#426,#424,#427,.T.);
#356=EDGE_CURVE('',#426,#422,#428,.T.);
#357=EDGE_CURVE('',#429,#430,#431,.T.);
#358=EDGE_CURVE('',#429,#432,#433,.T.);
#359=EDGE_CURVE('',#434,#432,#435,.T.);
#360=EDGE_CURVE('',#430,#434,#436,.T.);
#361=EDGE_CURVE('',#434,#430,#437,.T.);
#362=EDGE_CURVE('',#432,#429,#438,.T.);
#363=EDGE_CURVE('',#422,#426,#439,.T.);
#364=EDGE_CURVE('',#421,#424,#440,.T.);
#365=EDGE_CURVE('',#441,#387,#442,.T.);
#366=EDGE_CURVE('',#389,#441,#443,.T.);
#367=EDGE_CURVE('',#414,#418,#444,.T.);
#368=EDGE_CURVE('',#413,#416,#445,.T.);
#369=EDGE_CURVE('',#410,#406,#446,.T.);
#370=EDGE_CURVE('',#408,#405,#447,.T.);
#371=EDGE_CURVE('',#448,#392,#449,.T.);
#372=EDGE_CURVE('',#394,#448,#450,.T.);
#373=EDGE_CURVE('',#402,#398,#451,.T.);
#374=EDGE_CURVE('',#397,#400,#452,.T.);
#375=EDGE_CURVE('',#453,#379,#454,.T.);
#376=EDGE_CURVE('',#382,#453,#455,.T.);
#377=EDGE_CURVE('',#384,#456,#457,.T.);
#378=EDGE_CURVE('',#456,#380,#458,.T.);
#379=VERTEX_POINT('',#459);
#380=VERTEX_POINT('',#460);
#381=LINE('',#461,#462);
#382=VERTEX_POINT('',#463);
#383=CIRCLE('',#464,25.0);
#384=VERTEX_POINT('',#465);
#385=LINE('',#466,#467);
#386=CIRCLE('',#468,25.0);
#387=VERTEX_POINT('',#469);
#388=CIRCLE('',#470,0.6);
#389=VERTEX_POINT('',#471);
#390=CIRCLE('',#472,0.6);
#391=CIRCLE('',#473,24.4);
#392=VERTEX_POINT('',#474);
#393=CIRCLE('',#475,0.6);
#394=VERTEX_POINT('',#476);
#395=CIRCLE('',#477,0.6);
#396=CIRCLE('',#478,24.4);
#397=VERTEX_POINT('',#479);
#398=VERTEX_POINT('',#480);
#399=LINE('',#481,#482);
#400=VERTEX_POINT('',#483);
#401=CIRCLE('',#484,6.0);
#402=VERTEX_POINT('',#485);
#403=LINE('',#486,#487);
#404=CIRCLE('',#488,6.0);
#405=VERTEX_POINT('',#489);
#406=VERTEX_POINT('',#490);
#407=LINE('',#491,#492);
#408=VERTEX_POINT('',#493);
#409=CIRCLE('',#494,20.0);
#410=VERTEX_POINT('',#495);
#411=LINE('',#496,#497);
#412=CIRCLE('',#498,20.0);
#413=VERTEX_POINT('',#499);
#414=VERTEX_POINT('',#500);
#415=LINE('',#501,#502);
#416=VERTEX_POINT('',#503);
#417=CIRCLE('',#504,19.8);
#418=VERTEX_POINT('',#505);
#419=LINE('',#506,#507);
#420=CIRCLE('',#508,19.8);
#421=VERTEX_POINT('',#509);
#422=VERTEX_POINT('',#510);
#423=LINE('',#511,#512);
#424=VERTEX_POINT('',#513);
#425=CIRCLE('',#514,20.0);
#426=VERTEX_POINT('',#515);
#427=LINE('',#516,#517);
#428=CIRCLE('',#518,20.0);
#429=VERTEX_POINT('',#519);
#430=VERTEX_POINT('',#520);
#431=LINE('',#521,#522);
#432=VERTEX_POINT('',#523);
#433=CIRCLE('',#524,19.8);
#434=VERTEX_POINT('',#525);
#435=LINE('',#526,#527);
#436=CIRCLE('',#528,19.8);
#437=CIRCLE('',#529,19.8);
#438=CIRCLE('',#530,19.8);
#439=CIRCLE('',#531,20.0);
#440=CIRCLE('',#532,20.0);
#441=VERTEX_POINT('',#533);
#442=CIRCLE('',#534,24.4);
#443=CIRCLE('',#535,24.4);
#444=CIRCLE('',#536,19.8);
#445=CIRCLE('',#537,19.8);
#446=CIRCLE('',#538,20.0);
#447=CIRCLE('',#539,20.0);
#448=VERTEX_POINT('',#540);
#449=CIRCLE('',#541,24.4);
#450=CIRCLE('',#542,24.4);
#451=CIRCLE('',#543,6.0);
#452=CIRCLE('',#544,6.0);
#453=VERTEX_POINT('',#545);
#454=CIRCLE('',#546,25.0);
#455=CIRCLE('',#547,25.0);
#456=VERTEX_POINT('',#548);
#457=CIRCLE('',#549,25.0);
#458=CIRCLE('',#550,25.0);
#459=CARTESIAN_POINT('',(0.6,3.02477769394127E-015,-25.0));
#460=CARTESIAN_POINT('',(29.4,-3.09825407517061E-015,-25.0));
#461=CARTESIAN_POINT('',(15.0,-3.06151588455594E-015,-25.0));
#462=VECTOR('',#551,1.0);
#463=CARTESIAN_POINT('',(0.6,-3.09825407517061E-015,25.0));
#464=AXIS2_PLACEMENT_3D('',#552,#553,#554);
#465=CARTESIAN_POINT('',(29.4,3.02477769394127E-015,25.0));
#466=CARTESIAN_POINT('',(15.0,3.06151588455594E-015,25.0));
#467=VECTOR('',#555,1.0);
#468=AXIS2_PLACEMENT_3D('',#556,#557,#558);
#469=CARTESIAN_POINT('',(30.0,-2.9880395033266E-015,-24.4));
#470=AXIS2_PLACEMENT_3D('',#559,#560,#561);
#471=CARTESIAN_POINT('',(30.0,2.9880395033266E-015,24.4));
#472=AXIS2_PLACEMENT_3D('',#562,#563,#564);
#473=AXIS2_PLACEMENT_3D('',#565,#566,#567);
#474=CARTESIAN_POINT('',(0.0,-2.9880395033266E-015,24.4));
#475=AXIS2_PLACEMENT_3D('',#568,#569,#570);
#476=CARTESIAN_POINT('',(0.0,2.9880395033266E-015,-24.4));
#477=AXIS2_PLACEMENT_3D('',#571,#572,#573);
#478=AXIS2_PLACEMENT_3D('',#574,#575,#576);
#479=CARTESIAN_POINT('',(30.0,-7.34763812293426E-016,-6.0));
#480=CARTESIAN_POINT('',(0.0,-7.34763812293426E-016,-6.0));
#481=CARTESIAN_POINT('',(15.0,-7.34763812293426E-016,-6.0));
#482=VECTOR('',#577,1.0);
#483=CARTESIAN_POINT('',(30.0,7.34763812293426E-016,6.0));
#484=AXIS2_PLACEMENT_3D('',#578,#579,#580);
#485=CARTESIAN_POINT('',(0.0,-7.34763812293426E-016,6.0));
#486=CARTESIAN_POINT('',(15.0,7.34763812293426E-016,6.0));
#487=VECTOR('',#581,1.0);
#488=AXIS2_PLACEMENT_3D('',#582,#583,#584);
#489=CARTESIAN_POINT('',(0.199999999999999,0.0,-20.0));
#490=CARTESIAN_POINT('',(0.0,-2.44921270764475E-015,-20.0));
#491=CARTESIAN_POINT('',(0.0999999999999996,-2.44921270764475E-015,-20.0));
#492=VECTOR('',#585,1.0);
#493=CARTESIAN_POINT('',(0.199999999999999,2.44921270764475E-015,20.0));
#494=AXIS2_PLACEMENT_3D('',#586,#587,#588);
#495=CARTESIAN_POINT('',(0.0,-2.44921270764475E-015,20.0));
#496=CARTESIAN_POINT('',(0.0999999999999996,2.44921270764475E-015,20.0));
#497=VECTOR('',#589,1.0);
#498=AXIS2_PLACEMENT_3D('',#590,#591,#592);
#499=CARTESIAN_POINT('',(0.0,-2.42472058056831E-015,-19.8));
#500=CARTESIAN_POINT('',(0.199999999999999,0.0,-19.8));
#501=CARTESIAN_POINT('',(0.0999999999999996,-2.42472058056831E-015,-19.8));
#502=VECTOR('',#593,1.0);
#503=CARTESIAN_POINT('',(0.0,2.42472058056831E-015,19.8));
#504=AXIS2_PLACEMENT_3D('',#594,#595,#596);
#505=CARTESIAN_POINT('',(0.199999999999999,2.42472058056831E-015,19.8));
#506=CARTESIAN_POINT('',(0.0999999999999996,2.42472058056831E-015,19.8));
#507=VECTOR('',#597,1.0);
#508=AXIS2_PLACEMENT_3D('',#598,#599,#600);
#509=CARTESIAN_POINT('',(30.0,-2.44921270764475E-015,-20.0));
#510=CARTESIAN_POINT('',(29.8,0.0,-20.0));
#511=CARTESIAN_POINT('',(29.9,-2.44921270764475E-015,-20.0));
#512=VECTOR('',#601,1.0);
#513=CARTESIAN_POINT('',(30.0,2.44921270764475E-015,20.0));
#514=AXIS2_PLACEMENT_3D('',#602,#603,#604);
#515=CARTESIAN_POINT('',(29.8,2.44921270764475E-015,20.0));
#516=CARTESIAN_POINT('',(29.9,2.44921270764475E-015,20.0));
#517=VECTOR('',#605,1.0);
#518=AXIS2_PLACEMENT_3D('',#606,#607,#608);
#519=CARTESIAN_POINT('',(29.8,0.0,-19.8));
#520=CARTESIAN_POINT('',(30.0,-2.42472058056831E-015,-19.8));
#521=CARTESIAN_POINT('',(29.9,-2.42472058056831E-015,-19.8));
#522=VECTOR('',#609,1.0);
#523=CARTESIAN_POINT('',(29.8,2.42472058056831E-015,19.8));
#524=AXIS2_PLACEMENT_3D('',#610,#611,#612);
#525=CARTESIAN_POINT('',(30.0,-2.42472058056831E-015,19.8));
#526=CARTESIAN_POINT('',(29.9,2.42472058056831E-015,19.8));
#527=VECTOR('',#613,1.0);
#528=AXIS2_PLACEMENT_3D('',#614,#615,#616);
#529=AXIS2_PLACEMENT_3D('',#617,#618,#619);
#530=AXIS2_PLACEMENT_3D('',#620,#621,#622);
#531=AXIS2_PLACEMENT_3D('',#623,#624,#625);
#532=AXIS2_PLACEMENT_3D('',#626,#627,#628);
#533=CARTESIAN_POINT('',(30.0,-24.4,0.0));
#534=AXIS2_PLACEMENT_3D('',#629,#630,#631);
#535=AXIS2_PLACEMENT_3D('',#632,#633,#634);
#536=AXIS2_PLACEMENT_3D('',#635,#636,#637);
#537=AXIS2_PLACEMENT_3D('',#638,#639,#640);
#538=AXIS2_PLACEMENT_3D('',#641,#642,#643);
#539=AXIS2_PLACEMENT_3D('',#644,#645,#646);
#540=CARTESIAN_POINT('',(-1.77635683940025E-015,-24.4,-1.82958608062301E-031));
#541=AXIS2_PLACEMENT_3D('',#647,#648,#649);
#542=AXIS2_PLACEMENT_3D('',#650,#651,#652);
#543=AXIS2_PLACEMENT_3D('',#653,#654,#655);
#544=AXIS2_PLACEMENT_3D('',#656,#657,#658);
#545=CARTESIAN_POINT('',(0.599999999999998,-25.0,7.34763812293424E-017));
#546=AXIS2_PLACEMENT_3D('',#659,#660,#661);
#547=AXIS2_PLACEMENT_3D('',#662,#663,#664);
#548=CARTESIAN_POINT('',(29.4,-25.0,0.0));
#549=AXIS2_PLACEMENT_3D('',#665,#666,#667);
#550=AXIS2_PLACEMENT_3D('',#668,#669,#670);
#551=DIRECTION('',(1.0,0.0,0.0));
#552=CARTESIAN_POINT('',(0.6,-3.67381906146713E-017,7.34763812293426E-017));
#553=DIRECTION('',(1.0,0.0,0.0));
#554=DIRECTION('',(0.0,0.0,-1.0));
#555=DIRECTION('',(-1.0,-0.0,-0.0));
#556=CARTESIAN_POINT('',(29.4,-3.67381906146713E-017,0.0));
#557=DIRECTION('',(1.0,0.0,0.0));
#558=DIRECTION('',(0.0,0.0,-1.0));
#559=CARTESIAN_POINT('',(29.4,-3.02477769394127E-015,-24.4));
#560=DIRECTION('',(6.12303176911189E-017,-1.0,1.22460635382238E-016));
#561=DIRECTION('',(7.49830360911069E-033,-1.22460635382238E-016,-1.0));
#562=CARTESIAN_POINT('',(29.4,2.95130131271193E-015,24.4));
#563=DIRECTION('',(6.12303176911189E-017,-1.0,1.22460635382238E-016));
#564=DIRECTION('',(-7.49830360911069E-033,1.22460635382238E-016,1.0));
#565=CARTESIAN_POINT('',(30.0,-4.93038065763132E-032,0.0));
#566=DIRECTION('',(1.0,0.0,0.0));
#567=DIRECTION('',(0.0,-1.0,0.0));
#568=CARTESIAN_POINT('',(0.599999999999997,-3.02477769394127E-015,24.4));
#569=DIRECTION('',(-6.12303176911188E-017,-1.0,-1.22460635382238E-016));
#570=DIRECTION('',(-1.22460635382238E-016,-1.22460635382238E-016,1.0));
#571=CARTESIAN_POINT('',(0.600000000000003,2.95130131271193E-015,-24.4));
#572=DIRECTION('',(-6.12303176911188E-017,-1.0,-1.22460635382238E-016));
#573=DIRECTION('',(1.22460635382238E-016,1.22460635382238E-016,-1.0));
#574=CARTESIAN_POINT('',(0.0,-4.93038065763132E-032,9.86076131526265E-032));
#575=DIRECTION('',(-1.0,-0.0,0.0));
#576=DIRECTION('',(0.0,-1.0,-7.49830360911069E-033));
#577=DIRECTION('',(-1.0,0.0,0.0));
#578=CARTESIAN_POINT('',(30.0,0.0,0.0));
#579=DIRECTION('',(-1.0,-0.0,-0.0));
#580=DIRECTION('',(0.0,0.0,-1.0));
#581=DIRECTION('',(1.0,0.0,0.0));
#582=CARTESIAN_POINT('',(0.0,0.0,0.0));
#583=DIRECTION('',(1.0,0.0,0.0));
#584=DIRECTION('',(0.0,0.0,-1.0));
#585=DIRECTION('',(-1.0,0.0,0.0));
#586=CARTESIAN_POINT('',(0.199999999999999,0.0,0.0));
#587=DIRECTION('',(1.0,0.0,0.0));
#588=DIRECTION('',(0.0,0.0,-1.0));
#589=DIRECTION('',(1.0,0.0,0.0));
#590=CARTESIAN_POINT('',(0.0,0.0,0.0));
#591=DIRECTION('',(1.0,0.0,0.0));
#592=DIRECTION('',(0.0,0.0,-1.0));
#593=DIRECTION('',(1.0,0.0,0.0));
#594=CARTESIAN_POINT('',(0.0,0.0,0.0));
#595=DIRECTION('',(-1.0,0.0,0.0));
#596=DIRECTION('',(0.0,0.0,-1.0));
#597=DIRECTION('',(-1.0,-0.0,-0.0));
#598=CARTESIAN_POINT('',(0.199999999999999,0.0,0.0));
#599=DIRECTION('',(-1.0,-0.0,-0.0));
#600=DIRECTION('',(0.0,0.0,-1.0));
#601=DIRECTION('',(-1.0,0.0,0.0));
#602=CARTESIAN_POINT('',(30.0,0.0,0.0));
#603=DIRECTION('',(-1.0,-0.0,-0.0));
#604=DIRECTION('',(0.0,0.0,-1.0));
#605=DIRECTION('',(1.0,0.0,0.0));
#606=CARTESIAN_POINT('',(29.8,0.0,0.0));
#607=DIRECTION('',(-1.0,0.0,0.0));
#608=DIRECTION('',(0.0,0.0,-1.0));
#609=DIRECTION('',(1.0,0.0,0.0));
#610=CARTESIAN_POINT('',(29.8,0.0,0.0));
#611=DIRECTION('',(1.0,0.0,0.0));
#612=DIRECTION('',(0.0,0.0,-1.0));
#613=DIRECTION('',(-1.0,-0.0,-0.0));
#614=CARTESIAN_POINT('',(30.0,0.0,0.0));
#615=DIRECTION('',(1.0,0.0,0.0));
#616=DIRECTION('',(0.0,0.0,-1.0));
#617=CARTESIAN_POINT('',(30.0,0.0,0.0));
#618=DIRECTION('',(1.0,0.0,0.0));
#619=DIRECTION('',(0.0,0.0,-1.0));
#620=CARTESIAN_POINT('',(29.8,0.0,0.0));
#621=DIRECTION('',(1.0,0.0,0.0));
#622=DIRECTION('',(0.0,0.0,-1.0));
#623=CARTESIAN_POINT('',(29.8,0.0,0.0));
#624=DIRECTION('',(-1.0,0.0,0.0));
#625=DIRECTION('',(0.0,0.0,-1.0));
#626=CARTESIAN_POINT('',(30.0,0.0,0.0));
#627=DIRECTION('',(-1.0,-0.0,-0.0));
#628=DIRECTION('',(0.0,0.0,-1.0));
#629=CARTESIAN_POINT('',(30.0,-4.93038065763132E-032,0.0));
#630=DIRECTION('',(1.0,0.0,0.0));
#631=DIRECTION('',(0.0,-1.0,0.0));
#632=CARTESIAN_POINT('',(30.0,-4.93038065763132E-032,0.0));
#633=DIRECTION('',(1.0,0.0,0.0));
#634=DIRECTION('',(0.0,-1.0,0.0));
#635=CARTESIAN_POINT('',(0.199999999999999,0.0,0.0));
#636=DIRECTION('',(-1.0,-0.0,-0.0));
#637=DIRECTION('',(0.0,0.0,-1.0));
#638=CARTESIAN_POINT('',(0.0,0.0,0.0));
#639=DIRECTION('',(-1.0,0.0,0.0));
#640=DIRECTION('',(0.0,0.0,-1.0));
#641=CARTESIAN_POINT('',(0.0,0.0,0.0));
#642=DIRECTION('',(1.0,0.0,0.0));
#643=DIRECTION('',(0.0,0.0,-1.0));
#644=CARTESIAN_POINT('',(0.199999999999999,0.0,0.0));
#645=DIRECTION('',(1.0,0.0,0.0));
#646=DIRECTION('',(0.0,0.0,-1.0));
#647=CARTESIAN_POINT('',(0.0,-4.93038065763132E-032,9.86076131526265E-032));
#648=DIRECTION('',(-1.0,-0.0,0.0));
#649=DIRECTION('',(0.0,-1.0,-7.49830360911069E-033));
#650=CARTESIAN_POINT('',(0.0,-4.93038065763132E-032,9.86076131526265E-032));
#651=DIRECTION('',(-1.0,-0.0,0.0));
#652=DIRECTION('',(0.0,-1.0,-7.49830360911069E-033));
#653=CARTESIAN_POINT('',(0.0,0.0,0.0));
#654=DIRECTION('',(1.0,0.0,0.0));
#655=DIRECTION('',(0.0,0.0,-1.0));
#656=CARTESIAN_POINT('',(30.0,0.0,0.0));
#657=DIRECTION('',(-1.0,-0.0,-0.0));
#658=DIRECTION('',(0.0,0.0,-1.0));
#659=CARTESIAN_POINT('',(0.6,-3.67381906146713E-017,7.34763812293426E-017));
#660=DIRECTION('',(1.0,0.0,0.0));
#661=DIRECTION('',(0.0,0.0,-1.0));
#662=CARTESIAN_POINT('',(0.6,-3.67381906146713E-017,7.34763812293426E-017));
#663=DIRECTION('',(1.0,0.0,0.0));
#664=DIRECTION('',(0.0,0.0,-1.0));
#665=CARTESIAN_POINT('',(29.4,-3.67381906146713E-017,0.0));
#666=DIRECTION('',(1.0,0.0,0.0));
#667=DIRECTION('',(0.0,0.0,-1.0));
#668=CARTESIAN_POINT('',(29.4,-3.67381906146713E-017,0.0));
#669=DIRECTION('',(1.0,0.0,0.0));
#670=DIRECTION('',(0.0,0.0,-1.0));
ENDSEC;
END-ISO-10303-21;
