ISO-10303-21;
HEADER;
FILE_DESCRIPTION(('STEP AP203'),'1');
FILE_NAME('C:/TPO v2/SharedFS/Outgoing/standard_3_nbv_10.stp','2014-08-06T07:17:07',('TraceParts'),('TraceParts S.A.'),'XStep 1.0',' ',' ');
FILE_SCHEMA(('CONFIG_CONTROL_DESIGN'));
ENDSEC;
DATA;
#1=DESIGN_CONTEXT('',#27,'design');
#2=APPLICATION_PROTOCOL_DEFINITION('INTERNATIONAL STANDARD','config_control_design',1994,#27);
#3=PRODUCT_CATEGORY_RELATIONSHIP('NONE','NONE',#28,#29);
#4=DATE_AND_TIME(#30,#31);
#5=DATE_TIME_ROLE('creation_date');
#6=DATE_TIME_ROLE('classification_date');
#7=PERSON_AND_ORGANIZATION_ROLE('creator');
#8=PERSON_AND_ORGANIZATION_ROLE('design_supplier');
#9=PERSON_AND_ORGANIZATION_ROLE('classification_officer');
#10=PERSON_AND_ORGANIZATION_ROLE('design_owner');
#11=APPROVAL_PERSON_ORGANIZATION(#32,#33,#34);
#12=APPROVAL_DATE_TIME(#4,#33);
#13=CC_DESIGN_APPROVAL(#33,(#35,#36,#37));
#14=CC_DESIGN_DATE_AND_TIME_ASSIGNMENT(#4,#5,(#37));
#15=CC_DESIGN_DATE_AND_TIME_ASSIGNMENT(#4,#6,(#35));
#16=CC_DESIGN_PERSON_AND_ORGANIZATION_ASSIGNMENT(#32,#10,(#38));
#17=CC_DESIGN_PERSON_AND_ORGANIZATION_ASSIGNMENT(#32,#7,(#37));
#18=CC_DESIGN_PERSON_AND_ORGANIZATION_ASSIGNMENT(#32,#7,(#36));
#19=CC_DESIGN_PERSON_AND_ORGANIZATION_ASSIGNMENT(#32,#8,(#36));
#20=CC_DESIGN_SECURITY_CLASSIFICATION(#35,(#36));
#21=CC_DESIGN_PERSON_AND_ORGANIZATION_ASSIGNMENT(#32,#9,(#35));
#22=SHAPE_DEFINITION_REPRESENTATION(#39,#40);
#23= (GEOMETRIC_REPRESENTATION_CONTEXT(3)GLOBAL_UNCERTAINTY_ASSIGNED_CONTEXT((#43))GLOBAL_UNIT_ASSIGNED_CONTEXT((#45,#46,#47))REPRESENTATION_CONTEXT('NONE','WORKSPACE'));
#27=APPLICATION_CONTEXT('CONFIGURATION CONTROLLED 3D DESIGNS OF MECHANICAL PARTS AND ASSEMBLIES');
#28=PRODUCT_CATEGORY('part','NONE');
#29=PRODUCT_RELATED_PRODUCT_CATEGORY('detail',' ',(#38));
#30=CALENDAR_DATE(2014,6,7);
#31=LOCAL_TIME(9,17,7.0,#49);
#32=PERSON_AND_ORGANIZATION(#50,#51);
#33=APPROVAL(#52,'SOLID MODEL');
#34=APPROVAL_ROLE('APPROVED');
#35=SECURITY_CLASSIFICATION('','',#53);
#36=PRODUCT_DEFINITION_FORMATION_WITH_SPECIFIED_SOURCE(' ','NONE',#38,.NOT_KNOWN.);
#37=PRODUCT_DEFINITION('NONE','NONE',#36,#1);
#38=PRODUCT('1','1','PART-1-DESC',(#54));
#39=PRODUCT_DEFINITION_SHAPE('NONE','NONE',#37);
#40=ADVANCED_BREP_SHAPE_REPRESENTATION('1',(#55,#56),#23);
#43=UNCERTAINTY_MEASURE_WITH_UNIT(LENGTH_MEASURE(1.0E-006),#45,'','');
#45= (CONVERSION_BASED_UNIT('MILLIMETRE',#59)LENGTH_UNIT()NAMED_UNIT(#62));
#46= (NAMED_UNIT(#64)PLANE_ANGLE_UNIT()SI_UNIT($,.RADIAN.));
#47= (NAMED_UNIT(#64)SOLID_ANGLE_UNIT()SI_UNIT($,.STERADIAN.));
#49=COORDINATED_UNIVERSAL_TIME_OFFSET(1,0,.AHEAD.);
#50=PERSON('','UNSPECIFIED',$,$,$,$);
#51=ORGANIZATION('UNSPECIFIED','UNSPECIFIED','UNSPECIFIED');
#52=APPROVAL_STATUS('approved');
#53=SECURITY_CLASSIFICATION_LEVEL('unclassified');
#54=MECHANICAL_CONTEXT('',#27,'mechanical');
#55=MANIFOLD_SOLID_BREP('1',#70);
#56=AXIS2_PLACEMENT_3D('',#71,#72,#73);
#59=LENGTH_MEASURE_WITH_UNIT(LENGTH_MEASURE(1.0),#74);
#62=DIMENSIONAL_EXPONENTS(1.0,0.0,0.0,0.0,0.0,0.0,0.0);
#64=DIMENSIONAL_EXPONENTS(0.0,0.0,0.0,0.0,0.0,0.0,0.0);
#70=CLOSED_SHELL('',(#75,#76,#77,#78,#79,#80,#81,#82,#83,#84,#85,#86,#87,#88,#89,#90,#91,#92,#93,#94,#95,#96));
#71=CARTESIAN_POINT('',(0.0,0.0,0.0));
#72=DIRECTION('',(0.0,0.0,1.0));
#73=DIRECTION('',(1.0,0.0,0.0));
#74= (NAMED_UNIT(#62)LENGTH_UNIT()SI_UNIT(.MILLI.,.METRE.));
#75=ADVANCED_FACE('',(#98),#99,.T.);
#76=ADVANCED_FACE('',(#100),#101,.T.);
#77=ADVANCED_FACE('',(#102),#103,.T.);
#78=ADVANCED_FACE('',(#104),#105,.T.);
#79=ADVANCED_FACE('',(#106),#107,.F.);
#80=ADVANCED_FACE('',(#108),#109,.T.);
#81=ADVANCED_FACE('',(#110),#111,.F.);
#82=ADVANCED_FACE('',(#112),#113,.T.);
#83=ADVANCED_FACE('',(#114),#115,.F.);
#84=ADVANCED_FACE('',(#116),#117,.T.);
#85=ADVANCED_FACE('',(#118),#119,.F.);
#86=ADVANCED_FACE('',(#120),#121,.T.);
#87=ADVANCED_FACE('',(#122),#123,.T.);
#88=ADVANCED_FACE('',(#124),#125,.T.);
#89=ADVANCED_FACE('',(#126),#127,.T.);
#90=ADVANCED_FACE('',(#128),#129,.T.);
#91=ADVANCED_FACE('',(#130),#131,.T.);
#92=ADVANCED_FACE('',(#132),#133,.T.);
#93=ADVANCED_FACE('',(#134),#135,.T.);
#94=ADVANCED_FACE('',(#136),#137,.T.);
#95=ADVANCED_FACE('',(#138),#139,.T.);
#96=ADVANCED_FACE('',(#140),#141,.F.);
#98=FACE_OUTER_BOUND('',#142,.T.);
#99=CYLINDRICAL_SURFACE('',#143,3.0);
#100=FACE_OUTER_BOUND('',#144,.T.);
#101=PLANE('',#145);
#102=FACE_OUTER_BOUND('',#146,.T.);
#103=CYLINDRICAL_SURFACE('',#147,2.0);
#104=FACE_OUTER_BOUND('',#148,.T.);
#105=PLANE('',#149);
#106=FACE_OUTER_BOUND('',#150,.T.);
#107=CYLINDRICAL_SURFACE('',#151,5.0);
#108=FACE_OUTER_BOUND('',#152,.T.);
#109=PLANE('',#153);
#110=FACE_OUTER_BOUND('',#154,.T.);
#111=CYLINDRICAL_SURFACE('',#155,5.0);
#112=FACE_OUTER_BOUND('',#156,.T.);
#113=PLANE('',#157);
#114=FACE_OUTER_BOUND('',#158,.T.);
#115=CYLINDRICAL_SURFACE('',#159,5.0);
#116=FACE_OUTER_BOUND('',#160,.T.);
#117=PLANE('',#161);
#118=FACE_OUTER_BOUND('',#162,.T.);
#119=CYLINDRICAL_SURFACE('',#163,5.0);
#120=FACE_OUTER_BOUND('',#164,.T.);
#121=PLANE('',#165);
#122=FACE_OUTER_BOUND('',#166,.T.);
#123=CYLINDRICAL_SURFACE('',#167,2.0);
#124=FACE_OUTER_BOUND('',#168,.T.);
#125=PLANE('',#169);
#126=FACE_OUTER_BOUND('',#170,.T.);
#127=CYLINDRICAL_SURFACE('',#171,3.0);
#128=FACE_OUTER_BOUND('',#172,.T.);
#129=PLANE('',#173);
#130=FACE_OUTER_BOUND('',#174,.T.);
#131=CYLINDRICAL_SURFACE('',#175,6.0);
#132=FACE_OUTER_BOUND('',#176,.T.);
#133=PLANE('',#177);
#134=FACE_OUTER_BOUND('',#178,.T.);
#135=CYLINDRICAL_SURFACE('',#179,6.0);
#136=FACE_OUTER_BOUND('',#180,.T.);
#137=PLANE('',#181);
#138=FACE_OUTER_BOUND('',#182,.T.);
#139=PLANE('',#183);
#140=FACE_OUTER_BOUND('',#184,.T.);
#141=PLANE('',#185);
#142=EDGE_LOOP('',(#186,#187,#188,#189));
#143=AXIS2_PLACEMENT_3D('',#190,#191,#192);
#144=EDGE_LOOP('',(#193,#194,#195,#196));
#145=AXIS2_PLACEMENT_3D('',#197,#198,#199);
#146=EDGE_LOOP('',(#200,#201,#202,#203));
#147=AXIS2_PLACEMENT_3D('',#204,#205,#206);
#148=EDGE_LOOP('',(#207,#208,#209,#210));
#149=AXIS2_PLACEMENT_3D('',#211,#212,#213);
#150=EDGE_LOOP('',(#214,#215,#216,#217));
#151=AXIS2_PLACEMENT_3D('',#218,#219,#220);
#152=EDGE_LOOP('',(#221,#222,#223,#224));
#153=AXIS2_PLACEMENT_3D('',#225,#226,#227);
#154=EDGE_LOOP('',(#228,#229,#230,#231));
#155=AXIS2_PLACEMENT_3D('',#232,#233,#234);
#156=EDGE_LOOP('',(#235,#236,#237,#238));
#157=AXIS2_PLACEMENT_3D('',#239,#240,#241);
#158=EDGE_LOOP('',(#242,#243,#244,#245));
#159=AXIS2_PLACEMENT_3D('',#246,#247,#248);
#160=EDGE_LOOP('',(#249,#250,#251,#252));
#161=AXIS2_PLACEMENT_3D('',#253,#254,#255);
#162=EDGE_LOOP('',(#256,#257,#258,#259));
#163=AXIS2_PLACEMENT_3D('',#260,#261,#262);
#164=EDGE_LOOP('',(#263,#264,#265,#266));
#165=AXIS2_PLACEMENT_3D('',#267,#268,#269);
#166=EDGE_LOOP('',(#270,#271,#272,#273));
#167=AXIS2_PLACEMENT_3D('',#274,#275,#276);
#168=EDGE_LOOP('',(#277,#278,#279,#280));
#169=AXIS2_PLACEMENT_3D('',#281,#282,#283);
#170=EDGE_LOOP('',(#284,#285,#286,#287));
#171=AXIS2_PLACEMENT_3D('',#288,#289,#290);
#172=EDGE_LOOP('',(#291,#292,#293,#294));
#173=AXIS2_PLACEMENT_3D('',#295,#296,#297);
#174=EDGE_LOOP('',(#298,#299,#300,#301));
#175=AXIS2_PLACEMENT_3D('',#302,#303,#304);
#176=EDGE_LOOP('',(#305,#306,#307,#308));
#177=AXIS2_PLACEMENT_3D('',#309,#310,#311);
#178=EDGE_LOOP('',(#312,#313,#314,#315));
#179=AXIS2_PLACEMENT_3D('',#316,#317,#318);
#180=EDGE_LOOP('',(#319,#320,#321,#322));
#181=AXIS2_PLACEMENT_3D('',#323,#324,#325);
#182=EDGE_LOOP('',(#326,#327,#328,#329,#330,#331,#332,#333,#334,#335,#336,#337,#338,#339,#340,#341,#342,#343,#344,#345));
#183=AXIS2_PLACEMENT_3D('',#346,#347,#348);
#184=EDGE_LOOP('',(#349,#350,#351,#352,#353,#354,#355,#356,#357,#358,#359,#360,#361,#362,#363,#364,#365,#366,#367,#368));
#185=AXIS2_PLACEMENT_3D('',#369,#370,#371);
#186=ORIENTED_EDGE('',*,*,#372,.T.);
#187=ORIENTED_EDGE('',*,*,#373,.F.);
#188=ORIENTED_EDGE('',*,*,#374,.T.);
#189=ORIENTED_EDGE('',*,*,#375,.T.);
#190=CARTESIAN_POINT('',(-64.7,50.0,0.0));
#191=DIRECTION('',(0.0,0.0,-1.0));
#192=DIRECTION('',(1.0,0.0,0.0));
#193=ORIENTED_EDGE('',*,*,#376,.T.);
#194=ORIENTED_EDGE('',*,*,#377,.F.);
#195=ORIENTED_EDGE('',*,*,#378,.T.);
#196=ORIENTED_EDGE('',*,*,#373,.T.);
#197=CARTESIAN_POINT('',(-64.7,53.0,0.0));
#198=DIRECTION('',(3.94745964311167E-016,1.0,0.0));
#199=DIRECTION('',(-1.0,3.94745964311167E-016,0.0));
#200=ORIENTED_EDGE('',*,*,#379,.T.);
#201=ORIENTED_EDGE('',*,*,#380,.F.);
#202=ORIENTED_EDGE('',*,*,#381,.T.);
#203=ORIENTED_EDGE('',*,*,#377,.T.);
#204=CARTESIAN_POINT('',(-46.7,51.0,0.0));
#205=DIRECTION('',(0.0,0.0,-1.0));
#206=DIRECTION('',(1.0,0.0,0.0));
#207=ORIENTED_EDGE('',*,*,#382,.T.);
#208=ORIENTED_EDGE('',*,*,#383,.F.);
#209=ORIENTED_EDGE('',*,*,#384,.T.);
#210=ORIENTED_EDGE('',*,*,#380,.T.);
#211=CARTESIAN_POINT('',(-44.7,51.0,0.0));
#212=DIRECTION('',(1.0,0.0,0.0));
#213=DIRECTION('',(0.0,1.0,0.0));
#214=ORIENTED_EDGE('',*,*,#385,.T.);
#215=ORIENTED_EDGE('',*,*,#386,.F.);
#216=ORIENTED_EDGE('',*,*,#387,.F.);
#217=ORIENTED_EDGE('',*,*,#383,.T.);
#218=CARTESIAN_POINT('',(-39.7,21.3037961003,0.0));
#219=DIRECTION('',(0.0,0.0,-1.0));
#220=DIRECTION('',(1.0,0.0,0.0));
#221=ORIENTED_EDGE('',*,*,#388,.T.);
#222=ORIENTED_EDGE('',*,*,#389,.F.);
#223=ORIENTED_EDGE('',*,*,#390,.T.);
#224=ORIENTED_EDGE('',*,*,#386,.T.);
#225=CARTESIAN_POINT('',(-41.2811388300823,16.5603796100468,0.0));
#226=DIRECTION('',(0.316227766016837,0.948683298050514,0.0));
#227=DIRECTION('',(-0.948683298050514,0.316227766016837,0.0));
#228=ORIENTED_EDGE('',*,*,#391,.T.);
#229=ORIENTED_EDGE('',*,*,#392,.F.);
#230=ORIENTED_EDGE('',*,*,#393,.F.);
#231=ORIENTED_EDGE('',*,*,#389,.T.);
#232=CARTESIAN_POINT('',(-28.8886116992,17.7,0.0));
#233=DIRECTION('',(0.0,0.0,-1.0));
#234=DIRECTION('',(1.0,0.0,0.0));
#235=ORIENTED_EDGE('',*,*,#394,.T.);
#236=ORIENTED_EDGE('',*,*,#395,.F.);
#237=ORIENTED_EDGE('',*,*,#396,.T.);
#238=ORIENTED_EDGE('',*,*,#392,.T.);
#239=CARTESIAN_POINT('',(-28.8886116992,12.7,0.0));
#240=DIRECTION('',(6.14898652069681E-017,1.0,0.0));
#241=DIRECTION('',(-1.0,6.14898652069681E-017,0.0));
#242=ORIENTED_EDGE('',*,*,#397,.T.);
#243=ORIENTED_EDGE('',*,*,#398,.F.);
#244=ORIENTED_EDGE('',*,*,#399,.F.);
#245=ORIENTED_EDGE('',*,*,#395,.T.);
#246=CARTESIAN_POINT('',(28.8886116992,17.7,0.0));
#247=DIRECTION('',(0.0,0.0,-1.0));
#248=DIRECTION('',(1.0,0.0,0.0));
#249=ORIENTED_EDGE('',*,*,#400,.T.);
#250=ORIENTED_EDGE('',*,*,#401,.F.);
#251=ORIENTED_EDGE('',*,*,#402,.T.);
#252=ORIENTED_EDGE('',*,*,#398,.T.);
#253=CARTESIAN_POINT('',(30.4697505292823,12.9565835097468,0.0));
#254=DIRECTION('',(-0.316227766016836,0.948683298050515,0.0));
#255=DIRECTION('',(-0.948683298050515,-0.316227766016836,0.0));
#256=ORIENTED_EDGE('',*,*,#403,.T.);
#257=ORIENTED_EDGE('',*,*,#404,.F.);
#258=ORIENTED_EDGE('',*,*,#405,.F.);
#259=ORIENTED_EDGE('',*,*,#401,.T.);
#260=CARTESIAN_POINT('',(39.7,21.3037961003,0.0));
#261=DIRECTION('',(0.0,0.0,-1.0));
#262=DIRECTION('',(1.0,0.0,0.0));
#263=ORIENTED_EDGE('',*,*,#406,.T.);
#264=ORIENTED_EDGE('',*,*,#407,.F.);
#265=ORIENTED_EDGE('',*,*,#408,.T.);
#266=ORIENTED_EDGE('',*,*,#404,.T.);
#267=CARTESIAN_POINT('',(44.7,21.3037961003,0.0));
#268=DIRECTION('',(-1.0,0.0,0.0));
#269=DIRECTION('',(0.0,-1.0,0.0));
#270=ORIENTED_EDGE('',*,*,#409,.T.);
#271=ORIENTED_EDGE('',*,*,#410,.F.);
#272=ORIENTED_EDGE('',*,*,#411,.T.);
#273=ORIENTED_EDGE('',*,*,#407,.T.);
#274=CARTESIAN_POINT('',(46.7,51.0,0.0));
#275=DIRECTION('',(0.0,0.0,-1.0));
#276=DIRECTION('',(1.0,0.0,0.0));
#277=ORIENTED_EDGE('',*,*,#412,.T.);
#278=ORIENTED_EDGE('',*,*,#413,.F.);
#279=ORIENTED_EDGE('',*,*,#414,.T.);
#280=ORIENTED_EDGE('',*,*,#410,.T.);
#281=CARTESIAN_POINT('',(46.7,53.0,0.0));
#282=DIRECTION('',(3.94745964311167E-016,1.0,0.0));
#283=DIRECTION('',(-1.0,3.94745964311167E-016,0.0));
#284=ORIENTED_EDGE('',*,*,#415,.T.);
#285=ORIENTED_EDGE('',*,*,#416,.F.);
#286=ORIENTED_EDGE('',*,*,#417,.T.);
#287=ORIENTED_EDGE('',*,*,#413,.T.);
#288=CARTESIAN_POINT('',(64.7,50.0,0.0));
#289=DIRECTION('',(0.0,0.0,-1.0));
#290=DIRECTION('',(1.0,0.0,0.0));
#291=ORIENTED_EDGE('',*,*,#418,.T.);
#292=ORIENTED_EDGE('',*,*,#419,.F.);
#293=ORIENTED_EDGE('',*,*,#420,.T.);
#294=ORIENTED_EDGE('',*,*,#416,.T.);
#295=CARTESIAN_POINT('',(67.7,50.0,0.0));
#296=DIRECTION('',(1.0,0.0,0.0));
#297=DIRECTION('',(0.0,1.0,0.0));
#298=ORIENTED_EDGE('',*,*,#421,.T.);
#299=ORIENTED_EDGE('',*,*,#422,.F.);
#300=ORIENTED_EDGE('',*,*,#423,.T.);
#301=ORIENTED_EDGE('',*,*,#419,.T.);
#302=CARTESIAN_POINT('',(61.7,6.0,0.0));
#303=DIRECTION('',(0.0,0.0,-1.0));
#304=DIRECTION('',(1.0,0.0,0.0));
#305=ORIENTED_EDGE('',*,*,#424,.T.);
#306=ORIENTED_EDGE('',*,*,#425,.F.);
#307=ORIENTED_EDGE('',*,*,#426,.T.);
#308=ORIENTED_EDGE('',*,*,#422,.T.);
#309=CARTESIAN_POINT('',(61.7,-3.5527136788005E-015,0.0));
#310=DIRECTION('',(-6.12303176911189E-017,-1.0,0.0));
#311=DIRECTION('',(1.0,-6.12303176911189E-017,0.0));
#312=ORIENTED_EDGE('',*,*,#427,.T.);
#313=ORIENTED_EDGE('',*,*,#428,.F.);
#314=ORIENTED_EDGE('',*,*,#429,.T.);
#315=ORIENTED_EDGE('',*,*,#425,.T.);
#316=CARTESIAN_POINT('',(-61.7,6.0,0.0));
#317=DIRECTION('',(0.0,0.0,-1.0));
#318=DIRECTION('',(1.0,0.0,0.0));
#319=ORIENTED_EDGE('',*,*,#430,.T.);
#320=ORIENTED_EDGE('',*,*,#375,.F.);
#321=ORIENTED_EDGE('',*,*,#431,.T.);
#322=ORIENTED_EDGE('',*,*,#428,.T.);
#323=CARTESIAN_POINT('',(-67.7,6.00000000000001,0.0));
#324=DIRECTION('',(-1.0,0.0,0.0));
#325=DIRECTION('',(0.0,-1.0,0.0));
#326=ORIENTED_EDGE('',*,*,#372,.F.);
#327=ORIENTED_EDGE('',*,*,#430,.F.);
#328=ORIENTED_EDGE('',*,*,#427,.F.);
#329=ORIENTED_EDGE('',*,*,#424,.F.);
#330=ORIENTED_EDGE('',*,*,#421,.F.);
#331=ORIENTED_EDGE('',*,*,#418,.F.);
#332=ORIENTED_EDGE('',*,*,#415,.F.);
#333=ORIENTED_EDGE('',*,*,#412,.F.);
#334=ORIENTED_EDGE('',*,*,#409,.F.);
#335=ORIENTED_EDGE('',*,*,#406,.F.);
#336=ORIENTED_EDGE('',*,*,#403,.F.);
#337=ORIENTED_EDGE('',*,*,#400,.F.);
#338=ORIENTED_EDGE('',*,*,#397,.F.);
#339=ORIENTED_EDGE('',*,*,#394,.F.);
#340=ORIENTED_EDGE('',*,*,#391,.F.);
#341=ORIENTED_EDGE('',*,*,#388,.F.);
#342=ORIENTED_EDGE('',*,*,#385,.F.);
#343=ORIENTED_EDGE('',*,*,#382,.F.);
#344=ORIENTED_EDGE('',*,*,#379,.F.);
#345=ORIENTED_EDGE('',*,*,#376,.F.);
#346=CARTESIAN_POINT('',(4.44089209850063E-016,19.9315059609429,10.0));
#347=DIRECTION('',(0.0,0.0,1.0));
#348=DIRECTION('',(1.0,0.0,0.0));
#349=ORIENTED_EDGE('',*,*,#431,.F.);
#350=ORIENTED_EDGE('',*,*,#374,.F.);
#351=ORIENTED_EDGE('',*,*,#378,.F.);
#352=ORIENTED_EDGE('',*,*,#381,.F.);
#353=ORIENTED_EDGE('',*,*,#384,.F.);
#354=ORIENTED_EDGE('',*,*,#387,.T.);
#355=ORIENTED_EDGE('',*,*,#390,.F.);
#356=ORIENTED_EDGE('',*,*,#393,.T.);
#357=ORIENTED_EDGE('',*,*,#396,.F.);
#358=ORIENTED_EDGE('',*,*,#399,.T.);
#359=ORIENTED_EDGE('',*,*,#402,.F.);
#360=ORIENTED_EDGE('',*,*,#405,.T.);
#361=ORIENTED_EDGE('',*,*,#408,.F.);
#362=ORIENTED_EDGE('',*,*,#411,.F.);
#363=ORIENTED_EDGE('',*,*,#414,.F.);
#364=ORIENTED_EDGE('',*,*,#417,.F.);
#365=ORIENTED_EDGE('',*,*,#420,.F.);
#366=ORIENTED_EDGE('',*,*,#423,.F.);
#367=ORIENTED_EDGE('',*,*,#426,.F.);
#368=ORIENTED_EDGE('',*,*,#429,.F.);
#369=CARTESIAN_POINT('',(4.44089209850063E-016,19.9315059609429,0.0));
#370=DIRECTION('',(0.0,0.0,1.0));
#371=DIRECTION('',(1.0,0.0,0.0));
#372=EDGE_CURVE('',#432,#433,#434,.T.);
#373=EDGE_CURVE('',#435,#433,#436,.T.);
#374=EDGE_CURVE('',#435,#437,#438,.T.);
#375=EDGE_CURVE('',#437,#432,#439,.T.);
#376=EDGE_CURVE('',#433,#440,#441,.T.);
#377=EDGE_CURVE('',#442,#440,#443,.T.);
#378=EDGE_CURVE('',#442,#435,#444,.T.);
#379=EDGE_CURVE('',#440,#445,#446,.T.);
#380=EDGE_CURVE('',#447,#445,#448,.T.);
#381=EDGE_CURVE('',#447,#442,#449,.T.);
#382=EDGE_CURVE('',#445,#450,#451,.T.);
#383=EDGE_CURVE('',#452,#450,#453,.T.);
#384=EDGE_CURVE('',#452,#447,#454,.T.);
#385=EDGE_CURVE('',#450,#455,#456,.T.);
#386=EDGE_CURVE('',#457,#455,#458,.T.);
#387=EDGE_CURVE('',#452,#457,#459,.T.);
#388=EDGE_CURVE('',#455,#460,#461,.T.);
#389=EDGE_CURVE('',#462,#460,#463,.T.);
#390=EDGE_CURVE('',#462,#457,#464,.T.);
#391=EDGE_CURVE('',#460,#465,#466,.T.);
#392=EDGE_CURVE('',#467,#465,#468,.T.);
#393=EDGE_CURVE('',#462,#467,#469,.T.);
#394=EDGE_CURVE('',#465,#470,#471,.T.);
#395=EDGE_CURVE('',#472,#470,#473,.T.);
#396=EDGE_CURVE('',#472,#467,#474,.T.);
#397=EDGE_CURVE('',#470,#475,#476,.T.);
#398=EDGE_CURVE('',#477,#475,#478,.T.);
#399=EDGE_CURVE('',#472,#477,#479,.T.);
#400=EDGE_CURVE('',#475,#480,#481,.T.);
#401=EDGE_CURVE('',#482,#480,#483,.T.);
#402=EDGE_CURVE('',#482,#477,#484,.T.);
#403=EDGE_CURVE('',#480,#485,#486,.T.);
#404=EDGE_CURVE('',#487,#485,#488,.T.);
#405=EDGE_CURVE('',#482,#487,#489,.T.);
#406=EDGE_CURVE('',#485,#490,#491,.T.);
#407=EDGE_CURVE('',#492,#490,#493,.T.);
#408=EDGE_CURVE('',#492,#487,#494,.T.);
#409=EDGE_CURVE('',#490,#495,#496,.T.);
#410=EDGE_CURVE('',#497,#495,#498,.T.);
#411=EDGE_CURVE('',#497,#492,#499,.T.);
#412=EDGE_CURVE('',#495,#500,#501,.T.);
#413=EDGE_CURVE('',#502,#500,#503,.T.);
#414=EDGE_CURVE('',#502,#497,#504,.T.);
#415=EDGE_CURVE('',#500,#505,#506,.T.);
#416=EDGE_CURVE('',#507,#505,#508,.T.);
#417=EDGE_CURVE('',#507,#502,#509,.T.);
#418=EDGE_CURVE('',#505,#510,#511,.T.);
#419=EDGE_CURVE('',#512,#510,#513,.T.);
#420=EDGE_CURVE('',#512,#507,#514,.T.);
#421=EDGE_CURVE('',#510,#515,#516,.T.);
#422=EDGE_CURVE('',#517,#515,#518,.T.);
#423=EDGE_CURVE('',#517,#512,#519,.T.);
#424=EDGE_CURVE('',#515,#520,#521,.T.);
#425=EDGE_CURVE('',#522,#520,#523,.T.);
#426=EDGE_CURVE('',#522,#517,#524,.T.);
#427=EDGE_CURVE('',#520,#525,#526,.T.);
#428=EDGE_CURVE('',#527,#525,#528,.T.);
#429=EDGE_CURVE('',#527,#522,#529,.T.);
#430=EDGE_CURVE('',#525,#432,#530,.T.);
#431=EDGE_CURVE('',#437,#527,#531,.T.);
#432=VERTEX_POINT('',#532);
#433=VERTEX_POINT('',#533);
#434=CIRCLE('',#534,3.0);
#435=VERTEX_POINT('',#535);
#436=LINE('',#536,#537);
#437=VERTEX_POINT('',#538);
#438=CIRCLE('',#539,3.0);
#439=LINE('',#540,#541);
#440=VERTEX_POINT('',#542);
#441=LINE('',#543,#544);
#442=VERTEX_POINT('',#545);
#443=LINE('',#546,#547);
#444=LINE('',#548,#549);
#445=VERTEX_POINT('',#550);
#446=CIRCLE('',#551,2.0);
#447=VERTEX_POINT('',#552);
#448=LINE('',#553,#554);
#449=CIRCLE('',#555,2.0);
#450=VERTEX_POINT('',#556);
#451=LINE('',#557,#558);
#452=VERTEX_POINT('',#559);
#453=LINE('',#560,#561);
#454=LINE('',#562,#563);
#455=VERTEX_POINT('',#564);
#456=CIRCLE('',#565,5.0);
#457=VERTEX_POINT('',#566);
#458=LINE('',#567,#568);
#459=CIRCLE('',#569,5.0);
#460=VERTEX_POINT('',#570);
#461=LINE('',#571,#572);
#462=VERTEX_POINT('',#573);
#463=LINE('',#574,#575);
#464=LINE('',#576,#577);
#465=VERTEX_POINT('',#578);
#466=CIRCLE('',#579,5.0);
#467=VERTEX_POINT('',#580);
#468=LINE('',#581,#582);
#469=CIRCLE('',#583,5.0);
#470=VERTEX_POINT('',#584);
#471=LINE('',#585,#586);
#472=VERTEX_POINT('',#587);
#473=LINE('',#588,#589);
#474=LINE('',#590,#591);
#475=VERTEX_POINT('',#592);
#476=CIRCLE('',#593,5.0);
#477=VERTEX_POINT('',#594);
#478=LINE('',#595,#596);
#479=CIRCLE('',#597,5.0);
#480=VERTEX_POINT('',#598);
#481=LINE('',#599,#600);
#482=VERTEX_POINT('',#601);
#483=LINE('',#602,#603);
#484=LINE('',#604,#605);
#485=VERTEX_POINT('',#606);
#486=CIRCLE('',#607,5.0);
#487=VERTEX_POINT('',#608);
#488=LINE('',#609,#610);
#489=CIRCLE('',#611,5.0);
#490=VERTEX_POINT('',#612);
#491=LINE('',#613,#614);
#492=VERTEX_POINT('',#615);
#493=LINE('',#616,#617);
#494=LINE('',#618,#619);
#495=VERTEX_POINT('',#620);
#496=CIRCLE('',#621,2.0);
#497=VERTEX_POINT('',#622);
#498=LINE('',#623,#624);
#499=CIRCLE('',#625,2.0);
#500=VERTEX_POINT('',#626);
#501=LINE('',#627,#628);
#502=VERTEX_POINT('',#629);
#503=LINE('',#630,#631);
#504=LINE('',#632,#633);
#505=VERTEX_POINT('',#634);
#506=CIRCLE('',#635,3.0);
#507=VERTEX_POINT('',#636);
#508=LINE('',#637,#638);
#509=CIRCLE('',#639,3.0);
#510=VERTEX_POINT('',#640);
#511=LINE('',#641,#642);
#512=VERTEX_POINT('',#643);
#513=LINE('',#644,#645);
#514=LINE('',#646,#647);
#515=VERTEX_POINT('',#648);
#516=CIRCLE('',#649,6.0);
#517=VERTEX_POINT('',#650);
#518=LINE('',#651,#652);
#519=CIRCLE('',#653,6.0);
#520=VERTEX_POINT('',#654);
#521=LINE('',#655,#656);
#522=VERTEX_POINT('',#657);
#523=LINE('',#658,#659);
#524=LINE('',#660,#661);
#525=VERTEX_POINT('',#662);
#526=CIRCLE('',#663,6.0);
#527=VERTEX_POINT('',#664);
#528=LINE('',#665,#666);
#529=CIRCLE('',#667,6.0);
#530=LINE('',#668,#669);
#531=LINE('',#670,#671);
#532=CARTESIAN_POINT('',(-67.7,50.0,10.0));
#533=CARTESIAN_POINT('',(-64.7,53.0,10.0));
#534=AXIS2_PLACEMENT_3D('',#672,#673,#674);
#535=CARTESIAN_POINT('',(-64.7,53.0,0.0));
#536=CARTESIAN_POINT('',(-64.7,53.0,0.0));
#537=VECTOR('',#675,1.0);
#538=CARTESIAN_POINT('',(-67.7,50.0,0.0));
#539=AXIS2_PLACEMENT_3D('',#676,#677,#678);
#540=CARTESIAN_POINT('',(-67.7,50.0,0.0));
#541=VECTOR('',#679,1.0);
#542=CARTESIAN_POINT('',(-46.7,53.0,10.0));
#543=CARTESIAN_POINT('',(-46.7,53.0,10.0));
#544=VECTOR('',#680,1.0);
#545=CARTESIAN_POINT('',(-46.7,53.0,0.0));
#546=CARTESIAN_POINT('',(-46.7,53.0,0.0));
#547=VECTOR('',#681,1.0);
#548=CARTESIAN_POINT('',(-46.7,53.0,0.0));
#549=VECTOR('',#682,1.0);
#550=CARTESIAN_POINT('',(-44.7,51.0,10.0));
#551=AXIS2_PLACEMENT_3D('',#683,#684,#685);
#552=CARTESIAN_POINT('',(-44.7,51.0,0.0));
#553=CARTESIAN_POINT('',(-44.7,51.0,0.0));
#554=VECTOR('',#686,1.0);
#555=AXIS2_PLACEMENT_3D('',#687,#688,#689);
#556=CARTESIAN_POINT('',(-44.7,21.3037961003,10.0));
#557=CARTESIAN_POINT('',(-44.7,21.3037961003,10.0));
#558=VECTOR('',#690,1.0);
#559=CARTESIAN_POINT('',(-44.7,21.3037961003,0.0));
#560=CARTESIAN_POINT('',(-44.7,21.3037961003,0.0));
#561=VECTOR('',#691,1.0);
#562=CARTESIAN_POINT('',(-44.7,21.3037961003,0.0));
#563=VECTOR('',#692,1.0);
#564=CARTESIAN_POINT('',(-41.2811388300823,16.5603796100468,10.0));
#565=AXIS2_PLACEMENT_3D('',#693,#694,#695);
#566=CARTESIAN_POINT('',(-41.2811388300823,16.5603796100468,0.0));
#567=CARTESIAN_POINT('',(-41.2811388300823,16.5603796100468,0.0));
#568=VECTOR('',#696,1.0);
#569=AXIS2_PLACEMENT_3D('',#697,#698,#699);
#570=CARTESIAN_POINT('',(-30.4697505292,12.9565835097001,10.0));
#571=CARTESIAN_POINT('',(-30.4697505292,12.9565835097001,10.0));
#572=VECTOR('',#700,1.0);
#573=CARTESIAN_POINT('',(-30.4697505292,12.9565835097001,0.0));
#574=CARTESIAN_POINT('',(-30.4697505292,12.9565835097001,0.0));
#575=VECTOR('',#701,1.0);
#576=CARTESIAN_POINT('',(-30.4697505292,12.9565835097001,0.0));
#577=VECTOR('',#702,1.0);
#578=CARTESIAN_POINT('',(-28.8886116992,12.7,10.0));
#579=AXIS2_PLACEMENT_3D('',#703,#704,#705);
#580=CARTESIAN_POINT('',(-28.8886116992,12.7,0.0));
#581=CARTESIAN_POINT('',(-28.8886116992,12.7,0.0));
#582=VECTOR('',#706,1.0);
#583=AXIS2_PLACEMENT_3D('',#707,#708,#709);
#584=CARTESIAN_POINT('',(28.8886116992,12.7,10.0));
#585=CARTESIAN_POINT('',(28.8886116992,12.7,10.0));
#586=VECTOR('',#710,1.0);
#587=CARTESIAN_POINT('',(28.8886116992,12.7,0.0));
#588=CARTESIAN_POINT('',(28.8886116992,12.7,0.0));
#589=VECTOR('',#711,1.0);
#590=CARTESIAN_POINT('',(28.8886116992,12.7,0.0));
#591=VECTOR('',#712,1.0);
#592=CARTESIAN_POINT('',(30.4697505292823,12.9565835097468,10.0));
#593=AXIS2_PLACEMENT_3D('',#713,#714,#715);
#594=CARTESIAN_POINT('',(30.4697505292823,12.9565835097468,0.0));
#595=CARTESIAN_POINT('',(30.4697505292823,12.9565835097468,0.0));
#596=VECTOR('',#716,1.0);
#597=AXIS2_PLACEMENT_3D('',#717,#718,#719);
#598=CARTESIAN_POINT('',(41.2811388301,16.56037961,10.0));
#599=CARTESIAN_POINT('',(41.2811388301,16.56037961,10.0));
#600=VECTOR('',#720,1.0);
#601=CARTESIAN_POINT('',(41.2811388301,16.56037961,0.0));
#602=CARTESIAN_POINT('',(41.2811388301,16.56037961,0.0));
#603=VECTOR('',#721,1.0);
#604=CARTESIAN_POINT('',(41.2811388301,16.56037961,0.0));
#605=VECTOR('',#722,1.0);
#606=CARTESIAN_POINT('',(44.7,21.3037961003,10.0));
#607=AXIS2_PLACEMENT_3D('',#723,#724,#725);
#608=CARTESIAN_POINT('',(44.7,21.3037961003,0.0));
#609=CARTESIAN_POINT('',(44.7,21.3037961003,0.0));
#610=VECTOR('',#726,1.0);
#611=AXIS2_PLACEMENT_3D('',#727,#728,#729);
#612=CARTESIAN_POINT('',(44.7,51.0,10.0));
#613=CARTESIAN_POINT('',(44.7,51.0,10.0));
#614=VECTOR('',#730,1.0);
#615=CARTESIAN_POINT('',(44.7,51.0,0.0));
#616=CARTESIAN_POINT('',(44.7,51.0,0.0));
#617=VECTOR('',#731,1.0);
#618=CARTESIAN_POINT('',(44.7,51.0,0.0));
#619=VECTOR('',#732,1.0);
#620=CARTESIAN_POINT('',(46.7,53.0,10.0));
#621=AXIS2_PLACEMENT_3D('',#733,#734,#735);
#622=CARTESIAN_POINT('',(46.7,53.0,0.0));
#623=CARTESIAN_POINT('',(46.7,53.0,0.0));
#624=VECTOR('',#736,1.0);
#625=AXIS2_PLACEMENT_3D('',#737,#738,#739);
#626=CARTESIAN_POINT('',(64.7,53.0,10.0));
#627=CARTESIAN_POINT('',(64.7,53.0,10.0));
#628=VECTOR('',#740,1.0);
#629=CARTESIAN_POINT('',(64.7,53.0,0.0));
#630=CARTESIAN_POINT('',(64.7,53.0,0.0));
#631=VECTOR('',#741,1.0);
#632=CARTESIAN_POINT('',(64.7,53.0,0.0));
#633=VECTOR('',#742,1.0);
#634=CARTESIAN_POINT('',(67.7,50.0,10.0));
#635=AXIS2_PLACEMENT_3D('',#743,#744,#745);
#636=CARTESIAN_POINT('',(67.7,50.0,0.0));
#637=CARTESIAN_POINT('',(67.7,50.0,0.0));
#638=VECTOR('',#746,1.0);
#639=AXIS2_PLACEMENT_3D('',#747,#748,#749);
#640=CARTESIAN_POINT('',(67.7,6.0,10.0));
#641=CARTESIAN_POINT('',(67.7,6.0,10.0));
#642=VECTOR('',#750,1.0);
#643=CARTESIAN_POINT('',(67.7,6.0,0.0));
#644=CARTESIAN_POINT('',(67.7,6.0,0.0));
#645=VECTOR('',#751,1.0);
#646=CARTESIAN_POINT('',(67.7,6.0,0.0));
#647=VECTOR('',#752,1.0);
#648=CARTESIAN_POINT('',(61.7,-3.5527136788005E-015,10.0));
#649=AXIS2_PLACEMENT_3D('',#753,#754,#755);
#650=CARTESIAN_POINT('',(61.7,-3.5527136788005E-015,0.0));
#651=CARTESIAN_POINT('',(61.7,-3.5527136788005E-015,0.0));
#652=VECTOR('',#756,1.0);
#653=AXIS2_PLACEMENT_3D('',#757,#758,#759);
#654=CARTESIAN_POINT('',(-61.7,3.77791060154204E-015,10.0));
#655=CARTESIAN_POINT('',(-61.7,3.77791060154204E-015,10.0));
#656=VECTOR('',#760,1.0);
#657=CARTESIAN_POINT('',(-61.7,3.77791060154204E-015,0.0));
#658=CARTESIAN_POINT('',(-61.7,3.77791060154204E-015,0.0));
#659=VECTOR('',#761,1.0);
#660=CARTESIAN_POINT('',(-61.7,3.77791060154204E-015,0.0));
#661=VECTOR('',#762,1.0);
#662=CARTESIAN_POINT('',(-67.7,6.00000000000001,10.0));
#663=AXIS2_PLACEMENT_3D('',#763,#764,#765);
#664=CARTESIAN_POINT('',(-67.7,6.00000000000001,0.0));
#665=CARTESIAN_POINT('',(-67.7,6.00000000000001,0.0));
#666=VECTOR('',#766,1.0);
#667=AXIS2_PLACEMENT_3D('',#767,#768,#769);
#668=CARTESIAN_POINT('',(-67.7,50.0,10.0));
#669=VECTOR('',#770,1.0);
#670=CARTESIAN_POINT('',(-67.7,50.0,0.0));
#671=VECTOR('',#771,1.0);
#672=CARTESIAN_POINT('',(-64.7,50.0,10.0));
#673=DIRECTION('',(0.0,0.0,-1.0));
#674=DIRECTION('',(1.0,0.0,0.0));
#675=DIRECTION('',(0.0,0.0,1.0));
#676=CARTESIAN_POINT('',(-64.7,50.0,0.0));
#677=DIRECTION('',(0.0,0.0,1.0));
#678=DIRECTION('',(1.0,0.0,0.0));
#679=DIRECTION('',(0.0,0.0,1.0));
#680=DIRECTION('',(1.0,-3.94745964311167E-016,0.0));
#681=DIRECTION('',(0.0,0.0,1.0));
#682=DIRECTION('',(-1.0,3.94745964311167E-016,0.0));
#683=CARTESIAN_POINT('',(-46.7,51.0,10.0));
#684=DIRECTION('',(0.0,0.0,-1.0));
#685=DIRECTION('',(1.0,0.0,0.0));
#686=DIRECTION('',(0.0,0.0,1.0));
#687=CARTESIAN_POINT('',(-46.7,51.0,0.0));
#688=DIRECTION('',(0.0,0.0,1.0));
#689=DIRECTION('',(1.0,0.0,0.0));
#690=DIRECTION('',(0.0,-1.0,0.0));
#691=DIRECTION('',(0.0,0.0,1.0));
#692=DIRECTION('',(0.0,1.0,0.0));
#693=CARTESIAN_POINT('',(-39.7,21.3037961003,10.0));
#694=DIRECTION('',(0.0,0.0,1.0));
#695=DIRECTION('',(1.0,0.0,0.0));
#696=DIRECTION('',(0.0,0.0,1.0));
#697=CARTESIAN_POINT('',(-39.7,21.3037961003,0.0));
#698=DIRECTION('',(0.0,0.0,1.0));
#699=DIRECTION('',(1.0,0.0,0.0));
#700=DIRECTION('',(0.948683298050514,-0.316227766016837,0.0));
#701=DIRECTION('',(0.0,0.0,1.0));
#702=DIRECTION('',(-0.948683298050514,0.316227766016837,0.0));
#703=CARTESIAN_POINT('',(-28.8886116992,17.7,10.0));
#704=DIRECTION('',(0.0,0.0,1.0));
#705=DIRECTION('',(1.0,0.0,0.0));
#706=DIRECTION('',(0.0,0.0,1.0));
#707=CARTESIAN_POINT('',(-28.8886116992,17.7,0.0));
#708=DIRECTION('',(0.0,0.0,1.0));
#709=DIRECTION('',(1.0,0.0,0.0));
#710=DIRECTION('',(1.0,-6.14898652069681E-017,0.0));
#711=DIRECTION('',(0.0,0.0,1.0));
#712=DIRECTION('',(-1.0,6.14898652069681E-017,0.0));
#713=CARTESIAN_POINT('',(28.8886116992,17.7,10.0));
#714=DIRECTION('',(0.0,0.0,1.0));
#715=DIRECTION('',(1.0,0.0,0.0));
#716=DIRECTION('',(0.0,0.0,1.0));
#717=CARTESIAN_POINT('',(28.8886116992,17.7,0.0));
#718=DIRECTION('',(0.0,0.0,1.0));
#719=DIRECTION('',(1.0,0.0,0.0));
#720=DIRECTION('',(0.948683298050515,0.316227766016836,0.0));
#721=DIRECTION('',(0.0,0.0,1.0));
#722=DIRECTION('',(-0.948683298050515,-0.316227766016836,0.0));
#723=CARTESIAN_POINT('',(39.7,21.3037961003,10.0));
#724=DIRECTION('',(0.0,0.0,1.0));
#725=DIRECTION('',(1.0,0.0,0.0));
#726=DIRECTION('',(0.0,0.0,1.0));
#727=CARTESIAN_POINT('',(39.7,21.3037961003,0.0));
#728=DIRECTION('',(0.0,0.0,1.0));
#729=DIRECTION('',(1.0,0.0,0.0));
#730=DIRECTION('',(0.0,1.0,0.0));
#731=DIRECTION('',(0.0,0.0,1.0));
#732=DIRECTION('',(0.0,-1.0,0.0));
#733=CARTESIAN_POINT('',(46.7,51.0,10.0));
#734=DIRECTION('',(0.0,0.0,-1.0));
#735=DIRECTION('',(1.0,0.0,0.0));
#736=DIRECTION('',(0.0,0.0,1.0));
#737=CARTESIAN_POINT('',(46.7,51.0,0.0));
#738=DIRECTION('',(0.0,0.0,1.0));
#739=DIRECTION('',(1.0,0.0,0.0));
#740=DIRECTION('',(1.0,-3.94745964311167E-016,0.0));
#741=DIRECTION('',(0.0,0.0,1.0));
#742=DIRECTION('',(-1.0,3.94745964311167E-016,0.0));
#743=CARTESIAN_POINT('',(64.7,50.0,10.0));
#744=DIRECTION('',(0.0,0.0,-1.0));
#745=DIRECTION('',(1.0,0.0,0.0));
#746=DIRECTION('',(0.0,0.0,1.0));
#747=CARTESIAN_POINT('',(64.7,50.0,0.0));
#748=DIRECTION('',(0.0,0.0,1.0));
#749=DIRECTION('',(1.0,0.0,0.0));
#750=DIRECTION('',(0.0,-1.0,0.0));
#751=DIRECTION('',(0.0,0.0,1.0));
#752=DIRECTION('',(0.0,1.0,0.0));
#753=CARTESIAN_POINT('',(61.7,6.0,10.0));
#754=DIRECTION('',(0.0,0.0,-1.0));
#755=DIRECTION('',(1.0,0.0,0.0));
#756=DIRECTION('',(0.0,0.0,1.0));
#757=CARTESIAN_POINT('',(61.7,6.0,0.0));
#758=DIRECTION('',(0.0,0.0,1.0));
#759=DIRECTION('',(1.0,0.0,0.0));
#760=DIRECTION('',(-1.0,6.12303176911189E-017,0.0));
#761=DIRECTION('',(0.0,0.0,1.0));
#762=DIRECTION('',(1.0,-6.12303176911189E-017,0.0));
#763=CARTESIAN_POINT('',(-61.7,6.0,10.0));
#764=DIRECTION('',(0.0,0.0,-1.0));
#765=DIRECTION('',(1.0,0.0,0.0));
#766=DIRECTION('',(0.0,0.0,1.0));
#767=CARTESIAN_POINT('',(-61.7,6.0,0.0));
#768=DIRECTION('',(0.0,0.0,1.0));
#769=DIRECTION('',(1.0,0.0,0.0));
#770=DIRECTION('',(0.0,1.0,0.0));
#771=DIRECTION('',(0.0,-1.0,0.0));
ENDSEC;
END-ISO-10303-21;
