ISO-10303-21;
HEADER;
/* Generated by software containing ST-Developer
 * from STEP Tools, Inc. (www.steptools.com) 
 */
/* OPTION: using custom renumber hook */

FILE_DESCRIPTION(
/* description */ ('STEP AP203'),
/* implementation_level */ '2;1');

FILE_NAME(
/* name */ 'LMH30L',
/* time_stamp */ '2024-02-28T11:22:26+01:00',
/* author */ ('License CC BY-ND 4.0'),
/* organization */ ('CADENAS'),
/* preprocessor_version */ 'ST-DEVELOPER v19.3',
/* originating_system */ 'PARTsolutions',
/* authorisation */ '  ');

FILE_SCHEMA (('CONFIG_CONTROL_DESIGN'));
ENDSEC;

DATA;
#10=PROPERTY_DEFINITION_REPRESENTATION(#14,#12);
#11=PROPERTY_DEFINITION_REPRESENTATION(#15,#13);
#12=REPRESENTATION('',(#16),#723);
#13=REPRESENTATION('',(#17),#723);
#14=PROPERTY_DEFINITION('pmi validation property','',#728);
#15=PROPERTY_DEFINITION('pmi validation property','',#728);
#16=VALUE_REPRESENTATION_ITEM('number of annotations',COUNT_MEASURE(0.));
#17=VALUE_REPRESENTATION_ITEM('number of views',COUNT_MEASURE(0.));
#18=SHAPE_REPRESENTATION_RELATIONSHIP('','',#412,#19);
#19=ADVANCED_BREP_SHAPE_REPRESENTATION('',(#410),#723);
#20=PLANE('',#421);
#21=PLANE('',#430);
#22=PLANE('',#436);
#23=PLANE('',#447);
#24=PLANE('',#448);
#25=PLANE('',#451);
#26=PLANE('',#456);
#27=PLANE('',#461);
#28=PLANE('',#466);
#29=LINE('',#606,#37);
#30=LINE('',#608,#38);
#31=LINE('',#634,#39);
#32=LINE('',#636,#40);
#33=LINE('',#652,#41);
#34=LINE('',#656,#42);
#35=LINE('',#678,#43);
#36=LINE('',#682,#44);
#37=VECTOR('',#479,1000.);
#38=VECTOR('',#480,1000.);
#39=VECTOR('',#499,1000.);
#40=VECTOR('',#500,1000.);
#41=VECTOR('',#521,1000.);
#42=VECTOR('',#524,1000.);
#43=VECTOR('',#539,1000.);
#44=VECTOR('',#542,1000.);
#45=CYLINDRICAL_SURFACE('',#417,37.);
#46=CYLINDRICAL_SURFACE('',#428,15.);
#47=CYLINDRICAL_SURFACE('',#434,22.5);
#48=CYLINDRICAL_SURFACE('',#444,37.);
#49=CYLINDRICAL_SURFACE('',#449,3.3);
#50=CYLINDRICAL_SURFACE('',#453,5.5);
#51=CYLINDRICAL_SURFACE('',#454,5.5);
#52=CYLINDRICAL_SURFACE('',#458,3.3);
#53=CYLINDRICAL_SURFACE('',#459,3.3);
#54=CYLINDRICAL_SURFACE('',#463,5.5);
#55=CYLINDRICAL_SURFACE('',#464,5.5);
#56=CYLINDRICAL_SURFACE('',#468,3.3);
#57=CIRCLE('',#415,36.8);
#58=CIRCLE('',#416,37.);
#59=CIRCLE('',#418,37.);
#60=CIRCLE('',#420,36.8);
#61=CIRCLE('',#422,15.);
#62=CIRCLE('',#423,5.5);
#63=CIRCLE('',#424,5.5);
#64=CIRCLE('',#425,5.5);
#65=CIRCLE('',#426,5.5);
#66=CIRCLE('',#427,36.8);
#67=CIRCLE('',#429,15.);
#68=CIRCLE('',#431,22.3);
#69=CIRCLE('',#433,22.5);
#70=CIRCLE('',#435,22.5);
#71=CIRCLE('',#437,36.8);
#72=CIRCLE('',#438,3.3);
#73=CIRCLE('',#439,3.3);
#74=CIRCLE('',#440,3.3);
#75=CIRCLE('',#441,3.3);
#76=CIRCLE('',#443,37.);
#77=CIRCLE('',#445,37.);
#78=CIRCLE('',#450,3.3);
#79=CIRCLE('',#452,5.5);
#80=CIRCLE('',#455,5.5);
#81=CIRCLE('',#457,3.3);
#82=CIRCLE('',#460,3.3);
#83=CIRCLE('',#462,5.5);
#84=CIRCLE('',#465,5.5);
#85=CIRCLE('',#467,3.3);
#86=ORIENTED_EDGE('',*,*,#176,.F.);
#87=ORIENTED_EDGE('',*,*,#177,.F.);
#88=ORIENTED_EDGE('',*,*,#178,.F.);
#89=ORIENTED_EDGE('',*,*,#179,.T.);
#90=ORIENTED_EDGE('',*,*,#180,.F.);
#91=ORIENTED_EDGE('',*,*,#179,.F.);
#92=ORIENTED_EDGE('',*,*,#181,.T.);
#93=ORIENTED_EDGE('',*,*,#182,.T.);
#94=ORIENTED_EDGE('',*,*,#183,.F.);
#95=ORIENTED_EDGE('',*,*,#182,.F.);
#96=ORIENTED_EDGE('',*,*,#184,.F.);
#97=ORIENTED_EDGE('',*,*,#185,.T.);
#98=ORIENTED_EDGE('',*,*,#186,.T.);
#99=ORIENTED_EDGE('',*,*,#187,.T.);
#100=ORIENTED_EDGE('',*,*,#188,.F.);
#101=ORIENTED_EDGE('',*,*,#189,.T.);
#102=ORIENTED_EDGE('',*,*,#190,.F.);
#103=ORIENTED_EDGE('',*,*,#191,.F.);
#104=ORIENTED_EDGE('',*,*,#185,.F.);
#105=ORIENTED_EDGE('',*,*,#192,.F.);
#106=ORIENTED_EDGE('',*,*,#193,.F.);
#107=ORIENTED_EDGE('',*,*,#194,.T.);
#108=ORIENTED_EDGE('',*,*,#186,.F.);
#109=ORIENTED_EDGE('',*,*,#195,.T.);
#110=ORIENTED_EDGE('',*,*,#194,.F.);
#111=ORIENTED_EDGE('',*,*,#196,.T.);
#112=ORIENTED_EDGE('',*,*,#195,.F.);
#113=ORIENTED_EDGE('',*,*,#197,.T.);
#114=ORIENTED_EDGE('',*,*,#196,.F.);
#115=ORIENTED_EDGE('',*,*,#198,.T.);
#116=ORIENTED_EDGE('',*,*,#199,.T.);
#117=ORIENTED_EDGE('',*,*,#200,.T.);
#118=ORIENTED_EDGE('',*,*,#177,.T.);
#119=ORIENTED_EDGE('',*,*,#201,.F.);
#120=ORIENTED_EDGE('',*,*,#202,.T.);
#121=ORIENTED_EDGE('',*,*,#203,.F.);
#122=ORIENTED_EDGE('',*,*,#204,.T.);
#123=ORIENTED_EDGE('',*,*,#197,.F.);
#124=ORIENTED_EDGE('',*,*,#205,.F.);
#125=ORIENTED_EDGE('',*,*,#199,.F.);
#126=ORIENTED_EDGE('',*,*,#206,.F.);
#127=ORIENTED_EDGE('',*,*,#207,.T.);
#128=ORIENTED_EDGE('',*,*,#208,.T.);
#129=ORIENTED_EDGE('',*,*,#209,.T.);
#130=ORIENTED_EDGE('',*,*,#210,.F.);
#131=ORIENTED_EDGE('',*,*,#207,.F.);
#132=ORIENTED_EDGE('',*,*,#211,.F.);
#133=ORIENTED_EDGE('',*,*,#209,.F.);
#134=ORIENTED_EDGE('',*,*,#212,.F.);
#135=ORIENTED_EDGE('',*,*,#193,.T.);
#136=ORIENTED_EDGE('',*,*,#178,.T.);
#137=ORIENTED_EDGE('',*,*,#200,.F.);
#138=ORIENTED_EDGE('',*,*,#205,.T.);
#139=ORIENTED_EDGE('',*,*,#210,.T.);
#140=ORIENTED_EDGE('',*,*,#211,.T.);
#141=ORIENTED_EDGE('',*,*,#192,.T.);
#142=ORIENTED_EDGE('',*,*,#184,.T.);
#143=ORIENTED_EDGE('',*,*,#181,.F.);
#144=ORIENTED_EDGE('',*,*,#176,.T.);
#145=ORIENTED_EDGE('',*,*,#180,.T.);
#146=ORIENTED_EDGE('',*,*,#183,.T.);
#147=ORIENTED_EDGE('',*,*,#191,.T.);
#148=ORIENTED_EDGE('',*,*,#212,.T.);
#149=ORIENTED_EDGE('',*,*,#208,.F.);
#150=ORIENTED_EDGE('',*,*,#206,.T.);
#151=ORIENTED_EDGE('',*,*,#198,.F.);
#152=ORIENTED_EDGE('',*,*,#213,.T.);
#153=ORIENTED_EDGE('',*,*,#204,.F.);
#154=ORIENTED_EDGE('',*,*,#214,.T.);
#155=ORIENTED_EDGE('',*,*,#213,.F.);
#156=ORIENTED_EDGE('',*,*,#190,.T.);
#157=ORIENTED_EDGE('',*,*,#214,.F.);
#158=ORIENTED_EDGE('',*,*,#215,.T.);
#159=ORIENTED_EDGE('',*,*,#189,.F.);
#160=ORIENTED_EDGE('',*,*,#216,.T.);
#161=ORIENTED_EDGE('',*,*,#215,.F.);
#162=ORIENTED_EDGE('',*,*,#203,.T.);
#163=ORIENTED_EDGE('',*,*,#216,.F.);
#164=ORIENTED_EDGE('',*,*,#217,.T.);
#165=ORIENTED_EDGE('',*,*,#202,.F.);
#166=ORIENTED_EDGE('',*,*,#218,.T.);
#167=ORIENTED_EDGE('',*,*,#217,.F.);
#168=ORIENTED_EDGE('',*,*,#188,.T.);
#169=ORIENTED_EDGE('',*,*,#218,.F.);
#170=ORIENTED_EDGE('',*,*,#219,.T.);
#171=ORIENTED_EDGE('',*,*,#187,.F.);
#172=ORIENTED_EDGE('',*,*,#220,.T.);
#173=ORIENTED_EDGE('',*,*,#219,.F.);
#174=ORIENTED_EDGE('',*,*,#201,.T.);
#175=ORIENTED_EDGE('',*,*,#220,.F.);
#176=EDGE_CURVE('',#221,#222,#258,.T.);
#177=EDGE_CURVE('',#223,#221,#57,.T.);
#178=EDGE_CURVE('',#224,#223,#259,.T.);
#179=EDGE_CURVE('',#224,#222,#58,.T.);
#180=EDGE_CURVE('',#222,#225,#29,.T.);
#181=EDGE_CURVE('',#224,#226,#30,.T.);
#182=EDGE_CURVE('',#226,#225,#59,.T.);
#183=EDGE_CURVE('',#225,#227,#260,.T.);
#184=EDGE_CURVE('',#228,#226,#261,.T.);
#185=EDGE_CURVE('',#228,#227,#60,.T.);
#186=EDGE_CURVE('',#229,#229,#61,.T.);
#187=EDGE_CURVE('',#230,#230,#62,.T.);
#188=EDGE_CURVE('',#231,#231,#63,.T.);
#189=EDGE_CURVE('',#232,#232,#64,.T.);
#190=EDGE_CURVE('',#233,#233,#65,.T.);
#191=EDGE_CURVE('',#227,#234,#31,.T.);
#192=EDGE_CURVE('',#235,#228,#32,.T.);
#193=EDGE_CURVE('',#234,#235,#66,.T.);
#194=EDGE_CURVE('',#236,#236,#67,.T.);
#195=EDGE_CURVE('',#237,#237,#68,.T.);
#196=EDGE_CURVE('',#238,#238,#69,.T.);
#197=EDGE_CURVE('',#239,#239,#70,.T.);
#198=EDGE_CURVE('',#221,#240,#33,.T.);
#199=EDGE_CURVE('',#240,#241,#71,.T.);
#200=EDGE_CURVE('',#241,#223,#34,.T.);
#201=EDGE_CURVE('',#242,#242,#72,.T.);
#202=EDGE_CURVE('',#243,#243,#73,.T.);
#203=EDGE_CURVE('',#244,#244,#74,.T.);
#204=EDGE_CURVE('',#245,#245,#75,.T.);
#205=EDGE_CURVE('',#241,#246,#262,.T.);
#206=EDGE_CURVE('',#247,#240,#263,.T.);
#207=EDGE_CURVE('',#247,#246,#76,.T.);
#208=EDGE_CURVE('',#247,#248,#35,.T.);
#209=EDGE_CURVE('',#248,#249,#77,.T.);
#210=EDGE_CURVE('',#246,#249,#36,.T.);
#211=EDGE_CURVE('',#249,#235,#264,.T.);
#212=EDGE_CURVE('',#234,#248,#265,.T.);
#213=EDGE_CURVE('',#250,#250,#78,.T.);
#214=EDGE_CURVE('',#251,#251,#79,.T.);
#215=EDGE_CURVE('',#252,#252,#80,.T.);
#216=EDGE_CURVE('',#253,#253,#81,.T.);
#217=EDGE_CURVE('',#254,#254,#82,.T.);
#218=EDGE_CURVE('',#255,#255,#83,.T.);
#219=EDGE_CURVE('',#256,#256,#84,.T.);
#220=EDGE_CURVE('',#257,#257,#85,.T.);
#221=VERTEX_POINT('',#595);
#222=VERTEX_POINT('',#596);
#223=VERTEX_POINT('',#598);
#224=VERTEX_POINT('',#603);
#225=VERTEX_POINT('',#607);
#226=VERTEX_POINT('',#609);
#227=VERTEX_POINT('',#616);
#228=VERTEX_POINT('',#621);
#229=VERTEX_POINT('',#625);
#230=VERTEX_POINT('',#627);
#231=VERTEX_POINT('',#629);
#232=VERTEX_POINT('',#631);
#233=VERTEX_POINT('',#633);
#234=VERTEX_POINT('',#635);
#235=VERTEX_POINT('',#637);
#236=VERTEX_POINT('',#641);
#237=VERTEX_POINT('',#644);
#238=VERTEX_POINT('',#647);
#239=VERTEX_POINT('',#650);
#240=VERTEX_POINT('',#653);
#241=VERTEX_POINT('',#655);
#242=VERTEX_POINT('',#658);
#243=VERTEX_POINT('',#660);
#244=VERTEX_POINT('',#662);
#245=VERTEX_POINT('',#664);
#246=VERTEX_POINT('',#670);
#247=VERTEX_POINT('',#675);
#248=VERTEX_POINT('',#679);
#249=VERTEX_POINT('',#681);
#250=VERTEX_POINT('',#696);
#251=VERTEX_POINT('',#699);
#252=VERTEX_POINT('',#703);
#253=VERTEX_POINT('',#706);
#254=VERTEX_POINT('',#710);
#255=VERTEX_POINT('',#713);
#256=VERTEX_POINT('',#717);
#257=VERTEX_POINT('',#720);
#258=B_SPLINE_CURVE_WITH_KNOTS('',3,(#591,#592,#593,#594),.UNSPECIFIED.,
 .F.,.F.,(4,4),(0.00125028286322815,0.00162726679271065),.UNSPECIFIED.);
#259=B_SPLINE_CURVE_WITH_KNOTS('',3,(#599,#600,#601,#602),.UNSPECIFIED.,
 .F.,.F.,(4,4),(0.00138325634590062,0.00175770881013935),.UNSPECIFIED.);
#260=B_SPLINE_CURVE_WITH_KNOTS('',3,(#612,#613,#614,#615),.UNSPECIFIED.,
 .F.,.F.,(4,4),(0.00138325634590061,0.00175770881013935),.UNSPECIFIED.);
#261=B_SPLINE_CURVE_WITH_KNOTS('',3,(#617,#618,#619,#620),.UNSPECIFIED.,
 .F.,.F.,(4,4),(0.0012502828632282,0.00162726679271086),.UNSPECIFIED.);
#262=B_SPLINE_CURVE_WITH_KNOTS('',3,(#666,#667,#668,#669),.UNSPECIFIED.,
 .F.,.F.,(4,4),(0.000336024167600562,0.000711252446046466),
 .UNSPECIFIED.);
#263=B_SPLINE_CURVE_WITH_KNOTS('',3,(#671,#672,#673,#674),.UNSPECIFIED.,
 .F.,.F.,(4,4),(0.000793936911216774,0.00116973768881923),.UNSPECIFIED.);
#264=B_SPLINE_CURVE_WITH_KNOTS('',3,(#684,#685,#686,#687),.UNSPECIFIED.,
 .F.,.F.,(4,4),(0.000793936911216762,0.00116973768881923),.UNSPECIFIED.);
#265=B_SPLINE_CURVE_WITH_KNOTS('',3,(#688,#689,#690,#691),.UNSPECIFIED.,
 .F.,.F.,(4,4),(0.000336024167600567,0.000711252446046258),
 .UNSPECIFIED.);
#266=EDGE_LOOP('',(#86,#87,#88,#89));
#267=EDGE_LOOP('',(#90,#91,#92,#93));
#268=EDGE_LOOP('',(#94,#95,#96,#97));
#269=EDGE_LOOP('',(#98));
#270=EDGE_LOOP('',(#99));
#271=EDGE_LOOP('',(#100));
#272=EDGE_LOOP('',(#101));
#273=EDGE_LOOP('',(#102));
#274=EDGE_LOOP('',(#103,#104,#105,#106));
#275=EDGE_LOOP('',(#107));
#276=EDGE_LOOP('',(#108));
#277=EDGE_LOOP('',(#109));
#278=EDGE_LOOP('',(#110));
#279=EDGE_LOOP('',(#111));
#280=EDGE_LOOP('',(#112));
#281=EDGE_LOOP('',(#113));
#282=EDGE_LOOP('',(#114));
#283=EDGE_LOOP('',(#115,#116,#117,#118));
#284=EDGE_LOOP('',(#119));
#285=EDGE_LOOP('',(#120));
#286=EDGE_LOOP('',(#121));
#287=EDGE_LOOP('',(#122));
#288=EDGE_LOOP('',(#123));
#289=EDGE_LOOP('',(#124,#125,#126,#127));
#290=EDGE_LOOP('',(#128,#129,#130,#131));
#291=EDGE_LOOP('',(#132,#133,#134,#135));
#292=EDGE_LOOP('',(#136,#137,#138,#139,#140,#141,#142,#143));
#293=EDGE_LOOP('',(#144,#145,#146,#147,#148,#149,#150,#151));
#294=EDGE_LOOP('',(#152));
#295=EDGE_LOOP('',(#153));
#296=EDGE_LOOP('',(#154));
#297=EDGE_LOOP('',(#155));
#298=EDGE_LOOP('',(#156));
#299=EDGE_LOOP('',(#157));
#300=EDGE_LOOP('',(#158));
#301=EDGE_LOOP('',(#159));
#302=EDGE_LOOP('',(#160));
#303=EDGE_LOOP('',(#161));
#304=EDGE_LOOP('',(#162));
#305=EDGE_LOOP('',(#163));
#306=EDGE_LOOP('',(#164));
#307=EDGE_LOOP('',(#165));
#308=EDGE_LOOP('',(#166));
#309=EDGE_LOOP('',(#167));
#310=EDGE_LOOP('',(#168));
#311=EDGE_LOOP('',(#169));
#312=EDGE_LOOP('',(#170));
#313=EDGE_LOOP('',(#171));
#314=EDGE_LOOP('',(#172));
#315=EDGE_LOOP('',(#173));
#316=EDGE_LOOP('',(#174));
#317=EDGE_LOOP('',(#175));
#318=FACE_BOUND('',#266,.T.);
#319=FACE_BOUND('',#267,.T.);
#320=FACE_BOUND('',#268,.T.);
#321=FACE_BOUND('',#269,.T.);
#322=FACE_BOUND('',#270,.T.);
#323=FACE_BOUND('',#271,.T.);
#324=FACE_BOUND('',#272,.T.);
#325=FACE_BOUND('',#273,.T.);
#326=FACE_BOUND('',#274,.T.);
#327=FACE_BOUND('',#275,.T.);
#328=FACE_BOUND('',#276,.T.);
#329=FACE_BOUND('',#277,.T.);
#330=FACE_BOUND('',#278,.T.);
#331=FACE_BOUND('',#279,.T.);
#332=FACE_BOUND('',#280,.T.);
#333=FACE_BOUND('',#281,.T.);
#334=FACE_BOUND('',#282,.T.);
#335=FACE_BOUND('',#283,.T.);
#336=FACE_BOUND('',#284,.T.);
#337=FACE_BOUND('',#285,.T.);
#338=FACE_BOUND('',#286,.T.);
#339=FACE_BOUND('',#287,.T.);
#340=FACE_BOUND('',#288,.T.);
#341=FACE_BOUND('',#289,.T.);
#342=FACE_BOUND('',#290,.T.);
#343=FACE_BOUND('',#291,.T.);
#344=FACE_BOUND('',#292,.T.);
#345=FACE_BOUND('',#293,.T.);
#346=FACE_BOUND('',#294,.T.);
#347=FACE_BOUND('',#295,.T.);
#348=FACE_BOUND('',#296,.T.);
#349=FACE_BOUND('',#297,.T.);
#350=FACE_BOUND('',#298,.T.);
#351=FACE_BOUND('',#299,.T.);
#352=FACE_BOUND('',#300,.T.);
#353=FACE_BOUND('',#301,.T.);
#354=FACE_BOUND('',#302,.T.);
#355=FACE_BOUND('',#303,.T.);
#356=FACE_BOUND('',#304,.T.);
#357=FACE_BOUND('',#305,.T.);
#358=FACE_BOUND('',#306,.T.);
#359=FACE_BOUND('',#307,.T.);
#360=FACE_BOUND('',#308,.T.);
#361=FACE_BOUND('',#309,.T.);
#362=FACE_BOUND('',#310,.T.);
#363=FACE_BOUND('',#311,.T.);
#364=FACE_BOUND('',#312,.T.);
#365=FACE_BOUND('',#313,.T.);
#366=FACE_BOUND('',#314,.T.);
#367=FACE_BOUND('',#315,.T.);
#368=FACE_BOUND('',#316,.T.);
#369=FACE_BOUND('',#317,.T.);
#370=TOROIDAL_SURFACE('',#414,36.8,0.200000000000004);
#371=TOROIDAL_SURFACE('',#419,36.8,0.200000000000006);
#372=TOROIDAL_SURFACE('',#432,22.3,0.199999999999964);
#373=TOROIDAL_SURFACE('',#442,36.8,0.200000000000004);
#374=TOROIDAL_SURFACE('',#446,36.8,0.200000000000006);
#375=ADVANCED_FACE('',(#318),#370,.T.);
#376=ADVANCED_FACE('',(#319),#45,.T.);
#377=ADVANCED_FACE('',(#320),#371,.T.);
#378=ADVANCED_FACE('',(#321,#322,#323,#324,#325,#326),#20,.T.);
#379=ADVANCED_FACE('',(#327,#328),#46,.F.);
#380=ADVANCED_FACE('',(#329,#330),#21,.T.);
#381=ADVANCED_FACE('',(#331,#332),#372,.T.);
#382=ADVANCED_FACE('',(#333,#334),#47,.T.);
#383=ADVANCED_FACE('',(#335,#336,#337,#338,#339,#340),#22,.T.);
#384=ADVANCED_FACE('',(#341),#373,.T.);
#385=ADVANCED_FACE('',(#342),#48,.T.);
#386=ADVANCED_FACE('',(#343),#374,.T.);
#387=ADVANCED_FACE('',(#344),#23,.F.);
#388=ADVANCED_FACE('',(#345),#24,.F.);
#389=ADVANCED_FACE('',(#346,#347),#49,.F.);
#390=ADVANCED_FACE('',(#348,#349),#25,.T.);
#391=ADVANCED_FACE('',(#350,#351),#50,.F.);
#392=ADVANCED_FACE('',(#352,#353),#51,.F.);
#393=ADVANCED_FACE('',(#354,#355),#26,.T.);
#394=ADVANCED_FACE('',(#356,#357),#52,.F.);
#395=ADVANCED_FACE('',(#358,#359),#53,.F.);
#396=ADVANCED_FACE('',(#360,#361),#27,.T.);
#397=ADVANCED_FACE('',(#362,#363),#54,.F.);
#398=ADVANCED_FACE('',(#364,#365),#55,.F.);
#399=ADVANCED_FACE('',(#366,#367),#28,.T.);
#400=ADVANCED_FACE('',(#368,#369),#56,.F.);
#401=CLOSED_SHELL('',(#375,#376,#377,#378,#379,#380,#381,#382,#383,#384,
#385,#386,#387,#388,#389,#390,#391,#392,#393,#394,#395,#396,#397,#398,#399,
#400));
#402=STYLED_ITEM('',(#403),#410);
#403=PRESENTATION_STYLE_ASSIGNMENT((#404));
#404=SURFACE_STYLE_USAGE(.BOTH.,#405);
#405=SURFACE_SIDE_STYLE('',(#406));
#406=SURFACE_STYLE_FILL_AREA(#407);
#407=FILL_AREA_STYLE('',(#408));
#408=FILL_AREA_STYLE_COLOUR('',#409);
#409=COLOUR_RGB('',0.689999997615814,0.689999997615814,0.689999997615814);
#410=MANIFOLD_SOLID_BREP('LMH30L',#401);
#411=SHAPE_DEFINITION_REPRESENTATION(#728,#412);
#412=SHAPE_REPRESENTATION('LMH30L',(#413),#723);
#413=AXIS2_PLACEMENT_3D('',#589,#469,#470);
#414=AXIS2_PLACEMENT_3D('',#590,#471,#472);
#415=AXIS2_PLACEMENT_3D('',#597,#473,#474);
#416=AXIS2_PLACEMENT_3D('',#604,#475,#476);
#417=AXIS2_PLACEMENT_3D('',#605,#477,#478);
#418=AXIS2_PLACEMENT_3D('',#610,#481,#482);
#419=AXIS2_PLACEMENT_3D('',#611,#483,#484);
#420=AXIS2_PLACEMENT_3D('',#622,#485,#486);
#421=AXIS2_PLACEMENT_3D('',#623,#487,#488);
#422=AXIS2_PLACEMENT_3D('',#624,#489,#490);
#423=AXIS2_PLACEMENT_3D('',#626,#491,#492);
#424=AXIS2_PLACEMENT_3D('',#628,#493,#494);
#425=AXIS2_PLACEMENT_3D('',#630,#495,#496);
#426=AXIS2_PLACEMENT_3D('',#632,#497,#498);
#427=AXIS2_PLACEMENT_3D('',#638,#501,#502);
#428=AXIS2_PLACEMENT_3D('',#639,#503,#504);
#429=AXIS2_PLACEMENT_3D('',#640,#505,#506);
#430=AXIS2_PLACEMENT_3D('',#642,#507,#508);
#431=AXIS2_PLACEMENT_3D('',#643,#509,#510);
#432=AXIS2_PLACEMENT_3D('',#645,#511,#512);
#433=AXIS2_PLACEMENT_3D('',#646,#513,#514);
#434=AXIS2_PLACEMENT_3D('',#648,#515,#516);
#435=AXIS2_PLACEMENT_3D('',#649,#517,#518);
#436=AXIS2_PLACEMENT_3D('',#651,#519,#520);
#437=AXIS2_PLACEMENT_3D('',#654,#522,#523);
#438=AXIS2_PLACEMENT_3D('',#657,#525,#526);
#439=AXIS2_PLACEMENT_3D('',#659,#527,#528);
#440=AXIS2_PLACEMENT_3D('',#661,#529,#530);
#441=AXIS2_PLACEMENT_3D('',#663,#531,#532);
#442=AXIS2_PLACEMENT_3D('',#665,#533,#534);
#443=AXIS2_PLACEMENT_3D('',#676,#535,#536);
#444=AXIS2_PLACEMENT_3D('',#677,#537,#538);
#445=AXIS2_PLACEMENT_3D('',#680,#540,#541);
#446=AXIS2_PLACEMENT_3D('',#683,#543,#544);
#447=AXIS2_PLACEMENT_3D('',#692,#545,#546);
#448=AXIS2_PLACEMENT_3D('',#693,#547,#548);
#449=AXIS2_PLACEMENT_3D('',#694,#549,#550);
#450=AXIS2_PLACEMENT_3D('',#695,#551,#552);
#451=AXIS2_PLACEMENT_3D('',#697,#553,#554);
#452=AXIS2_PLACEMENT_3D('',#698,#555,#556);
#453=AXIS2_PLACEMENT_3D('',#700,#557,#558);
#454=AXIS2_PLACEMENT_3D('',#701,#559,#560);
#455=AXIS2_PLACEMENT_3D('',#702,#561,#562);
#456=AXIS2_PLACEMENT_3D('',#704,#563,#564);
#457=AXIS2_PLACEMENT_3D('',#705,#565,#566);
#458=AXIS2_PLACEMENT_3D('',#707,#567,#568);
#459=AXIS2_PLACEMENT_3D('',#708,#569,#570);
#460=AXIS2_PLACEMENT_3D('',#709,#571,#572);
#461=AXIS2_PLACEMENT_3D('',#711,#573,#574);
#462=AXIS2_PLACEMENT_3D('',#712,#575,#576);
#463=AXIS2_PLACEMENT_3D('',#714,#577,#578);
#464=AXIS2_PLACEMENT_3D('',#715,#579,#580);
#465=AXIS2_PLACEMENT_3D('',#716,#581,#582);
#466=AXIS2_PLACEMENT_3D('',#718,#583,#584);
#467=AXIS2_PLACEMENT_3D('',#719,#585,#586);
#468=AXIS2_PLACEMENT_3D('',#721,#587,#588);
#469=DIRECTION('',(0.,0.,1.));
#470=DIRECTION('',(1.,0.,0.));
#471=DIRECTION('',(1.,0.,0.));
#472=DIRECTION('',(0.,0.,-1.));
#473=DIRECTION('',(1.,0.,0.));
#474=DIRECTION('',(0.,0.,-1.));
#475=DIRECTION('',(1.,0.,0.));
#476=DIRECTION('',(0.,0.,-1.));
#477=DIRECTION('',(1.,0.,0.));
#478=DIRECTION('',(0.,0.,-1.));
#479=DIRECTION('',(-1.,0.,0.));
#480=DIRECTION('',(-1.,0.,0.));
#481=DIRECTION('',(1.,0.,0.));
#482=DIRECTION('',(0.,0.,-1.));
#483=DIRECTION('',(1.,0.,0.));
#484=DIRECTION('',(0.,0.,-1.));
#485=DIRECTION('',(1.,0.,0.));
#486=DIRECTION('',(0.,0.,-1.));
#487=DIRECTION('',(-1.,0.,0.));
#488=DIRECTION('',(0.,0.,1.));
#489=DIRECTION('',(1.,0.,0.));
#490=DIRECTION('',(0.,0.,-1.));
#491=DIRECTION('',(1.,0.,0.));
#492=DIRECTION('',(0.,0.,-1.));
#493=DIRECTION('',(-1.,0.,0.));
#494=DIRECTION('',(0.,0.,1.));
#495=DIRECTION('',(1.,0.,0.));
#496=DIRECTION('',(0.,0.,-1.));
#497=DIRECTION('',(-1.,0.,0.));
#498=DIRECTION('',(0.,0.,1.));
#499=DIRECTION('',(0.,1.,0.));
#500=DIRECTION('',(0.,-1.,0.));
#501=DIRECTION('',(1.,0.,0.));
#502=DIRECTION('',(0.,0.,-1.));
#503=DIRECTION('',(1.,0.,0.));
#504=DIRECTION('',(0.,0.,-1.));
#505=DIRECTION('',(1.,0.,0.));
#506=DIRECTION('',(0.,0.,-1.));
#507=DIRECTION('',(1.,0.,0.));
#508=DIRECTION('',(0.,0.,-1.));
#509=DIRECTION('',(1.,0.,0.));
#510=DIRECTION('',(0.,0.,-1.));
#511=DIRECTION('',(1.,0.,0.));
#512=DIRECTION('',(0.,0.,-1.));
#513=DIRECTION('',(1.,0.,0.));
#514=DIRECTION('',(0.,0.,-1.));
#515=DIRECTION('',(1.,0.,0.));
#516=DIRECTION('',(0.,0.,-1.));
#517=DIRECTION('',(1.,0.,0.));
#518=DIRECTION('',(0.,0.,-1.));
#519=DIRECTION('',(1.,0.,0.));
#520=DIRECTION('',(0.,0.,-1.));
#521=DIRECTION('',(0.,1.,0.));
#522=DIRECTION('',(1.,0.,0.));
#523=DIRECTION('',(0.,0.,-1.));
#524=DIRECTION('',(0.,-1.,0.));
#525=DIRECTION('',(1.,0.,0.));
#526=DIRECTION('',(0.,0.,-1.));
#527=DIRECTION('',(-1.,0.,0.));
#528=DIRECTION('',(0.,0.,1.));
#529=DIRECTION('',(1.,0.,0.));
#530=DIRECTION('',(0.,0.,-1.));
#531=DIRECTION('',(-1.,0.,0.));
#532=DIRECTION('',(0.,0.,1.));
#533=DIRECTION('',(1.,0.,0.));
#534=DIRECTION('',(0.,0.,-1.));
#535=DIRECTION('',(1.,0.,0.));
#536=DIRECTION('',(0.,0.,-1.));
#537=DIRECTION('',(1.,0.,0.));
#538=DIRECTION('',(0.,0.,-1.));
#539=DIRECTION('',(-1.,0.,0.));
#540=DIRECTION('',(1.,0.,0.));
#541=DIRECTION('',(0.,0.,-1.));
#542=DIRECTION('',(-1.,0.,0.));
#543=DIRECTION('',(1.,0.,0.));
#544=DIRECTION('',(0.,0.,-1.));
#545=DIRECTION('',(0.,0.,-1.));
#546=DIRECTION('',(-1.,0.,0.));
#547=DIRECTION('',(0.,0.,1.));
#548=DIRECTION('',(1.,0.,0.));
#549=DIRECTION('',(-1.,0.,0.));
#550=DIRECTION('',(0.,0.,1.));
#551=DIRECTION('',(-1.,0.,0.));
#552=DIRECTION('',(0.,0.,1.));
#553=DIRECTION('',(-1.,0.,0.));
#554=DIRECTION('',(0.,0.,1.));
#555=DIRECTION('',(-1.,0.,0.));
#556=DIRECTION('',(0.,0.,1.));
#557=DIRECTION('',(-1.,0.,0.));
#558=DIRECTION('',(0.,0.,1.));
#559=DIRECTION('',(1.,0.,0.));
#560=DIRECTION('',(0.,0.,-1.));
#561=DIRECTION('',(1.,0.,0.));
#562=DIRECTION('',(0.,0.,-1.));
#563=DIRECTION('',(-1.,0.,0.));
#564=DIRECTION('',(0.,0.,1.));
#565=DIRECTION('',(1.,0.,0.));
#566=DIRECTION('',(0.,0.,-1.));
#567=DIRECTION('',(1.,0.,0.));
#568=DIRECTION('',(0.,0.,-1.));
#569=DIRECTION('',(-1.,0.,0.));
#570=DIRECTION('',(0.,0.,1.));
#571=DIRECTION('',(-1.,0.,0.));
#572=DIRECTION('',(0.,0.,1.));
#573=DIRECTION('',(-1.,0.,0.));
#574=DIRECTION('',(0.,0.,1.));
#575=DIRECTION('',(-1.,0.,0.));
#576=DIRECTION('',(0.,0.,1.));
#577=DIRECTION('',(-1.,0.,0.));
#578=DIRECTION('',(0.,0.,1.));
#579=DIRECTION('',(1.,0.,0.));
#580=DIRECTION('',(0.,0.,-1.));
#581=DIRECTION('',(1.,0.,0.));
#582=DIRECTION('',(0.,0.,-1.));
#583=DIRECTION('',(-1.,0.,0.));
#584=DIRECTION('',(0.,0.,1.));
#585=DIRECTION('',(1.,0.,0.));
#586=DIRECTION('',(0.,0.,-1.));
#587=DIRECTION('',(1.,0.,0.));
#588=DIRECTION('',(0.,0.,-1.));
#589=CARTESIAN_POINT('',(0.,0.,0.));
#590=CARTESIAN_POINT('',(9.8,0.,0.));
#591=CARTESIAN_POINT('',(10.,-26.5328098775836,-25.5));
#592=CARTESIAN_POINT('',(10.,-26.658100054488,-25.5));
#593=CARTESIAN_POINT('',(9.92671978465501,-26.809513236909,-25.5));
#594=CARTESIAN_POINT('',(9.8,-26.809513236909,-25.5));
#595=CARTESIAN_POINT('',(10.,-26.5328098775836,-25.5));
#596=CARTESIAN_POINT('',(9.8,-26.809513236909,-25.5));
#597=CARTESIAN_POINT('',(9.99999999999999,0.,0.));
#598=CARTESIAN_POINT('',(10.,-26.5328098775836,25.5));
#599=CARTESIAN_POINT('',(9.8,-26.809513236909,25.5));
#600=CARTESIAN_POINT('',(9.92596498921779,-26.809513236909,25.5));
#601=CARTESIAN_POINT('',(10.,-26.6577326119466,25.5));
#602=CARTESIAN_POINT('',(10.,-26.5328098775836,25.5));
#603=CARTESIAN_POINT('',(9.8,-26.809513236909,25.5));
#604=CARTESIAN_POINT('',(9.8,0.,0.));
#605=CARTESIAN_POINT('',(123.,0.,0.));
#606=CARTESIAN_POINT('',(10.,-26.809513236909,-25.5));
#607=CARTESIAN_POINT('',(0.200000000000004,-26.809513236909,-25.5));
#608=CARTESIAN_POINT('',(10.,-26.809513236909,25.5));
#609=CARTESIAN_POINT('',(0.200000000000139,-26.809513236909,25.5));
#610=CARTESIAN_POINT('',(0.200000000000006,0.,0.));
#611=CARTESIAN_POINT('',(0.200000000000004,0.,0.));
#612=CARTESIAN_POINT('',(0.200000000000004,-26.809513236909,-25.5));
#613=CARTESIAN_POINT('',(0.0740350107822136,-26.809513236909,-25.5));
#614=CARTESIAN_POINT('',(-2.08612965252403E-15,-26.6577326119466,-25.5));
#615=CARTESIAN_POINT('',(-2.08612965252403E-15,-26.5328098775836,-25.5));
#616=CARTESIAN_POINT('',(0.,-26.5328098775836,-25.5));
#617=CARTESIAN_POINT('',(-2.3189969181845E-15,-26.5328098775836,25.5));
#618=CARTESIAN_POINT('',(-2.3189969181845E-15,-26.658100054488,25.5));
#619=CARTESIAN_POINT('',(0.0732802153450925,-26.8095132369091,25.5));
#620=CARTESIAN_POINT('',(0.200000000000139,-26.809513236909,25.5));
#621=CARTESIAN_POINT('',(0.,-26.5328098775836,25.5));
#622=CARTESIAN_POINT('',(0.,0.,0.));
#623=CARTESIAN_POINT('',(-6.50521303491303E-16,36.8,0.));
#624=CARTESIAN_POINT('',(0.,0.,0.));
#625=CARTESIAN_POINT('',(0.,0.,-15.));
#626=CARTESIAN_POINT('',(0.,24.5,-17.5));
#627=CARTESIAN_POINT('',(0.,24.5,-23.));
#628=CARTESIAN_POINT('',(0.,-24.5,-17.5));
#629=CARTESIAN_POINT('',(0.,-24.5,-12.));
#630=CARTESIAN_POINT('',(0.,24.5,17.5));
#631=CARTESIAN_POINT('',(0.,24.5,12.));
#632=CARTESIAN_POINT('',(0.,-24.5,17.5));
#633=CARTESIAN_POINT('',(0.,-24.5,23.));
#634=CARTESIAN_POINT('',(0.,-26.809513236909,-25.5));
#635=CARTESIAN_POINT('',(0.,26.5328098775836,-25.5));
#636=CARTESIAN_POINT('',(0.,26.809513236909,25.5));
#637=CARTESIAN_POINT('',(0.,26.5328098775836,25.5));
#638=CARTESIAN_POINT('',(0.,0.,0.));
#639=CARTESIAN_POINT('',(123.,0.,0.));
#640=CARTESIAN_POINT('',(123.,0.,0.));
#641=CARTESIAN_POINT('',(123.,0.,-15.));
#642=CARTESIAN_POINT('',(123.,15.,0.));
#643=CARTESIAN_POINT('',(123.,0.,0.));
#644=CARTESIAN_POINT('',(123.,0.,-22.3));
#645=CARTESIAN_POINT('',(122.8,0.,0.));
#646=CARTESIAN_POINT('',(122.8,0.,0.));
#647=CARTESIAN_POINT('',(122.8,0.,-22.5));
#648=CARTESIAN_POINT('',(123.,0.,0.));
#649=CARTESIAN_POINT('',(10.,0.,0.));
#650=CARTESIAN_POINT('',(10.,0.,-22.5));
#651=CARTESIAN_POINT('',(10.,22.5,0.));
#652=CARTESIAN_POINT('',(10.,-26.809513236909,-25.5));
#653=CARTESIAN_POINT('',(10.,26.5328098775836,-25.5));
#654=CARTESIAN_POINT('',(9.99999999999999,0.,0.));
#655=CARTESIAN_POINT('',(10.,26.5328098775836,25.5));
#656=CARTESIAN_POINT('',(10.,26.809513236909,25.5));
#657=CARTESIAN_POINT('',(10.,24.5,-17.5));
#658=CARTESIAN_POINT('',(10.,24.5,-20.8));
#659=CARTESIAN_POINT('',(10.,-24.5,-17.5));
#660=CARTESIAN_POINT('',(10.,-24.5,-14.2));
#661=CARTESIAN_POINT('',(10.,24.5,17.5));
#662=CARTESIAN_POINT('',(10.,24.5,14.2));
#663=CARTESIAN_POINT('',(10.,-24.5,17.5));
#664=CARTESIAN_POINT('',(10.,-24.5,20.8));
#665=CARTESIAN_POINT('',(9.8,0.,0.));
#666=CARTESIAN_POINT('',(10.,26.5328098775836,25.5));
#667=CARTESIAN_POINT('',(10.,26.6588321502431,25.5));
#668=CARTESIAN_POINT('',(9.92543412892228,26.809513236909,25.5));
#669=CARTESIAN_POINT('',(9.8,26.809513236909,25.5));
#670=CARTESIAN_POINT('',(9.8,26.809513236909,25.5));
#671=CARTESIAN_POINT('',(9.8,26.8095132369091,-25.5));
#672=CARTESIAN_POINT('',(9.92514012950917,26.8095132369091,-25.5));
#673=CARTESIAN_POINT('',(10.,26.6577144051524,-25.5));
#674=CARTESIAN_POINT('',(10.,26.5328098775836,-25.5));
#675=CARTESIAN_POINT('',(9.8,26.809513236909,-25.5));
#676=CARTESIAN_POINT('',(9.8,0.,0.));
#677=CARTESIAN_POINT('',(123.,0.,0.));
#678=CARTESIAN_POINT('',(10.,26.809513236909,-25.5));
#679=CARTESIAN_POINT('',(0.199999999999784,26.809513236909,-25.5));
#680=CARTESIAN_POINT('',(0.200000000000006,0.,0.));
#681=CARTESIAN_POINT('',(0.200000000000006,26.809513236909,25.5));
#682=CARTESIAN_POINT('',(10.,26.809513236909,25.5));
#683=CARTESIAN_POINT('',(0.200000000000004,0.,0.));
#684=CARTESIAN_POINT('',(0.200000000000006,26.8095132369091,25.5));
#685=CARTESIAN_POINT('',(0.0748598704908409,26.8095132369091,25.5));
#686=CARTESIAN_POINT('',(-1.44185438983812E-15,26.6577144051524,25.5));
#687=CARTESIAN_POINT('',(-1.44185438983812E-15,26.5328098775836,25.5));
#688=CARTESIAN_POINT('',(-1.3310579217966E-15,26.5328098775836,-25.5));
#689=CARTESIAN_POINT('',(3.04121797576711E-15,26.658832150243,-25.5));
#690=CARTESIAN_POINT('',(0.0745658710775881,26.8095132369089,-25.5));
#691=CARTESIAN_POINT('',(0.199999999999782,26.809513236909,-25.5));
#692=CARTESIAN_POINT('',(10.,26.809513236909,25.5));
#693=CARTESIAN_POINT('',(10.,-26.809513236909,-25.5));
#694=CARTESIAN_POINT('',(0.,-24.5,17.5));
#695=CARTESIAN_POINT('',(6.5,-24.5,17.5));
#696=CARTESIAN_POINT('',(6.5,-24.5,20.8));
#697=CARTESIAN_POINT('',(6.5,-27.8,17.5));
#698=CARTESIAN_POINT('',(6.5,-24.5,17.5));
#699=CARTESIAN_POINT('',(6.5,-24.5,23.));
#700=CARTESIAN_POINT('',(0.,-24.5,17.5));
#701=CARTESIAN_POINT('',(10.,24.5,17.5));
#702=CARTESIAN_POINT('',(6.5,24.5,17.5));
#703=CARTESIAN_POINT('',(6.5,24.5,12.));
#704=CARTESIAN_POINT('',(6.5,30.,17.5));
#705=CARTESIAN_POINT('',(6.5,24.5,17.5));
#706=CARTESIAN_POINT('',(6.5,24.5,14.2));
#707=CARTESIAN_POINT('',(10.,24.5,17.5));
#708=CARTESIAN_POINT('',(0.,-24.5,-17.5));
#709=CARTESIAN_POINT('',(6.5,-24.5,-17.5));
#710=CARTESIAN_POINT('',(6.5,-24.5,-14.2));
#711=CARTESIAN_POINT('',(6.5,-27.8,-17.5));
#712=CARTESIAN_POINT('',(6.5,-24.5,-17.5));
#713=CARTESIAN_POINT('',(6.5,-24.5,-12.));
#714=CARTESIAN_POINT('',(0.,-24.5,-17.5));
#715=CARTESIAN_POINT('',(10.,24.5,-17.5));
#716=CARTESIAN_POINT('',(6.5,24.5,-17.5));
#717=CARTESIAN_POINT('',(6.5,24.5,-23.));
#718=CARTESIAN_POINT('',(6.5,30.,-17.5));
#719=CARTESIAN_POINT('',(6.5,24.5,-17.5));
#720=CARTESIAN_POINT('',(6.5,24.5,-20.8));
#721=CARTESIAN_POINT('',(10.,24.5,-17.5));
#722=MECHANICAL_DESIGN_GEOMETRIC_PRESENTATION_REPRESENTATION('',(#402),
#723);
#723=(
GEOMETRIC_REPRESENTATION_CONTEXT(3)
GLOBAL_UNCERTAINTY_ASSIGNED_CONTEXT((#724))
GLOBAL_UNIT_ASSIGNED_CONTEXT((#727,#726,#725))
REPRESENTATION_CONTEXT('LMH30L','TOP_LEVEL_ASSEMBLY_PART')
);
#724=UNCERTAINTY_MEASURE_WITH_UNIT(LENGTH_MEASURE(0.005),#727,
'DISTANCE_ACCURACY_VALUE','Maximum Tolerance applied to model');
#725=(
NAMED_UNIT(*)
SI_UNIT($,.STERADIAN.)
SOLID_ANGLE_UNIT()
);
#726=(
NAMED_UNIT(*)
PLANE_ANGLE_UNIT()
SI_UNIT($,.RADIAN.)
);
#727=(
LENGTH_UNIT()
NAMED_UNIT(*)
SI_UNIT(.MILLI.,.METRE.)
);
#728=PRODUCT_DEFINITION_SHAPE('','',#729);
#729=PRODUCT_DEFINITION('','',#731,#730);
#730=DESIGN_CONTEXT('',#737,'design');
#731=PRODUCT_DEFINITION_FORMATION_WITH_SPECIFIED_SOURCE('','',#733,
 .NOT_KNOWN.);
#732=PRODUCT_RELATED_PRODUCT_CATEGORY('','',(#733));
#733=PRODUCT('LMH30L','LMH30L','LMH30L',(#735));
#734=PRODUCT_CATEGORY('','');
#735=MECHANICAL_CONTEXT('',#737,'mechanical');
#736=APPLICATION_PROTOCOL_DEFINITION('international standard',
'config_control_design',2010,#737);
#737=APPLICATION_CONTEXT(
'configuration controlled 3D designs of mechanical parts and assemblie
s');
ENDSEC;
END-ISO-10303-21;
