  0
SECTION
  2
HEADER
  9
$ACADVER
  1
AC1009
  9
$INSBASE
 10
0.0
 20
0.0
 30
0.0
  9
$EXTMIN
 10
-293.02371814399021
 20
-52.871460208009211
 30
0.0
  9
$EXTMAX
 10
-63.901016251609121
 20
142.42933668875429
 30
0.0
  9
$LIMMIN
 10
-10.0
 20
-15.0
  9
$LIMMAX
 10
120.0
 20
90.0
  9
$ORTHOMODE
 70
     1
  9
$REGENMODE
 70
     0
  9
$FILLMODE
 70
     1
  9
$QTEXTMODE
 70
     0
  9
$MIRRTEXT
 70
     0
  9
$DRAGMODE
 70
     2
  9
$LTSCALE
 40
1.0
  9
$OSMODE
 70
  3071
  9
$ATTMODE
 70
     1
  9
$TEXTSIZE
 40
2.5
  9
$TRACEWID
 40
1.0
  9
$TEXTSTYLE
  7
«¬¦ˇ2
  9
$CLAYER
  8
0
  9
$CELTYPE
  6
ByLayer
  9
$CECOLOR
 62
   256
  9
$DIMSCALE
 40
1.0
  9
$DIMASZ
 40
0.18
  9
$DIMEXO
 40
0.0625
  9
$DIMDLI
 40
0.38
  9
$DIMRND
 40
0.0
  9
$DIMDLE
 40
0.0
  9
$DIMEXE
 40
0.18
  9
$DIMTP
 40
0.0
  9
$DIMTM
 40
0.0
  9
$DIMTXT
 40
0.18
  9
$DIMCEN
 40
0.09
  9
$DIMTSZ
 40
0.0
  9
$DIMTOL
 70
     0
  9
$DIMLIM
 70
     0
  9
$DIMTIH
 70
     1
  9
$DIMTOH
 70
     1
  9
$DIMSE1
 70
     0
  9
$DIMSE2
 70
     0
  9
$DIMTAD
 70
     0
  9
$DIMZIN
 70
     0
  9
$DIMBLK
  1

  9
$DIMASO
 70
     1
  9
$DIMSHO
 70
     0
  9
$DIMPOST
  1

  9
$DIMAPOST
  1

  9
$DIMALT
 70
     0
  9
$DIMALTD
 70
     2
  9
$DIMALTF
 40
25.399999999999999
  9
$DIMLFAC
 40
1.0
  9
$DIMTOFL
 70
     0
  9
$DIMTVP
 40
0.0
  9
$DIMTIX
 70
     0
  9
$DIMSOXD
 70
     0
  9
$DIMSAH
 70
     0
  9
$DIMBLK1
  1

  9
$DIMBLK2
  1

  9
$DIMSTYLE
  2
STANDARD
  9
$DIMCLRD
 70
     0
  9
$DIMCLRE
 70
     0
  9
$DIMCLRT
 70
     0
  9
$DIMTFAC
 40
1.0
  9
$DIMGAP
 40
0.09
  9
$LUNITS
 70
     2
  9
$LUPREC
 70
     4
  9
$SKETCHINC
 40
0.5
  9
$FILLETRAD
 40
0.0
  9
$AUNITS
 70
     0
  9
$AUPREC
 70
     0
  9
$MENU
  1
ACAD
  9
$ELEVATION
 40
0.0
  9
$PELEVATION
 40
0.0
  9
$THICKNESS
 40
0.0
  9
$LIMCHECK
 70
     0
  9
$BLIPMODE
 70
     0
  9
$CHAMFERA
 40
0.0
  9
$CHAMFERB
 40
0.0
  9
$SKPOLY
 70
     0
  9
$TDCREATE
 40
2444975.333333334
  9
$TDUPDATE
 40
2453686.5567729981
  9
$TDINDWG
 40
0.053671169
  9
$TDUSRTIMER
 40
0.0
  9
$USRTIMER
 70
     0
  9
$ANGBASE
 50
0.0
  9
$ANGDIR
 70
     0
  9
$PDMODE
 70
   171
  9
$PDSIZE
 40
0.001
  9
$PLINEWID
 40
0.0
  9
$COORDS
 70
     2
  9
$SPLFRAME
 70
     0
  9
$SPLINETYPE
 70
     6
  9
$SPLINESEGS
 70
     8
  9
$ATTDIA
 70
     0
  9
$ATTREQ
 70
     1
  9
$HANDLING
 70
     1
  9
$HANDSEED
  5
5B65
  9
$SURFTAB1
 70
     6
  9
$SURFTAB2
 70
     6
  9
$SURFTYPE
 70
     6
  9
$SURFU
 70
     6
  9
$SURFV
 70
     6
  9
$UCSNAME
  2

  9
$UCSORG
 10
0.0
 20
0.0
 30
0.0
  9
$UCSXDIR
 10
1.0
 20
0.0
 30
0.0
  9
$UCSYDIR
 10
0.0
 20
1.0
 30
0.0
  9
$PUCSNAME
  2

  9
$PUCSORG
 10
0.0
 20
0.0
 30
0.0
  9
$PUCSXDIR
 10
1.0
 20
0.0
 30
0.0
  9
$PUCSYDIR
 10
0.0
 20
1.0
 30
0.0
  9
$USERI1
 70
     0
  9
$USERI2
 70
     0
  9
$USERI3
 70
     0
  9
$USERI4
 70
     0
  9
$USERI5
 70
     0
  9
$USERR1
 40
0.0
  9
$USERR2
 40
0.0
  9
$USERR3
 40
0.0
  9
$USERR4
 40
0.0
  9
$USERR5
 40
0.0
  9
$WORLDVIEW
 70
     1
  9
$SHADEDGE
 70
     3
  9
$SHADEDIF
 70
    70
  9
$TILEMODE
 70
     1
  9
$MAXACTVP
 70
    48
  9
$PLIMCHECK
 70
     0
  9
$PEXTMIN
 10
1.049999952316284
 20
0.7999999523162842
 30
0.0
  9
$PEXTMAX
 10
9.4499995708465558
 20
7.1999995708465558
 30
0.0
  9
$PLIMMIN
 10
-0.2500002402958907
 20
-0.2499999962453767
  9
$PLIMMAX
 10
10.74999951940821
 20
8.2499997634587316
  9
$UNITMODE
 70
     0
  9
$VISRETAIN
 70
     1
  9
$PLINEGEN
 70
     0
  9
$PSLTSCALE
 70
     0
  0
ENDSEC
  0
SECTION
  2
TABLES
  0
TABLE
  2
VPORT
 70
     2
  0
VPORT
  2
*ACTIVE
 70
     0
 10
0.0
 20
0.0
 11
1.0
 21
1.0
 12
-139.94571362543769
 22
34.801891449813979
 13
457.99999999999972
 23
1082.0
 14
10.0
 24
10.0
 15
10.0
 25
10.0
 16
0.0
 26
0.0
 36
1.0
 17
0.0
 27
0.0
 37
0.0
 40
249.3531760238493
 41
1.7038081805359659
 42
1.0
 43
0.0
 44
0.0
 50
0.0
 51
0.0
 71
     0
 72
   100
 73
     1
 74
     1
 75
     0
 76
     0
 77
     0
 78
     0
  0
ENDTAB
  0
TABLE
  2
LTYPE
 70
     5
  0
LTYPE
  2
ByBlock
 70
     0
  3

 72
    65
 73
     0
 40
0.0
  0
LTYPE
  2
ByLayer
 70
     0
  3

 72
    65
 73
     0
 40
0.0
  0
LTYPE
  2
CONTINUOUS
 70
     0
  3
łsÄň˝u ________________________
 72
    65
 73
     2
 40
200000.0
 49
200000.0
 49
0.0
  0
LTYPE
  2
CENTER2
 70
     0
  3
Center (.5x) ___ _ ___ _ ___ _ ___ _ ___ _ ___
 72
    65
 73
     4
 40
1.125
 49
0.75
 49
-0.125
 49
0.125
 49
-0.125
  0
LTYPE
  2
DASHED2
 70
     0
  3
Dashed (.5x) _ _ _ _ _ _ _ _ _ _ _ _ _ _ _ _ _
 72
    65
 73
     2
 40
0.375
 49
0.25
 49
-0.125
  0
ENDTAB
  0
TABLE
  2
LAYER
 70
    10
  0
LAYER
  2
0
 70
     0
 62
     7
  6
CONTINUOUS
  0
LAYER
  2
¤¤¤ß˝u
 70
     0
 62
     4
  6
CENTER2
  0
LAYER
  2
µę˝u
 70
     0
 62
     6
  6
DASHED2
  0
LAYER
  2
«ü˝u
 70
     0
 62
     3
  6
CONTINUOUS
  0
LAYER
  2
«Řşc˝u
 70
     0
 62
     1
  6
CONTINUOUS
  0
LAYER
  2
AM3
 70
     0
 62
     6
  6
DASHED2
  0
LAYER
  2
AM4
 70
     0
 62
     3
  6
CONTINUOUS
  0
LAYER
  2
AM5
 70
     0
 62
     3
  6
CONTINUOUS
  0
LAYER
  2
AM7
 70
     0
 62
     4
  6
CENTER2
  0
LAYER
  2
DEFPOINTS
 70
     0
 62
     7
  6
CONTINUOUS
  0
ENDTAB
  0
TABLE
  2
STYLE
 70
     2
  0
STYLE
  2
STANDARD
 70
     0
 40
0.0
 41
1.0
 50
0.0
 71
     0
 42
3.0
  3
txt
  4

  0
STYLE
  2
«¬¦ˇ2
 70
     0
 40
0.0
 41
1.0
 50
0.0
 71
     0
 42
2.5
  3
txt
  4

  0
ENDTAB
  0
TABLE
  2
VIEW
 70
     0
  0
ENDTAB
  0
TABLE
  2
UCS
 70
     0
  0
ENDTAB
  0
TABLE
  2
APPID
 70
     3
  0
APPID
  2
ACAD
 70
     0
  0
APPID
  2
TCAD
 70
     0
  0
APPID
  2
PNTFLAG
 70
     0
  0
ENDTAB
  0
TABLE
  2
DIMSTYLE
 70
     2
  0
DIMSTYLE
  2
STANDARD
 70
     0
  3

  4

  5

  6

  7

 40
1.0
 41
0.18
 42
0.0625
 43
0.38
 44
0.18
 45
0.0
 46
0.0
 47
0.0
 48
0.0
140
0.18
141
0.09
142
0.0
143
25.399999999999999
144
1.0
145
0.0
146
1.0
147
0.09
 71
     0
 72
     0
 73
     1
 74
     1
 75
     0
 76
     0
 77
     0
 78
     0
170
     0
171
     2
172
     0
173
     0
174
     0
175
     0
176
     0
177
     0
178
     0
  0
DIMSTYLE
  2
ISO-25
 70
     0
  3

  4

  5

  6

  7

 40
1.0
 41
1.1999999999999991
 42
0.7
 43
3.75
 44
0.3
 45
0.0
 46
0.0
 47
0.0
 48
0.0
140
1.5
141
2.5
142
0.0
143
0.03937007874016
144
1.0
145
0.0
146
1.0
147
0.5
 71
     0
 72
     0
 73
     0
 74
     0
 75
     0
 76
     0
 77
     1
 78
     8
170
     0
171
     3
172
     1
173
     0
174
     0
175
     0
176
     3
177
     3
178
     2
  0
ENDTAB
  0
ENDSEC
  0
SECTION
  2
BLOCKS
  0
BLOCK
  8
0
  2
$MODEL_SPACE
 70
     0
 10
0.0
 20
0.0
 30
0.0
  3
$MODEL_SPACE
  1

  0
ENDBLK
  5
255
  8
0
  0
BLOCK
 67
     1
  8
0
  2
$PAPER_SPACE
 70
     0
 10
0.0
 20
0.0
 30
0.0
  3
$PAPER_SPACE
  1

  0
ENDBLK
  5
253
 67
     1
  8
0
  0
BLOCK
  8
0
  2
I1
 70
     0
 10
0.0
 20
0.0
 30
0.0
  3
I1
  1

  0
LINE
  5
4030
  8
¤¤¤ß˝u
 10
-1.783849796371328
 20
0.0
 30
0.0
 11
3.967787178009643
 21
0.0
 31
0.0
  0
ARC
  5
4031
  8
0
 10
0.335523819494028
 20
0.9802483619828871
 30
0.0
 40
1.220011576012179
 50
105.9630221688284
 51
179.0723572120024
  0
LINE
  5
4032
  8
0
 10
-0.88432785935845
 20
1.0
 30
0.0
 11
-0.88432785935845
 21
-1.0
 31
0.0
  0
ARC
  5
4033
  8
0
 10
0.335523819494028
 20
-0.9802483619828871
 30
0.0
 40
1.220011576012179
 50
180.92764278799751
 51
254.0369778311715
  0
ENDBLK
  5
4035
  8
0
  0
BLOCK
  8
0
  2
A$C2C967825
 70
     0
 10
0.0
 20
0.0
 30
0.0
  3
A$C2C967825
  1

  0
LINE
  5
434B
  8
AM3
 10
1.500000000000056
 20
6.0
 30
0.0
 11
-1.4999999999999429
 21
5.9999999999999432
 31
0.0
  0
LINE
  5
434C
  8
AM3
 10
1.250000000000056
 20
7.5
 30
0.0
 11
-1.25
 21
7.4999999999999432
 31
0.0
  0
LINE
  5
434D
  8
AM3
 10
0.0000000000001137
 20
8.2216878364870922
 30
0.0
 11
-1.25
 21
7.4999999999999432
 31
0.0
  0
LINE
  5
434E
  8
AM3
 10
1.250000000000056
 20
0.5
 30
0.0
 11
-1.2499999999999429
 21
0.5
 31
0.0
  0
LINE
  5
434F
  8
AM3
 10
-1.4999999999999429
 20
6.000000000000056
 30
0.0
 11
-1.4999999999999429
 21
0.25
 31
0.0
  0
LINE
  5
4350
  8
AM3
 10
-1.2499999999999429
 20
7.500000000000056
 30
0.0
 11
-1.2499999999999429
 21
0.5
 31
0.0
  0
LINE
  5
4351
  8
AM3
 10
-1.2499999999999429
 20
0.5
 30
0.0
 11
-1.7499999999999429
 21
0.0
 31
0.0
  0
LINE
  5
4352
  8
AM3
 10
1.500000000000056
 20
6.0
 30
0.0
 11
1.500000000000056
 21
0.25
 31
0.0
  0
LINE
  5
4353
  8
AM3
 10
1.250000000000056
 20
7.500000000000056
 30
0.0
 11
1.250000000000056
 21
0.5
 31
0.0
  0
LINE
  5
4354
  8
AM3
 10
0.0
 20
8.2216878364870922
 30
0.0
 11
1.250000000000056
 21
7.4999999999999432
 31
0.0
  0
LINE
  5
4355
  8
AM3
 10
1.250000000000056
 20
0.5
 30
0.0
 11
1.7499999999999429
 21
0.0
 31
0.0
  0
ENDBLK
  5
4357
  8
0
  0
BLOCK
  8
0
  2
A$C76FF24C2
 70
     0
 10
0.0
 20
0.0
 30
0.0
  3
A$C76FF24C2
  1

  0
INSERT
  5
4359
  8
AM5
  2
A$C2C967825
 10
2.75
 20
-52.599999999999902
 30
0.0
 41
-1.0
  0
INSERT
  5
435A
  8
AM5
  2
A$C2C967825
 10
-34.75
 20
-52.599999999999902
 30
0.0
  0
INSERT
  5
435B
  8
AM5
  2
A$C2C967825
 10
-34.75
 20
12.600000000000129
 30
0.0
 41
-1.0
 50
180.0
  0
INSERT
  5
435C
  8
AM5
  2
A$C2C967825
 10
2.75
 20
12.600000000000129
 30
0.0
 50
180.0
  0
ENDBLK
  5
435E
  8
0
  0
BLOCK
  8
0
  2
A$C7D0D2398
 70
     0
 10
0.0
 20
0.0
 30
0.0
  3
A$C7D0D2398
  1

  0
LINE
  5
436C
  8
AM3
 10
-17.950000000073711
 20
-8.2000000000000171
 30
0.0
 11
-16.450000000073711
 21
-8.2000000000000171
 31
0.0
  0
LINE
  5
436D
  8
AM3
 10
-16.450000000073711
 20
-8.2000000000000171
 30
0.0
 11
-16.450000000073711
 21
-9.9500000000000171
 31
0.0
  0
LINE
  5
436E
  8
AM3
 10
-17.950000000073711
 20
-8.2000000000000171
 30
0.0
 11
-17.950000000073711
 21
-9.9500000000000171
 31
0.0
  0
LINE
  5
436F
  8
AM7
 10
-17.200000000073711
 20
-7.7000000000000171
 30
0.0
 11
-17.200000000073711
 21
-10.700000000000021
 31
0.0
  0
LINE
  5
4370
  8
AM3
 10
-17.950000000073711
 20
-9.9500000000000171
 30
0.0
 11
-18.200000000073711
 21
-10.200000000000021
 31
0.0
  0
LINE
  5
4371
  8
AM3
 10
-16.450000000073711
 20
-9.9500000000000171
 30
0.0
 11
-16.200000000073711
 21
-10.200000000000021
 31
0.0
  0
LINE
  5
4372
  8
AM3
 10
-17.950000000073711
 20
-9.9500000000000171
 30
0.0
 11
-16.450000000073711
 21
-9.9500000000000171
 31
0.0
  0
ENDBLK
  5
4374
  8
0
  0
BLOCK
  8
0
  2
A$C53FD00F1
 70
     0
 10
0.0
 20
0.0
 30
0.0
  3
A$C53FD00F1
  1

  0
INSERT
  5
4376
  8
AM5
  2
A$C7D0D2398
 10
0.0
 20
-22.399999999999981
 30
0.0
 41
-1.0
  0
INSERT
  5
4377
  8
AM5
  2
A$C7D0D2398
 10
0.0
 20
-22.399999999999981
 30
0.0
  0
INSERT
  5
4378
  8
AM5
  2
A$C7D0D2398
 10
0.0
 20
22.399999999999981
 30
0.0
 41
-1.0
 50
180.0
  0
INSERT
  5
4379
  8
AM5
  2
A$C7D0D2398
 10
0.0
 20
22.399999999999981
 30
0.0
 50
180.0
  0
ENDBLK
  5
437B
  8
0
  0
BLOCK
  8
0
  2
A$C781E382E
 70
     0
 10
0.0
 20
0.0
 30
0.0
  3
A$C781E382E
  1

  0
ARC
  5
44CC
  8
0
 10
9.7800566501177855
 20
17.199734150117798
 30
0.0
 40
2.129999999999999
 50
185.36290811337429
 51
264.6370985380525
  0
ARC
  5
44CD
  8
0
 10
9.7800566501177855
 20
10.800021849882331
 30
0.0
 40
2.129999999999999
 50
95.049881965108554
 51
174.95013512119729
  0
ARC
  5
44CE
  8
0
 10
-9.7800566501177855
 20
10.800021849882331
 30
0.0
 40
2.129999999999999
 50
5.0753009504657109
 51
84.924724058902711
  0
ARC
  5
44CF
  8
0
 10
-9.7800566501177855
 20
17.199734150117798
 30
0.0
 40
2.129999999999999
 50
275.39251268205442
 51
354.60749637709461
  0
LINE
  5
44D0
  8
0
 10
9.9999999999997655
 20
4.0000768000366378
 30
0.0
 11
9.9999999999997655
 21
0.9991443500001233
 31
0.0
  0
LINE
  5
44D1
  8
0
 10
-10.000000000000229
 20
3.9993274000223238
 30
0.0
 11
-10.0
 21
1.000171169400176
 31
0.0
  0
LINE
  5
44D2
  8
µę˝u
 10
3.0001220999999978
 20
8.6999999999997968
 30
0.0
 11
3.0001220999999978
 21
0.5000223852734829
 31
0.0
  0
LINE
  5
44D3
  8
µę˝u
 10
-2.9998779000000009
 20
8.6999999999997968
 30
0.0
 11
-2.9998779000000009
 21
0.5000223852734829
 31
0.0
  0
LINE
  5
44D4
  8
¤¤¤ß˝u
 10
0.0
 20
0.0
 30
0.0
 11
0.0
 21
18.382972174047129
 31
0.0
  0
LINE
  5
44D5
  8
0
 10
-10.0
 20
1.000171169400176
 30
0.0
 11
-8.9998275141015256
 21
0.0000000000000009
 31
0.0
  0
LINE
  5
44D6
  8
µę˝u
 10
-2.9998779000000009
 20
0.5000223852734829
 30
0.0
 11
2.999884683361187
 21
0.4999816868844258
 31
0.0
  0
LINE
  5
44D7
  8
0
 10
9.0008556494003642
 20
0.0000000000000009
 30
0.0
 11
3.0000437594142109
 21
0.0000000000000009
 31
0.0
  0
LINE
  5
44D8
  8
µę˝u
 10
3.4998528042599442
 20
0.0000000000000009
 30
0.0
 11
2.999884683361187
 21
0.4999816868844258
 31
0.0
  0
LINE
  5
44D9
  8
0
 10
2.500043790017116
 20
0.4999999999999725
 30
0.0
 11
3.0000437594142109
 21
0.0000000000000009
 31
0.0
  0
LINE
  5
44DA
  8
0
 10
9.9999999999997655
 20
0.9991443500001233
 30
0.0
 11
9.0008556494003642
 21
0.0000000000000009
 31
0.0
  0
LINE
  5
44DB
  8
0
 10
-2.9991642746651901
 20
0.0000000000000009
 30
0.0
 11
-8.9998275141015256
 21
0.0000000000000009
 31
0.0
  0
LINE
  5
44DC
  8
µę˝u
 10
-3.499900285273724
 20
0.0000000000000009
 30
0.0
 11
-2.9998779000000009
 21
0.5000223852734829
 31
0.0
  0
LINE
  5
44DD
  8
0
 10
-2.9991642746651901
 20
0.0000000000000009
 30
0.0
 11
-2.4991643200344238
 21
0.4999999999999654
 31
0.0
  0
LINE
  5
44DE
  8
0
 10
-2.4991643200344238
 20
0.4999999999999654
 30
0.0
 11
2.500043790017116
 21
0.4999999999999725
 31
0.0
  0
LINE
  5
44DF
  8
0
 10
-10.000000000000229
 20
3.9993274000223238
 30
0.0
 11
-6.5498047000000952
 21
7.4495225000102261
 31
0.0
  0
LINE
  5
44E0
  8
0
 10
-10.0
 20
14.659044600670841
 30
0.0
 11
-9.5798830540417725
 21
15.079160989051671
 31
0.0
  0
LINE
  5
44E1
  8
0
 10
-10.0
 20
14.659044600670841
 30
0.0
 11
-10.000000000000229
 21
13.33004360008588
 31
0.0
  0
LINE
  5
44E2
  8
0
 10
-10.000000000000229
 20
13.33004360008588
 30
0.0
 11
-9.5916273061934163
 21
12.92167082705747
 31
0.0
  0
LINE
  5
44E3
  8
µę˝u
 10
4.7501220999999978
 20
17.099999999999891
 30
0.0
 11
4.7501220999999978
 21
8.9999999999999911
 31
0.0
  0
LINE
  5
44E4
  8
0
 10
6.5500487999995576
 20
9.8792357003491773
 30
0.0
 11
7.6583243119304916
 21
10.98751020976191
 31
0.0
  0
LINE
  5
44E5
  8
µę˝u
 10
3.0
 20
8.6999999999997968
 30
0.0
 11
3.2999999999999541
 21
8.9999999999999911
 31
0.0
  0
LINE
  5
44E6
  8
0
 10
9.5809790211101742
 20
15.0790578198805
 30
0.0
 11
10.0
 21
14.660036999840591
 31
0.0
  0
LINE
  5
44E7
  8
0
 10
10.0
 20
14.660036999840591
 30
0.0
 11
10.000000000000229
 21
13.32918600046359
 31
0.0
  0
LINE
  5
44E8
  8
0
 10
9.5925676575115446
 20
12.92175413215819
 30
0.0
 11
10.000000000000229
 21
13.32918600046359
 31
0.0
  0
LINE
  5
44E9
  8
0
 10
7.1600367000635279
 20
17.499999999999989
 30
0.0
 11
7.6593803429912759
 21
17.00065627492236
 31
0.0
  0
LINE
  5
44EA
  8
µę˝u
 10
4.750122281758876
 20
17.09999932166691
 30
0.0
 11
4.9810627810704773
 21
17.499999999999989
 31
0.0
  0
LINE
  5
44EB
  8
µę˝u
 10
-4.7498779000000013
 20
17.099999999999891
 30
0.0
 11
-4.7498779000000013
 21
8.9999999999999911
 31
0.0
  0
LINE
  5
44EC
  8
0
 10
-7.6584077551914609
 20
10.988452119897611
 30
0.0
 11
-6.5498047000000952
 21
9.8798487000431532
 31
0.0
  0
LINE
  5
44ED
  8
µę˝u
 10
-2.9998779000000009
 20
8.6999999999997968
 30
0.0
 11
-3.299877899999955
 21
8.9999999999999911
 31
0.0
  0
LINE
  5
44EE
  8
µę˝u
 10
-4.7498780817588786
 20
17.09999932166691
 30
0.0
 11
-4.9808185810707073
 21
17.499999999999989
 31
0.0
  0
LINE
  5
44EF
  8
0
 10
-7.6594834574018194
 20
16.9995608893298
 30
0.0
 11
-7.1590440997802034
 21
17.499999999999989
 31
0.0
  0
LINE
  5
44F0
  8
µę˝u
 10
-4.7498779000000013
 20
8.9999999999999911
 30
0.0
 11
4.7501220999999978
 21
8.9999999999999911
 31
0.0
  0
LINE
  5
44F1
  8
µę˝u
 10
-2.9998779000000009
 20
8.6999999999997968
 30
0.0
 11
3.0001220999999978
 21
8.6999999999997968
 31
0.0
  0
LINE
  5
44F2
  8
0
 10
-7.1590440997802034
 20
17.499999999999989
 30
0.0
 11
7.1600367000635279
 21
17.499999999999989
 31
0.0
  0
LINE
  5
44F3
  8
µę˝u
 10
-4.7498792566666452
 20
17.099999999999891
 30
0.0
 11
4.7501220999999978
 21
17.099999999999891
 31
0.0
  0
LINE
  5
44F4
  8
0
 10
6.5500488000002397
 20
7.45002840004208
 30
0.0
 11
9.9999999999997655
 21
4.0000768000366378
 31
0.0
  0
LINE
  5
44F5
  8
0
 10
-6.5498047000000952
 20
9.8798487000431532
 30
0.0
 11
-6.5498047000000952
 21
7.4495225000102261
 31
0.0
  0
LINE
  5
44F6
  8
0
 10
6.5500487999995576
 20
9.8792357003491773
 30
0.0
 11
6.5500488000002397
 21
7.45002840004208
 31
0.0
  0
ENDBLK
  5
44F7
  8
0
  0
BLOCK
  8
0
  2
A$C39BD639F
 70
     0
 10
0.0
 20
0.0
 30
0.0
  3
A$C39BD639F
  1

  0
INSERT
  5
44F9
  8
0
  2
I1
 10
171.87202479558599
 20
85.01237264842986
 30
0.0
 41
-1.0
 50
359.99999999999989
  0
LINE
  5
44FA
  8
0
 10
159.25635265494449
 20
82.262372648429874
 30
0.0
 11
171.87202479558599
 21
82.26237264842986
 31
0.0
  0
LINE
  5
44FB
  8
0
 10
170.3720247955861
 20
82.26237264842986
 30
0.0
 11
170.3720247955861
 21
125.2623726484298
 31
0.0
  0
LINE
  5
44FC
  8
0
 10
171.87202479558599
 20
82.26237264842986
 30
0.0
 11
171.8720247955861
 21
125.2623726484298
 31
0.0
  0
INSERT
  5
44FD
  8
0
  2
I1
 10
171.8720247955861
 20
122.5123726484298
 30
0.0
 41
-1.0
 50
359.99999999999989
  0
LINE
  5
44FE
  8
0
 10
159.25635265494449
 20
125.2623726484298
 30
0.0
 11
171.8720247955861
 21
125.2623726484298
 31
0.0
  0
LINE
  5
44FF
  8
0
 10
159.25635265494449
 20
6.3872670966657754
 30
0.0
 11
171.87202479558599
 21
6.3872670966657754
 31
0.0
  0
LINE
  5
4500
  8
0
 10
159.25635265494449
 20
7.8872670966657736
 30
0.0
 11
171.87202479558599
 21
7.8872670966657736
 31
0.0
  0
INSERT
  5
4501
  8
0
  2
I1
 10
171.87202479558599
 20
18.787267096665801
 30
0.0
 41
-1.0
  0
LINE
  5
4502
  8
0
 10
170.3720247955861
 20
29.287271040065779
 30
0.0
 11
171.87202479558599
 21
29.287271040065779
 31
0.0
  0
LINE
  5
4503
  8
0
 10
171.87202479558599
 20
6.3872670966657727
 30
0.0
 11
171.87202479558599
 21
30.787271040065779
 31
0.0
  0
LINE
  5
4504
  8
0
 10
170.3720247955861
 20
6.387271040065805
 30
0.0
 11
170.3720247955861
 21
30.78727498336583
 31
0.0
  0
CIRCLE
  5
4505
  8
0
 10
165.672024795586
 20
24.787271040065711
 30
0.0
 40
2.8277919627000001
  0
CIRCLE
  5
4506
  8
0
 10
165.672024795586
 20
24.787271040065711
 30
0.0
 40
2.4999999728999991
  0
CIRCLE
  5
4507
  8
0
 10
165.672024795586
 20
24.787271040065711
 30
0.0
 40
3.144781861999999
  0
LINE
  5
4508
  8
¤¤¤ß˝u
 10
165.672024795586
 20
21.037271040065711
 30
0.0
 11
165.672024795586
 21
28.537271040065711
 31
0.0
  0
LINE
  5
4509
  8
¤¤¤ß˝u
 10
169.422024795586
 20
24.787271040065711
 30
0.0
 11
161.922024795586
 21
24.787271040065711
 31
0.0
  0
CIRCLE
  5
450A
  8
0
 10
165.672024795586
 20
24.787271040065711
 30
0.0
 40
1.0
  0
LINE
  5
450B
  8
0
 10
159.25635265494449
 20
29.287274983365819
 30
0.0
 11
170.3720247955861
 21
29.287274983365819
 31
0.0
  0
LINE
  5
450C
  8
0
 10
159.25635265494449
 20
30.787271040065779
 30
0.0
 11
171.87202479558599
 21
30.787271040065779
 31
0.0
  0
LINE
  5
450D
  8
0
 10
134.00635265494449
 20
31.787271040065779
 30
0.0
 11
134.00635265494449
 21
46.464433751407739
 31
0.0
  0
LINE
  5
450E
  8
0
 10
81.400524110948368
 20
1.786879790648088
 30
0.0
 11
81.900546496222105
 21
2.2869021759215702
 31
0.0
  0
LINE
  5
450F
  8
0
 10
81.900546496222105
 20
2.2869021759215702
 30
0.0
 11
87.90030907958328
 21
2.2868614775325131
 31
0.0
  0
LINE
  5
4510
  8
0
 10
88.400277200482023
 20
1.786879790648088
 30
0.0
 11
87.90030907958328
 21
2.2868614775325131
 31
0.0
  0
LINE
  5
4511
  8
0
 10
87.900546496222091
 20
10.48687979064788
 30
0.0
 11
87.900546496222091
 21
2.2869021759215702
 31
0.0
  0
LINE
  5
4512
  8
0
 10
87.900424396222107
 20
10.48687979064788
 30
0.0
 11
88.200424396222033
 21
10.786879790648079
 31
0.0
  0
LINE
  5
4513
  8
0
 10
81.900546496222105
 20
10.48687979064788
 30
0.0
 11
81.900546496222105
 21
2.2869021759215702
 31
0.0
  0
LINE
  5
4514
  8
0
 10
81.900546496222105
 20
10.48687979064788
 30
0.0
 11
81.600546496222137
 21
10.786879790648079
 31
0.0
  0
LINE
  5
4515
  8
0
 10
80.150546496222091
 20
10.786879790648079
 30
0.0
 11
89.650546496222077
 21
10.786879790648079
 31
0.0
  0
LINE
  5
4516
  8
0
 10
81.900546496222105
 20
10.48687979064788
 30
0.0
 11
87.900546496222091
 21
10.48687979064788
 31
0.0
  0
LINE
  5
4517
  8
0
 10
80.150546496222091
 20
18.886879790647981
 30
0.0
 11
80.150546496222091
 21
10.786879790648079
 31
0.0
  0
LINE
  5
4518
  8
0
 10
80.150546314463213
 20
18.886879112315
 30
0.0
 11
79.919605815151385
 21
19.286879790648079
 31
0.0
  0
LINE
  5
4519
  8
0
 10
89.650546496222077
 20
18.886879790647981
 30
0.0
 11
89.650546496222077
 21
10.786879790648079
 31
0.0
  0
LINE
  5
451A
  8
0
 10
89.650546677980984
 20
18.886879112315
 30
0.0
 11
89.881487177292584
 21
19.286879790648079
 31
0.0
  0
LINE
  5
451B
  8
0
 10
80.150545139555447
 20
18.886879790647981
 30
0.0
 11
89.650546496222077
 21
18.886879790647981
 31
0.0
  0
LINE
  5
451C
  8
µę˝u
 10
182.1744134287062
 20
1.7868797906477609
 30
0.0
 11
182.6744358139799
 21
2.2869021759212429
 31
0.0
  0
LINE
  5
451D
  8
µę˝u
 10
182.6744358139799
 20
2.2869021759212429
 30
0.0
 11
188.67419839734109
 21
2.2868614775321858
 31
0.0
  0
LINE
  5
451E
  8
µę˝u
 10
189.1741665182399
 20
1.7868797906477609
 30
0.0
 11
188.67419839734109
 21
2.2868614775321858
 31
0.0
  0
LINE
  5
451F
  8
µę˝u
 10
188.6744358139799
 20
10.48687979064756
 30
0.0
 11
188.6744358139799
 21
2.2869021759212429
 31
0.0
  0
LINE
  5
4520
  8
µę˝u
 10
188.6743137139799
 20
10.48687979064756
 30
0.0
 11
188.97431371397991
 21
10.786879790647751
 31
0.0
  0
LINE
  5
4521
  8
µę˝u
 10
182.6744358139799
 20
10.48687979064756
 30
0.0
 11
182.6744358139799
 21
2.2869021759212429
 31
0.0
  0
LINE
  5
4522
  8
µę˝u
 10
182.6744358139799
 20
10.48687979064756
 30
0.0
 11
182.37443581398
 21
10.786879790647751
 31
0.0
  0
LINE
  5
4523
  8
µę˝u
 10
180.9244358139799
 20
10.786879790647751
 30
0.0
 11
190.4244358139799
 21
10.786879790647751
 31
0.0
  0
LINE
  5
4524
  8
µę˝u
 10
182.6744358139799
 20
10.48687979064756
 30
0.0
 11
188.6744358139799
 21
10.48687979064756
 31
0.0
  0
LINE
  5
4525
  8
µę˝u
 10
180.9244358139799
 20
18.886879790647651
 30
0.0
 11
180.9244358139799
 21
10.786879790647751
 31
0.0
  0
LINE
  5
4526
  8
µę˝u
 10
180.92443563222099
 20
18.88687911231467
 30
0.0
 11
180.69349513290919
 21
19.286879790647749
 31
0.0
  0
LINE
  5
4527
  8
µę˝u
 10
190.4244358139799
 20
18.886879790647651
 30
0.0
 11
190.4244358139799
 21
10.786879790647751
 31
0.0
  0
LINE
  5
4528
  8
µę˝u
 10
190.4244359957388
 20
18.88687911231467
 30
0.0
 11
190.6553764950504
 21
19.286879790647749
 31
0.0
  0
LINE
  5
4529
  8
µę˝u
 10
180.92443445731331
 20
18.886879790647651
 30
0.0
 11
190.4244358139799
 21
18.886879790647651
 31
0.0
  0
INSERT
  5
452A
  8
0
  2
A$C781E382E
 10
22.000248105622191
 20
1.787073061604441
 30
0.0
  0
LINE
  5
452B
  8
0
 10
108.75635265494449
 20
125.2623726484299
 30
0.0
 11
96.140680514302957
 21
125.2623726484299
 31
0.0
  0
LINE
  5
452C
  8
0
 10
108.75635265494449
 20
82.262372648429917
 30
0.0
 11
96.140680514302957
 21
82.262372648429917
 31
0.0
  0
LINE
  5
452D
  8
¤¤¤ß˝u
 10
185.67481001412159
 20
97.989360845647525
 30
0.0
 11
185.67481001412159
 21
109.53538445121229
 31
0.0
  0
LINE
  5
452E
  8
¤¤¤ß˝u
 10
179.90179821133921
 20
103.7623726484299
 30
0.0
 11
191.44782181690391
 21
103.7623726484299
 31
0.0
  0
CIRCLE
  5
452F
  8
0
 10
185.67481001412159
 20
103.7623726484299
 30
0.0
 40
4.7498798561624724
  0
CIRCLE
  5
4530
  8
0
 10
185.67481001412159
 20
103.7623726484299
 30
0.0
 40
2.9998798561624578
  0
ARC
  5
4531
  8
0
 10
84.900920696363755
 20
103.7623726484299
 30
0.0
 40
2.9998798561624578
 50
69.778733780120461
 51
239.036081428502
  0
ARC
  5
4532
  8
0
 10
84.900920696363755
 20
103.7623726484299
 30
0.0
 40
4.7498798561624724
 50
54.100401645880957
 51
258.21411561269178
  0
LINE
  5
4533
  8
¤¤¤ß˝u
 10
79.127908893581377
 20
103.7623726484299
 30
0.0
 11
90.673932499146133
 21
103.7623726484299
 31
0.0
  0
LINE
  5
4534
  8
¤¤¤ß˝u
 10
84.900920696363755
 20
97.989360845647525
 30
0.0
 11
84.900920696363755
 21
109.53538445121229
 31
0.0
  0
INSERT
  5
4535
  8
0
  2
I1
 10
96.140680514302957
 20
122.5123726484299
 30
0.0
  0
INSERT
  5
4536
  8
0
  2
I1
 10
96.140680514302971
 20
85.012372648429888
 30
0.0
  0
LINE
  5
4537
  8
0
 10
87.832134197257716
 20
93.761874221894644
 30
0.0
 11
96.140680514302957
 21
93.761693629622357
 31
0.0
  0
LINE
  5
4538
  8
0
 10
171.8720247955861
 20
113.76004756344889
 30
0.0
 11
205.67502730485739
 21
113.7593128307049
 31
0.0
  0
LINE
  5
4539
  8
0
 10
171.87202479558599
 20
93.760047554000025
 30
0.0
 11
205.67459259037079
 21
93.759312830704815
 31
0.0
  0
LINE
  5
453A
  8
0
 10
64.901355410850229
 20
113.7623726484299
 30
0.0
 11
96.140680514302971
 21
113.7616936390713
 31
0.0
  0
LINE
  5
453B
  8
0
 10
64.900920696363642
 20
93.762372648429846
 30
0.0
 11
82.378186514302882
 21
93.761992767397999
 31
0.0
  0
LINE
  5
453C
  8
0
  6
CONTINUOUS
 10
92.717439056412275
 20
108.3623726484299
 30
0.0
 11
96.140680514302957
 21
108.3623726484299
 31
0.0
  0
LINE
  5
453D
  8
0
  6
CONTINUOUS
 10
92.717439056412275
 20
106.06237244924399
 30
0.0
 11
96.140680514302957
 21
106.06237244924399
 31
0.0
  0
ARC
  5
453E
  8
0
  6
CONTINUOUS
 10
94.497196491348888
 20
107.2123727480228
 30
0.0
 40
2.1190099770459958
 50
147.13277999893791
 51
212.86722000106201
  0
LINE
  5
453F
  8
0
  6
CONTINUOUS
 10
88.779627691817794
 20
107.7623726484299
 30
0.0
 11
92.450808602317906
 21
107.7623726484299
 31
0.0
  0
LINE
  5
4540
  8
0
  6
CONTINUOUS
 10
92.717439056412275
 20
101.4623728476157
 30
0.0
 11
96.140680514302957
 21
101.4623728476157
 31
0.0
  0
LINE
  5
4541
  8
0
  6
CONTINUOUS
 10
92.717439056412275
 20
99.162372648429894
 30
0.0
 11
96.140680514302957
 21
99.162372648429894
 31
0.0
  0
ARC
  5
4542
  8
0
  6
CONTINUOUS
 10
94.497196491348888
 20
100.3123725488369
 30
0.0
 40
2.1190099770459958
 50
147.13277999893791
 51
212.86722000106201
  0
LINE
  5
4543
  8
0
  6
CONTINUOUS
 10
85.006778104437998
 20
99.912823483975814
 30
0.0
 11
85.57885537295364
 21
101.2939401843516
 31
0.0
  0
ARC
  5
4544
  8
0
  6
CONTINUOUS
 10
84.883881447798316
 20
94.357209230554062
 30
0.0
 40
6.971504732179473
 50
50.721349997912583
 51
84.278650002087844
  0
ARC
  5
4545
  8
0
  6
CONTINUOUS
 10
90.250995145356498
 20
99.426193781838592
 30
0.0
 40
1.8541337299152469
 50
214.63277999893739
 51
280.36722000106198
  0
ARC
  5
4546
  8
0
  6
CONTINUOUS
 10
90.297556619798414
 20
95.514213218340146
 30
0.0
 40
2.0596736098176041
 50
89.152098834940844
 51
159.15209883493981
  0
ARC
  5
4547
  8
0
  6
CONTINUOUS
 10
89.420366825909724
 20
105.3092537558979
 30
0.0
 40
6.971504732179473
 50
230.7213499979126
 51
264.27865000208948
  0
LINE
  5
4548
  8
0
  6
CONTINUOUS
 10
88.725392900754414
 20
98.372522802100306
 30
0.0
 11
89.297470169270056
 21
99.753639502476105
 31
0.0
  0
LINE
  5
4549
  8
0
  6
CONTINUOUS
 10
83.147470384238275
 20
100.6829739583075
 30
0.0
 11
83.719547652753917
 21
102.0640906586833
 31
0.0
  0
ARC
  5
454A
  8
0
  6
CONTINUOUS
 10
85.121968740543295
 20
95.648983662544552
 30
0.0
 40
2.8603490205367619
 50
118.5864858262625
 51
163.58648582626211
  0
ARC
  5
454B
  8
0
  6
CONTINUOUS
 10
81.873960388159205
 20
99.003381021440006
 30
0.0
 40
2.0596736098176049
 50
335.84790116505968
 51
45.847901165060001
  0
ARC
  5
454C
  8
0
  6
CONTINUOUS
 10
84.053253128351557
 20
100.2402692046133
 30
0.0
 40
1.8541337299152469
 50
34.632779998937472
 51
100.3672200010619
  0
ARC
  5
454D
  8
0
  6
CONTINUOUS
 10
84.673072306798844
 20
101.7366450714398
 30
0.0
 40
1.8541337299152469
 50
214.63277999893739
 51
280.36722000106198
  0
LINE
  5
454E
  8
0
  6
CONTINUOUS
 10
84.762799388179403
 20
101.9532654082208
 30
0.0
 11
90.340722226737071
 21
99.642814118619654
 31
0.0
  0
LINE
  5
454F
  8
0
  6
CONTINUOUS
 10
83.938111239394104
 20
98.084107604967485
 30
0.0
 11
88.187957088946035
 21
96.323763816088075
 31
0.0
  0
LINE
  5
4550
  8
0
  6
CONTINUOUS
 10
83.963526046971012
 20
100.02364886783231
 30
0.0
 11
89.541448885528666
 21
97.713197578231075
 31
0.0
  0
LINE
  5
4551
  8
0
  6
CONTINUOUS
 10
85.996666492570526
 20
91.926406517207468
 30
0.0
 11
88.140611398103843
 21
94.070351422740785
 31
0.0
  0
LINE
  5
4552
  8
0
  6
CONTINUOUS
 10
82.378186514302897
 20
93.425229999381415
 30
0.0
 11
85.996666492570526
 21
91.926406517207468
 31
0.0
  0
LINE
  5
4553
  8
0
  6
CONTINUOUS
 10
82.378186514302897
 20
96.45722596176735
 30
0.0
 11
88.140611398103843
 21
94.070351422740785
 31
0.0
  0
LINE
  5
4554
  8
0
  6
CONTINUOUS
 10
82.378186514302897
 20
93.425229999381415
 30
0.0
 11
82.378186514302897
 21
96.45722596176735
 31
0.0
  0
ARC
  5
4555
  8
0
  6
CONTINUOUS
 10
85.628950769207876
 20
95.438984830392258
 30
0.0
 40
2.8603490205367619
 50
331.4135141737375
 51
16.413514173738211
  0
LINE
  5
4556
  8
0
  6
CONTINUOUS
 10
89.913230992458523
 20
99.762372648429888
 30
0.0
 11
92.450808602317906
 21
99.762372648429888
 31
0.0
  0
ARC
  5
4557
  8
0
  6
CONTINUOUS
 10
89.631175966909197
 20
97.929817915012151
 30
0.0
 40
1.8541337299152469
 50
34.632779998937472
 51
100.3672200010619
  0
LINE
  5
4558
  8
0
  6
CONTINUOUS
 10
90.584658368907654
 20
97.602329548498034
 30
0.0
 11
91.156778262273477
 21
98.983549154365264
 31
0.0
  0
LINE
  5
4559
  8
0
  6
CONTINUOUS
 10
92.378186514302897
 20
100.3123725488369
 30
0.0
 11
92.378186514302897
 21
107.2123727480228
 31
0.0
  0
ARC
  5
455A
  8
0
  6
CONTINUOUS
 10
88.779627691817794
 20
103.7623726484299
 30
0.0
 40
4.0
 50
90.0
 51
210.8352048940859
  0
ARC
  5
455B
  8
0
  6
CONTINUOUS
 10
100.34562049393659
 20
103.7623726484299
 30
0.0
 40
7.9674339796336797
 50
163.22134999791169
 51
196.7786500020882
  0
LINE
  5
455C
  8
0
 10
205.6745925787649
 20
93.758778873388437
 30
0.0
 11
205.67502729325139
 21
113.75877887338849
 31
0.0
  0
LINE
  5
455D
  8
0
 10
64.900920696363642
 20
93.762372648429846
 30
0.0
 11
64.901355410850229
 21
113.7623726484299
 31
0.0
  0
LINE
  5
455E
  8
0
 10
96.140680514302971
 20
82.262372648429917
 30
0.0
 11
96.140680514302957
 21
125.2623726484299
 31
0.0
  0
LINE
  5
455F
  8
0
 10
97.640680514302943
 20
82.262372648429917
 30
0.0
 11
97.640680514302943
 21
125.2623726484299
 31
0.0
  0
CIRCLE
  5
4560
  8
0
 10
152.00635265494461
 20
87.762372648429874
 30
0.0
 40
2.1000000000000001
  0
LINE
  5
4561
  8
AM7
 10
155.00635265494461
 20
87.762372648429874
 30
0.0
 11
149.00635265494449
 21
87.762372648429874
 31
0.0
  0
ARC
  5
4562
  8
AM4
 10
152.00635265494449
 20
87.762372648429874
 30
0.0
 40
2.5
 50
263.10789742065339
 51
186.8921025793467
  0
LINE
  5
4563
  8
AM7
 10
152.00635265494461
 20
90.762372648429888
 30
0.0
 11
152.00635265494461
 21
84.762372648429888
 31
0.0
  0
LINE
  5
4564
  8
AM7
 10
147.5563526549445
 20
103.7623726484299
 30
0.0
 11
150.5563526549445
 21
103.7623726484299
 31
0.0
  0
LINE
  5
4565
  8
AM7
 10
155.00635265494461
 20
119.7623726484299
 30
0.0
 11
149.00635265494449
 21
119.7623726484299
 31
0.0
  0
CIRCLE
  5
4566
  8
0
 10
152.00635265494461
 20
119.7623726484299
 30
0.0
 40
2.1000000000000001
  0
ARC
  5
4567
  8
AM4
 10
152.00635265494449
 20
119.7623726484299
 30
0.0
 40
2.5
 50
263.10789742065339
 51
186.8921025793467
  0
LINE
  5
4568
  8
AM7
 10
152.00635265494461
 20
116.7623726484299
 30
0.0
 11
152.00635265494461
 21
122.7623726484299
 31
0.0
  0
LINE
  5
4569
  8
0
 10
159.25635265494449
 20
125.7623726484299
 30
0.0
 11
159.25635265494449
 21
81.762372648429874
 31
0.0
  0
LINE
  5
456A
  8
AM7
 10
134.00635265494449
 20
127.9723726484298
 30
0.0
 11
134.00635265494449
 21
79.35237264842992
 31
0.0
  0
CIRCLE
  5
456B
  8
0
 10
116.00635265494449
 20
87.762372648429874
 30
0.0
 40
2.1000000000000001
  0
LINE
  5
456C
  8
AM7
 10
113.00635265494449
 20
87.762372648429874
 30
0.0
 11
119.00635265494449
 21
87.762372648429874
 31
0.0
  0
LINE
  5
456D
  8
AM7
 10
116.00635265494449
 20
90.762372648429888
 30
0.0
 11
116.00635265494449
 21
84.762372648429888
 31
0.0
  0
ARC
  5
456E
  8
AM4
 10
116.00635265494449
 20
87.762372648429874
 30
0.0
 40
2.5
 50
263.10789742065339
 51
186.8921025793467
  0
LINE
  5
456F
  8
AM7
 10
117.4563526549445
 20
103.7623726484299
 30
0.0
 11
120.4563526549445
 21
103.7623726484299
 31
0.0
  0
LINE
  5
4570
  8
AM7
 10
113.00635265494449
 20
119.7623726484299
 30
0.0
 11
119.00635265494449
 21
119.7623726484299
 31
0.0
  0
LINE
  5
4571
  8
AM7
 10
116.00635265494449
 20
116.7623726484299
 30
0.0
 11
116.00635265494449
 21
122.7623726484299
 31
0.0
  0
ARC
  5
4572
  8
AM4
 10
116.00635265494449
 20
119.7623726484299
 30
0.0
 40
2.5
 50
263.10789742065339
 51
186.8921025793467
  0
CIRCLE
  5
4573
  8
0
 10
116.00635265494449
 20
119.7623726484299
 30
0.0
 40
2.1000000000000001
  0
LINE
  5
4574
  8
0
 10
108.75635265494449
 20
125.7623726484299
 30
0.0
 11
108.75635265494449
 21
81.762372648429874
 31
0.0
  0
LINE
  5
4575
  8
AM7
 10
160.25635265494449
 20
103.7623726484298
 30
0.0
 11
107.75635265494449
 21
103.7623726484299
 31
0.0
  0
LINE
  5
4576
  8
0
 10
108.75635265494449
 20
125.7623726484299
 30
0.0
 11
159.25635265494449
 21
125.7623726484299
 31
0.0
  0
LINE
  5
4577
  8
0
 10
108.75635265494449
 20
124.7623726484299
 30
0.0
 11
159.25635265494449
 21
124.7623726484299
 31
0.0
  0
LINE
  5
4578
  8
0
 10
108.75635265494449
 20
115.7623726484299
 30
0.0
 11
159.25635265494449
 21
115.7623726484299
 31
0.0
  0
LINE
  5
4579
  8
0
 10
108.75635265494449
 20
114.8481590860299
 30
0.0
 11
159.25635265494449
 21
114.8481590860299
 31
0.0
  0
LINE
  5
457A
  8
0
 10
108.75635265494449
 20
108.6765862108298
 30
0.0
 11
159.25635265494449
 21
108.6765862108298
 31
0.0
  0
LINE
  5
457B
  8
0
 10
108.75635265494449
 20
107.7623726484299
 30
0.0
 11
159.25635265494449
 21
107.7623726484298
 31
0.0
  0
LINE
  5
457C
  8
0
 10
108.75635265494449
 20
98.848159086029952
 30
0.0
 11
159.25635265494449
 21
98.848159086029952
 31
0.0
  0
LINE
  5
457D
  8
0
 10
108.75635265494449
 20
99.762372648429888
 30
0.0
 11
159.25635265494449
 21
99.762372648429874
 31
0.0
  0
LINE
  5
457E
  8
0
 10
108.75635265494449
 20
82.762372648429874
 30
0.0
 11
159.25635265494449
 21
82.762372648429874
 31
0.0
  0
LINE
  5
457F
  8
0
 10
108.75635265494449
 20
81.762372648429874
 30
0.0
 11
159.25635265494449
 21
81.762372648429874
 31
0.0
  0
LINE
  5
4580
  8
0
 10
108.75635265494449
 20
91.762372648429874
 30
0.0
 11
159.25635265494449
 21
91.762372648429874
 31
0.0
  0
LINE
  5
4581
  8
0
 10
108.75635265494449
 20
92.676586210829825
 30
0.0
 11
159.25635265494449
 21
92.676586210829811
 31
0.0
  0
POINT
  5
4582
  8
0
 10
82.640680514302986
 20
25.787290371165891
 30
0.0
1001
PNTFLAG
1000
endpoint
  0
LINE
  5
4583
  8
0
 10
86.113468514302923
 20
25.787290371165891
 30
0.0
 11
86.081662514302934
 21
25.437754371165891
 31
0.0
  0
LINE
  5
4584
  8
0
 10
86.081662514302934
 20
25.437754371165891
 30
0.0
 11
85.987467514302935
 21
25.101650371165888
 31
0.0
  0
LINE
  5
4585
  8
0
 10
86.081662514302934
 20
26.136826371165888
 30
0.0
 11
86.113468514302923
 21
25.787290371165891
 31
0.0
  0
LINE
  5
4586
  8
0
 10
85.987467514302935
 20
25.101650371165888
 30
0.0
 11
85.834503514302924
 21
24.791895371165921
 31
0.0
  0
LINE
  5
4587
  8
0
 10
85.987467514302935
 20
26.472930371165901
 30
0.0
 11
86.081662514302934
 21
26.136826371165888
 31
0.0
  0
LINE
  5
4588
  8
0
 10
85.834503514302924
 20
24.791895371165921
 30
0.0
 11
85.628647514302955
 21
24.520392371165951
 31
0.0
  0
LINE
  5
4589
  8
0
 10
85.834503514302924
 20
26.782685371165869
 30
0.0
 11
85.987467514302935
 21
26.472930371165901
 31
0.0
  0
LINE
  5
458A
  8
0
 10
85.377812514302946
 20
24.297576371165931
 30
0.0
 11
85.628647514302955
 21
24.520392371165951
 31
0.0
  0
LINE
  5
458B
  8
0
 10
85.628647514302955
 20
27.054187371165892
 30
0.0
 11
85.834503514302924
 21
26.782685371165869
 31
0.0
  0
LINE
  5
458C
  8
0
 10
87.358732514302915
 20
25.787290371165891
 30
0.0
 11
87.313404514302889
 21
25.28914837116589
 31
0.0
  0
LINE
  5
458D
  8
0
 10
87.313404514302889
 20
25.28914837116589
 30
0.0
 11
87.179161514302919
 21
24.81014937116587
 31
0.0
  0
LINE
  5
458E
  8
0
 10
87.313404514302889
 20
26.285432371165889
 30
0.0
 11
87.358732514302915
 21
25.787290371165891
 31
0.0
  0
LINE
  5
458F
  8
0
 10
85.091635514302936
 20
24.13200837116592
 30
0.0
 11
85.377812514302946
 21
24.297576371165931
 31
0.0
  0
LINE
  5
4590
  8
0
 10
85.377812514302946
 20
27.277004371165859
 30
0.0
 11
85.628647514302955
 21
27.054187371165892
 31
0.0
  0
LINE
  5
4591
  8
0
 10
87.179161514302919
 20
24.81014937116587
 30
0.0
 11
86.961164514302922
 21
24.368702371165892
 31
0.0
  0
LINE
  5
4592
  8
0
 10
87.179161514302919
 20
26.764430371165879
 30
0.0
 11
87.313404514302889
 21
26.285432371165889
 31
0.0
  0
LINE
  5
4593
  8
0
 10
86.961164514302922
 20
24.368702371165892
 30
0.0
 11
86.66778951430291
 21
23.981770371165862
 31
0.0
  0
LINE
  5
4594
  8
0
 10
86.961164514302922
 20
27.205878371165891
 30
0.0
 11
87.179161514302919
 21
26.764430371165879
 31
0.0
  0
LINE
  5
4595
  8
0
 10
84.781116514302937
 20
24.03005237116589
 30
0.0
 11
85.091635514302936
 21
24.13200837116592
 31
0.0
  0
LINE
  5
4596
  8
0
 10
85.091635514302936
 20
27.44257137116584
 30
0.0
 11
85.377812514302946
 21
27.277004371165859
 31
0.0
  0
LINE
  5
4597
  8
0
 10
86.310310514302941
 20
23.6642233711659
 30
0.0
 11
86.66778951430291
 21
23.981770371165862
 31
0.0
  0
LINE
  5
4598
  8
0
 10
86.66778951430291
 20
27.592810371165921
 30
0.0
 11
86.961164514302922
 21
27.205878371165891
 31
0.0
  0
LINE
  5
4599
  8
0
 10
87.482432514302928
 20
25.787290371165891
 30
0.0
 11
87.437599514302903
 21
25.294588371165879
 31
0.0
  0
LINE
  5
459A
  8
0
 10
84.458187514302935
 20
23.995626371165919
 30
0.0
 11
84.781116514302937
 21
24.03005237116589
 31
0.0
  0
LINE
  5
459B
  8
0
 10
84.781116514302937
 20
27.54452737116587
 30
0.0
 11
85.091635514302936
 21
27.44257137116584
 31
0.0
  0
LINE
  5
459C
  8
0
 10
87.437599514302903
 20
25.294588371165879
 30
0.0
 11
87.304823514302925
 21
24.820820371165912
 31
0.0
  0
LINE
  5
459D
  8
0
 10
87.437599514302903
 20
26.2799923711659
 30
0.0
 11
87.482432514302928
 21
25.787290371165891
 31
0.0
  0
LINE
  5
459E
  8
0
 10
85.902466514302944
 20
23.428264371165891
 30
0.0
 11
86.310310514302941
 21
23.6642233711659
 31
0.0
  0
LINE
  5
459F
  8
0
 10
86.310310514302941
 20
27.91035737116589
 30
0.0
 11
86.66778951430291
 21
27.592810371165921
 31
0.0
  0
LINE
  5
45A0
  8
0
 10
87.304823514302925
 20
24.820820371165912
 30
0.0
 11
87.089206514302944
 21
24.384193371165921
 31
0.0
  0
LINE
  5
45A1
  8
0
 10
87.304823514302925
 20
26.753760371165878
 30
0.0
 11
87.437599514302903
 21
26.2799923711659
 31
0.0
  0
LINE
  5
45A2
  8
0
 10
87.089206514302944
 20
24.384193371165921
 30
0.0
 11
86.799035514302943
 21
24.001486371165878
 31
0.0
  0
LINE
  5
45A3
  8
0
 10
87.089206514302944
 20
27.190387371165869
 30
0.0
 11
87.304823514302925
 21
26.753760371165878
 31
0.0
  0
LINE
  5
45A4
  8
0
 10
85.459929514302956
 20
23.282961371165879
 30
0.0
 11
85.902466514302944
 21
23.428264371165891
 31
0.0
  0
LINE
  5
45A5
  8
0
 10
85.902466514302944
 20
28.14631637116587
 30
0.0
 11
86.310310514302941
 21
27.91035737116589
 31
0.0
  0
LINE
  5
45A6
  8
0
 10
84.13525751430295
 20
24.03005237116589
 30
0.0
 11
84.458187514302935
 21
23.995626371165919
 31
0.0
  0
LINE
  5
45A7
  8
0
 10
84.458187514302935
 20
27.578953371165891
 30
0.0
 11
84.781116514302937
 21
27.54452737116587
 31
0.0
  0
LINE
  5
45A8
  8
0
 10
86.445460514302937
 20
23.687407371165921
 30
0.0
 11
86.799035514302943
 21
24.001486371165878
 31
0.0
  0
LINE
  5
45A9
  8
0
 10
86.799035514302943
 20
27.57309437116588
 30
0.0
 11
87.089206514302944
 21
27.190387371165869
 31
0.0
  0
LINE
  5
45AA
  8
0
 10
84.999706514302929
 20
23.233899371165919
 30
0.0
 11
85.459929514302956
 21
23.282961371165879
 31
0.0
  0
LINE
  5
45AB
  8
0
 10
85.459929514302956
 20
23.282961371165879
 30
0.0
 11
85.604365514302941
 21
23.310309371165921
 31
0.0
  0
LINE
  5
45AC
  8
0
 10
85.459929514302956
 20
28.291618371165821
 30
0.0
 11
85.902466514302944
 21
28.14631637116587
 31
0.0
  0
LINE
  5
45AD
  8
0
 10
83.824738514302965
 20
24.13200837116592
 30
0.0
 11
84.13525751430295
 21
24.03005237116589
 31
0.0
  0
LINE
  5
45AE
  8
0
 10
84.13525751430295
 20
27.54452737116587
 30
0.0
 11
84.458187514302935
 21
27.578953371165891
 31
0.0
  0
LINE
  5
45AF
  8
0
 10
86.042069514302952
 20
23.45402537116594
 30
0.0
 11
86.445460514302937
 21
23.687407371165921
 31
0.0
  0
LINE
  5
45B0
  8
0
 10
86.445460514302937
 20
27.887173371165868
 30
0.0
 11
86.799035514302943
 21
27.57309437116588
 31
0.0
  0
LINE
  5
45B1
  8
0
 10
85.604365514302941
 20
23.310309371165921
 30
0.0
 11
86.042069514302952
 21
23.45402537116594
 31
0.0
  0
LINE
  5
45B2
  8
0
 10
86.042069514302952
 20
28.12055537116585
 30
0.0
 11
86.445460514302937
 21
27.887173371165868
 31
0.0
  0
LINE
  5
45B3
  8
0
 10
84.539483514302958
 20
23.282961371165879
 30
0.0
 11
84.999706514302929
 21
23.233899371165919
 31
0.0
  0
LINE
  5
45B4
  8
0
 10
84.999706514302929
 20
28.340681371165871
 30
0.0
 11
85.459929514302956
 21
28.291618371165821
 31
0.0
  0
LINE
  5
45B5
  8
0
 10
85.459929514302956
 20
28.291618371165821
 30
0.0
 11
85.604365514302941
 21
28.264271371165862
 31
0.0
  0
LINE
  5
45B6
  8
0
 10
83.538561514302984
 20
24.297576371165931
 30
0.0
 11
83.824738514302965
 21
24.13200837116592
 31
0.0
  0
LINE
  5
45B7
  8
0
 10
83.824738514302965
 20
27.44257137116584
 30
0.0
 11
84.13525751430295
 21
27.54452737116587
 31
0.0
  0
LINE
  5
45B8
  8
0
 10
85.604365514302941
 20
28.264271371165862
 30
0.0
 11
86.042069514302952
 21
28.12055537116585
 31
0.0
  0
LINE
  5
45B9
  8
0
 10
83.287726514302975
 20
24.520392371165951
 30
0.0
 11
83.538561514302984
 21
24.297576371165931
 31
0.0
  0
LINE
  5
45BA
  8
0
 10
83.538561514302984
 20
27.277004371165859
 30
0.0
 11
83.824738514302965
 21
27.44257137116584
 31
0.0
  0
LINE
  5
45BB
  8
0
 10
84.096946514302957
 20
23.428264371165891
 30
0.0
 11
84.539483514302958
 21
23.282961371165879
 31
0.0
  0
LINE
  5
45BC
  8
0
 10
84.539483514302958
 20
28.291618371165821
 30
0.0
 11
84.999706514302929
 21
28.340681371165871
 31
0.0
  0
LINE
  5
45BD
  8
0
 10
83.081870514302935
 20
24.791895371165921
 30
0.0
 11
83.287726514302975
 21
24.520392371165951
 31
0.0
  0
LINE
  5
45BE
  8
0
 10
83.287726514302975
 20
27.054187371165892
 30
0.0
 11
83.538561514302984
 21
27.277004371165859
 31
0.0
  0
LINE
  5
45BF
  8
0
 10
83.689101514302976
 20
23.6642233711659
 30
0.0
 11
84.096946514302957
 21
23.428264371165891
 31
0.0
  0
LINE
  5
45C0
  8
0
 10
84.096946514302957
 20
28.14631637116587
 30
0.0
 11
84.539483514302958
 21
28.291618371165821
 31
0.0
  0
LINE
  5
45C1
  8
0
 10
82.928906514302966
 20
25.101650371165888
 30
0.0
 11
83.081870514302935
 21
24.791895371165921
 31
0.0
  0
LINE
  5
45C2
  8
0
 10
83.287726514302975
 20
27.054187371165892
 30
0.0
 11
83.081870514302935
 21
26.782685371165869
 31
0.0
  0
LINE
  5
45C3
  8
0
 10
83.331623514302976
 20
23.981770371165862
 30
0.0
 11
83.689101514302976
 21
23.6642233711659
 31
0.0
  0
LINE
  5
45C4
  8
0
 10
83.689101514302976
 20
27.91035737116589
 30
0.0
 11
84.096946514302957
 21
28.14631637116587
 31
0.0
  0
LINE
  5
45C5
  8
0
 10
82.834711514302967
 20
25.437754371165891
 30
0.0
 11
82.928906514302966
 21
25.101650371165888
 31
0.0
  0
LINE
  5
45C6
  8
0
 10
83.081870514302935
 20
26.782685371165869
 30
0.0
 11
82.928906514302966
 21
26.472930371165901
 31
0.0
  0
LINE
  5
45C7
  8
0
 10
82.802905514302964
 20
25.787290371165891
 30
0.0
 11
82.834711514302967
 21
25.437754371165891
 31
0.0
  0
LINE
  5
45C8
  8
0
 10
82.928906514302966
 20
26.472930371165901
 30
0.0
 11
82.834711514302967
 21
26.136826371165888
 31
0.0
  0
LINE
  5
45C9
  8
0
 10
82.834711514302967
 20
26.136826371165888
 30
0.0
 11
82.802905514302964
 21
25.787290371165891
 31
0.0
  0
LINE
  5
45CA
  8
0
 10
83.038247514302967
 20
24.368702371165892
 30
0.0
 11
83.331623514302976
 21
23.981770371165862
 31
0.0
  0
LINE
  5
45CB
  8
0
 10
83.331623514302976
 20
27.592810371165921
 30
0.0
 11
83.689101514302976
 21
27.91035737116589
 31
0.0
  0
LINE
  5
45CC
  8
0
 10
82.820250514302955
 20
24.81014937116587
 30
0.0
 11
83.038247514302967
 21
24.368702371165892
 31
0.0
  0
LINE
  5
45CD
  8
0
 10
83.331623514302976
 20
27.592810371165921
 30
0.0
 11
83.038247514302967
 21
27.205878371165891
 31
0.0
  0
LINE
  5
45CE
  8
0
 10
82.686008514302969
 20
25.28914837116589
 30
0.0
 11
82.820250514302955
 21
24.81014937116587
 31
0.0
  0
LINE
  5
45CF
  8
0
 10
83.038247514302967
 20
27.205878371165891
 30
0.0
 11
82.820250514302955
 21
26.764430371165879
 31
0.0
  0
LINE
  5
45D0
  8
0
 10
82.640680514302986
 20
25.787290371165891
 30
0.0
 11
82.686008514302969
 21
25.28914837116589
 31
0.0
  0
LINE
  5
45D1
  8
0
 10
82.820250514302955
 20
26.764430371165879
 30
0.0
 11
82.686008514302969
 21
26.285432371165889
 31
0.0
  0
LINE
  5
45D2
  8
0
 10
82.686008514302969
 20
26.285432371165889
 30
0.0
 11
82.640680514302986
 21
25.787290371165891
 31
0.0
  0
LINE
  5
45D3
  8
0
 10
83.798718514302962
 20
24.147062371165909
 30
0.0
 11
83.80168951430295
 21
24.1486783711659
 31
0.0
  0
LINE
  5
45D4
  8
0
 10
83.798718514302962
 20
27.427517371165852
 30
0.0
 11
83.80168951430295
 21
27.42590237116589
 31
0.0
  0
LINE
  5
45D5
  8
0
 10
89.474253514302916
 20
25.787290371165891
 30
0.0
 11
89.420997514302897
 21
25.202019371165861
 31
0.0
  0
LINE
  5
45D6
  8
0
 10
89.420997514302897
 20
26.372561371165929
 30
0.0
 11
89.474253514302916
 21
25.787290371165891
 31
0.0
  0
LINE
  5
45D7
  8
0
 10
89.420997514302897
 20
25.202019371165861
 30
0.0
 11
89.263275514302919
 21
24.639239371165939
 31
0.0
  0
LINE
  5
45D8
  8
0
 10
89.263275514302919
 20
26.935340371165879
 30
0.0
 11
89.420997514302897
 21
26.372561371165929
 31
0.0
  0
LINE
  5
45D9
  8
0
 10
89.263275514302919
 20
24.639239371165939
 30
0.0
 11
89.007148514302926
 21
24.120579371165871
 31
0.0
  0
LINE
  5
45DA
  8
0
 10
89.007148514302926
 20
27.45400037116589
 30
0.0
 11
89.263275514302919
 21
26.935340371165879
 31
0.0
  0
LINE
  5
45DB
  8
0
 10
89.007148514302926
 20
24.120579371165871
 30
0.0
 11
88.662459514302924
 21
23.665969371165868
 31
0.0
  0
LINE
  5
45DC
  8
0
 10
88.662459514302924
 20
27.908610371165889
 30
0.0
 11
89.007148514302926
 21
27.45400037116589
 31
0.0
  0
LINE
  5
45DD
  8
0
 10
89.903027514302906
 20
25.787290371165891
 30
0.0
 11
88.30282151430292
 21
22.78729037116592
 31
0.0
  0
LINE
  5
45DE
  8
0
 10
88.30282151430292
 20
28.78729037116587
 30
0.0
 11
89.903027514302906
 21
25.787290371165891
 31
0.0
  0
LINE
  5
45DF
  8
0
 10
88.242455514302918
 20
23.292881371165901
 30
0.0
 11
88.662459514302924
 21
23.665969371165868
 31
0.0
  0
LINE
  5
45E0
  8
0
 10
88.242455514302918
 20
28.281699371165882
 30
0.0
 11
88.662459514302924
 21
27.908610371165889
 31
0.0
  0
LINE
  5
45E1
  8
0
 10
87.763275514302904
 20
23.015651371165902
 30
0.0
 11
88.242455514302918
 21
23.292881371165901
 31
0.0
  0
LINE
  5
45E2
  8
0
 10
87.763275514302904
 20
28.558928371165859
 30
0.0
 11
88.242455514302918
 21
28.281699371165882
 31
0.0
  0
LINE
  5
45E3
  8
0
 10
87.243335514302927
 20
22.844934371165959
 30
0.0
 11
87.763275514302904
 21
23.015651371165902
 31
0.0
  0
LINE
  5
45E4
  8
0
 10
87.243335514302927
 20
28.729646371165831
 30
0.0
 11
87.763275514302904
 21
28.558928371165859
 31
0.0
  0
LINE
  5
45E5
  8
0
 10
86.702615514302948
 20
22.78729037116592
 30
0.0
 11
87.243335514302927
 21
22.844934371165959
 31
0.0
  0
LINE
  5
45E6
  8
0
 10
86.702615514302948
 20
28.78729037116587
 30
0.0
 11
87.243335514302927
 21
28.729646371165831
 31
0.0
  0
LINE
  5
45E7
  8
0
 10
86.161895514302927
 20
22.844934371165959
 30
0.0
 11
86.702615514302948
 21
22.78729037116592
 31
0.0
  0
LINE
  5
45E8
  8
0
 10
86.161895514302927
 20
28.729646371165831
 30
0.0
 11
86.702615514302948
 21
28.78729037116587
 31
0.0
  0
LINE
  5
45E9
  8
0
 10
85.641955514302936
 20
23.015651371165902
 30
0.0
 11
86.161895514302927
 21
22.844934371165959
 31
0.0
  0
LINE
  5
45EA
  8
0
 10
85.641955514302936
 20
28.558928371165859
 30
0.0
 11
86.161895514302927
 21
28.729646371165831
 31
0.0
  0
LINE
  5
45EB
  8
0
 10
85.223488514302943
 20
23.257755371165938
 30
0.0
 11
85.641955514302936
 21
23.015651371165902
 31
0.0
  0
LINE
  5
45EC
  8
0
 10
85.223488514302943
 20
28.316824371165879
 30
0.0
 11
85.641955514302936
 21
28.558928371165859
 31
0.0
  0
LINE
  5
45ED
  8
0
 10
90.602391514302909
 20
25.787290371165891
 30
0.0
 11
89.002185514302894
 21
22.78729037116592
 31
0.0
  0
LINE
  5
45EE
  8
0
 10
89.002185514302894
 20
22.78729037116592
 30
0.0
 11
85.102409514302948
 21
22.78729037116592
 31
0.0
  0
LINE
  5
45EF
  8
0
 10
89.002185514302894
 20
28.78729037116587
 30
0.0
 11
90.602391514302909
 21
25.787290371165891
 31
0.0
  0
LINE
  5
45F0
  8
0
 10
89.903027514302906
 20
25.787290371165891
 30
0.0
 11
90.602391514302909
 21
25.787290371165891
 31
0.0
  0
LINE
  5
45F1
  8
0
 10
85.102409514302948
 20
28.78729037116587
 30
0.0
 11
84.856016514302951
 21
28.325363371165889
 31
0.0
  0
LINE
  5
45F2
  8
0
 10
84.856016514302951
 20
23.249217371165891
 30
0.0
 11
85.102409514302948
 21
22.78729037116592
 31
0.0
  0
LINE
  5
45F3
  8
0
 10
85.102409514302948
 20
28.78729037116587
 30
0.0
 11
89.002185514302894
 21
28.78729037116587
 31
0.0
  0
LINE
  5
45F4
  8
0
 10
92.378186514302897
 20
29.787290371165891
 30
0.0
 11
92.378186514302897
 21
21.787290371165891
 31
0.0
  0
LINE
  5
45F5
  8
0
 10
88.629846514302912
 20
21.787290371165891
 30
0.0
 11
96.140680514302971
 21
21.787290371165891
 31
0.0
  0
LINE
  5
45F6
  8
0
 10
93.158182514302879
 20
25.787290371165891
 30
0.0
 11
96.140680514302971
 21
25.787290371165891
 31
0.0
  0
LINE
  5
45F7
  8
0
 10
96.140680514302971
 20
29.787290371165891
 30
0.0
 11
88.629846514302912
 21
29.787290371165891
 31
0.0
  0
ARC
  5
45F8
  8
0
 10
88.629846514302912
 20
25.787290371165891
 30
0.0
 40
3.999999999999968
 50
228.59037799730061
 51
270.0
  0
ARC
  5
45F9
  8
0
 10
88.629846514302912
 20
25.787290371165891
 30
0.0
 40
3.999999999999968
 50
90.0
 51
131.40962199959989
  0
POLYLINE
  5
45FA
  8
0
 66
     1
 10
0.0
 20
0.0
 30
0.0
  0
VERTEX
  5
5B01
  8
0
 10
85.049469514302956
 20
25.787290371165859
 30
0.0
  0
VERTEX
  5
5B02
  8
0
 10
85.016651514302936
 20
25.997545371165881
 30
0.0
  0
VERTEX
  5
5B03
  8
0
 10
84.972504514302926
 20
26.10303237116586
 30
0.0
  0
VERTEX
  5
5B04
  8
0
 10
84.909471514302936
 20
26.200811371165869
 30
0.0
  0
VERTEX
  5
5B05
  8
0
 10
84.829995514302936
 20
26.284924371165872
 30
0.0
  0
VERTEX
  5
5B06
  8
0
 10
84.738504514302946
 20
26.350797371165879
 30
0.0
  0
VERTEX
  5
5B07
  8
0
 10
84.640584514302944
 20
26.39607837116581
 30
0.0
  0
VERTEX
  5
5B08
  8
0
 10
84.507948514302925
 20
26.425019371165838
 30
0.0
  0
VERTEX
  5
5B09
  8
0
 10
84.384939514302928
 20
26.422360371165851
 30
0.0
  0
VERTEX
  5
5B0A
  8
0
 10
84.27801551430295
 20
26.396854371165841
 30
0.0
  0
VERTEX
  5
5B0B
  8
0
 10
84.161810514302942
 20
26.34108637116584
 30
0.0
  0
VERTEX
  5
5B0C
  8
0
 10
84.051240514302947
 20
26.251597371165879
 30
0.0
  0
VERTEX
  5
5B0D
  8
0
 10
83.963010514302965
 20
26.137047371165881
 30
0.0
  0
VERTEX
  5
5B0E
  8
0
 10
83.906376514302963
 20
26.017208371165921
 30
0.0
  0
VERTEX
  5
5B0F
  8
0
 10
83.878525514302964
 20
25.91355237116586
 30
0.0
  0
VERTEX
  5
5B10
  8
0
 10
83.866904514302945
 20
25.787290371165859
 30
0.0
  0
VERTEX
  5
5B11
  8
0
 10
83.899722514302937
 20
25.577035371165898
 30
0.0
  0
VERTEX
  5
5B12
  8
0
 10
83.943870514302944
 20
25.471547371165869
 30
0.0
  0
VERTEX
  5
5B13
  8
0
 10
84.006902514302936
 20
25.37376937116586
 30
0.0
  0
VERTEX
  5
5B14
  8
0
 10
84.086378514302965
 20
25.289656371165862
 30
0.0
  0
VERTEX
  5
5B15
  8
0
 10
84.177869514302955
 20
25.223783371165851
 30
0.0
  0
VERTEX
  5
5B16
  8
0
 10
84.275789514302943
 20
25.178502371165859
 30
0.0
  0
VERTEX
  5
5B17
  8
0
 10
84.408425514302962
 20
25.14956037116583
 30
0.0
  0
VERTEX
  5
5B18
  8
0
 10
84.531434514302958
 20
25.152220371165878
 30
0.0
  0
VERTEX
  5
5B19
  8
0
 10
84.638358514302936
 20
25.177725371165891
 30
0.0
  0
VERTEX
  5
5B1A
  8
0
 10
84.754563514302944
 20
25.233493371165888
 30
0.0
  0
VERTEX
  5
5B1B
  8
0
 10
84.865133514302954
 20
25.32298337116584
 30
0.0
  0
VERTEX
  5
5B1C
  8
0
 10
84.953363514302936
 20
25.437532371165862
 30
0.0
  0
VERTEX
  5
5B1D
  8
0
 10
85.009997514302938
 20
25.557371371165871
 30
0.0
  0
VERTEX
  5
5B1E
  8
0
 10
85.037849514302948
 20
25.661028371165919
 30
0.0
  0
VERTEX
  5
5B1F
  8
0
 10
85.049469514302956
 20
25.787290371165859
 30
0.0
  0
SEQEND
  5
5B20
  8
0
  0
ARC
  5
45FB
  8
0
 10
95.332298514302863
 20
27.787290371165842
 30
0.0
 40
2.9541119999999759
 50
137.38859800219899
 51
222.6114019998987
  0
ARC
  5
45FC
  8
0
 10
95.332297514302823
 20
23.787290371165948
 30
0.0
 40
2.9541109999999762
 50
137.38859300450039
 51
222.6114069976006
  0
LINE
  5
45FD
  8
¤¤¤ß˝u
 10
81.140682273319669
 20
25.7872710400659
 30
0.0
 11
96.445150387856586
 21
25.7872710400659
 31
0.0
  0
POINT
  5
45FE
  8
0
 10
31.75691629573878
 20
25.7872710400659
 30
0.0
1001
PNTFLAG
1000
endpoint
  0
LINE
  5
45FF
  8
¤¤¤ß˝u
 10
33.256916295738783
 20
25.7872710400659
 30
0.0
 11
15.249999864338781
 21
25.7872710400659
 31
0.0
  0
LINE
  5
4600
  8
0
 10
28.283819415438771
 20
27.701072640365901
 30
0.0
 11
28.334574063538771
 21
27.73453543766588
 31
0.0
  0
LINE
  5
4601
  8
0
 10
28.071296517738769
 20
23.851186292265901
 30
0.0
 11
28.119650373338761
 21
23.849132859865911
 31
0.0
  0
LINE
  5
4602
  8
0
 10
28.283819415438771
 20
23.873468103765909
 30
0.0
 11
28.334574063538771
 21
23.840005306465901
 31
0.0
  0
LINE
  5
4603
  8
0
 10
28.786792767438762
 20
25.7872710400659
 30
0.0
 11
28.805568914438769
 21
26.2854120792659
 31
0.0
  0
LINE
  5
4604
  8
0
 10
30.385636325638782
 20
25.7872710400659
 30
0.0
 11
30.398810623738761
 21
26.136807439665901
 31
0.0
  0
LINE
  5
4605
  8
0
 10
30.398810623738761
 20
25.43773464046588
 30
0.0
 11
30.385636325638782
 21
25.7872710400659
 31
0.0
  0
LINE
  5
4606
  8
0
 10
28.805568914438769
 20
25.289128664865899
 30
0.0
 11
28.786792767438762
 21
25.7872710400659
 31
0.0
  0
LINE
  5
4607
  8
0
 10
30.398810623738761
 20
26.136807439665901
 30
0.0
 11
30.437828509938779
 21
26.472910357065889
 31
0.0
  0
LINE
  5
4608
  8
0
 10
28.805568914438769
 20
26.2854120792659
 30
0.0
 11
28.861173243238799
 21
26.764410907465891
 31
0.0
  0
LINE
  5
4609
  8
0
 10
30.437828509938779
 20
25.101630387065882
 30
0.0
 11
30.398810623738761
 21
25.43773464046588
 31
0.0
  0
LINE
  5
460A
  8
0
 10
28.861173243238799
 20
24.81012983666588
 30
0.0
 11
28.805568914438769
 21
25.289128664865899
 31
0.0
  0
LINE
  5
460B
  8
0
 10
30.437828509938779
 20
26.472910357065889
 30
0.0
 11
30.50118832003875
 21
26.782666014365901
 31
0.0
  0
LINE
  5
460C
  8
0
 10
28.861173243238799
 20
26.764410907465891
 30
0.0
 11
28.951470825638779
 21
27.20585877756589
 31
0.0
  0
LINE
  5
460D
  8
0
 10
30.50118832003875
 20
24.791876065765891
 30
0.0
 11
30.437828509938779
 21
25.101630387065882
 31
0.0
  0
LINE
  5
460E
  8
0
 10
28.951470825638779
 20
24.368681966465889
 30
0.0
 11
28.861173243238799
 21
24.81012983666588
 31
0.0
  0
LINE
  5
460F
  8
0
 10
30.50118832003875
 20
26.782666014365901
 30
0.0
 11
30.586455861638751
 21
27.05416797746588
 31
0.0
  0
LINE
  5
4610
  8
0
 10
28.951470825638779
 20
27.20585877756589
 30
0.0
 11
29.072990732938781
 21
27.592791159165891
 31
0.0
  0
LINE
  5
4611
  8
0
 10
30.586455861638751
 20
24.52037276666589
 30
0.0
 11
30.50118832003875
 21
24.791876065765891
 31
0.0
  0
LINE
  5
4612
  8
0
 10
29.072990732938781
 20
23.98175092096589
 30
0.0
 11
28.951470825638779
 21
24.368681966465889
 31
0.0
  0
LINE
  5
4613
  8
0
 10
30.586455861638751
 20
27.05416797746588
 30
0.0
 11
30.690355262138791
 21
27.276984756965909
 31
0.0
  0
LINE
  5
4614
  8
0
 10
29.072990732938781
 20
27.592791159165891
 30
0.0
 11
29.221063644538759
 21
27.910337033665879
 31
0.0
  0
LINE
  5
4615
  8
0
 10
30.690355262138791
 20
24.2975559871659
 30
0.0
 11
30.586455861638751
 21
24.52037276666589
 31
0.0
  0
LINE
  5
4616
  8
0
 10
30.690355262138791
 20
27.276984756965909
 30
0.0
 11
30.80889321693876
 21
27.442551255265879
 31
0.0
  0
LINE
  5
4617
  8
0
 10
29.221063644538759
 20
23.664203710465902
 30
0.0
 11
29.072990732938781
 21
23.98175092096589
 31
0.0
  0
LINE
  5
4618
  8
0
 10
27.68277028793878
 20
25.7872710400659
 30
0.0
 11
27.69711759423878
 21
26.16794960456588
 31
0.0
  0
LINE
  5
4619
  8
0
 10
27.69711759423878
 20
25.406591139565879
 30
0.0
 11
27.68277028793878
 21
25.7872710400659
 31
0.0
  0
LINE
  5
461A
  8
0
 10
27.69711759423878
 20
26.16794960456588
 30
0.0
 11
27.739611752938771
 21
26.533998966765878
 31
0.0
  0
LINE
  5
461B
  8
0
 10
24.504696990638791
 20
25.7872710400659
 30
0.0
 11
24.526757026138771
 21
26.372542005065888
 31
0.0
  0
LINE
  5
461C
  8
0
 10
24.526757026138771
 20
25.202000074965898
 30
0.0
 11
24.504696990638791
 21
25.7872710400659
 31
0.0
  0
LINE
  5
461D
  8
0
 10
27.739611752938771
 20
25.04054177736591
 30
0.0
 11
27.69711759423878
 21
25.406591139565879
 31
0.0
  0
LINE
  5
461E
  8
0
 10
27.739611752938771
 20
26.533998966765878
 30
0.0
 11
27.80861616393878
 21
26.871352380465879
 31
0.0
  0
LINE
  5
461F
  8
0
 10
29.221063644538759
 20
27.910337033665879
 30
0.0
 11
29.38999819933878
 21
28.14629604716589
 31
0.0
  0
LINE
  5
4620
  8
0
 10
30.80889321693876
 20
24.131989488865901
 30
0.0
 11
30.690355262138791
 21
24.2975559871659
 31
0.0
  0
LINE
  5
4621
  8
0
 10
30.80889321693876
 20
27.442551255265879
 30
0.0
 11
30.937515301438761
 21
27.544508111465898
 31
0.0
  0
LINE
  5
4622
  8
0
 10
24.526757026138771
 20
26.372542005065888
 30
0.0
 11
24.59208743653878
 21
26.935321406565869
 31
0.0
  0
LINE
  5
4623
  8
0
 10
24.59208743653878
 20
24.639220673565909
 30
0.0
 11
24.526757026138771
 21
25.202000074965898
 31
0.0
  0
LINE
  5
4624
  8
0
 10
27.80861616393878
 20
24.703188363665902
 30
0.0
 11
27.739611752938771
 21
25.04054177736591
 31
0.0
  0
LINE
  5
4625
  8
0
 10
29.38999819933878
 20
23.428244696965891
 30
0.0
 11
29.221063644538759
 21
23.664203710465902
 31
0.0
  0
LINE
  5
4626
  8
0
 10
27.80861616393878
 20
26.871352380465879
 30
0.0
 11
27.901481538738778
 21
27.16704529946589
 31
0.0
  0
LINE
  5
4627
  8
0
 10
24.59208743653878
 20
26.935321406565869
 30
0.0
 11
24.698177877338779
 21
27.453980737065891
 31
0.0
  0
LINE
  5
4628
  8
0
 10
24.698177877338779
 20
24.120560007065869
 30
0.0
 11
24.59208743653878
 21
24.639220673565909
 31
0.0
  0
LINE
  5
4629
  8
0
 10
27.901481538738778
 20
24.407495444665901
 30
0.0
 11
27.80861616393878
 21
24.703188363665902
 31
0.0
  0
LINE
  5
462A
  8
0
 10
30.937515301438761
 20
27.544508111465898
 30
0.0
 11
31.071276978638782
 21
27.57893416496589
 31
0.0
  0
LINE
  5
462B
  8
0
 10
29.38999819933878
 20
28.14629604716589
 30
0.0
 11
29.57330277253876
 21
28.29159943026588
 31
0.0
  0
LINE
  5
462C
  8
0
 10
30.80889321693876
 20
24.131989488865901
 30
0.0
 11
30.937515301438761
 21
24.03003263266589
 31
0.0
  0
LINE
  5
462D
  8
0
 10
27.901481538738778
 20
27.16704529946589
 30
0.0
 11
28.014638084638779
 21
27.409713706065901
 31
0.0
  0
LINE
  5
462E
  8
0
 10
29.38999819933878
 20
23.428244696965891
 30
0.0
 11
29.57330277253876
 21
23.282942649865898
 31
0.0
  0
LINE
  5
462F
  8
0
 10
28.014638084638779
 20
24.164827038065891
 30
0.0
 11
27.901481538738778
 21
24.407495444665901
 31
0.0
  0
LINE
  5
4630
  8
0
 10
24.698177877338779
 20
27.453980737065891
 30
0.0
 11
24.840953548038769
 21
27.908590881365889
 31
0.0
  0
LINE
  5
4631
  8
0
 10
24.840953548038769
 20
23.665949862765888
 30
0.0
 11
24.698177877338779
 21
24.120560007065869
 31
0.0
  0
LINE
  5
4632
  8
0
 10
28.014638084638779
 20
27.409713706065901
 30
0.0
 11
28.143738457238769
 21
27.590032318665891
 31
0.0
  0
LINE
  5
4633
  8
0
 10
28.719257956738769
 20
27.965580642365889
 30
0.0
 11
28.888521167638771
 21
28.099752471765889
 31
0.0
  0
LINE
  5
4634
  8
0
 10
29.57330277253876
 20
28.29159943026588
 30
0.0
 11
29.763933970838771
 21
28.340661366065891
 31
0.0
  0
LINE
  5
4635
  8
0
 10
31.071276978638782
 20
27.57893416496589
 30
0.0
 11
31.205038655938768
 21
27.544508111465898
 31
0.0
  0
LINE
  5
4636
  8
0
 10
30.937515301438761
 20
24.03003263266589
 30
0.0
 11
31.071276978638782
 21
23.99560657916588
 31
0.0
  0
LINE
  5
4637
  8
0
 10
28.143738457238769
 20
23.98450842546589
 30
0.0
 11
28.014638084638779
 21
24.164827038065891
 31
0.0
  0
LINE
  5
4638
  8
0
 10
24.327093130338781
 20
25.7872710400659
 30
0.0
 11
24.989920243738801
 21
28.78727020506588
 31
0.0
  0
LINE
  5
4639
  8
0
 10
24.989920243738801
 20
22.78727053906589
 30
0.0
 11
24.327093130338781
 21
25.7872710400659
 31
0.0
  0
LINE
  5
463A
  8
0
 10
28.888521167638771
 20
28.099752471765889
 30
0.0
 11
29.214553315438771
 21
28.2642515058659
 31
0.0
  0
LINE
  5
463B
  8
0
 10
29.214553315438771
 20
28.2642515058659
 30
0.0
 11
29.40310168943876
 21
28.312779041565889
 31
0.0
  0
LINE
  5
463C
  8
0
 10
29.57330277253876
 20
23.282942649865898
 30
0.0
 11
29.763933970838771
 21
23.233879378065879
 31
0.0
  0
LINE
  5
463D
  8
0
 10
24.840953548038769
 20
27.908590881365889
 30
0.0
 11
25.014924823738781
 21
28.281679628665881
 31
0.0
  0
LINE
  5
463E
  8
0
 10
25.014924823738781
 20
23.29286111546589
 30
0.0
 11
24.840953548038769
 21
23.665949862765888
 31
0.0
  0
LINE
  5
463F
  8
0
 10
28.143738457238769
 20
27.590032318665891
 30
0.0
 11
28.283819415438771
 21
27.701072640365901
 31
0.0
  0
LINE
  5
4640
  8
0
 10
28.334574063538771
 20
27.73453543766588
 30
0.0
 11
28.888521167638771
 21
28.099752471765889
 31
0.0
  0
LINE
  5
4641
  8
0
 10
29.214553315438771
 20
23.310289238265899
 30
0.0
 11
29.40310168943876
 21
23.26176303846589
 31
0.0
  0
LINE
  5
4642
  8
0
 10
28.888521167638771
 20
23.474788272365888
 30
0.0
 11
29.214553315438771
 21
23.310289238265899
 31
0.0
  0
LINE
  5
4643
  8
0
 10
28.143738457238769
 20
23.98450842546589
 30
0.0
 11
28.283819415438771
 21
23.873468103765909
 31
0.0
  0
LINE
  5
4644
  8
0
 10
29.40310168943876
 20
28.312779041565889
 30
0.0
 11
29.763933970838771
 21
28.340661366065891
 31
0.0
  0
LINE
  5
4645
  8
0
 10
29.763933970838771
 20
28.340661366065891
 30
0.0
 11
29.954563833138788
 21
28.29159943026588
 31
0.0
  0
LINE
  5
4646
  8
0
 10
31.205038655938768
 20
27.544508111465898
 30
0.0
 11
31.33365940443878
 21
27.442551255265879
 31
0.0
  0
LINE
  5
4647
  8
0
 10
29.954563833138788
 20
28.29159943026588
 30
0.0
 11
31.205038655938768
 21
27.544508111465898
 31
0.0
  0
LINE
  5
4648
  8
0
 10
31.071276978638782
 20
23.99560657916588
 30
0.0
 11
31.205038655938768
 21
24.03003263266589
 31
0.0
  0
LINE
  5
4649
  8
0
 10
28.334574063538771
 20
23.840005306465901
 30
0.0
 11
28.888521167638771
 21
23.474788272365888
 31
0.0
  0
LINE
  5
464A
  8
0
 10
29.40310168943876
 20
23.26176303846589
 30
0.0
 11
29.763933970838771
 21
23.233879378065879
 31
0.0
  0
LINE
  5
464B
  8
0
 10
29.763933970838771
 20
23.233879378065879
 30
0.0
 11
29.954563833138788
 21
23.282942649865898
 31
0.0
  0
LINE
  5
464C
  8
0
 10
25.014924823738781
 20
28.281679628665881
 30
0.0
 11
25.213407695238772
 21
28.558909024765889
 31
0.0
  0
LINE
  5
464D
  8
0
 10
25.213407695238772
 20
23.015631719365889
 30
0.0
 11
25.014924823738781
 21
23.29286111546589
 31
0.0
  0
LINE
  5
464E
  8
0
 10
23.301505887338791
 20
22.78727053906589
 30
0.0
 11
22.638678773938778
 21
25.7872710400659
 31
0.0
  0
LINE
  5
464F
  8
0
 10
22.638678773938778
 20
25.7872710400659
 30
0.0
 11
24.327093130338781
 21
25.7872710400659
 31
0.0
  0
LINE
  5
4650
  8
0
 10
22.638678773938778
 20
25.7872710400659
 30
0.0
 11
23.301505887338791
 21
28.78727020506588
 31
0.0
  0
LINE
  5
4651
  8
0
 10
31.452197359238781
 20
27.276984756965909
 30
0.0
 11
31.33365940443878
 21
27.442551255265879
 31
0.0
  0
LINE
  5
4652
  8
0
 10
31.205038655938768
 20
24.03003263266589
 30
0.0
 11
31.33365940443878
 21
24.131989488865901
 31
0.0
  0
LINE
  5
4653
  8
0
 10
29.954563833138788
 20
23.282942649865898
 30
0.0
 11
31.205038655938768
 21
24.03003263266589
 31
0.0
  0
LINE
  5
4654
  8
0
 10
28.119650373338761
 20
27.725409220265892
 30
0.0
 11
28.334574063538771
 21
27.73453543766588
 31
0.0
  0
LINE
  5
4655
  8
0
 10
28.119650373338761
 20
23.849132859865911
 30
0.0
 11
28.334574063538771
 21
23.840005306465901
 31
0.0
  0
LINE
  5
4656
  8
0
 10
25.213407695238772
 20
28.558909024765889
 30
0.0
 11
25.428773601538779
 21
28.72962580386589
 31
0.0
  0
LINE
  5
4657
  8
0
 10
25.213407695238772
 20
23.015631719365889
 30
0.0
 11
25.428773601538779
 21
22.844914940265902
 31
0.0
  0
LINE
  5
4658
  8
0
 10
31.556096759738761
 20
27.05416797746588
 30
0.0
 11
31.452197359238781
 21
27.276984756965909
 31
0.0
  0
LINE
  5
4659
  8
0
 10
31.33365940443878
 20
24.131989488865901
 30
0.0
 11
31.452197359238781
 21
24.2975559871659
 31
0.0
  0
LINE
  5
465A
  8
0
 10
27.878527719038772
 20
27.82381097986589
 30
0.0
 11
28.119650373338761
 21
27.725409220265892
 31
0.0
  0
LINE
  5
465B
  8
0
 10
27.878527719038772
 20
23.750729764265898
 30
0.0
 11
28.119650373338761
 21
23.849132859865911
 31
0.0
  0
LINE
  5
465C
  8
0
 10
31.641365637338779
 20
26.782666014365901
 30
0.0
 11
31.556096759738761
 21
27.05416797746588
 31
0.0
  0
LINE
  5
465D
  8
0
 10
31.452197359238781
 20
24.2975559871659
 30
0.0
 11
31.556096759738761
 21
24.52037276666589
 31
0.0
  0
LINE
  5
465E
  8
0
 10
25.428773601538779
 20
28.72962580386589
 30
0.0
 11
25.652747357138779
 21
28.78727020506588
 31
0.0
  0
LINE
  5
465F
  8
0
 10
25.428773601538779
 20
22.844914940265902
 30
0.0
 11
25.652747357138779
 21
22.78727053906589
 31
0.0
  0
LINE
  5
4660
  8
0
 10
31.70472544743879
 20
26.472910357065889
 30
0.0
 11
31.641365637338779
 21
26.782666014365901
 31
0.0
  0
LINE
  5
4661
  8
0
 10
30.796742295038761
 20
24.148962035565901
 30
0.0
 11
30.79864075133877
 21
24.149890555665891
 31
0.0
  0
LINE
  5
4662
  8
0
 10
31.556096759738761
 20
24.52037276666589
 30
0.0
 11
31.641365637338779
 21
24.791876065765891
 31
0.0
  0
LINE
  5
4663
  8
0
 10
31.74374199763875
 20
26.136807439665901
 30
0.0
 11
31.70472544743879
 21
26.472910357065889
 31
0.0
  0
LINE
  5
4664
  8
0
 10
31.641365637338779
 20
24.791876065765891
 30
0.0
 11
31.70472544743879
 21
25.101630387065882
 31
0.0
  0
LINE
  5
4665
  8
0
 10
25.876721112738782
 20
28.72962580386589
 30
0.0
 11
27.878527719038772
 21
27.82381097986589
 31
0.0
  0
LINE
  5
4666
  8
0
 10
25.652747357138779
 20
28.78727020506588
 30
0.0
 11
25.876721112738782
 21
28.72962580386589
 31
0.0
  0
LINE
  5
4667
  8
0
 10
25.652747357138779
 20
22.78727053906589
 30
0.0
 11
25.876721112738782
 21
22.844914940265902
 31
0.0
  0
LINE
  5
4668
  8
0
 10
31.75691629573878
 20
25.7872710400659
 30
0.0
 11
31.74374199763875
 21
26.136807439665901
 31
0.0
  0
LINE
  5
4669
  8
0
 10
31.70472544743879
 20
25.101630387065882
 30
0.0
 11
31.74374199763875
 21
25.43773464046588
 31
0.0
  0
LINE
  5
466A
  8
0
 10
31.74374199763875
 20
25.43773464046588
 30
0.0
 11
31.75691629573878
 21
25.7872710400659
 31
0.0
  0
LINE
  5
466B
  8
0
 10
25.876721112738782
 20
22.844914940265902
 30
0.0
 11
27.878527719038772
 21
23.750729764265898
 31
0.0
  0
LINE
  5
466C
  8
0
 10
23.301505887338791
 20
28.78727020506588
 30
0.0
 11
26.31557447053876
 21
28.78727020506588
 31
0.0
  0
LINE
  5
466D
  8
0
 10
26.31557447053876
 20
22.78727053906589
 30
0.0
 11
26.378473360538781
 21
23.071957488365889
 31
0.0
  0
LINE
  5
466E
  8
0
 10
26.378473360538781
 20
28.502583255765899
 30
0.0
 11
26.31557447053876
 21
28.78727020506588
 31
0.0
  0
LINE
  5
466F
  8
0
 10
23.301505887338791
 20
22.78727053906589
 30
0.0
 11
26.31557447053876
 21
22.78727053906589
 31
0.0
  0
LINE
  5
4670
  8
0
 10
24.886751635338769
 20
22.78727053906589
 30
0.0
 11
24.309401815538781
 21
21.78727037206589
 31
0.0
  0
LINE
  5
4671
  8
0
 10
24.309401815538781
 20
21.78727037206589
 30
0.0
 11
19.690599249138781
 21
21.78727037206589
 31
0.0
  0
LINE
  5
4672
  8
0
 10
17.381198633938791
 20
25.7872710400659
 30
0.0
 11
19.690599249138781
 21
21.78727037206589
 31
0.0
  0
LINE
  5
4673
  8
0
 10
19.690599249138781
 20
29.78727037206589
 30
0.0
 11
17.381198633938791
 21
25.7872710400659
 31
0.0
  0
LINE
  5
4674
  8
0
 10
19.690599249138781
 20
29.78727037206589
 30
0.0
 11
24.30940047953878
 21
29.78727037206589
 31
0.0
  0
LINE
  5
4675
  8
0
 10
24.886751635338769
 20
28.78727020506588
 30
0.0
 11
24.30940047953878
 21
29.78727037206589
 31
0.0
  0
ARC
  5
4676
  8
0
 10
21.999999864338779
 20
25.7872710400659
 30
0.0
 40
3.999999331999998
 50
48.590377998899982
 51
311.4096220031999
  0
POLYLINE
  5
4677
  8
0
 66
     1
 10
0.0
 20
0.0
 30
0.0
  0
VERTEX
  5
5B21
  8
0
 10
30.95168759163878
 20
25.787271040065889
 30
0.0
  0
VERTEX
  5
5B22
  8
0
 10
30.985235893038801
 20
25.57023379756588
 30
0.0
  0
VERTEX
  5
5B23
  8
0
 10
31.018126882238789
 20
25.507329563565911
 30
0.0
  0
VERTEX
  5
5B24
  8
0
 10
31.054697216038761
 20
25.47778792686589
 30
0.0
  0
VERTEX
  5
5B25
  8
0
 10
31.088674373438781
 20
25.478095206865909
 30
0.0
  0
VERTEX
  5
5B26
  8
0
 10
31.12516721923879
 20
25.508299499665899
 30
0.0
  0
VERTEX
  5
5B27
  8
0
 10
31.156511120238811
 20
25.568069477165881
 30
0.0
  0
VERTEX
  5
5B28
  8
0
 10
31.185897780938799
 20
25.698142457865892
 30
0.0
  0
VERTEX
  5
5B29
  8
0
 10
31.190865029738809
 20
25.787271040065889
 30
0.0
  0
VERTEX
  5
5B2A
  8
0
 10
31.157318064338799
 20
26.00430694656588
 30
0.0
  0
VERTEX
  5
5B2B
  8
0
 10
31.124425739138761
 20
26.067211180565899
 30
0.0
  0
VERTEX
  5
5B2C
  8
0
 10
31.087855405338789
 20
26.096752817265902
 30
0.0
  0
VERTEX
  5
5B2D
  8
0
 10
31.053879583938802
 20
26.096445537165881
 30
0.0
  0
VERTEX
  5
5B2E
  8
0
 10
31.017385402138789
 20
26.066241244365891
 30
0.0
  0
VERTEX
  5
5B2F
  8
0
 10
30.986042837138768
 20
26.006471266865891
 30
0.0
  0
VERTEX
  5
5B30
  8
0
 10
30.95665484043877
 20
25.876398286265889
 30
0.0
  0
VERTEX
  5
5B31
  8
0
 10
30.95168759163878
 20
25.787271040065889
 30
0.0
  0
SEQEND
  5
5B32
  8
0
  0
ARC
  5
4678
  8
0
 10
21.999999864338779
 20
25.7872710400659
 30
0.0
 40
5.2499999999999956
 50
30.243297773999931
 51
329.75669075929989
  0
LINE
  5
4679
  8
0
 10
23.600780923696981
 20
30.7872710400659
 30
0.0
 11
41.999999864338768
 21
30.7872710400659
 31
0.0
  0
LINE
  5
467A
  8
0
 10
108.75635265494449
 20
30.787271040065779
 30
0.0
 11
96.140680514302971
 21
30.787271040065779
 31
0.0
  0
LINE
  5
467B
  8
0
 10
97.640680514302986
 20
29.287271040065779
 30
0.0
 11
96.140680514302971
 21
29.287271040065779
 31
0.0
  0
INSERT
  5
467C
  8
0
  2
I1
 10
96.140680514302971
 20
18.787267096665801
 30
0.0
  0
LINE
  5
467D
  8
0
 10
108.75635265494449
 20
7.8872670966657736
 30
0.0
 11
96.140680514302971
 21
7.8872670966657736
 31
0.0
  0
LINE
  5
467E
  8
0
 10
108.75635265494449
 20
6.3872670966657754
 30
0.0
 11
96.140680514302971
 21
6.3872670966657754
 31
0.0
  0
LINE
  5
467F
  8
0
 10
96.140680514302971
 20
6.3872670966657727
 30
0.0
 11
96.140680514302971
 21
30.787271040065779
 31
0.0
  0
LINE
  5
4680
  8
µę˝u
 10
154.1063526549446
 20
30.787271040065779
 30
0.0
 11
155.1063526549446
 21
31.787271040065779
 31
0.0
  0
LINE
  5
4681
  8
µę˝u
 10
149.90635265494461
 20
30.787271040065779
 30
0.0
 11
148.90635265494461
 21
31.787271040065779
 31
0.0
  0
LINE
  5
4682
  8
µę˝u
 10
149.90635265494461
 20
30.787271040065779
 30
0.0
 11
154.1063526549446
 21
30.787271040065779
 31
0.0
  0
LINE
  5
4683
  8
µę˝u
 10
149.90635265494461
 20
22.787271040065779
 30
0.0
 11
154.10635265494449
 21
22.787271040065779
 31
0.0
  0
LINE
  5
4684
  8
µę˝u
 10
149.50635265494461
 20
25.18727104006576
 30
0.0
 11
154.50635265494461
 21
25.18727104006576
 31
0.0
  0
LINE
  5
4685
  8
µę˝u
 10
154.1063526549446
 20
30.787271040065779
 30
0.0
 11
154.10635265494449
 21
22.787271040065779
 31
0.0
  0
LINE
  5
4686
  8
µę˝u
 10
154.50635265494461
 20
31.18727104006576
 30
0.0
 11
154.50635265494461
 21
25.18727104006576
 31
0.0
  0
LINE
  5
4687
  8
µę˝u
 10
149.90635265494461
 20
30.787271040065779
 30
0.0
 11
149.90635265494461
 21
22.787271040065779
 31
0.0
  0
LINE
  5
4688
  8
µę˝u
 10
149.50635265494461
 20
31.18727104006576
 30
0.0
 11
149.50635265494461
 21
25.18727104006576
 31
0.0
  0
LINE
  5
4689
  8
µę˝u
 10
152.00635265494469
 20
21.57483547476744
 30
0.0
 11
149.90635265494461
 21
22.787271040065889
 31
0.0
  0
LINE
  5
468A
  8
µę˝u
 10
152.00635265494461
 20
21.57483547476744
 30
0.0
 11
154.10635265494449
 21
22.787271040065779
 31
0.0
  0
LINE
  5
468B
  8
¤¤¤ß˝u
 10
152.00635265494449
 20
32.287271040065782
 30
0.0
 11
152.00635265494469
 21
21.0748354747675
 31
0.0
  0
LINE
  5
468C
  8
0
 10
159.25635265494449
 20
6.3872710400657482
 30
0.0
 11
159.25635265494449
 21
31.787271040065779
 31
0.0
  0
LINE
  5
468D
  8
µę˝u
 10
118.1063526549446
 20
30.787271040065779
 30
0.0
 11
119.1063526549446
 21
31.787271040065779
 31
0.0
  0
LINE
  5
468E
  8
µę˝u
 10
113.9063526549446
 20
30.787271040065779
 30
0.0
 11
118.1063526549446
 21
30.787271040065779
 31
0.0
  0
LINE
  5
468F
  8
µę˝u
 10
113.9063526549446
 20
22.787271040065779
 30
0.0
 11
118.1063526549445
 21
22.787271040065779
 31
0.0
  0
LINE
  5
4690
  8
µę˝u
 10
118.50635265494461
 20
31.18727104006576
 30
0.0
 11
118.50635265494461
 21
25.18727104006576
 31
0.0
  0
LINE
  5
4691
  8
µę˝u
 10
118.1063526549446
 20
30.787271040065779
 30
0.0
 11
118.1063526549445
 21
22.787271040065779
 31
0.0
  0
LINE
  5
4692
  8
µę˝u
 10
113.9063526549446
 20
30.787271040065779
 30
0.0
 11
113.9063526549446
 21
22.787271040065779
 31
0.0
  0
LINE
  5
4693
  8
µę˝u
 10
116.00635265494471
 20
21.57483547476744
 30
0.0
 11
113.9063526549446
 21
22.787271040065889
 31
0.0
  0
LINE
  5
4694
  8
¤¤¤ß˝u
 10
116.00635265494449
 20
32.287271040065782
 30
0.0
 11
116.00635265494471
 21
21.0748354747675
 31
0.0
  0
LINE
  5
4695
  8
µę˝u
 10
116.00635265494461
 20
21.57483547476744
 30
0.0
 11
118.1063526549445
 21
22.787271040065779
 31
0.0
  0
LINE
  5
4696
  8
0
 10
108.75635265494449
 20
29.287274983365819
 30
0.0
 11
97.640680514302986
 21
29.287274983365819
 31
0.0
  0
CIRCLE
  5
4697
  8
0
 10
102.340680514303
 20
24.787271040065711
 30
0.0
 40
1.0
  0
LINE
  5
4698
  8
¤¤¤ß˝u
 10
98.590680514303017
 20
24.787271040065711
 30
0.0
 11
106.090680514303
 21
24.787271040065711
 31
0.0
  0
LINE
  5
4699
  8
µę˝u
 10
113.50635265494461
 20
31.18727104006576
 30
0.0
 11
113.50635265494461
 21
25.18727104006576
 31
0.0
  0
LINE
  5
469A
  8
¤¤¤ß˝u
 10
102.340680514303
 20
21.037271040065711
 30
0.0
 11
102.340680514303
 21
28.537271040065711
 31
0.0
  0
CIRCLE
  5
469B
  8
0
 10
102.340680514303
 20
24.787271040065711
 30
0.0
 40
3.144781861999999
  0
CIRCLE
  5
469C
  8
0
 10
102.340680514303
 20
24.787271040065711
 30
0.0
 40
2.4999999728999991
  0
CIRCLE
  5
469D
  8
0
 10
102.340680514303
 20
24.787271040065711
 30
0.0
 40
2.8277919627000001
  0
LINE
  5
469E
  8
µę˝u
 10
113.9063526549446
 20
30.787271040065779
 30
0.0
 11
112.9063526549446
 21
31.787271040065779
 31
0.0
  0
LINE
  5
469F
  8
µę˝u
 10
113.50635265494461
 20
25.18727104006576
 30
0.0
 11
118.50635265494461
 21
25.18727104006576
 31
0.0
  0
LINE
  5
46A0
  8
0
 10
97.640680514302986
 20
6.387271040065805
 30
0.0
 11
97.640680514302986
 21
30.78727498336583
 31
0.0
  0
LINE
  5
46A1
  8
0
 10
108.75635265494449
 20
6.3872710400657482
 30
0.0
 11
108.75635265494449
 21
31.787271040065779
 31
0.0
  0
LINE
  5
46A2
  8
0
 10
159.25635265494449
 20
30.787271040065779
 30
0.0
 11
108.75635265494449
 21
30.787271040065779
 31
0.0
  0
LINE
  5
46A3
  8
0
 10
159.25635265494449
 20
31.787271040065779
 30
0.0
 11
108.75635265494449
 21
31.787271040065779
 31
0.0
  0
LINE
  5
46A4
  8
0
 10
159.25635265494449
 20
7.8872710400658042
 30
0.0
 11
108.75635265494449
 21
7.8872710400658042
 31
0.0
  0
LINE
  5
46A5
  8
0
 10
108.75635265494449
 20
6.3872710400657482
 30
0.0
 11
159.25635265494449
 21
6.3872710400657482
 31
0.0
  0
LINE
  5
46A6
  8
0
 10
96.140680514302971
 20
9.236935140047942
 30
0.0
 11
93.772794059114645
 21
9.2369351400479403
 31
0.0
  0
LINE
  5
46A7
  8
0
 10
96.140680514302971
 20
11.666893040048141
 30
0.0
 11
93.221034204258444
 21
11.666893040048141
 31
0.0
  0
LINE
  5
46A8
  8
0
 10
96.140680514302986
 20
12.88906963887564
 30
0.0
 11
93.710348446700905
 21
12.88906963887564
 31
0.0
  0
LINE
  5
46A9
  8
0
 10
96.140680514302971
 20
14.594736591791049
 30
0.0
 11
94.393234319107194
 21
14.594736591791049
 31
0.0
  0
LINE
  5
46AA
  8
0
 10
96.140680514302971
 20
16.446888040048009
 30
0.0
 11
93.835660209973824
 21
16.446888040048009
 31
0.0
  0
LINE
  5
46AB
  8
0
 10
96.140680514302971
 20
15.116855040047939
 30
0.0
 11
94.260278781613309
 21
15.116855040047939
 31
0.0
  0
LINE
  5
46AC
  8
0
 10
95.577928259808175
 20
16.981471437126348
 30
0.0
 11
93.664992235202092
 21
16.981471437126348
 31
0.0
  0
LINE
  5
46AD
  8
0
 10
95.256352654944521
 20
18.67278470508672
 30
0.0
 11
93.12503343415267
 21
18.67278470508672
 31
0.0
  0
LINE
  5
46AE
  8
0
 10
95.256352654944521
 20
19.286879790648051
 30
0.0
 11
64.900920696363642
 21
19.286879790648129
 31
0.0
  0
LINE
  5
46AF
  8
«Řşc˝u
 10
92.994089037774515
 20
7.1185292840210153
 30
0.0
 11
93.883778896188801
 21
1.7868797906479601
 31
0.0
  0
LINE
  5
46B0
  8
«Řşc˝u
 10
94.151156346090602
 20
10.26624002760383
 30
0.0
 11
92.994089037774515
 21
7.1185292840210153
 31
0.0
  0
LINE
  5
46B1
  8
«Řşc˝u
 10
93.151634482858753
 20
11.49355102769124
 30
0.0
 11
94.151156346090602
 21
10.26624002760383
 31
0.0
  0
LINE
  5
46B2
  8
«Řşc˝u
 10
94.412001832414475
 20
14.64161283938984
 30
0.0
 11
93.151634482858753
 21
11.49355102769124
 31
0.0
  0
LINE
  5
46B3
  8
«Řşc˝u
 10
92.928981021857723
 20
19.286879790648051
 30
0.0
 11
94.412001832414475
 21
14.64161283938984
 31
0.0
  0
LINE
  5
46B4
  8
µę˝u
 10
148.40077154446121
 20
1.787075408477512
 30
0.0
 11
147.90080342356279
 21
2.2870570953618379
 31
0.0
  0
LINE
  5
46B5
  8
µę˝u
 10
141.40101845492751
 20
1.787075408477427
 30
0.0
 11
141.9010408402012
 21
2.287097793751236
 31
0.0
  0
LINE
  5
46B6
  8
µę˝u
 10
141.90098318201979
 20
2.2870977937511219
 30
0.0
 11
147.90104084020109
 21
2.2870977937511219
 31
0.0
  0
LINE
  5
46B7
  8
µę˝u
 10
147.90104084020109
 20
6.3872710400657482
 30
0.0
 11
147.90104084020109
 21
2.287097793751236
 31
0.0
  0
LINE
  5
46B8
  8
µę˝u
 10
141.9010408402012
 20
6.3872710400657482
 30
0.0
 11
141.9010408402012
 21
2.287097793751236
 31
0.0
  0
LINE
  5
46B9
  8
0
 10
205.6748100141215
 20
19.286879790648129
 30
0.0
 11
172.75635265494449
 21
19.286879790647891
 31
0.0
  0
LINE
  5
46BA
  8
0
 10
205.6748100141215
 20
18.67278470508683
 30
0.0
 11
172.75635265494449
 21
18.672784705086741
 31
0.0
  0
LINE
  5
46BB
  8
0
 10
205.6748100141215
 20
16.981471437126409
 30
0.0
 11
172.4347770500807
 21
16.98147143712616
 31
0.0
  0
LINE
  5
46BC
  8
0
 10
205.6748100141215
 20
16.446888040048009
 30
0.0
 11
171.87202479558599
 21
16.446888040048009
 31
0.0
  0
LINE
  5
46BD
  8
0
 10
205.6748100141215
 20
15.116855040047939
 30
0.0
 11
171.87202479558599
 21
15.116855040047939
 31
0.0
  0
LINE
  5
46BE
  8
0
 10
205.6748100141215
 20
14.594736591791049
 30
0.0
 11
171.87202479558599
 21
14.594736591791049
 31
0.0
  0
LINE
  5
46BF
  8
0
 10
205.6748100141215
 20
12.88906963887564
 30
0.0
 11
171.87202479558599
 21
12.88906963887564
 31
0.0
  0
LINE
  5
46C0
  8
0
 10
205.6748100141215
 20
11.66689304004791
 30
0.0
 11
171.87202479558599
 21
11.66689304004816
 31
0.0
  0
LINE
  5
46C1
  8
0
 10
205.6748100141215
 20
9.2369351400480522
 30
0.0
 11
171.87202479558599
 21
9.2369351400477608
 31
0.0
  0
LINE
  5
46C2
  8
¤¤¤ß˝u
 10
185.67481001412159
 20
1.286879790648022
 30
0.0
 11
185.67481001412159
 21
19.886879790648042
 31
0.0
  0
LINE
  5
46C3
  8
0
 10
205.6748100141215
 20
1.786879790648022
 30
0.0
 11
205.6748100141215
 21
19.286879790648019
 31
0.0
  0
LINE
  5
46C4
  8
¤¤¤ß˝u
 10
144.9009206963637
 20
1.286879790648022
 30
0.0
 11
144.9009206963637
 21
6.7920010893402099
 31
0.0
  0
LINE
  5
46C5
  8
¤¤¤ß˝u
 10
84.900920696363755
 20
1.286879790648022
 30
0.0
 11
84.900920696363755
 21
19.886879790648042
 31
0.0
  0
LINE
  5
46C6
  8
0
 10
64.900920696363642
 20
1.786879790648022
 30
0.0
 11
64.900920696363642
 21
19.286879790648019
 31
0.0
  0
LINE
  5
46C7
  8
0
 10
205.6748100141215
 20
5.7870269400479009
 30
0.0
 11
93.216276211436281
 21
5.7870269400479009
 31
0.0
  0
LINE
  5
46C8
  8
0
 10
205.6748100141215
 20
2.7872710400480472
 30
0.0
 11
93.716844076084087
 21
2.7872710400480472
 31
0.0
  0
LINE
  5
46C9
  8
0
 10
205.6748100141215
 20
1.7868797906477409
 30
0.0
 11
64.900920696363642
 21
1.786879790648022
 31
0.0
  0
LINE
  5
46CA
  8
«ü˝u
 10
3.7506904375723371
 20
20.224400472563051
 30
0.0
 11
3.7505467459796691
 21
19.295455976854772
 31
0.0
  0
LINE
  5
46CB
  8
«ü˝u
 10
3.7505467459796691
 20
19.295455976854772
 30
0.0
 11
5.7334812455986528
 21
19.295197543542258
 31
0.0
  0
ARC
  5
46CC
  8
«ü˝u
 10
3.2499998643387822
 20
18.7872710400659
 30
0.0
 40
1.5214629431971149
 50
19.507530631702149
 51
70.786756774814137
  0
LINE
  5
46CD
  8
«ü˝u
 10
2.734579246372582
 20
20.22455774426555
 30
0.0
 11
2.7344355549832282
 21
19.29561324856213
 31
0.0
  0
ARC
  5
46CE
  8
«ü˝u
 10
3.2499998643387822
 20
18.7872710400659
 30
0.0
 40
1.5214629431971149
 50
109.8017739016627
 51
160.47474608153149
  0
LINE
  5
46CF
  8
«ü˝u
 10
2.7344355549832282
 20
19.29561324856213
 30
0.0
 11
0.7555733655550441
 21
19.295968014737529
 31
0.0
  0
LINE
  5
46D0
  8
«ü˝u
 10
3.7503895710910689
 20
18.279342746815779
 30
0.0
 11
3.7502458797014881
 21
17.350398251112129
 31
0.0
  0
LINE
  5
46D1
  8
«ü˝u
 10
3.7503895710910689
 20
18.279342746815779
 30
0.0
 11
5.7333240707100606
 21
18.279084313503041
 31
0.0
  0
ARC
  5
46D2
  8
«ü˝u
 10
3.2499998643387822
 20
18.7872710400659
 30
0.0
 40
1.5214629431971149
 50
289.19551791561418
 51
340.4929998358225
  0
LINE
  5
46D3
  8
«ü˝u
 10
2.7342783800944011
 20
18.27950001852291
 30
0.0
 11
2.734134688501733
 21
17.350555522814869
 31
0.0
  0
ARC
  5
46D4
  8
«ü˝u
 10
3.2499998643387822
 20
18.7872710400659
 30
0.0
 40
1.5214629431971149
 50
199.48927687566041
 51
250.1805007887744
  0
LINE
  5
46D5
  8
«ü˝u
 10
2.7342783800944011
 20
18.27950001852291
 30
0.0
 11
0.7554161906662174
 21
18.279854784698319
 31
0.0
  0
CIRCLE
  5
46D6
  8
«ü˝u
 10
3.2499998643387822
 20
18.7872710400659
 30
0.0
 40
2.5394724361229049
  0
ARC
  5
46D7
  8
«ü˝u
 10
40.749999864338768
 20
18.7872710400659
 30
0.0
 40
1.5214629431971149
 50
19.507530631702149
 51
70.786756774814137
  0
ARC
  5
46D8
  8
«ü˝u
 10
40.749999864338768
 20
18.7872710400659
 30
0.0
 40
1.5214629431971149
 50
289.19551791561418
 51
340.4929998358225
  0
ARC
  5
46D9
  8
«ü˝u
 10
40.749999864338768
 20
18.7872710400659
 30
0.0
 40
1.5214629431971149
 50
199.48927687566041
 51
250.1805007887744
  0
ARC
  5
46DA
  8
«ü˝u
 10
40.749999864338768
 20
18.7872710400659
 30
0.0
 40
1.5214629431971149
 50
109.8017739016627
 51
160.47474608153149
  0
CIRCLE
  5
46DB
  8
«ü˝u
 10
40.749999864338768
 20
18.7872710400659
 30
0.0
 40
2.5394724361229049
  0
LINE
  5
46DC
  8
«ü˝u
 10
41.250690437572331
 20
20.224400472563051
 30
0.0
 11
41.250546745979662
 21
19.295455976854772
 31
0.0
  0
LINE
  5
46DD
  8
«ü˝u
 10
40.234579246372583
 20
20.22455774426555
 30
0.0
 11
40.234435554983243
 21
19.29561324856213
 31
0.0
  0
LINE
  5
46DE
  8
«ü˝u
 10
41.25038957109107
 20
18.279342746815779
 30
0.0
 11
41.250245879701467
 21
17.350398251112129
 31
0.0
  0
LINE
  5
46DF
  8
«ü˝u
 10
40.234278380094409
 20
18.27950001852291
 30
0.0
 11
40.23413468850174
 21
17.350555522814869
 31
0.0
  0
LINE
  5
46E0
  8
«ü˝u
 10
41.25038957109107
 20
18.279342746815779
 30
0.0
 11
43.233324070710047
 21
18.279084313503041
 31
0.0
  0
LINE
  5
46E1
  8
«ü˝u
 10
41.250546745979662
 20
19.295455976854772
 30
0.0
 11
43.233481245598647
 21
19.295197543542258
 31
0.0
  0
LINE
  5
46E2
  8
«ü˝u
 10
40.234278380094409
 20
18.27950001852291
 30
0.0
 11
38.25541619066621
 21
18.279854784698319
 31
0.0
  0
LINE
  5
46E3
  8
«ü˝u
 10
40.234435554983243
 20
19.29561324856213
 30
0.0
 11
38.255573365555037
 21
19.295968014737529
 31
0.0
  0
LINE
  5
46E4
  8
0
 10
42.999999864338768
 20
31.7872710400659
 30
0.0
 11
43.999999864338768
 21
30.7872710400659
 31
0.0
  0
LINE
  5
46E5
  8
0
 10
43.499999864338783
 20
29.2872710400659
 30
0.0
 11
41.999999864338768
 21
30.7872710400659
 31
0.0
  0
LINE
  5
46E6
  8
µę˝u
 10
35.899999864338866
 20
30.7872710400659
 30
0.0
 11
40.099999864338912
 21
30.7872710400659
 31
0.0
  0
LINE
  5
46E7
  8
µę˝u
 10
40.099999864338912
 20
30.7872710400659
 30
0.0
 11
41.099999864338912
 21
31.7872710400659
 31
0.0
  0
LINE
  5
46E8
  8
0
 10
33.79289308315235
 20
31.5801642588794
 30
0.0
 11
33.999999864338783
 21
31.7872710400659
 31
0.0
  0
LINE
  5
46E9
  8
µę˝u
 10
35.899999864338866
 20
30.7872710400659
 30
0.0
 11
34.899999864338866
 21
31.7872710400659
 31
0.0
  0
LINE
  5
46EA
  8
0
 10
33.085786301965669
 20
31.28727104006596
 30
0.0
 11
26.914213426711889
 21
31.2872710400659
 31
0.0
  0
ARC
  5
46EB
  8
0
 10
33.085786301965669
 20
32.28727104006596
 30
0.0
 40
1.0
 50
270.0
 51
314.99999999999989
  0
LINE
  5
46EC
  8
µę˝u
 10
35.499999864338889
 20
25.18727104006588
 30
0.0
 11
40.499999864338882
 21
25.18727104006588
 31
0.0
  0
LINE
  5
46ED
  8
µę˝u
 10
35.899999864338866
 20
22.7872710400659
 30
0.0
 11
40.099999864338798
 21
22.7872710400659
 31
0.0
  0
LINE
  5
46EE
  8
µę˝u
 10
35.499999864338889
 20
31.18727104006588
 30
0.0
 11
35.499999864338889
 21
25.18727104006588
 31
0.0
  0
LINE
  5
46EF
  8
µę˝u
 10
40.499999864338882
 20
31.18727104006588
 30
0.0
 11
40.499999864338882
 21
25.18727104006588
 31
0.0
  0
LINE
  5
46F0
  8
µę˝u
 10
40.099999864338912
 20
30.7872710400659
 30
0.0
 11
40.099999864338798
 21
22.7872710400659
 31
0.0
  0
LINE
  5
46F1
  8
µę˝u
 10
35.899999864338866
 20
30.7872710400659
 30
0.0
 11
35.899999864338866
 21
22.7872710400659
 31
0.0
  0
LINE
  5
46F2
  8
0
 10
26.99999986433879
 20
30.7872710400659
 30
0.0
 11
26.99999986433879
 21
28.221343664381831
 31
0.0
  0
LINE
  5
46F3
  8
0
 10
42.999999864338768
 20
31.7872710400659
 30
0.0
 11
33.999999864338783
 21
31.7872710400659
 31
0.0
  0
LINE
  5
46F4
  8
0
 10
43.499999864338783
 20
18.2872710400659
 30
0.0
 11
43.999999864338889
 21
18.7872710400659
 31
0.0
  0
LINE
  5
46F5
  8
0
 10
31.581072061738759
 20
16.866343042665878
 30
0.0
 11
32.048080558538828
 21
18.096390820765869
 31
0.0
  0
ARC
  5
46F6
  8
0
 10
31.780300714538761
 20
18.987005190165871
 30
0.0
 40
0.9300000000000001
 50
163.26561328090131
 51
286.734386719101
  0
LINE
  5
46F7
  8
0
 10
33.20009986433881
 20
16.944371514965869
 30
0.0
 11
32.048080558538828
 21
18.096390820765869
 31
0.0
  0
LINE
  5
46F8
  8
0
 10
31.59170949030355
 20
20.023543993901299
 30
0.0
 11
30.18798244413885
 21
21.427271040065879
 31
0.0
  0
LINE
  5
46F9
  8
0
 10
32.048080558538828
 20
18.096390820765869
 30
0.0
 11
32.497457455406142
 21
18.943918940673662
 31
0.0
  0
LINE
  5
46FA
  8
0
 10
29.2601440643388
 20
19.18727104006588
 30
0.0
 11
29.65963856693876
 21
18.787776537465881
 31
0.0
  0
LINE
  5
46FB
  8
0
 10
29.65963856693876
 20
18.787776537465881
 30
0.0
 11
30.889686345038779
 21
19.254785034265868
 31
0.0
  0
LINE
  5
46FC
  8
0
 10
30.889686345038779
 20
19.254785034265868
 30
0.0
 11
31.736973204250191
 21
19.704363502781732
 31
0.0
  0
LINE
  5
46FD
  8
0
 10
29.2601440643388
 20
19.18727104006588
 30
0.0
 11
30.18798244413885
 21
21.427271040065879
 31
0.0
  0
LINE
  5
46FE
  8
0
 10
30.889686345038779
 20
19.254785034265868
 30
0.0
 11
29.757200339238729
 21
20.387271040065869
 31
0.0
  0
ARC
  5
46FF
  8
0
 10
32.204030304238742
 20
19.410978979965879
 30
0.0
 40
0.5
 50
164.98857653986391
 51
285.01142345941543
  0
ARC
  5
4700
  8
0
 10
31.238156099710221
 20
19.669990603308019
 30
0.0
 40
0.5
 50
344.98857653986721
 51
44.999999999993157
  0
ARC
  5
4701
  8
0
 10
32.46304192756876
 20
18.445104775434071
 30
0.0
 40
0.5
 50
44.999999998297064
 51
105.0114234594153
  0
LINE
  5
4702
  8
0
 10
34.24009986433876
 20
17.375153619765861
 30
0.0
 11
32.816595318172553
 21
18.7986581660168
 31
0.0
  0
LINE
  5
4703
  8
0
 10
32.056007585938829
 20
13.475409493965859
 30
0.0
 11
33.200099804738812
 21
14.61950038126589
 31
0.0
  0
LINE
  5
4704
  8
0
 10
30.891940297338731
 20
12.31134074766587
 30
0.0
 11
31.741991434687101
 21
11.86429028898859
 31
0.0
  0
LINE
  5
4705
  8
0
 10
29.750101864138781
 20
11.1695033473659
 30
0.0
 11
30.891940297338731
 21
12.31134074766587
 31
0.0
  0
ARC
  5
4706
  8
0
 10
32.208935962938803
 20
12.15841344156588
 30
0.0
 40
0.5
 50
74.959767736355147
 51
195.04018237847339
  0
LINE
  5
4707
  8
0
 10
32.056007534438812
 20
13.475409442465899
 30
0.0
 11
32.503059258522661
 21
12.62535769544103
 31
0.0
  0
LINE
  5
4708
  8
0
 10
31.592567521838799
 20
14.70902517226587
 30
0.0
 11
32.056007585938829
 21
13.475409493965859
 31
0.0
  0
LINE
  5
4709
  8
0
 10
32.00009986433875
 20
15.11655704046588
 30
0.0
 11
31.592567521838799
 21
14.70902517226587
 31
0.0
  0
ARC
  5
470A
  8
0
 10
31.78005651453876
 20
12.58729288996587
 30
0.0
 40
0.9300000000000001
 50
72.739198784101063
 51
197.26086881189971
  0
LINE
  5
470B
  8
0
 10
29.65832417633878
 20
12.77478124986588
 30
0.0
 11
30.891940297338731
 21
12.31134074766587
 31
0.0
  0
ARC
  5
470C
  8
0
 10
31.243191887804791
 20
11.89891704208482
 30
0.0
 40
0.5
 50
314.99997408353238
 51
15.040182378473499
  0
ARC
  5
470D
  8
0
 10
32.468433203254932
 20
13.124157290766229
 30
0.0
 40
0.5
 50
254.9597677363551
 51
314.99996665961822
  0
LINE
  5
470E
  8
0
 10
32.00009986433875
 20
15.11655704046588
 30
0.0
 11
34.24009986433876
 21
14.188715520265889
 31
0.0
  0
LINE
  5
470F
  8
0
 10
32.821986388115562
 20
12.77060369444054
 30
0.0
 11
34.24009986433876
 21
14.188715520265889
 31
0.0
  0
ARC
  5
4710
  8
0
 10
40.749999864338768
 20
18.7872710400659
 30
0.0
 40
3.0
 50
90.0
 51
270.0
  0
LINE
  5
4711
  8
0
 10
32.00009986433875
 20
16.44731524006588
 30
0.0
 11
34.24009986433876
 21
17.375153619765861
 31
0.0
  0
LINE
  5
4712
  8
0
 10
33.20009986433881
 20
14.619500356465879
 30
0.0
 11
33.20009986433881
 21
16.944371514965869
 31
0.0
  0
LINE
  5
4713
  8
0
 10
34.24009986433876
 20
14.188715520265889
 30
0.0
 11
34.24009986433876
 21
17.375153619765861
 31
0.0
  0
LINE
  5
4714
  8
0
 10
43.499999864338783
 20
15.7872710400659
 30
0.0
 11
40.749999864338768
 21
15.7872710400659
 31
0.0
  0
LINE
  5
4715
  8
0
 10
43.499999864338783
 20
21.7872710400659
 30
0.0
 11
40.749999864338768
 21
21.7872710400659
 31
0.0
  0
LINE
  5
4716
  8
¤¤¤ß˝u
 10
37.999999864338783
 20
32.28727104006591
 30
0.0
 11
37.999999864339003
 21
21.074835474767621
 31
0.0
  0
LINE
  5
4717
  8
0
 10
43.999999864338768
 20
18.787271040065779
 30
0.0
 11
43.999999864338768
 21
30.7872710400659
 31
0.0
  0
LINE
  5
4718
  8
µę˝u
 10
37.999999864339003
 20
21.574835474767561
 30
0.0
 11
35.899999864338866
 21
22.78727104006601
 31
0.0
  0
LINE
  5
4719
  8
µę˝u
 10
37.999999864338889
 20
21.574835474767561
 30
0.0
 11
40.099999864338798
 21
22.7872710400659
 31
0.0
  0
LINE
  5
471A
  8
0
 10
25.999999864338779
 20
31.7872710400659
 30
0.0
 11
26.207106645525219
 21
31.58016425887935
 31
0.0
  0
ARC
  5
471B
  8
0
 10
17.085786301965669
 20
32.28727104006596
 30
0.0
 40
1.0
 50
270.0
 51
314.99999999999989
  0
LINE
  5
471C
  8
0
 10
17.999999864338779
 20
31.7872710400659
 30
0.0
 11
17.79289308315234
 21
31.5801642588794
 31
0.0
  0
LINE
  5
471D
  8
0
 10
25.999999864338779
 20
31.7872710400659
 30
0.0
 11
17.999999864338779
 21
31.7872710400659
 31
0.0
  0
LINE
  5
471E
  8
0
 10
16.999999864338779
 20
30.7872710400659
 30
0.0
 11
16.999999864338779
 21
27.388052099424101
 31
0.0
  0
LINE
  5
471F
  8
µę˝u
 10
8.0999998643386881
 20
30.7872710400659
 30
0.0
 11
3.8999998643386529
 21
30.7872710400659
 31
0.0
  0
ARC
  5
4720
  8
0
 10
10.91421342671188
 20
32.28727104006591
 30
0.0
 40
1.0
 50
225.00000000000011
 51
270.0
  0
LINE
  5
4721
  8
µę˝u
 10
8.0999998643386881
 20
30.7872710400659
 30
0.0
 11
9.0999998643386881
 21
31.7872710400659
 31
0.0
  0
LINE
  5
4722
  8
0
 10
10.207106645525339
 20
31.58016425887935
 30
0.0
 11
9.9999998643387809
 21
31.7872710400659
 31
0.0
  0
LINE
  5
4723
  8
0
 10
0.9999998643387826
 20
31.7872710400659
 30
0.0
 11
-0.0000001356612174
 21
30.7872710400659
 31
0.0
  0
LINE
  5
4724
  8
0
 10
1.999999864338782
 20
30.7872710400659
 30
0.0
 11
0.4999998643387969
 21
29.2872710400659
 31
0.0
  0
LINE
  5
4725
  8
0
 10
9.9999998643387809
 20
31.7872710400659
 30
0.0
 11
0.9999998643387826
 21
31.7872710400659
 31
0.0
  0
LINE
  5
4726
  8
µę˝u
 10
3.8999998643386529
 20
30.7872710400659
 30
0.0
 11
2.8999998643386529
 21
31.7872710400659
 31
0.0
  0
LINE
  5
4727
  8
µę˝u
 10
8.0999998643386881
 20
22.7872710400659
 30
0.0
 11
3.899999864338759
 21
22.7872710400659
 31
0.0
  0
LINE
  5
4728
  8
0
 10
0.4999998643387969
 20
23.2872710400659
 30
0.0
 11
-0.0000001356612174
 21
23.7872710400659
 31
0.0
  0
LINE
  5
4729
  8
µę˝u
 10
8.4999998643386672
 20
25.18727104006588
 30
0.0
 11
3.4999998643386681
 21
25.18727104006588
 31
0.0
  0
LINE
  5
472A
  8
µę˝u
 10
3.4999998643386681
 20
31.18727104006588
 30
0.0
 11
3.4999998643386681
 21
25.18727104006588
 31
0.0
  0
LINE
  5
472B
  8
µę˝u
 10
8.4999998643386672
 20
31.18727104006588
 30
0.0
 11
8.4999998643386672
 21
25.18727104006588
 31
0.0
  0
LINE
  5
472C
  8
µę˝u
 10
3.8999998643386529
 20
30.7872710400659
 30
0.0
 11
3.899999864338759
 21
22.7872710400659
 31
0.0
  0
LINE
  5
472D
  8
0
 10
-0.0000001356612174
 20
30.7872710400659
 30
0.0
 11
-0.0000001356612174
 21
23.7872710400659
 31
0.0
  0
LINE
  5
472E
  8
µę˝u
 10
8.0999998643386881
 20
30.7872710400659
 30
0.0
 11
8.0999998643386881
 21
22.7872710400659
 31
0.0
  0
LINE
  5
472F
  8
0
 10
10.91421342671188
 20
31.2872710400659
 30
0.0
 11
17.085786301965669
 21
31.28727104006596
 31
0.0
  0
LINE
  5
4730
  8
0
 10
12.4191718669388
 20
16.866343042665878
 30
0.0
 11
11.952163370138731
 21
18.096390820765869
 31
0.0
  0
ARC
  5
4731
  8
0
 10
12.219943214238731
 20
18.987005190165871
 30
0.0
 40
0.9300000000000001
 50
253.26561328089889
 51
16.734386719098602
  0
LINE
  5
4732
  8
0
 10
13.812261484638761
 20
21.427271040065879
 30
0.0
 11
12.40834186023463
 21
20.023351415661651
 31
0.0
  0
LINE
  5
4733
  8
0
 10
13.11055758373883
 20
19.254785034265868
 30
0.0
 11
12.26308680288153
 21
19.70429631861138
 31
0.0
  0
LINE
  5
4734
  8
0
 10
11.952163370138731
 20
18.096390820765869
 30
0.0
 11
11.50265208588182
 21
18.94386160162237
 31
0.0
  0
ARC
  5
4735
  8
0
 10
11.795969424538759
 20
19.410978979965879
 30
0.0
 40
0.5
 50
254.99999999999881
 51
14.99999999999919
  0
LINE
  5
4736
  8
0
 10
14.340605361738801
 20
18.787776537465881
 30
0.0
 11
13.11055758373883
 21
19.254785034265868
 31
0.0
  0
LINE
  5
4737
  8
0
 10
14.243043589538759
 20
20.387271040065869
 30
0.0
 11
13.11055758373883
 21
19.254785034265868
 31
0.0
  0
LINE
  5
4738
  8
0
 10
14.74009986433876
 20
19.18727104006588
 30
0.0
 11
13.812261484638761
 21
21.427271040065879
 31
0.0
  0
ARC
  5
4739
  8
0
 10
12.76189525082785
 20
19.669798025068431
 30
0.0
 40
0.5
 50
134.99999999999869
 51
194.99999999999909
  0
LINE
  5
473A
  8
0
 10
19.075465713401261
 20
21.427271040065879
 30
0.0
 11
13.812261484638761
 21
21.427271040065879
 31
0.0
  0
LINE
  5
473B
  8
0
 10
13.108262848438841
 20
12.31199627246589
 30
0.0
 11
12.258212720293759
 21
11.864641775752499
 31
0.0
  0
ARC
  5
473C
  8
0
 10
11.79106376583881
 20
12.15841344156588
 30
0.0
 40
0.5
 50
344.9999905762399
 51
104.99998426762021
  0
LINE
  5
473D
  8
0
 10
13.108262848438841
 20
12.31199627246589
 30
0.0
 11
14.25010186413877
 21
11.17015688116588
 31
0.0
  0
ARC
  5
473E
  8
0
 10
12.219943214238731
 20
12.58729288996587
 30
0.0
 40
0.9300000000000001
 50
342.78141675980112
 51
107.218634698602
  0
LINE
  5
473F
  8
0
 10
11.94464576013881
 20
13.475612271765881
 30
0.0
 11
11.497292173908511
 21
12.62556253419906
 31
0.0
  0
LINE
  5
4740
  8
0
 10
12.40837255813873
 20
14.70894186716591
 30
0.0
 11
11.94464578693877
 21
13.475612244965889
 31
0.0
  0
LINE
  5
4741
  8
0
 10
14.341592109138819
 20
12.77572315996589
 30
0.0
 11
13.108262848438841
 21
12.31199627246589
 31
0.0
  0
ARC
  5
4742
  8
0
 10
12.75698954955843
 20
11.899594237592099
 30
0.0
 40
0.5
 50
164.9999905762399
 51
224.99999057604461
  0
LINE
  5
4743
  8
0
 10
11.18359698884289
 20
18.798606544270068
 30
0.0
 11
9.7600998643387467
 21
17.37510941976587
 31
0.0
  0
LINE
  5
4744
  8
0
 10
0.4999998643387969
 20
21.7872710400659
 30
0.0
 11
3.2499998643387822
 21
21.7872710400659
 31
0.0
  0
LINE
  5
4745
  8
0
 10
9.7600998643387467
 20
14.189377954465879
 30
0.0
 11
11.17869156108638
 21
12.770785982610921
 31
0.0
  0
LINE
  5
4746
  8
0
 10
0.4999998643387969
 20
15.7872710400659
 30
0.0
 11
3.2499998643387822
 21
15.7872710400659
 31
0.0
  0
ARC
  5
4747
  8
0
 10
3.2499998643387822
 20
18.7872710400659
 30
0.0
 40
3.0
 50
270.0
 51
90.0
  0
LINE
  5
4748
  8
0
 10
9.7600998643387467
 20
17.37510941976587
 30
0.0
 11
9.7600998643387467
 21
14.189377954465879
 31
0.0
  0
LINE
  5
4749
  8
0
 10
10.800099864338829
 20
16.944327314965879
 30
0.0
 11
10.800099864338829
 21
14.62015843346588
 31
0.0
  0
LINE
  5
474A
  8
0
 10
11.952163370138731
 20
18.096390820765869
 30
0.0
 11
10.800099864338829
 21
16.944327314965879
 31
0.0
  0
LINE
  5
474B
  8
0
 10
12.00009986433875
 20
16.447271040065871
 30
0.0
 11
9.7600998643387467
 21
17.37510941976587
 31
0.0
  0
LINE
  5
474C
  8
0
 10
10.80009983333882
 20
14.62015842056589
 30
0.0
 11
11.94464578693877
 21
13.475612244965889
 31
0.0
  0
LINE
  5
474D
  8
0
 10
12.00009986433875
 20
15.11721464016586
 30
0.0
 11
9.7600998643387467
 21
14.189377954465879
 31
0.0
  0
ARC
  5
474E
  8
0
 10
11.53715037943622
 20
18.44505315367682
 30
0.0
 40
0.5
 50
74.999999999998778
 51
135.0000000000079
  0
ARC
  5
474F
  8
0
 10
11.532244985961981
 20
13.12433933892193
 30
0.0
 40
0.5
 50
224.99999444431279
 51
284.99998426762022
  0
LINE
  5
4750
  8
¤¤¤ß˝u
 10
5.99999986433878
 20
32.28727104006591
 30
0.0
 11
5.9999998643385624
 21
21.074835474767621
 31
0.0
  0
LINE
  5
4751
  8
µę˝u
 10
5.9999998643386681
 20
21.574835474767561
 30
0.0
 11
3.899999864338759
 21
22.7872710400659
 31
0.0
  0
LINE
  5
4752
  8
µę˝u
 10
5.9999998643385624
 20
21.574835474767561
 30
0.0
 11
8.0999998643386881
 21
22.78727104006601
 31
0.0
  0
ARC
  5
4753
  8
0
 10
26.914213426711889
 20
32.28727104006591
 30
0.0
 40
1.0
 50
225.00000000000011
 51
270.0
  0
LINE
  5
4754
  8
0
 10
29.757200339238729
 20
20.387271040065869
 30
0.0
 11
14.243043589538759
 21
20.387271040065869
 31
0.0
  0
LINE
  5
4755
  8
0
 10
30.18798244413885
 20
21.427271040065879
 30
0.0
 11
24.924534015276301
 21
21.427271040065879
 31
0.0
  0
LINE
  5
4756
  8
0
 10
1.999999864338782
 20
30.7872710400659
 30
0.0
 11
20.399218804980581
 21
30.7872710400659
 31
0.0
  0
LINE
  5
4757
  8
0
 10
43.499999864338783
 20
7.8872710400659294
 30
0.0
 11
41.999999864338768
 21
6.3872710400658654
 31
0.0
  0
LINE
  5
4758
  8
0
 10
43.499999864338783
 20
7.8872710400659294
 30
0.0
 11
41.999999864338768
 21
6.3872710400658654
 31
0.0
  0
LINE
  5
4759
  8
0
 10
28.55065716442099
 20
9.2369351400480006
 30
0.0
 11
31.40032093399833
 21
6.3872710400658654
 31
0.0
  0
LINE
  5
475A
  8
0
 10
33.097306765538782
 20
6.3872710400658654
 30
0.0
 11
29.750101864138781
 21
9.7344759414658704
 31
0.0
  0
LINE
  5
475B
  8
0
 10
28.550101864138849
 20
9.2374196666658683
 30
0.0
 11
30.790101864138851
 21
10.16525804636588
 31
0.0
  0
LINE
  5
475C
  8
0
 10
30.790101864138851
 20
10.16525804636588
 30
0.0
 11
30.790101864138851
 21
10.738720966965889
 31
0.0
  0
LINE
  5
475D
  8
0
 10
34.568088870438856
 20
6.3872710400658654
 30
0.0
 11
30.790101864138851
 21
10.16525804636588
 31
0.0
  0
LINE
  5
475E
  8
0
 10
31.400250490638811
 20
6.3872710400658654
 30
0.0
 11
41.999999864338768
 21
6.3872710400658654
 31
0.0
  0
LINE
  5
475F
  8
0
 10
12.60091669923864
 20
6.3872710400658654
 30
0.0
 11
15.450612964420911
 21
9.2369671400480406
 31
0.0
  0
LINE
  5
4760
  8
0
 10
13.21010186413881
 20
10.7393748764659
 30
0.0
 11
13.21010186413881
 21
10.165204993265901
 31
0.0
  0
LINE
  5
4761
  8
0
 10
15.450101864138819
 20
9.2373666134658752
 30
0.0
 11
13.21010186413881
 21
10.165204993265901
 31
0.0
  0
LINE
  5
4762
  8
0
 10
0.4999998643387969
 20
7.8872710400659294
 30
0.0
 11
1.999999864338782
 21
6.3872710400658654
 31
0.0
  0
LINE
  5
4763
  8
0
 10
1.999999864338782
 20
6.3872710400658654
 30
0.0
 11
12.60091669923864
 21
6.3872710400658717
 31
0.0
  0
LINE
  5
4764
  8
0
 10
13.21010186413881
 20
10.165204993265901
 30
0.0
 11
9.4321679109388423
 21
6.3872710400658654
 31
0.0
  0
LINE
  5
4765
  8
0
 10
10.90295001583881
 20
6.3872710400658654
 30
0.0
 11
14.25010186413877
 21
9.7344228883658932
 31
0.0
  0
LINE
  5
4766
  8
0
 10
0.4999998643387969
 20
7.8872710400658654
 30
0.0
 11
0.4999998643387969
 21
29.2872710400659
 31
0.0
  0
LINE
  5
4767
  8
0
 10
12.40343610081303
 20
11.546040905150949
 30
0.0
 11
13.21010186413881
 21
10.7393748764659
 31
0.0
  0
LINE
  5
4768
  8
0
 10
14.25010186413877
 20
11.17015688116588
 30
0.0
 11
14.25010186413877
 21
9.7344228883658932
 31
0.0
  0
LINE
  5
4769
  8
0
 10
15.450101864138819
 20
11.66721304036589
 30
0.0
 11
13.21010186413881
 21
10.7393748764659
 31
0.0
  0
LINE
  5
476A
  8
0
 10
43.499999864338783
 20
7.8872710400658654
 30
0.0
 11
43.499999864338783
 21
29.2872710400659
 31
0.0
  0
LINE
  5
476B
  8
0
 10
28.550101864138849
 20
11.6665599401659
 30
0.0
 11
30.790101864138851
 21
10.738720966965889
 31
0.0
  0
LINE
  5
476C
  8
0
 10
29.750101864138781
 20
9.7344759414658704
 30
0.0
 11
29.750101864138781
 21
11.1695033473659
 31
0.0
  0
LINE
  5
476D
  8
0
 10
30.790101864138851
 20
10.738720966965889
 30
0.0
 11
31.59674511847599
 21
11.545363491569651
 31
0.0
  0
LINE
  5
476E
  8
0
 10
29.2601440643388
 20
19.18727104006588
 30
0.0
 11
29.65963856693876
 21
18.787776537465881
 31
0.0
  0
LINE
  5
476F
  8
0
 10
29.65832417633878
 20
12.77478124986588
 30
0.0
 11
28.550101864138849
 21
11.6665599401659
 31
0.0
  0
LINE
  5
4770
  8
0
 10
32.00009986433875
 20
15.11655704046588
 30
0.0
 11
31.592567521838799
 21
14.70902517226587
 31
0.0
  0
ARC
  5
4771
  8
0
 10
31.78005651453876
 20
12.58729288996587
 30
0.0
 40
2.129999999999999
 50
95.049881965097967
 51
174.9501351212003
  0
LINE
  5
4772
  8
0
 10
32.00009986433875
 20
16.44731524006588
 30
0.0
 11
32.00009986433875
 21
15.11655704046588
 31
0.0
  0
ARC
  5
4773
  8
0
 10
31.780300714538761
 20
18.987005190165871
 30
0.0
 40
2.129999999999999
 50
185.36698178750041
 51
264.63301821250087
  0
LINE
  5
4774
  8
0
 10
31.581072061738759
 20
16.866343042665878
 30
0.0
 11
32.00009986433875
 21
16.44731524006588
 31
0.0
  0
LINE
  5
4775
  8
0
 10
14.340605361738801
 20
18.787776537465881
 30
0.0
 11
14.74009986433876
 21
19.18727104006588
 31
0.0
  0
LINE
  5
4776
  8
0
 10
15.450101864138819
 20
11.66721304036589
 30
0.0
 11
14.341592109138819
 21
12.77572315996589
 31
0.0
  0
ARC
  5
4777
  8
0
 10
12.219943214238731
 20
12.58729288996587
 30
0.0
 40
2.129999999999999
 50
5.0753009505007043
 51
84.924724058898633
  0
LINE
  5
4778
  8
0
 10
12.40837255813873
 20
14.70894186716591
 30
0.0
 11
12.00009986433875
 21
15.11721464016586
 31
0.0
  0
LINE
  5
4779
  8
0
 10
12.00009986433875
 20
15.11721464016586
 30
0.0
 11
12.00009986433875
 21
16.447271040065871
 31
0.0
  0
ARC
  5
477A
  8
0
 10
12.219943214238731
 20
18.987005190165871
 30
0.0
 40
2.129999999999999
 50
275.36698178749913
 51
354.63301821250121
  0
LINE
  5
477B
  8
0
 10
12.00009986433875
 20
16.447271040065871
 30
0.0
 11
12.4191718669388
 21
16.866343042665878
 31
0.0
  0
LINE
  5
477C
  8
¤¤¤ß˝u
 10
22.00031803630263
 20
32.711348348604417
 30
0.0
 11
22.00024406442088
 21
0.0000001921980015
 31
0.0
  0
LINE
  5
477D
  8
0
 10
15.450101864138819
 20
9.2373666134658752
 30
0.0
 11
15.450101864138819
 21
11.66721304036589
 31
0.0
  0
LINE
  5
477E
  8
0
 10
28.550101864138849
 20
11.6665599401659
 30
0.0
 11
28.550101864138849
 21
9.2374196666658683
 31
0.0
  0
ENDBLK
  5
4781
  8
0
  0
BLOCK
  8
0
  2
A$C21A87866
 70
     0
 10
0.0
 20
0.0
 30
0.0
  3
A$C21A87866
  1

  0
LINE
  5
538D
  8
0
 10
71.668457359176955
 20
-30.00039124941803
 30
0.0
 11
-88.331542640822946
 21
-30.000391249417721
 31
0.0
  0
LINE
  5
538E
  8
0
 10
71.668457359176955
 20
-29.000000000017732
 30
0.0
 11
-54.58528568733481
 21
-29.000000000017732
 31
0.0
  0
LINE
  5
538F
  8
0
 10
71.668457359176955
 20
-26.00024410001787
 30
0.0
 11
-55.085853551982581
 21
-26.00024410001787
 31
0.0
  0
LINE
  5
5390
  8
0
 10
71.668457359176955
 20
-30.000391249417749
 30
0.0
 11
71.668457359176955
 21
-12.50039124941776
 31
0.0
  0
LINE
  5
5391
  8
¤¤¤ß˝u
 10
51.668457359177069
 20
-30.500391249417749
 30
0.0
 11
51.668457359177069
 21
-11.90039124941773
 31
0.0
  0
LINE
  5
5392
  8
0
 10
71.668457359176955
 20
-22.550335900017721
 30
0.0
 11
37.86567214064155
 21
-22.550335900018009
 31
0.0
  0
LINE
  5
5393
  8
0
 10
71.668457359176955
 20
-20.120378000017858
 30
0.0
 11
37.86567214064155
 21
-20.12037800001762
 31
0.0
  0
LINE
  5
5394
  8
0
 10
71.668457359176955
 20
-18.898201401190128
 30
0.0
 11
37.86567214064155
 21
-18.898201401190128
 31
0.0
  0
LINE
  5
5395
  8
0
 10
71.668457359176955
 20
-17.192534448274721
 30
0.0
 11
37.86567214064155
 21
-17.192534448274721
 31
0.0
  0
LINE
  5
5396
  8
0
 10
71.668457359176955
 20
-16.670416000017831
 30
0.0
 11
37.86567214064155
 21
-16.670416000017831
 31
0.0
  0
LINE
  5
5397
  8
0
 10
71.668457359176955
 20
-15.340383000017759
 30
0.0
 11
37.86567214064155
 21
-15.340383000017759
 31
0.0
  0
LINE
  5
5398
  8
0
 10
71.668457359176955
 20
-14.805799602939359
 30
0.0
 11
38.428424395136169
 21
-14.80579960293961
 31
0.0
  0
LINE
  5
5399
  8
0
 10
71.668457359176955
 20
-13.114486334978951
 30
0.0
 11
38.75
 21
-13.114486334979031
 31
0.0
  0
LINE
  5
539A
  8
0
 10
71.668457359176955
 20
-12.500391249417641
 30
0.0
 11
38.75
 21
-12.500391249417889
 31
0.0
  0
LINE
  5
539B
  8
µę˝u
 10
46.918081802368761
 20
-12.900391249418121
 30
0.0
 11
56.418083159035398
 21
-12.900391249418121
 31
0.0
  0
LINE
  5
539C
  8
µę˝u
 10
56.418083340794283
 20
-12.9003919277511
 30
0.0
 11
56.649023840105883
 21
-12.50039124941801
 31
0.0
  0
LINE
  5
539D
  8
µę˝u
 10
56.418083159035398
 20
-12.900391249418121
 30
0.0
 11
56.418083159035398
 21
-21.000391249418019
 31
0.0
  0
LINE
  5
539E
  8
µę˝u
 10
46.918082977276534
 20
-12.9003919277511
 30
0.0
 11
46.687142477964699
 21
-12.50039124941801
 31
0.0
  0
LINE
  5
539F
  8
µę˝u
 10
46.918083159035398
 20
-12.900391249418121
 30
0.0
 11
46.918083159035398
 21
-21.000391249418019
 31
0.0
  0
LINE
  5
53A0
  8
µę˝u
 10
48.668083159035398
 20
-21.300391249418219
 30
0.0
 11
54.668083159035398
 21
-21.300391249418219
 31
0.0
  0
LINE
  5
53A1
  8
µę˝u
 10
46.918083159035398
 20
-21.000391249418019
 30
0.0
 11
56.418083159035398
 21
-21.000391249418019
 31
0.0
  0
LINE
  5
53A2
  8
µę˝u
 10
48.668083159035398
 20
-21.300391249418219
 30
0.0
 11
48.36808315903545
 21
-21.000391249418019
 31
0.0
  0
LINE
  5
53A3
  8
µę˝u
 10
48.668083159035398
 20
-21.300391249418219
 30
0.0
 11
48.668083159035398
 21
-29.500368864144541
 31
0.0
  0
LINE
  5
53A4
  8
µę˝u
 10
54.667961059035399
 20
-21.300391249418219
 30
0.0
 11
54.96796105903536
 21
-21.000391249418019
 31
0.0
  0
LINE
  5
53A5
  8
µę˝u
 10
54.668083159035398
 20
-21.300391249418219
 30
0.0
 11
54.668083159035398
 21
-29.500368864144541
 31
0.0
  0
LINE
  5
53A6
  8
µę˝u
 10
55.167813863295351
 20
-30.000391249418019
 30
0.0
 11
54.667845742396587
 21
-29.500409562533591
 31
0.0
  0
LINE
  5
53A7
  8
µę˝u
 10
48.668083159035398
 20
-29.500368864144541
 30
0.0
 11
54.667845742396587
 21
-29.500409562533591
 31
0.0
  0
LINE
  5
53A8
  8
µę˝u
 10
48.168060773761681
 20
-30.000391249418019
 30
0.0
 11
48.668083159035398
 21
-29.500368864144541
 31
0.0
  0
LINE
  5
53A9
  8
«Řşc˝u
 10
-55.373148741561131
 20
-12.50039124941784
 30
0.0
 11
-53.890127931004372
 21
-17.145658200676039
 31
0.0
  0
LINE
  5
53AA
  8
«Řşc˝u
 10
-53.890127931004372
 20
-17.145658200676039
 30
0.0
 11
-55.150495280560101
 21
-20.293720012374639
 31
0.0
  0
LINE
  5
53AB
  8
«Řşc˝u
 10
-55.150495280560101
 20
-20.293720012374639
 30
0.0
 11
-54.15097341732826
 21
-21.52103101246205
 31
0.0
  0
LINE
  5
53AC
  8
«Řşc˝u
 10
-54.15097341732826
 20
-21.52103101246205
 30
0.0
 11
-55.308040725644332
 21
-24.668741756044881
 31
0.0
  0
LINE
  5
53AD
  8
«Řşc˝u
 10
-55.308040725644332
 20
-24.668741756044881
 30
0.0
 11
-54.41835086723006
 21
-30.00039124941793
 31
0.0
  0
LINE
  5
53AE
  8
0
 10
-38.75
 20
-12.50039124941773
 30
0.0
 11
-88.331542640822946
 21
-12.500391249417589
 31
0.0
  0
LINE
  5
53AF
  8
0
 10
-38.75
 20
-13.114486334979061
 30
0.0
 11
-55.177096329266242
 21
-13.11448633497905
 31
0.0
  0
LINE
  5
53B0
  8
0
 10
-38.428424395136346
 20
-14.80579960293942
 30
0.0
 11
-54.63713752821679
 21
-14.80579960293942
 31
0.0
  0
LINE
  5
53B1
  8
0
 10
-37.86567214064155
 20
-16.670416000017831
 30
0.0
 11
-54.041850981805567
 21
-16.670416000017831
 31
0.0
  0
LINE
  5
53B2
  8
0
 10
-37.86567214064155
 20
-15.340383000017759
 30
0.0
 11
-54.466469553445052
 21
-15.340383000017759
 31
0.0
  0
LINE
  5
53B3
  8
0
 10
-37.86567214064155
 20
-17.192534448274721
 30
0.0
 11
-53.908895444311611
 21
-17.192534448274731
 31
0.0
  0
LINE
  5
53B4
  8
0
 10
-37.86567214064155
 20
-18.898201401190128
 30
0.0
 11
-54.591781316717913
 21
-18.898201401190128
 31
0.0
  0
LINE
  5
53B5
  8
0
 10
-37.86567214064155
 20
-20.120378000017631
 30
0.0
 11
-55.08109555916036
 21
-20.12037800001762
 31
0.0
  0
LINE
  5
53B6
  8
0
 10
-37.86567214064155
 20
-22.550335900017831
 30
0.0
 11
-54.529335704304202
 21
-22.550335900017838
 31
0.0
  0
LINE
  5
53B7
  8
0
 10
-73.081918197631225
 20
-12.90039124941773
 30
0.0
 11
-63.581916840964602
 21
-12.90039124941773
 31
0.0
  0
LINE
  5
53B8
  8
0
 10
-63.58191665920571
 20
-12.90039192775072
 30
0.0
 11
-63.35097615989411
 21
-12.500391249417641
 31
0.0
  0
LINE
  5
53B9
  8
0
 10
-63.581916840964602
 20
-12.90039124941773
 30
0.0
 11
-63.581916840964602
 21
-21.000391249417639
 31
0.0
  0
LINE
  5
53BA
  8
0
 10
-73.081917022723474
 20
-12.90039192775072
 30
0.0
 11
-73.312857522035301
 21
-12.500391249417641
 31
0.0
  0
LINE
  5
53BB
  8
0
 10
-73.081916840964595
 20
-12.90039124941773
 30
0.0
 11
-73.081916840964595
 21
-21.000391249417639
 31
0.0
  0
LINE
  5
53BC
  8
0
 10
-71.331916840964595
 20
-21.300391249417839
 30
0.0
 11
-65.331916840964595
 21
-21.300391249417839
 31
0.0
  0
LINE
  5
53BD
  8
0
 10
-73.081916840964595
 20
-21.000391249417639
 30
0.0
 11
-63.581916840964602
 21
-21.000391249417639
 31
0.0
  0
LINE
  5
53BE
  8
0
 10
-71.331916840964595
 20
-21.300391249417839
 30
0.0
 11
-71.63191684096455
 21
-21.000391249417639
 31
0.0
  0
LINE
  5
53BF
  8
0
 10
-71.331916840964595
 20
-21.300391249417839
 30
0.0
 11
-71.331916840964595
 21
-29.50036886414415
 31
0.0
  0
LINE
  5
53C0
  8
0
 10
-65.332038940964594
 20
-21.300391249417839
 30
0.0
 11
-65.03203894096464
 21
-21.000391249417639
 31
0.0
  0
LINE
  5
53C1
  8
0
 10
-65.331916840964595
 20
-21.300391249417839
 30
0.0
 11
-65.331916840964595
 21
-29.50036886414415
 31
0.0
  0
LINE
  5
53C2
  8
0
 10
-64.832186136704649
 20
-30.000391249417628
 30
0.0
 11
-65.332154257603406
 21
-29.500409562533211
 31
0.0
  0
LINE
  5
53C3
  8
0
 10
-71.331916840964595
 20
-29.50036886414415
 30
0.0
 11
-65.332154257603406
 21
-29.500409562533211
 31
0.0
  0
LINE
  5
53C4
  8
0
 10
-71.831939226238319
 20
-30.000391249417628
 30
0.0
 11
-71.331916840964595
 21
-29.50036886414415
 31
0.0
  0
LINE
  5
53C5
  8
¤¤¤ß˝u
 10
-68.331542640822931
 20
-30.500391249417842
 30
0.0
 11
-68.331542640822931
 21
-11.900391249417821
 31
0.0
  0
LINE
  5
53C6
  8
0
 10
-88.331542640822946
 20
-30.000391249417721
 30
0.0
 11
-88.331542640822946
 21
-12.500391249417589
 31
0.0
  0
ENDBLK
  5
53C9
  8
0
  0
BLOCK
  8
0
  2
A$C2A7B0EA0
 70
     0
 10
0.0
 20
0.0
 30
0.0
  3
A$C2A7B0EA0
  1

  0
LINE
  5
549D
  8
0
 10
37.865672140641543
 20
-32.002742997320389
 30
0.0
 11
71.668457359177012
 21
-32.003477725341462
 31
0.0
  0
LINE
  5
549E
  8
0
 10
37.865672140641578
 20
-12.002742987871439
 30
0.0
 11
71.668457359176983
 21
-12.00347771589248
 31
0.0
  0
LINE
  5
549F
  8
0
 10
25.25000000000006
 20
-0.5000000000000142
 30
0.0
 11
37.865672140641607
 21
-0.5000000000000142
 31
0.0
  0
INSERT
  5
54A0
  8
0
  2
I1
 10
37.865672140641607
 20
-3.2500000000000142
 30
0.0
 41
-1.0
  0
LINE
  5
54A1
  8
0
 10
37.865672140641522
 20
-43.500000000000007
 30
0.0
 11
37.865672140641607
 21
-0.5000000000000142
 31
0.0
  0
LINE
  5
54A2
  8
0
 10
36.36567214064155
 20
-43.500000000000007
 30
0.0
 11
36.365672140641607
 21
-0.5000000000000142
 31
0.0
  0
LINE
  5
54A3
  8
0
 10
25.249999999999972
 20
-43.500000000000007
 30
0.0
 11
37.86567214064155
 21
-43.500000000000007
 31
0.0
  0
INSERT
  5
54A4
  8
0
  2
I1
 10
37.865672140641522
 20
-40.750000000000007
 30
0.0
 41
-1.0
  0
LINE
  5
54A5
  8
0
 10
71.668457359177012
 20
-32.003477725341462
 30
0.0
 11
71.668457359176983
 21
-12.00347771589248
 31
0.0
  0
LINE
  5
54A6
  8
¤¤¤ß˝u
 10
51.66845735917704
 20
-27.776054808912779
 30
0.0
 11
51.66845735917704
 21
-16.23003120334802
 31
0.0
  0
LINE
  5
54A7
  8
¤¤¤ß˝u
 10
45.895445556394662
 20
-22.003043006130401
 30
0.0
 11
57.441469161959411
 21
-22.003043006130401
 31
0.0
  0
CIRCLE
  5
54A8
  8
0
 10
51.66845735917704
 20
-22.003043006130401
 30
0.0
 40
4.7498798561624724
  0
CIRCLE
  5
54A9
  8
0
 10
51.66845735917704
 20
-22.003043006130401
 30
0.0
 40
2.9998798561624578
  0
ENDBLK
  5
54AC
  8
0
  0
BLOCK
  8
0
  2
*U9
 70
     1
 10
0.0
 20
0.0
 30
0.0
  3
*U9
  1

  0
TEXT
  5
5AF5
  8
0
 10
-292.80439586121128
 20
-22.27762015640937
 30
0.0
 40
7.8000001593418631
  1
HGH20HA
  0
TEXT
  5
5AF6
  8
0
 10
-293.02371814399021
 20
-35.376034266815822
 30
0.0
 40
7.8000001593418631
  1
C : 2160 kgf
  0
TEXT
  5
5AF7
  8
0
 10
-293.02371814399021
 20
-48.574061746236318
 30
0.0
 40
7.8000001593418631
  1
C
  0
TEXT
  5
5AF8
  8
0
 10
-285.34181459845229
 20
-43.764061647975502
 30
0.0
 40
5.4600001115393031
  1

  0
TEXT
  5
5AF9
  8
0
 10
-286.17043250155848
 20
-51.036663422559691
 30
0.0
 40
5.4600001115393031
  1
0
  0
TEXT
  5
5AFA
  8
0
 10
-281.73140802063227
 20
-48.575231746260208
 30
0.0
 40
7.8023401593896651
  1
: 4980 kgf
  0
ENDBLK
  5
5AFC
  8
0
  0
ENDSEC
  0
SECTION
  2
ENTITIES
  0
INSERT
  5
413A
  8
0
  2
*U9
 10
0.0
 20
0.0
 30
0.0
  0
POINT
  5
582E
  8
0
 10
-258.69824623134139
 20
23.539682012697991
 30
0.0
1001
PNTFLAG
1000
endpoint
  0
LINE
  5
582F
  8
¤¤¤ß˝u
 10
-257.19824623134139
 20
23.539682012697991
 30
0.0
 11
-275.20516266274137
 21
23.539682012697991
 31
0.0
  0
LINE
  5
5830
  8
0
 10
-262.17134311164142
 20
25.453483612997989
 30
0.0
 11
-262.12058846354142
 21
25.48694641029795
 31
0.0
  0
LINE
  5
5831
  8
0
 10
-262.38386600934138
 20
21.603597264897989
 30
0.0
 11
-262.33551215374138
 21
21.60154383249801
 31
0.0
  0
LINE
  5
5832
  8
0
 10
-262.17134311164142
 20
21.625879076398011
 30
0.0
 11
-262.12058846354142
 21
21.592416279097989
 31
0.0
  0
LINE
  5
5833
  8
0
 10
-261.66836975964139
 20
23.539682012697991
 30
0.0
 11
-261.64959361264141
 21
24.037823051897991
 31
0.0
  0
LINE
  5
5834
  8
0
 10
-260.06952620144142
 20
23.539682012697991
 30
0.0
 11
-260.05635190334141
 21
23.889218412297989
 31
0.0
  0
LINE
  5
5835
  8
0
 10
-260.05635190334141
 20
23.190145613097972
 30
0.0
 11
-260.06952620144142
 21
23.539682012697991
 31
0.0
  0
LINE
  5
5836
  8
0
 10
-261.64959361264141
 20
23.04153963749798
 30
0.0
 11
-261.66836975964139
 21
23.539682012697991
 31
0.0
  0
LINE
  5
5837
  8
0
 10
-260.05635190334141
 20
23.889218412297989
 30
0.0
 11
-260.01733401714142
 21
24.225321329697952
 31
0.0
  0
LINE
  5
5838
  8
0
 10
-261.64959361264141
 20
24.037823051897991
 30
0.0
 11
-261.59398928384138
 21
24.516821880097979
 31
0.0
  0
LINE
  5
5839
  8
0
 10
-260.01733401714142
 20
22.854041359697959
 30
0.0
 11
-260.05635190334141
 21
23.190145613097972
 31
0.0
  0
LINE
  5
583A
  8
0
 10
-261.59398928384138
 20
22.56254080929796
 30
0.0
 11
-261.64959361264141
 21
23.04153963749798
 31
0.0
  0
LINE
  5
583B
  8
0
 10
-260.01733401714142
 20
24.225321329697952
 30
0.0
 11
-259.95397420704143
 21
24.535076986997979
 31
0.0
  0
LINE
  5
583C
  8
0
 10
-261.59398928384138
 20
24.516821880097979
 30
0.0
 11
-261.50369170144143
 21
24.958269750197989
 31
0.0
  0
LINE
  5
583D
  8
0
 10
-259.95397420704143
 20
22.544287038397979
 30
0.0
 11
-260.01733401714142
 21
22.854041359697959
 31
0.0
  0
LINE
  5
583E
  8
0
 10
-261.50369170144143
 20
22.121092939097959
 30
0.0
 11
-261.59398928384138
 21
22.56254080929796
 31
0.0
  0
LINE
  5
583F
  8
0
 10
-259.95397420704143
 20
24.535076986997979
 30
0.0
 11
-259.86870666544138
 21
24.806578950097961
 31
0.0
  0
LINE
  5
5840
  8
0
 10
-261.50369170144143
 20
24.958269750197989
 30
0.0
 11
-261.38217179414141
 21
25.345202131797979
 31
0.0
  0
LINE
  5
5841
  8
0
 10
-259.86870666544138
 20
22.27278373929795
 30
0.0
 11
-259.95397420704143
 21
22.544287038397979
 31
0.0
  0
LINE
  5
5842
  8
0
 10
-261.38217179414141
 20
21.734161893597982
 30
0.0
 11
-261.50369170144143
 21
22.121092939097959
 31
0.0
  0
LINE
  5
5843
  8
0
 10
-259.86870666544138
 20
24.806578950097961
 30
0.0
 11
-259.7648072649414
 21
25.029395729597979
 31
0.0
  0
LINE
  5
5844
  8
0
 10
-261.38217179414141
 20
25.345202131797979
 30
0.0
 11
-261.23409888254139
 21
25.66274800629796
 31
0.0
  0
LINE
  5
5845
  8
0
 10
-259.7648072649414
 20
22.049966959797992
 30
0.0
 11
-259.86870666544138
 21
22.27278373929795
 31
0.0
  0
LINE
  5
5846
  8
0
 10
-259.7648072649414
 20
25.029395729597979
 30
0.0
 11
-259.64626931014141
 21
25.194962227897971
 31
0.0
  0
LINE
  5
5847
  8
0
 10
-261.23409888254139
 20
21.416614683097979
 30
0.0
 11
-261.38217179414141
 21
21.734161893597982
 31
0.0
  0
LINE
  5
5848
  8
0
 10
-262.77239223914142
 20
23.539682012697991
 30
0.0
 11
-262.75804493284141
 21
23.920360577197961
 31
0.0
  0
LINE
  5
5849
  8
0
 10
-262.75804493284141
 20
23.15900211219795
 30
0.0
 11
-262.77239223914142
 21
23.539682012697991
 31
0.0
  0
LINE
  5
584A
  8
0
 10
-262.75804493284141
 20
23.920360577197961
 30
0.0
 11
-262.71555077414138
 21
24.286409939397942
 31
0.0
  0
LINE
  5
584B
  8
0
 10
-265.95046553644141
 20
23.539682012697991
 30
0.0
 11
-265.92840550094138
 21
24.124952977697941
 31
0.0
  0
LINE
  5
584C
  8
0
 10
-265.92840550094138
 20
22.954411047597969
 30
0.0
 11
-265.95046553644141
 21
23.539682012697991
 31
0.0
  0
LINE
  5
584D
  8
0
 10
-262.71555077414138
 20
22.792952749998001
 30
0.0
 11
-262.75804493284141
 21
23.15900211219795
 31
0.0
  0
LINE
  5
584E
  8
0
 10
-262.71555077414138
 20
24.286409939397942
 30
0.0
 11
-262.6465463631414
 21
24.62376335309796
 31
0.0
  0
LINE
  5
584F
  8
0
 10
-261.23409888254139
 20
25.66274800629796
 30
0.0
 11
-261.0651643277414
 21
25.898707019798
 31
0.0
  0
LINE
  5
5850
  8
0
 10
-259.64626931014141
 20
21.884400461497989
 30
0.0
 11
-259.7648072649414
 21
22.049966959797992
 31
0.0
  0
LINE
  5
5851
  8
0
 10
-259.64626931014141
 20
25.194962227897971
 30
0.0
 11
-259.51764722564138
 21
25.29691908409799
 31
0.0
  0
LINE
  5
5852
  8
0
 10
-265.92840550094138
 20
24.124952977697941
 30
0.0
 11
-265.86307509054137
 21
24.687732379197971
 31
0.0
  0
LINE
  5
5853
  8
0
 10
-265.86307509054137
 20
22.391631646198
 30
0.0
 11
-265.92840550094138
 21
22.954411047597969
 31
0.0
  0
LINE
  5
5854
  8
0
 10
-262.6465463631414
 20
22.455599336297979
 30
0.0
 11
-262.71555077414138
 21
22.792952749998001
 31
0.0
  0
LINE
  5
5855
  8
0
 10
-261.0651643277414
 20
21.180655669597972
 30
0.0
 11
-261.23409888254139
 21
21.416614683097979
 31
0.0
  0
LINE
  5
5856
  8
0
 10
-262.6465463631414
 20
24.62376335309796
 30
0.0
 11
-262.5536809883414
 21
24.91945627209796
 31
0.0
  0
LINE
  5
5857
  8
0
 10
-265.86307509054137
 20
24.687732379197971
 30
0.0
 11
-265.75698464974141
 21
25.206391709697979
 31
0.0
  0
LINE
  5
5858
  8
0
 10
-265.75698464974141
 20
21.87297097969795
 30
0.0
 11
-265.86307509054137
 21
22.391631646198
 31
0.0
  0
LINE
  5
5859
  8
0
 10
-262.5536809883414
 20
22.159906417297972
 30
0.0
 11
-262.6465463631414
 21
22.455599336297979
 31
0.0
  0
LINE
  5
585A
  8
0
 10
-259.51764722564138
 20
25.29691908409799
 30
0.0
 11
-259.38388554844141
 21
25.33134513759796
 31
0.0
  0
LINE
  5
585B
  8
0
 10
-261.0651643277414
 20
25.898707019798
 30
0.0
 11
-260.88185975454138
 21
26.04401040289796
 31
0.0
  0
LINE
  5
585C
  8
0
 10
-259.64626931014141
 20
21.884400461497989
 30
0.0
 11
-259.51764722564138
 21
21.782443605297971
 31
0.0
  0
LINE
  5
585D
  8
0
 10
-262.5536809883414
 20
24.91945627209796
 30
0.0
 11
-262.44052444244141
 21
25.162124678697982
 31
0.0
  0
LINE
  5
585E
  8
0
 10
-261.0651643277414
 20
21.180655669597972
 30
0.0
 11
-260.88185975454138
 21
21.035353622497979
 31
0.0
  0
LINE
  5
585F
  8
0
 10
-262.44052444244141
 20
21.917238010697989
 30
0.0
 11
-262.5536809883414
 21
22.159906417297972
 31
0.0
  0
LINE
  5
5860
  8
0
 10
-265.75698464974141
 20
25.206391709697979
 30
0.0
 11
-265.61420897904139
 21
25.661001853997959
 31
0.0
  0
LINE
  5
5861
  8
0
 10
-265.61420897904139
 20
21.418360835397952
 30
0.0
 11
-265.75698464974141
 21
21.87297097969795
 31
0.0
  0
LINE
  5
5862
  8
0
 10
-262.44052444244141
 20
25.162124678697982
 30
0.0
 11
-262.31142406984139
 21
25.342443291297968
 31
0.0
  0
LINE
  5
5863
  8
0
 10
-261.7359045703414
 20
25.717991614997938
 30
0.0
 11
-261.56664135944141
 21
25.852163444397949
 31
0.0
  0
LINE
  5
5864
  8
0
 10
-260.88185975454138
 20
26.04401040289796
 30
0.0
 11
-260.69122855624141
 21
26.093072338697969
 31
0.0
  0
LINE
  5
5865
  8
0
 10
-259.38388554844141
 20
25.33134513759796
 30
0.0
 11
-259.2501238711414
 21
25.29691908409799
 31
0.0
  0
LINE
  5
5866
  8
0
 10
-259.51764722564138
 20
21.782443605297971
 30
0.0
 11
-259.38388554844141
 21
21.748017551797972
 31
0.0
  0
LINE
  5
5867
  8
0
 10
-262.31142406984139
 20
21.736919398097971
 30
0.0
 11
-262.44052444244141
 21
21.917238010697989
 31
0.0
  0
LINE
  5
5868
  8
0
 10
-266.12806939674141
 20
23.539682012697991
 30
0.0
 11
-265.46524228334141
 21
26.539681177697961
 31
0.0
  0
LINE
  5
5869
  8
0
 10
-265.46524228334141
 20
20.539681511697982
 30
0.0
 11
-266.12806939674141
 21
23.539682012697991
 31
0.0
  0
LINE
  5
586A
  8
0
 10
-261.56664135944141
 20
25.852163444397949
 30
0.0
 11
-261.24060921164141
 21
26.016662478497981
 31
0.0
  0
LINE
  5
586B
  8
0
 10
-261.24060921164141
 20
26.016662478497981
 30
0.0
 11
-261.05206083764142
 21
26.065190014197981
 31
0.0
  0
LINE
  5
586C
  8
0
 10
-260.88185975454138
 20
21.035353622497979
 30
0.0
 11
-260.69122855624141
 21
20.986290350697971
 31
0.0
  0
LINE
  5
586D
  8
0
 10
-265.61420897904139
 20
25.661001853997959
 30
0.0
 11
-265.44023770334138
 21
26.034090601297979
 31
0.0
  0
LINE
  5
586E
  8
0
 10
-265.44023770334138
 20
21.045272088097992
 30
0.0
 11
-265.61420897904139
 21
21.418360835397952
 31
0.0
  0
LINE
  5
586F
  8
0
 10
-262.31142406984139
 20
25.342443291297968
 30
0.0
 11
-262.17134311164142
 21
25.453483612997989
 31
0.0
  0
LINE
  5
5870
  8
0
 10
-262.12058846354142
 20
25.48694641029795
 30
0.0
 11
-261.56664135944141
 21
25.852163444397949
 31
0.0
  0
LINE
  5
5871
  8
0
 10
-261.24060921164141
 20
21.062700210897962
 30
0.0
 11
-261.05206083764142
 21
21.014174011097971
 31
0.0
  0
LINE
  5
5872
  8
0
 10
-261.56664135944141
 20
21.227199244997959
 30
0.0
 11
-261.24060921164141
 21
21.062700210897962
 31
0.0
  0
LINE
  5
5873
  8
0
 10
-262.31142406984139
 20
21.736919398097971
 30
0.0
 11
-262.17134311164142
 21
21.625879076398011
 31
0.0
  0
LINE
  5
5874
  8
0
 10
-261.05206083764142
 20
26.065190014197981
 30
0.0
 11
-260.69122855624141
 21
26.093072338697969
 31
0.0
  0
LINE
  5
5875
  8
0
 10
-260.69122855624141
 20
26.093072338697969
 30
0.0
 11
-260.50059869394141
 21
26.04401040289796
 31
0.0
  0
LINE
  5
5876
  8
0
 10
-259.2501238711414
 20
25.29691908409799
 30
0.0
 11
-259.1215031226414
 21
25.194962227897971
 31
0.0
  0
LINE
  5
5877
  8
0
 10
-260.50059869394141
 20
26.04401040289796
 30
0.0
 11
-259.2501238711414
 21
25.29691908409799
 31
0.0
  0
LINE
  5
5878
  8
0
 10
-259.38388554844141
 20
21.748017551797972
 30
0.0
 11
-259.2501238711414
 21
21.782443605297971
 31
0.0
  0
LINE
  5
5879
  8
0
 10
-262.12058846354142
 20
21.592416279097989
 30
0.0
 11
-261.56664135944141
 21
21.227199244997959
 31
0.0
  0
LINE
  5
587A
  8
0
 10
-261.05206083764142
 20
21.014174011097971
 30
0.0
 11
-260.69122855624141
 21
20.986290350697971
 31
0.0
  0
LINE
  5
587B
  8
0
 10
-260.69122855624141
 20
20.986290350697971
 30
0.0
 11
-260.50059869394141
 21
21.035353622497979
 31
0.0
  0
LINE
  5
587C
  8
0
 10
-265.44023770334138
 20
26.034090601297979
 30
0.0
 11
-265.24175483184138
 21
26.311319997397991
 31
0.0
  0
LINE
  5
587D
  8
0
 10
-265.24175483184138
 20
20.768042691997952
 30
0.0
 11
-265.44023770334138
 21
21.045272088097992
 31
0.0
  0
LINE
  5
587E
  8
0
 10
-267.15365663974143
 20
20.539681511697982
 30
0.0
 11
-267.81648375314143
 21
23.539682012697991
 31
0.0
  0
LINE
  5
587F
  8
0
 10
-267.81648375314143
 20
23.539682012697991
 30
0.0
 11
-266.12806939674141
 21
23.539682012697991
 31
0.0
  0
LINE
  5
5880
  8
0
 10
-267.81648375314143
 20
23.539682012697991
 30
0.0
 11
-267.15365663974143
 21
26.539681177697961
 31
0.0
  0
LINE
  5
5881
  8
0
 10
-259.00296516784141
 20
25.029395729597979
 30
0.0
 11
-259.1215031226414
 21
25.194962227897971
 31
0.0
  0
LINE
  5
5882
  8
0
 10
-259.2501238711414
 20
21.782443605297971
 30
0.0
 11
-259.1215031226414
 21
21.884400461497989
 31
0.0
  0
LINE
  5
5883
  8
0
 10
-260.50059869394141
 20
21.035353622497979
 30
0.0
 11
-259.2501238711414
 21
21.782443605297971
 31
0.0
  0
LINE
  5
5884
  8
0
 10
-262.33551215374138
 20
25.47782019289798
 30
0.0
 11
-262.12058846354142
 21
25.48694641029795
 31
0.0
  0
LINE
  5
5885
  8
0
 10
-262.33551215374138
 20
21.60154383249801
 30
0.0
 11
-262.12058846354142
 21
21.592416279097989
 31
0.0
  0
LINE
  5
5886
  8
0
 10
-265.24175483184138
 20
26.311319997397991
 30
0.0
 11
-265.02638892554143
 21
26.482036776497981
 31
0.0
  0
LINE
  5
5887
  8
0
 10
-265.24175483184138
 20
20.768042691997952
 30
0.0
 11
-265.02638892554143
 21
20.59732591289799
 31
0.0
  0
LINE
  5
5888
  8
0
 10
-258.89906576734143
 20
24.806578950097961
 30
0.0
 11
-259.00296516784141
 21
25.029395729597979
 31
0.0
  0
LINE
  5
5889
  8
0
 10
-259.1215031226414
 20
21.884400461497989
 30
0.0
 11
-259.00296516784141
 21
22.049966959797992
 31
0.0
  0
LINE
  5
588A
  8
0
 10
-262.57663480804138
 20
25.576221952497971
 30
0.0
 11
-262.33551215374138
 21
25.47782019289798
 31
0.0
  0
LINE
  5
588B
  8
0
 10
-262.57663480804138
 20
21.50314073689799
 30
0.0
 11
-262.33551215374138
 21
21.60154383249801
 31
0.0
  0
LINE
  5
588C
  8
0
 10
-258.81379688974141
 20
24.535076986997979
 30
0.0
 11
-258.89906576734143
 21
24.806578950097961
 31
0.0
  0
LINE
  5
588D
  8
0
 10
-259.00296516784141
 20
22.049966959797992
 30
0.0
 11
-258.89906576734143
 21
22.27278373929795
 31
0.0
  0
LINE
  5
588E
  8
0
 10
-265.02638892554143
 20
26.482036776497981
 30
0.0
 11
-264.80241516994141
 21
26.539681177697961
 31
0.0
  0
LINE
  5
588F
  8
0
 10
-265.02638892554143
 20
20.59732591289799
 30
0.0
 11
-264.80241516994141
 21
20.539681511697982
 31
0.0
  0
LINE
  5
5890
  8
0
 10
-258.75043707964142
 20
24.225321329697952
 30
0.0
 11
-258.81379688974141
 21
24.535076986997979
 31
0.0
  0
LINE
  5
5891
  8
0
 10
-259.65842023204141
 20
21.901373008197989
 30
0.0
 11
-259.6565217757414
 21
21.902301528297979
 31
0.0
  0
LINE
  5
5892
  8
0
 10
-258.89906576734143
 20
22.27278373929795
 30
0.0
 11
-258.81379688974141
 21
22.544287038397979
 31
0.0
  0
LINE
  5
5893
  8
0
 10
-258.7114205294414
 20
23.889218412297989
 30
0.0
 11
-258.75043707964142
 21
24.225321329697952
 31
0.0
  0
LINE
  5
5894
  8
0
 10
-258.81379688974141
 20
22.544287038397979
 30
0.0
 11
-258.75043707964142
 21
22.854041359697959
 31
0.0
  0
LINE
  5
5895
  8
0
 10
-264.5784414143414
 20
26.482036776497981
 30
0.0
 11
-262.57663480804138
 21
25.576221952497971
 31
0.0
  0
LINE
  5
5896
  8
0
 10
-264.80241516994141
 20
26.539681177697961
 30
0.0
 11
-264.5784414143414
 21
26.482036776497981
 31
0.0
  0
LINE
  5
5897
  8
0
 10
-264.80241516994141
 20
20.539681511697982
 30
0.0
 11
-264.5784414143414
 21
20.59732591289799
 31
0.0
  0
LINE
  5
5898
  8
0
 10
-258.69824623134139
 20
23.539682012697991
 30
0.0
 11
-258.7114205294414
 21
23.889218412297989
 31
0.0
  0
LINE
  5
5899
  8
0
 10
-258.75043707964142
 20
22.854041359697959
 30
0.0
 11
-258.7114205294414
 21
23.190145613097972
 31
0.0
  0
LINE
  5
589A
  8
0
 10
-258.7114205294414
 20
23.190145613097972
 30
0.0
 11
-258.69824623134139
 21
23.539682012697991
 31
0.0
  0
LINE
  5
589B
  8
0
 10
-264.5784414143414
 20
20.59732591289799
 30
0.0
 11
-262.57663480804138
 21
21.50314073689799
 31
0.0
  0
LINE
  5
589C
  8
0
 10
-267.15365663974143
 20
26.539681177697961
 30
0.0
 11
-264.13958805654141
 21
26.539681177697961
 31
0.0
  0
LINE
  5
589D
  8
0
 10
-264.13958805654141
 20
20.539681511697982
 30
0.0
 11
-264.07668916654143
 21
20.82436846099796
 31
0.0
  0
LINE
  5
589E
  8
0
 10
-264.07668916654143
 20
26.25499422839798
 30
0.0
 11
-264.13958805654141
 21
26.539681177697961
 31
0.0
  0
LINE
  5
589F
  8
0
 10
-267.15365663974143
 20
20.539681511697982
 30
0.0
 11
-264.13958805654141
 21
20.539681511697982
 31
0.0
  0
LINE
  5
58A0
  8
0
 10
-265.56841089174139
 20
20.539681511697982
 30
0.0
 11
-266.14576071154141
 21
19.539681344697978
 31
0.0
  0
LINE
  5
58A1
  8
0
 10
-266.14576071154141
 20
19.539681344697978
 30
0.0
 11
-270.76456327794142
 21
19.539681344697978
 31
0.0
  0
LINE
  5
58A2
  8
0
 10
-273.07396389314141
 20
23.539682012697991
 30
0.0
 11
-270.76456327794142
 21
19.539681344697978
 31
0.0
  0
LINE
  5
58A3
  8
0
 10
-270.76456327794142
 20
27.539681344697978
 30
0.0
 11
-273.07396389314141
 21
23.539682012697991
 31
0.0
  0
LINE
  5
58A4
  8
0
 10
-270.76456327794142
 20
27.539681344697978
 30
0.0
 11
-266.14576204754138
 21
27.539681344697978
 31
0.0
  0
LINE
  5
58A5
  8
0
 10
-265.56841089174139
 20
26.539681177697961
 30
0.0
 11
-266.14576204754138
 21
27.539681344697978
 31
0.0
  0
ARC
  5
58A6
  8
0
 10
-268.45516266274137
 20
23.539682012697991
 30
0.0
 40
3.999999331999998
 50
48.590377998899683
 51
311.40962200319888
  0
POLYLINE
  5
58A7
  8
0
 66
     1
 10
0.0
 20
0.0
 30
0.0
  0
VERTEX
  5
5B33
  8
0
 10
-259.50347493544149
 20
23.53968201269797
 30
0.0
  0
VERTEX
  5
5B34
  8
0
 10
-259.46992663404143
 20
23.32264477019794
 30
0.0
  0
VERTEX
  5
5B35
  8
0
 10
-259.43703564484139
 20
23.259740536197999
 30
0.0
  0
VERTEX
  5
5B36
  8
0
 10
-259.4004653110415
 20
23.23019889949796
 30
0.0
  0
VERTEX
  5
5B37
  8
0
 10
-259.3664881536414
 20
23.230506179497979
 30
0.0
  0
VERTEX
  5
5B38
  8
0
 10
-259.32999530784139
 20
23.260710472297969
 30
0.0
  0
VERTEX
  5
5B39
  8
0
 10
-259.29865140684137
 20
23.320480449797969
 30
0.0
  0
VERTEX
  5
5B3A
  8
0
 10
-259.2692647461414
 20
23.450553430497958
 30
0.0
  0
VERTEX
  5
5B3B
  8
0
 10
-259.26429749734137
 20
23.53968201269797
 30
0.0
  0
VERTEX
  5
5B3C
  8
0
 10
-259.29784446274141
 20
23.756717919197971
 30
0.0
  0
VERTEX
  5
5B3D
  8
0
 10
-259.33073678794142
 20
23.819622153197969
 30
0.0
  0
VERTEX
  5
5B3E
  8
0
 10
-259.36730712174142
 20
23.849163789897968
 30
0.0
  0
VERTEX
  5
5B3F
  8
0
 10
-259.40128294314138
 20
23.848856509797969
 30
0.0
  0
VERTEX
  5
5B40
  8
0
 10
-259.43777712494142
 20
23.818652216997972
 30
0.0
  0
VERTEX
  5
5B41
  8
0
 10
-259.46911968994141
 20
23.758882239497979
 30
0.0
  0
VERTEX
  5
5B42
  8
0
 10
-259.4985076866414
 20
23.62880925889797
 30
0.0
  0
VERTEX
  5
5B43
  8
0
 10
-259.50347493544149
 20
23.53968201269797
 30
0.0
  0
SEQEND
  5
5B44
  8
0
  0
ARC
  5
58A8
  8
0
 10
-268.45516266274137
 20
23.539682012697991
 30
0.0
 40
5.2499999999999938
 50
30.243297773999782
 51
329.7566907593
  0
LINE
  5
58A9
  8
0
 10
-266.85438160338322
 20
28.539682012697991
 30
0.0
 11
-248.4551626627414
 21
28.539682012697991
 31
0.0
  0
LINE
  5
58AA
  8
«ü˝u
 10
-286.70447208950787
 20
17.976811445195121
 30
0.0
 11
-286.70461578110047
 21
17.04786694948686
 31
0.0
  0
LINE
  5
58AB
  8
«ü˝u
 10
-286.70461578110047
 20
17.04786694948686
 30
0.0
 11
-284.72168128148149
 21
17.047608516174328
 31
0.0
  0
ARC
  5
58AC
  8
«ü˝u
 10
-287.20516266274137
 20
16.539682012697991
 30
0.0
 40
1.5214629431971141
 50
19.507530631702469
 51
70.786756774813512
  0
LINE
  5
58AD
  8
«ü˝u
 10
-287.72058328070761
 20
17.97696871689763
 30
0.0
 11
-287.72072697209688
 21
17.048024221194218
 31
0.0
  0
ARC
  5
58AE
  8
«ü˝u
 10
-287.20516266274137
 20
16.539682012697991
 30
0.0
 40
1.5214629431971141
 50
109.80177390166109
 51
160.474746081532
  0
LINE
  5
58AF
  8
«ü˝u
 10
-287.72072697209688
 20
17.048024221194218
 30
0.0
 11
-289.69958916152513
 21
17.048378987369631
 31
0.0
  0
LINE
  5
58B0
  8
«ü˝u
 10
-286.70477295598909
 20
16.03175371944786
 30
0.0
 11
-286.7049166473787
 21
15.102809223744231
 31
0.0
  0
LINE
  5
58B1
  8
«ü˝u
 10
-286.70477295598909
 20
16.03175371944786
 30
0.0
 11
-284.72183845637011
 21
16.03149528613514
 31
0.0
  0
ARC
  5
58B2
  8
«ü˝u
 10
-287.20516266274137
 20
16.539682012697991
 30
0.0
 40
1.5214629431971141
 50
289.1955179156144
 51
340.49299983582108
  0
LINE
  5
58B3
  8
«ü˝u
 10
-287.72088414698578
 20
16.031910991155002
 30
0.0
 11
-287.72102783857849
 21
15.10296649544696
 31
0.0
  0
ARC
  5
58B4
  8
«ü˝u
 10
-287.20516266274137
 20
16.539682012697991
 30
0.0
 40
1.5214629431971141
 50
199.4892768756601
 51
250.18050078877499
  0
LINE
  5
58B5
  8
«ü˝u
 10
-287.72088414698578
 20
16.031910991155002
 30
0.0
 11
-289.69974633641402
 21
16.032265757330411
 31
0.0
  0
CIRCLE
  5
58B6
  8
«ü˝u
 10
-287.20516266274137
 20
16.539682012697991
 30
0.0
 40
2.539472436122904
  0
ARC
  5
58B7
  8
«ü˝u
 10
-249.7051626627414
 20
16.539682012697991
 30
0.0
 40
1.5214629431971141
 50
19.507530631702469
 51
70.786756774813512
  0
ARC
  5
58B8
  8
«ü˝u
 10
-249.7051626627414
 20
16.539682012697991
 30
0.0
 40
1.5214629431971141
 50
289.1955179156144
 51
340.49299983582108
  0
ARC
  5
58B9
  8
«ü˝u
 10
-249.7051626627414
 20
16.539682012697991
 30
0.0
 40
1.5214629431971141
 50
199.4892768756601
 51
250.18050078877499
  0
ARC
  5
58BA
  8
«ü˝u
 10
-249.7051626627414
 20
16.539682012697991
 30
0.0
 40
1.5214629431971141
 50
109.80177390166109
 51
160.474746081532
  0
CIRCLE
  5
58BB
  8
«ü˝u
 10
-249.7051626627414
 20
16.539682012697991
 30
0.0
 40
2.539472436122904
  0
LINE
  5
58BC
  8
«ü˝u
 10
-249.2044720895079
 20
17.976811445195121
 30
0.0
 11
-249.2046157811005
 21
17.04786694948686
 31
0.0
  0
LINE
  5
58BD
  8
«ü˝u
 10
-250.22058328070759
 20
17.97696871689763
 30
0.0
 11
-250.22072697209691
 21
17.048024221194218
 31
0.0
  0
LINE
  5
58BE
  8
«ü˝u
 10
-249.20477295598911
 20
16.03175371944786
 30
0.0
 11
-249.2049166473787
 21
15.102809223744231
 31
0.0
  0
LINE
  5
58BF
  8
«ü˝u
 10
-250.22088414698581
 20
16.031910991155002
 30
0.0
 11
-250.22102783857841
 21
15.10296649544696
 31
0.0
  0
LINE
  5
58C0
  8
«ü˝u
 10
-249.20477295598911
 20
16.03175371944786
 30
0.0
 11
-247.22183845637019
 21
16.03149528613514
 31
0.0
  0
LINE
  5
58C1
  8
«ü˝u
 10
-249.2046157811005
 20
17.04786694948686
 30
0.0
 11
-247.22168128148149
 21
17.047608516174328
 31
0.0
  0
LINE
  5
58C2
  8
«ü˝u
 10
-250.22088414698581
 20
16.031910991155002
 30
0.0
 11
-252.19974633641399
 21
16.032265757330411
 31
0.0
  0
LINE
  5
58C3
  8
«ü˝u
 10
-250.22072697209691
 20
17.048024221194218
 30
0.0
 11
-252.1995891615251
 21
17.048378987369631
 31
0.0
  0
LINE
  5
58C4
  8
0
 10
-247.4549646852289
 20
29.539484035185499
 30
0.0
 11
-246.45516266274149
 21
28.539682012697991
 31
0.0
  0
LINE
  5
58C5
  8
0
 10
-246.9551626627414
 20
27.039682012698002
 30
0.0
 11
-248.4551626627414
 21
28.539682012697991
 31
0.0
  0
LINE
  5
58C6
  8
µę˝u
 10
-254.5551626627414
 20
28.539682012697991
 30
0.0
 11
-250.35516266274129
 21
28.539682012697991
 31
0.0
  0
LINE
  5
58C7
  8
µę˝u
 10
-250.35516266274129
 20
28.539682012697991
 30
0.0
 11
-249.35516266274129
 21
29.539682012698002
 31
0.0
  0
LINE
  5
58C8
  8
0
 10
-256.66226944392781
 20
29.332575231511498
 30
0.0
 11
-256.4553606402539
 21
29.539484035185499
 31
0.0
  0
LINE
  5
58C9
  8
µę˝u
 10
-254.5551626627414
 20
28.539682012697991
 30
0.0
 11
-255.55516266274131
 21
29.539682012698002
 31
0.0
  0
LINE
  5
58CA
  8
0
 10
-257.36937622511448
 20
29.039682012698051
 30
0.0
 11
-263.54094910036832
 21
29.039682012698002
 31
0.0
  0
ARC
  5
58CB
  8
0
 10
-257.36937622511448
 20
30.039682012698051
 30
0.0
 40
1.0
 50
270.0
 51
315.00000000000011
  0
LINE
  5
58CC
  8
µę˝u
 10
-254.95516266274129
 20
22.939682012697968
 30
0.0
 11
-249.95516266274129
 21
22.939682012697968
 31
0.0
  0
LINE
  5
58CD
  8
µę˝u
 10
-254.5551626627414
 20
20.539682012698002
 30
0.0
 11
-250.35516266274141
 21
20.539682012698002
 31
0.0
  0
LINE
  5
58CE
  8
µę˝u
 10
-254.95516266274129
 20
28.939682012697968
 30
0.0
 11
-254.95516266274129
 21
22.939682012697968
 31
0.0
  0
LINE
  5
58CF
  8
µę˝u
 10
-249.95516266274129
 20
28.939682012697968
 30
0.0
 11
-249.95516266274129
 21
22.939682012697968
 31
0.0
  0
LINE
  5
58D0
  8
µę˝u
 10
-250.35516266274129
 20
28.539682012697991
 30
0.0
 11
-250.35516266274141
 21
20.539682012698002
 31
0.0
  0
LINE
  5
58D1
  8
µę˝u
 10
-254.5551626627414
 20
28.539682012697991
 30
0.0
 11
-254.5551626627414
 21
20.539682012698002
 31
0.0
  0
LINE
  5
58D2
  8
0
 10
-263.45516266274137
 20
28.539682012697991
 30
0.0
 11
-263.45516266274137
 21
25.973754637013911
 31
0.0
  0
LINE
  5
58D3
  8
0
 10
-246.9551626627414
 20
16.039682012697991
 30
0.0
 11
-246.45516266274129
 21
16.539682012697991
 31
0.0
  0
LINE
  5
58D4
  8
0
 10
-258.87419046534143
 20
14.618754016246919
 30
0.0
 11
-258.40718196854129
 21
15.84880179434691
 31
0.0
  0
ARC
  5
58D5
  8
0
 10
-258.67496181254143
 20
16.73941616374691
 30
0.0
 40
0.9300000000000001
 50
163.26561328090199
 51
286.73438671910122
  0
LINE
  5
58D6
  8
0
 10
-257.25516266274133
 20
14.69678248854691
 30
0.0
 11
-258.40718196854129
 21
15.84880179434691
 31
0.0
  0
LINE
  5
58D7
  8
0
 10
-258.86355303677658
 20
17.775954967482331
 30
0.0
 11
-260.26728008294128
 21
19.179682013646921
 31
0.0
  0
LINE
  5
58D8
  8
0
 10
-258.40718196854129
 20
15.84880179434691
 30
0.0
 11
-257.95780507167399
 21
16.696329914254701
 31
0.0
  0
LINE
  5
58D9
  8
0
 10
-261.19511846274128
 20
16.939682013646909
 30
0.0
 11
-260.79562396014131
 21
16.54018751104692
 31
0.0
  0
LINE
  5
58DA
  8
0
 10
-260.79562396014131
 20
16.54018751104692
 30
0.0
 11
-259.56557618204141
 21
17.007196007846911
 31
0.0
  0
LINE
  5
58DB
  8
0
 10
-259.56557618204141
 20
17.007196007846911
 30
0.0
 11
-258.71828932283
 21
17.456774476362771
 31
0.0
  0
LINE
  5
58DC
  8
0
 10
-261.19511846274128
 20
16.939682013646909
 30
0.0
 11
-260.26728008294128
 21
19.179682013646921
 31
0.0
  0
LINE
  5
58DD
  8
0
 10
-259.56557618204141
 20
17.007196007846911
 30
0.0
 11
-260.6980621878414
 21
18.139682013646901
 31
0.0
  0
ARC
  5
58DE
  8
0
 10
-258.2512322228414
 20
17.163389953546918
 30
0.0
 40
0.5
 50
164.98857653986479
 51
285.01142345941548
  0
ARC
  5
58DF
  8
0
 10
-259.21710642736991
 20
17.422401576889062
 30
0.0
 40
0.5
 50
344.98857653986647
 51
44.999999999994152
  0
ARC
  5
58E0
  8
0
 10
-257.99222059951143
 20
16.19751574901511
 30
0.0
 40
0.5
 50
44.999999998295863
 51
105.0114234594155
  0
LINE
  5
58E1
  8
0
 10
-256.21516266274142
 20
15.1275645933469
 30
0.0
 11
-257.63866720890758
 21
16.551069139597839
 31
0.0
  0
LINE
  5
58E2
  8
0
 10
-258.39925494114129
 20
11.2278204675469
 30
0.0
 11
-257.25516272234131
 21
12.371911354846929
 31
0.0
  0
LINE
  5
58E3
  8
0
 10
-259.5633222297414
 20
10.063751721246909
 30
0.0
 11
-258.71327109239297
 21
9.6167012625696202
 31
0.0
  0
LINE
  5
58E4
  8
0
 10
-260.70516066294141
 20
8.9219143209469394
 30
0.0
 11
-259.5633222297414
 21
10.063751721246909
 31
0.0
  0
ARC
  5
58E5
  8
0
 10
-258.24632656414133
 20
9.9108244151469194
 30
0.0
 40
0.5
 50
74.959767736355133
 51
195.0401823784743
  0
LINE
  5
58E6
  8
0
 10
-258.39925499264132
 20
11.22782041604694
 30
0.0
 11
-257.95220326855753
 21
10.377768669022061
 31
0.0
  0
LINE
  5
58E7
  8
0
 10
-258.86269500524128
 20
12.4614361458469
 30
0.0
 11
-258.39925494114129
 21
11.2278204675469
 31
0.0
  0
LINE
  5
58E8
  8
0
 10
-258.45516266274137
 20
12.86896801404691
 30
0.0
 11
-258.86269500524128
 21
12.4614361458469
 31
0.0
  0
ARC
  5
58E9
  8
0
 10
-258.67520601254142
 20
10.3397038635469
 30
0.0
 40
0.9300000000000001
 50
72.739198784101262
 51
197.2608688118992
  0
LINE
  5
58EA
  8
0
 10
-260.79693835074141
 20
10.52719222344691
 30
0.0
 11
-259.5633222297414
 21
10.063751721246909
 31
0.0
  0
ARC
  5
58EB
  8
0
 10
-259.2120706392754
 20
9.6513280156658539
 30
0.0
 40
0.5
 50
314.99997408353238
 51
15.040182378474411
  0
ARC
  5
58EC
  8
0
 10
-257.98682932382519
 20
10.87656826434727
 30
0.0
 40
0.5
 50
254.9597677363551
 51
314.99996665962033
  0
LINE
  5
58ED
  8
0
 10
-258.45516266274137
 20
12.86896801404691
 30
0.0
 11
-256.21516266274142
 21
11.941126493846919
 31
0.0
  0
LINE
  5
58EE
  8
0
 10
-257.63327613896462
 20
10.52301466802157
 30
0.0
 11
-256.21516266274142
 21
11.941126493846919
 31
0.0
  0
ARC
  5
58EF
  8
0
 10
-249.7051626627414
 20
16.539682012697991
 30
0.0
 40
3.0
 50
90.0
 51
270.0
  0
LINE
  5
58F0
  8
0
 10
-258.45516266274137
 20
14.199726213646921
 30
0.0
 11
-256.21516266274142
 21
15.1275645933469
 31
0.0
  0
LINE
  5
58F1
  8
0
 10
-257.25516266274133
 20
12.37191133004691
 30
0.0
 11
-257.25516266274133
 21
14.69678248854691
 31
0.0
  0
LINE
  5
58F2
  8
0
 10
-256.21516266274142
 20
11.941126493846919
 30
0.0
 11
-256.21516266274142
 21
15.1275645933469
 31
0.0
  0
LINE
  5
58F3
  8
0
 10
-246.9551626627414
 20
13.539682012697989
 30
0.0
 11
-249.7051626627414
 21
13.539682012697989
 31
0.0
  0
LINE
  5
58F4
  8
0
 10
-246.9551626627414
 20
19.539682012697991
 30
0.0
 11
-249.7051626627414
 21
19.539682012697991
 31
0.0
  0
LINE
  5
58F5
  8
¤¤¤ß˝u
 10
-252.4551626627414
 20
31.552340610346359
 30
0.0
 11
-252.4551626627412
 21
18.827246447399709
 31
0.0
  0
LINE
  5
58F6
  8
0
 10
-246.45516266274149
 20
16.539682012697881
 30
0.0
 11
-246.45516266274149
 21
28.539682012697991
 31
0.0
  0
LINE
  5
58F7
  8
µę˝u
 10
-252.4551626627412
 20
19.327246447399659
 30
0.0
 11
-254.5551626627414
 21
20.539682012698108
 31
0.0
  0
LINE
  5
58F8
  8
µę˝u
 10
-252.45516266274129
 20
19.327246447399659
 30
0.0
 11
-250.35516266274141
 21
20.539682012698002
 31
0.0
  0
LINE
  5
58F9
  8
0
 10
-264.4549646852289
 20
29.53948403518552
 30
0.0
 11
-264.24805588155499
 21
29.332575231511441
 31
0.0
  0
ARC
  5
58FA
  8
0
 10
-273.36937622511448
 20
30.039682012698051
 30
0.0
 40
1.0
 50
270.0
 51
315.00000000000011
  0
LINE
  5
58FB
  8
0
 10
-272.4553606402539
 20
29.53948403518552
 30
0.0
 11
-272.66226944392793
 21
29.332575231511498
 31
0.0
  0
LINE
  5
58FC
  8
0
 10
-273.45516266274137
 20
28.539682012697991
 30
0.0
 11
-273.45516266274137
 21
25.140463072056178
 31
0.0
  0
LINE
  5
58FD
  8
µę˝u
 10
-282.35516266274141
 20
28.539682012697991
 30
0.0
 11
-286.55516266274151
 21
28.539682012697991
 31
0.0
  0
ARC
  5
58FE
  8
0
 10
-279.54094910036832
 20
30.039682012697991
 30
0.0
 40
1.0
 50
224.99999999999989
 51
270.0
  0
LINE
  5
58FF
  8
µę˝u
 10
-282.35516266274141
 20
28.539682012697991
 30
0.0
 11
-281.35516266274152
 21
29.539682012698002
 31
0.0
  0
LINE
  5
5900
  8
0
 10
-280.24805588155482
 20
29.332575231511441
 30
0.0
 11
-280.45496468522902
 21
29.53948403518552
 31
0.0
  0
LINE
  5
5901
  8
0
 10
-289.4553606402539
 20
29.53948403518552
 30
0.0
 11
-290.45516266274137
 21
28.539682012697991
 31
0.0
  0
LINE
  5
5902
  8
0
 10
-288.45516266274137
 20
28.539682012697991
 30
0.0
 11
-289.95516266274137
 21
27.039682012698002
 31
0.0
  0
LINE
  5
5903
  8
µę˝u
 10
-286.55516266274151
 20
28.539682012697991
 30
0.0
 11
-287.55516266274151
 21
29.539682012698002
 31
0.0
  0
LINE
  5
5904
  8
µę˝u
 10
-282.35516266274141
 20
20.539682012698002
 30
0.0
 11
-286.5551626627414
 21
20.539682012698002
 31
0.0
  0
LINE
  5
5905
  8
0
 10
-289.95516266274137
 20
21.039682012697991
 30
0.0
 11
-290.45516266274137
 21
21.539682012697991
 31
0.0
  0
LINE
  5
5906
  8
µę˝u
 10
-281.95516266274149
 20
22.939682012697968
 30
0.0
 11
-286.9551626627416
 21
22.939682012697968
 31
0.0
  0
LINE
  5
5907
  8
µę˝u
 10
-286.9551626627416
 20
28.939682012697968
 30
0.0
 11
-286.9551626627416
 21
22.939682012697968
 31
0.0
  0
LINE
  5
5908
  8
µę˝u
 10
-281.95516266274149
 20
28.939682012697968
 30
0.0
 11
-281.95516266274149
 21
22.939682012697968
 31
0.0
  0
LINE
  5
5909
  8
µę˝u
 10
-286.55516266274151
 20
28.539682012697991
 30
0.0
 11
-286.5551626627414
 21
20.539682012698002
 31
0.0
  0
LINE
  5
590A
  8
0
 10
-290.45516266274137
 20
28.539682012697991
 30
0.0
 11
-290.45516266274137
 21
21.539682012697991
 31
0.0
  0
LINE
  5
590B
  8
µę˝u
 10
-282.35516266274141
 20
28.539682012697991
 30
0.0
 11
-282.35516266274141
 21
20.539682012698002
 31
0.0
  0
LINE
  5
590C
  8
0
 10
-279.54094910036832
 20
29.039682012698002
 30
0.0
 11
-273.36937622511448
 21
29.039682012698051
 31
0.0
  0
LINE
  5
590D
  8
0
 10
-278.03609066014133
 20
14.618754016246919
 30
0.0
 11
-278.5030991569414
 21
15.84880179434691
 31
0.0
  0
ARC
  5
590E
  8
0
 10
-278.2353193128414
 20
16.73941616374691
 30
0.0
 40
0.9300000000000001
 50
253.2656132808988
 51
16.73438671909804
  0
LINE
  5
590F
  8
0
 10
-276.64300104244143
 20
19.179682013646921
 30
0.0
 11
-278.04692066684549
 21
17.775762389242679
 31
0.0
  0
LINE
  5
5910
  8
0
 10
-277.3447049433413
 20
17.007196007846911
 30
0.0
 11
-278.19217572419859
 21
17.456707292192419
 31
0.0
  0
LINE
  5
5911
  8
0
 10
-278.5030991569414
 20
15.84880179434691
 30
0.0
 11
-278.95261044119832
 21
16.696272575203409
 31
0.0
  0
ARC
  5
5912
  8
0
 10
-278.65929310254143
 20
17.163389953546918
 30
0.0
 40
0.5
 50
254.99999999999881
 51
14.999999999999121
  0
LINE
  5
5913
  8
0
 10
-276.11465716534133
 20
16.54018751104692
 30
0.0
 11
-277.3447049433413
 21
17.007196007846911
 31
0.0
  0
LINE
  5
5914
  8
0
 10
-276.21221893754142
 20
18.139682013646901
 30
0.0
 11
-277.3447049433413
 21
17.007196007846911
 31
0.0
  0
LINE
  5
5915
  8
0
 10
-275.71516266274142
 20
16.939682013646909
 30
0.0
 11
-276.64300104244143
 21
19.179682013646921
 31
0.0
  0
ARC
  5
5916
  8
0
 10
-277.69336727625227
 20
17.422208998649459
 30
0.0
 40
0.5
 50
134.99999999999989
 51
194.99999999999909
  0
LINE
  5
5917
  8
0
 10
-260.26728008294128
 20
19.179682013646921
 30
0.0
 11
-265.53035816910568
 21
19.179682013646921
 31
0.0
  0
LINE
  5
5918
  8
0
 10
-277.34699967864128
 20
10.064407246046921
 30
0.0
 11
-278.19704980678642
 21
9.6170527493335385
 31
0.0
  0
ARC
  5
5919
  8
0
 10
-278.66419876124132
 20
9.9108244151469194
 30
0.0
 40
0.5
 50
344.99999057624001
 51
104.99998426762021
  0
LINE
  5
591A
  8
0
 10
-277.34699967864128
 20
10.064407246046921
 30
0.0
 11
-276.2051606629413
 21
8.9225678547469158
 31
0.0
  0
ARC
  5
591B
  8
0
 10
-278.2353193128414
 20
10.3397038635469
 30
0.0
 40
0.9300000000000001
 50
342.78141675980112
 51
107.2186346986018
  0
LINE
  5
591C
  8
0
 10
-278.51061676694133
 20
11.22802324534692
 30
0.0
 11
-278.95797035317162
 21
10.3779735077801
 31
0.0
  0
LINE
  5
591D
  8
0
 10
-278.0468899689414
 20
12.46135284074694
 30
0.0
 11
-278.5106167401413
 21
11.22802321854692
 31
0.0
  0
LINE
  5
591E
  8
0
 10
-276.11367041794131
 20
10.52813413354693
 30
0.0
 11
-277.34699967864128
 21
10.064407246046921
 31
0.0
  0
ARC
  5
591F
  8
0
 10
-277.6982729775217
 20
9.6520052111731331
 30
0.0
 40
0.5
 50
164.9999905762399
 51
224.9999905760437
  0
LINE
  5
5920
  8
0
 10
-279.27166553823719
 20
16.551017517851101
 30
0.0
 11
-280.69516266274138
 21
15.127520393346909
 31
0.0
  0
LINE
  5
5921
  8
0
 10
-289.95516266274137
 20
19.539682012697991
 30
0.0
 11
-287.20516266274137
 21
19.539682012697991
 31
0.0
  0
LINE
  5
5922
  8
0
 10
-280.69516266274138
 20
11.94178892804692
 30
0.0
 11
-279.27657096599381
 21
10.523196956191949
 31
0.0
  0
LINE
  5
5923
  8
0
 10
-289.95516266274137
 20
13.539682012697989
 30
0.0
 11
-287.20516266274137
 21
13.539682012697989
 31
0.0
  0
ARC
  5
5924
  8
0
 10
-287.20516266274137
 20
16.539682012697991
 30
0.0
 40
3.0
 50
270.0
 51
90.0
  0
LINE
  5
5925
  8
0
 10
-280.69516266274138
 20
15.127520393346909
 30
0.0
 11
-280.69516266274138
 21
11.94178892804692
 31
0.0
  0
LINE
  5
5926
  8
0
 10
-279.6551626627413
 20
14.69673828854692
 30
0.0
 11
-279.6551626627413
 21
12.37256940704691
 31
0.0
  0
LINE
  5
5927
  8
0
 10
-278.5030991569414
 20
15.84880179434691
 30
0.0
 11
-279.6551626627413
 21
14.69673828854692
 31
0.0
  0
LINE
  5
5928
  8
0
 10
-278.45516266274137
 20
14.19968201364691
 30
0.0
 11
-280.69516266274138
 21
15.127520393346909
 31
0.0
  0
LINE
  5
5929
  8
0
 10
-279.65516269374132
 20
12.37256939414692
 30
0.0
 11
-278.5106167401413
 21
11.22802321854692
 31
0.0
  0
LINE
  5
592A
  8
0
 10
-278.45516266274137
 20
12.8696256137469
 30
0.0
 11
-280.69516266274138
 21
11.94178892804692
 31
0.0
  0
ARC
  5
592B
  8
0
 10
-278.91811214764391
 20
16.197464127257859
 30
0.0
 40
0.5
 50
74.999999999998792
 51
135.00000000000909
  0
ARC
  5
592C
  8
0
 10
-278.9230175411181
 20
10.87675031250296
 30
0.0
 40
0.5
 50
224.99999444431191
 51
284.99998426762022
  0
LINE
  5
592D
  8
¤¤¤ß˝u
 10
-284.45516266274137
 20
31.552340610346359
 30
0.0
 11
-284.4551626627416
 21
18.827246447399709
 31
0.0
  0
LINE
  5
592E
  8
µę˝u
 10
-284.45516266274149
 20
19.327246447399659
 30
0.0
 11
-286.5551626627414
 21
20.539682012698002
 31
0.0
  0
LINE
  5
592F
  8
µę˝u
 10
-284.4551626627416
 20
19.327246447399659
 30
0.0
 11
-282.35516266274141
 21
20.539682012698108
 31
0.0
  0
ARC
  5
5930
  8
0
 10
-263.54094910036832
 20
30.039682012697991
 30
0.0
 40
1.0
 50
224.99999999998511
 51
270.0
  0
LINE
  5
5931
  8
0
 10
-260.6980621878414
 20
18.139682013646901
 30
0.0
 11
-276.21221893754142
 21
18.139682013646901
 31
0.0
  0
LINE
  5
5932
  8
0
 10
-288.45516266274137
 20
28.539682012697991
 30
0.0
 11
-270.05594372209958
 21
28.539682012697991
 31
0.0
  0
LINE
  5
5933
  8
0
 10
-246.9551626627414
 20
5.6396820126980174
 30
0.0
 11
-248.4551626627414
 21
4.1396820126979597
 31
0.0
  0
LINE
  5
5934
  8
0
 10
-246.9551626627414
 20
5.6396820126980174
 30
0.0
 11
-248.45536064025401
 21
4.1394840351854043
 31
0.0
  0
LINE
  5
5935
  8
0
 10
-261.9046053626592
 20
6.9893461136290389
 30
0.0
 11
-258.45516266274137
 21
3.539903013765012
 31
0.0
  0
LINE
  5
5936
  8
0
 10
-257.35775778307988
 20
4.1394840351854043
 30
0.0
 11
-260.70516066294141
 21
7.4868869150469086
 31
0.0
  0
LINE
  5
5937
  8
0
 10
-261.90516066294128
 20
6.9898306402469066
 30
0.0
 11
-259.66516066294128
 21
7.9176690199469126
 31
0.0
  0
LINE
  5
5938
  8
0
 10
-259.66516066294128
 20
7.9176690199469126
 30
0.0
 11
-259.66516066294128
 21
8.4911319405469214
 31
0.0
  0
LINE
  5
5939
  8
0
 10
-255.88697567817979
 20
4.1394840351854043
 30
0.0
 11
-259.66516066294128
 21
7.9176690199469126
 31
0.0
  0
LINE
  5
593A
  8
0
 10
-278.45516266274137
 20
3.5388652135770542
 30
0.0
 11
-275.00464956265921
 21
6.9893781136290718
 31
0.0
  0
LINE
  5
593B
  8
0
 10
-277.24516066294132
 20
8.4917858500469379
 30
0.0
 11
-277.24516066294132
 21
7.9176159668469381
 31
0.0
  0
LINE
  5
593C
  8
0
 10
-275.00516066294131
 20
6.9897775870469161
 30
0.0
 11
-277.24516066294132
 21
7.9176159668469381
 31
0.0
  0
LINE
  5
593D
  8
0
 10
-289.95516266274137
 20
5.6396820126980174
 30
0.0
 11
-288.45496468522879
 21
4.1394840351854043
 31
0.0
  0
LINE
  5
593E
  8
0
 10
-277.24516066294132
 20
7.9176159668469381
 30
0.0
 11
-281.02329259460282
 21
4.1394840351854043
 31
0.0
  0
LINE
  5
593F
  8
0
 10
-279.5525104897028
 20
4.1394840351854043
 30
0.0
 11
-276.2051606629413
 21
7.4868338619469341
 31
0.0
  0
LINE
  5
5940
  8
0
 10
-289.95516266274137
 20
5.6396820126979597
 30
0.0
 11
-289.95516266274137
 21
27.039682012698002
 31
0.0
  0
LINE
  5
5941
  8
0
 10
-278.0518264262671
 20
9.2984518787319814
 30
0.0
 11
-277.24516066294132
 21
8.4917858500469379
 31
0.0
  0
LINE
  5
5942
  8
0
 10
-276.2051606629413
 20
8.9225678547469158
 30
0.0
 11
-276.2051606629413
 21
7.4868338619469341
 31
0.0
  0
LINE
  5
5943
  8
0
 10
-275.00516066294131
 20
9.4196240139469296
 30
0.0
 11
-277.24516066294132
 21
8.4917858500469379
 31
0.0
  0
LINE
  5
5944
  8
0
 10
-246.9551626627414
 20
5.6396820126979597
 30
0.0
 11
-246.9551626627414
 21
27.039682012698002
 31
0.0
  0
LINE
  5
5945
  8
0
 10
-261.90516066294128
 20
9.4189709137469322
 30
0.0
 11
-259.66516066294128
 21
8.4911319405469214
 31
0.0
  0
LINE
  5
5946
  8
0
 10
-260.70516066294141
 20
7.4868869150469086
 30
0.0
 11
-260.70516066294141
 21
8.9219143209469394
 31
0.0
  0
LINE
  5
5947
  8
0
 10
-259.66516066294128
 20
8.4911319405469214
 30
0.0
 11
-258.85851740860409
 21
9.2977744651506953
 31
0.0
  0
LINE
  5
5948
  8
0
 10
-261.19511846274128
 20
16.939682013646909
 30
0.0
 11
-260.79562396014131
 21
16.54018751104692
 31
0.0
  0
LINE
  5
5949
  8
0
 10
-260.79693835074141
 20
10.52719222344691
 30
0.0
 11
-261.90516066294128
 21
9.4189709137469322
 31
0.0
  0
LINE
  5
594A
  8
0
 10
-258.45516266274137
 20
12.86896801404691
 30
0.0
 11
-258.86269500524128
 21
12.4614361458469
 31
0.0
  0
ARC
  5
594B
  8
0
 10
-258.67520601254142
 20
10.3397038635469
 30
0.0
 40
2.129999999999999
 50
95.049881965097967
 51
174.95013512120039
  0
LINE
  5
594C
  8
0
 10
-258.45516266274137
 20
14.199726213646921
 30
0.0
 11
-258.45516266274137
 21
12.86896801404691
 31
0.0
  0
ARC
  5
594D
  8
0
 10
-258.67496181254143
 20
16.73941616374691
 30
0.0
 40
2.129999999999999
 50
185.36698178750069
 51
264.63301821250087
  0
LINE
  5
594E
  8
0
 10
-258.87419046534143
 20
14.618754016246919
 30
0.0
 11
-258.45516266274137
 21
14.199726213646921
 31
0.0
  0
LINE
  5
594F
  8
0
 10
-276.11465716534133
 20
16.54018751104692
 30
0.0
 11
-275.71516266274142
 21
16.939682013646909
 31
0.0
  0
LINE
  5
5950
  8
0
 10
-275.00516066294131
 20
9.4196240139469296
 30
0.0
 11
-276.11367041794131
 21
10.52813413354693
 31
0.0
  0
ARC
  5
5951
  8
0
 10
-278.2353193128414
 20
10.3397038635469
 30
0.0
 40
2.129999999999999
 50
5.0753009505003996
 51
84.924724058898633
  0
LINE
  5
5952
  8
0
 10
-278.0468899689414
 20
12.46135284074694
 30
0.0
 11
-278.45516266274137
 21
12.8696256137469
 31
0.0
  0
LINE
  5
5953
  8
0
 10
-278.45516266274137
 20
12.8696256137469
 30
0.0
 11
-278.45516266274137
 21
14.19968201364691
 31
0.0
  0
ARC
  5
5954
  8
0
 10
-278.2353193128414
 20
16.73941616374691
 30
0.0
 40
2.129999999999999
 50
275.36698178749913
 51
354.63301821250087
  0
LINE
  5
5955
  8
0
 10
-278.45516266274137
 20
14.19968201364691
 30
0.0
 11
-278.03609066014133
 21
14.618754016246919
 31
0.0
  0
LINE
  5
5956
  8
0
 10
-275.00516066294131
 20
6.9897775870469161
 30
0.0
 11
-275.00516066294131
 21
9.4196240139469296
 31
0.0
  0
LINE
  5
5957
  8
0
 10
-261.90516066294128
 20
9.4189709137469322
 30
0.0
 11
-261.90516066294128
 21
6.9898306402469066
 31
0.0
  0
ARC
  5
5958
  8
0
 10
-258.67495777134019
 20
16.73921818530329
 30
0.0
 40
2.129999999999999
 50
185.36290811337381
 51
264.6370985380517
  0
ARC
  5
5959
  8
0
 10
-258.67495777134019
 20
10.33950588506781
 30
0.0
 40
2.129999999999999
 50
95.049881965107787
 51
174.95013512119709
  0
ARC
  5
595A
  8
0
 10
-278.2350710715757
 20
10.33950588506781
 30
0.0
 40
2.129999999999999
 50
5.0753009504660742
 51
84.924724058901901
  0
ARC
  5
595B
  8
0
 10
-278.2350710715757
 20
16.73921818530329
 30
0.0
 40
2.129999999999999
 50
275.39251268205612
 51
354.60749637709461
  0
LINE
  5
595C
  8
µę˝u
 10
-265.45516266274137
 20
8.2394840351852832
 30
0.0
 11
-265.45516266274137
 21
0.039506420458963
 31
0.0
  0
LINE
  5
595D
  8
µę˝u
 10
-271.45516266274137
 20
8.2394840351852832
 30
0.0
 11
-271.45516266274137
 21
0.039506420458963
 31
0.0
  0
LINE
  5
595E
  8
0
 10
-278.45516266274137
 20
0.5395331047463685
 30
0.0
 11
-277.4551122768429
 21
-0.4605159648145332
 31
0.0
  0
LINE
  5
595F
  8
µę˝u
 10
-271.45516266274137
 20
0.039506420458963
 30
0.0
 11
-265.45540007938018
 21
0.039465722069906
 31
0.0
  0
LINE
  5
5960
  8
0
 10
-259.45442911334101
 20
-0.4605159648145332
 30
0.0
 11
-265.45524100332722
 21
-0.4605159648145332
 31
0.0
  0
LINE
  5
5961
  8
µę˝u
 10
-264.95543195848143
 20
-0.4605159648145332
 30
0.0
 11
-265.45540007938018
 21
0.039465722069906
 31
0.0
  0
LINE
  5
5962
  8
0
 10
-265.9552409727242
 20
0.0394840351854384
 30
0.0
 11
-265.45524100332722
 21
-0.4605159648145332
 31
0.0
  0
LINE
  5
5963
  8
0
 10
-258.45516266274137
 20
0.5387504851857728
 30
0.0
 11
-259.45442911334101
 21
-0.4605159648145332
 31
0.0
  0
LINE
  5
5964
  8
0
 10
-271.45444903740662
 20
-0.4605159648145332
 30
0.0
 11
-277.4551122768429
 21
-0.4605159648145332
 31
0.0
  0
LINE
  5
5965
  8
µę˝u
 10
-271.9551850480151
 20
-0.4605159648145332
 30
0.0
 11
-271.45516266274137
 21
0.039506420458963
 31
0.0
  0
LINE
  5
5966
  8
0
 10
-271.45444903740662
 20
-0.4605159648145332
 30
0.0
 11
-270.9544490827758
 21
0.0394840351854384
 31
0.0
  0
LINE
  5
5967
  8
0
 10
-270.9544490827758
 20
0.0394840351854384
 30
0.0
 11
-265.9552409727242
 21
0.0394840351854384
 31
0.0
  0
LINE
  5
5968
  8
0
 10
-278.45501442145797
 20
14.19852863585632
 30
0.0
 11
-278.03489747549969
 21
14.618645024237139
 31
0.0
  0
LINE
  5
5969
  8
0
 10
-278.45501442145797
 20
14.19852863585632
 30
0.0
 11
-278.45501442145809
 21
12.869527635271369
 31
0.0
  0
LINE
  5
596A
  8
0
 10
-278.45501442145809
 20
12.869527635271369
 30
0.0
 11
-278.04664172765138
 21
12.46115486224295
 31
0.0
  0
LINE
  5
596B
  8
µę˝u
 10
-263.70516266274137
 20
16.639484035185369
 30
0.0
 11
-263.70516266274137
 21
8.5394840351854668
 31
0.0
  0
LINE
  5
596C
  8
0
 10
-261.90496562145842
 20
9.418719735534637
 30
0.0
 11
-260.7966901095275
 21
10.526994244947391
 31
0.0
  0
LINE
  5
596D
  8
µę˝u
 10
-265.45528476274143
 20
8.2394840351852832
 30
0.0
 11
-265.15528476274142
 21
8.5394840351854668
 31
0.0
  0
LINE
  5
596E
  8
0
 10
-258.87403540034779
 20
14.618541855065979
 30
0.0
 11
-258.45501442145792
 21
14.199521035026059
 31
0.0
  0
LINE
  5
596F
  8
0
 10
-258.45501442145792
 20
14.199521035026059
 30
0.0
 11
-258.45501442145769
 21
12.868670035649069
 31
0.0
  0
LINE
  5
5970
  8
0
 10
-258.86244676394642
 20
12.46123816734365
 30
0.0
 11
-258.45501442145769
 21
12.868670035649069
 31
0.0
  0
LINE
  5
5971
  8
0
 10
-261.2949777213945
 20
17.03948403518547
 30
0.0
 11
-260.79563407846672
 21
16.54014031010783
 31
0.0
  0
LINE
  5
5972
  8
µę˝u
 10
-263.70474284177169
 20
16.639483355903419
 30
0.0
 11
-263.47380234246009
 21
17.039484034236519
 31
0.0
  0
LINE
  5
5973
  8
µę˝u
 10
-273.20516266274137
 20
16.639484035185369
 30
0.0
 11
-273.20516266274137
 21
8.5394840351854668
 31
0.0
  0
LINE
  5
5974
  8
0
 10
-276.11342217664941
 20
10.52793615508309
 30
0.0
 11
-275.00481912145813
 21
9.419332735228636
 31
0.0
  0
LINE
  5
5975
  8
µę˝u
 10
-271.45516266274137
 20
8.2394840351852832
 30
0.0
 11
-271.75516266274133
 21
8.5394840351854668
 31
0.0
  0
LINE
  5
5976
  8
µę˝u
 10
-273.20521214242768
 20
16.639483356852391
 30
0.0
 11
-273.43615264173951
 21
17.03948403518547
 31
0.0
  0
LINE
  5
5977
  8
0
 10
-276.11449787885971
 20
16.539044924515281
 30
0.0
 11
-275.61405852123818
 21
17.03948403518547
 31
0.0
  0
LINE
  5
5978
  8
µę˝u
 10
-273.20516266274137
 20
8.5394840351854668
 30
0.0
 11
-263.70516266274137
 21
8.5394840351854668
 31
0.0
  0
LINE
  5
5979
  8
µę˝u
 10
-271.45516266274137
 20
8.2394840351852832
 30
0.0
 11
-265.45516266274137
 21
8.2394840351852832
 31
0.0
  0
LINE
  5
597A
  8
0
 10
-275.61405852123818
 20
17.03948403518547
 30
0.0
 11
-261.2949777213945
 21
17.03948403518547
 31
0.0
  0
LINE
  5
597B
  8
µę˝u
 10
-273.20516401940802
 20
16.639484035185369
 30
0.0
 11
-263.70516266274137
 21
16.639484035185369
 31
0.0
  0
LINE
  5
597C
  8
0
 10
-275.00481912145813
 20
9.419332735228636
 30
0.0
 11
-275.00481912145813
 21
6.9890065351956991
 31
0.0
  0
LINE
  5
597D
  8
0
 10
-261.90496562145842
 20
9.418719735534637
 30
0.0
 11
-261.90496562145768
 21
6.9895124352275673
 31
0.0
  0
LINE
  5
597E
  8
¤¤¤ß˝u
 10
-268.45516266274137
 20
31.552340610346359
 30
0.0
 11
-268.45516266274137
 21
-2.3562437922196571
 31
0.0
  0
LINE
  5
597F
  8
0
 10
-278.45516266274137
 20
3.5388652135770542
 30
0.0
 11
-278.45516266274137
 21
0.5395331047463685
 31
0.0
  0
LINE
  5
5980
  8
0
 10
-258.45516266274137
 20
3.539903013765012
 30
0.0
 11
-258.45516266274137
 21
0.5387504851857728
 31
0.0
  0
LINE
  5
5981
  8
0
 10
-271.37942647381021
 20
19.179682013646921
 30
0.0
 11
-276.64300104244143
 21
19.179682013646921
 31
0.0
  0
LINE
  5
5982
  8
0
 10
-247.4549646852289
 20
29.539484035185499
 30
0.0
 11
-256.4553606402539
 21
29.539484035185499
 31
0.0
  0
LINE
  5
5983
  8
0
 10
-264.4549646852289
 20
29.53948403518552
 30
0.0
 11
-272.4553606402539
 21
29.53948403518552
 31
0.0
  0
LINE
  5
5984
  8
0
 10
-280.45496468522902
 20
29.53948403518552
 30
0.0
 11
-289.4553606402539
 21
29.53948403518552
 31
0.0
  0
LINE
  5
5985
  8
0
 10
-248.45536064025401
 20
4.1394840351854043
 30
0.0
 11
-259.05474361464331
 21
4.1394840351854043
 31
0.0
  0
LINE
  5
5986
  8
0
 10
-277.85454380631438
 20
4.1394840351854043
 30
0.0
 11
-288.45496468522879
 21
4.1394840351854043
 31
0.0
  0
ARC
  5
5987
  8
0
 10
-180.45005665336501
 20
15.559231729802571
 30
0.0
 40
1.220011576012179
 50
180.92764278799751
 51
254.03697783117121
  0
LINE
  5
5988
  8
0
 10
-181.6699083322174
 20
17.53948009178546
 30
0.0
 11
-181.6699083322174
 21
15.53948009178546
 31
0.0
  0
ARC
  5
5989
  8
0
 10
-180.45005665336501
 20
17.519728453768352
 30
0.0
 40
1.220011576012179
 50
105.9630221688287
 51
179.0723572120024
  0
ARC
  5
598A
  8
0
 10
-90.689760011069922
 20
15.559231729802571
 30
0.0
 40
1.220011576012179
 50
285.96302216882867
 51
359.07235721200237
  0
LINE
  5
598B
  8
0
 10
-89.469908332217514
 20
17.53948009178546
 30
0.0
 11
-89.469908332217514
 21
15.53948009178546
 31
0.0
  0
ARC
  5
598C
  8
0
 10
-90.689760011069922
 20
17.519728453768352
 30
0.0
 40
1.220011576012179
 50
0.9276427879975832
 51
74.036977831171257
  0
ARC
  5
598D
  8
0
 10
-187.7996219319337
 20
98.389088326771287
 30
0.0
 40
1.220011576012179
 50
180.92764278799589
 51
254.03697783117121
  0
LINE
  5
598E
  8
0
 10
-189.01947361078621
 20
100.3693366887543
 30
0.0
 11
-189.01947361078621
 21
98.369336688754288
 31
0.0
  0
ARC
  5
598F
  8
0
 10
-187.7996219319337
 20
100.3495850507371
 30
0.0
 40
1.220011576012179
 50
105.9630221688287
 51
179.07235721200081
  0
ARC
  5
5990
  8
0
 10
-187.7996219319337
 20
135.8890883267714
 30
0.0
 40
1.220011576012179
 50
180.92764278799589
 51
254.03697783117121
  0
LINE
  5
5991
  8
0
 10
-189.01947361078621
 20
137.86933668875429
 30
0.0
 11
-189.01947361078621
 21
135.86933668875429
 31
0.0
  0
ARC
  5
5992
  8
0
 10
-187.7996219319337
 20
137.84958505073729
 30
0.0
 40
1.220011576012179
 50
105.9630221688287
 51
179.07235721200081
  0
ARC
  5
5993
  8
0
 10
-98.039325289638626
 20
98.389088326771287
 30
0.0
 40
1.220011576012179
 50
285.96302216882867
 51
359.07235721200408
  0
LINE
  5
5994
  8
0
 10
-96.819473610786218
 20
100.3693366887543
 30
0.0
 11
-96.819473610786218
 21
98.369336688754288
 31
0.0
  0
ARC
  5
5995
  8
0
 10
-98.039325289638626
 20
100.3495850507371
 30
0.0
 40
1.220011576012179
 50
0.9276427879992114
 51
74.036977831171285
  0
ARC
  5
5996
  8
0
 10
-98.039325289638626
 20
135.8890883267714
 30
0.0
 40
1.220011576012179
 50
285.96302216882867
 51
359.07235721200408
  0
LINE
  5
5997
  8
0
 10
-96.819473610786105
 20
137.86933668875429
 30
0.0
 11
-96.819473610786105
 21
135.86933668875429
 31
0.0
  0
ARC
  5
5998
  8
0
 10
-98.039325289638626
 20
137.84958505073729
 30
0.0
 40
1.220011576012179
 50
0.9276427879992114
 51
74.036977831171285
  0
LINE
  5
5999
  8
0
 10
-90.354236191575922
 20
4.1394840351852622
 30
0.0
 11
-180.78558047285901
 21
4.1394840351855464
 31
0.0
  0
LINE
  5
599A
  8
0
 10
-181.66990833221749
 20
16.425388949624249
 30
0.0
 11
-190.74700466148369
 21
16.425388949624249
 31
0.0
  0
LINE
  5
599B
  8
0
 10
-181.6699083322174
 20
17.039484035185581
 30
0.0
 11
-223.9014509730404
 21
17.039484035185659
 31
0.0
  0
LINE
  5
599C
  8
0
 10
-181.34869214221669
 20
14.73407568166385
 30
0.0
 11
-190.20704586043431
 21
14.73407568166385
 31
0.0
  0
LINE
  5
599D
  8
µę˝u
 10
-87.401847558455842
 20
-0.4605159648147037
 30
0.0
 11
-86.901825173182104
 21
0.0395064204587357
 31
0.0
  0
LINE
  5
599E
  8
µę˝u
 10
-86.901825173182104
 20
0.0395064204587357
 30
0.0
 11
-80.902062589820915
 21
0.0394657220697639
 31
0.0
  0
LINE
  5
599F
  8
µę˝u
 10
-80.402094468922243
 20
-0.4605159648147037
 30
0.0
 11
-80.902062589820915
 21
0.0394657220697639
 31
0.0
  0
LINE
  5
59A0
  8
µę˝u
 10
-80.901825173182104
 20
8.2394840351850576
 30
0.0
 11
-80.901825173182104
 21
0.0395064204587357
 31
0.0
  0
LINE
  5
59A1
  8
µę˝u
 10
-80.901947273182117
 20
8.2394840351850576
 30
0.0
 11
-80.601947273182233
 21
8.5394840351852963
 31
0.0
  0
LINE
  5
59A2
  8
µę˝u
 10
-86.901825173182104
 20
8.2394840351850576
 30
0.0
 11
-86.901825173182104
 21
0.0395064204587357
 31
0.0
  0
LINE
  5
59A3
  8
µę˝u
 10
-86.901825173182104
 20
8.2394840351850576
 30
0.0
 11
-87.201825173182115
 21
8.5394840351852963
 31
0.0
  0
LINE
  5
59A4
  8
µę˝u
 10
-88.651825173182118
 20
8.5394840351852963
 30
0.0
 11
-79.151825173182104
 21
8.5394840351852963
 31
0.0
  0
LINE
  5
59A5
  8
µę˝u
 10
-86.901825173182104
 20
8.2394840351850576
 30
0.0
 11
-80.901825173182104
 21
8.2394840351850576
 31
0.0
  0
LINE
  5
59A6
  8
µę˝u
 10
-88.651825173182118
 20
16.639484035185149
 30
0.0
 11
-88.651825173182118
 21
8.5394840351852963
 31
0.0
  0
LINE
  5
59A7
  8
µę˝u
 10
-88.651825354941025
 20
16.639483356852249
 30
0.0
 11
-88.882765854252824
 21
17.039484035185271
 31
0.0
  0
LINE
  5
59A8
  8
µę˝u
 10
-79.151825173182104
 20
16.639484035185149
 30
0.0
 11
-79.151825173182104
 21
8.5394840351852963
 31
0.0
  0
LINE
  5
59A9
  8
µę˝u
 10
-79.151824991423325
 20
16.639483356852249
 30
0.0
 11
-78.920884492111639
 21
17.039484035185271
 31
0.0
  0
LINE
  5
59AA
  8
µę˝u
 10
-88.651826529848819
 20
16.639484035185149
 30
0.0
 11
-79.151825173182104
 21
16.639484035185149
 31
0.0
  0
LINE
  5
59AB
  8
0
 10
-63.901450973040738
 20
17.039484035185659
 30
0.0
 11
-89.469908332217514
 21
17.03948403518547
 31
0.0
  0
LINE
  5
59AC
  8
0
 10
-63.901450973040738
 20
16.425388949624359
 30
0.0
 11
-89.469908332217514
 21
16.425388949624249
 31
0.0
  0
LINE
  5
59AD
  8
0
 10
-63.901450973040738
 20
14.73407568166396
 30
0.0
 11
-89.791124522218325
 21
14.73407568166377
 31
0.0
  0
LINE
  5
59AE
  8
0
 10
-63.901450973040738
 20
14.19949228458557
 30
0.0
 11
-90.354236191575922
 21
14.19949228458557
 31
0.0
  0
LINE
  5
59AF
  8
0
 10
-63.901450973040738
 20
12.869459284585471
 30
0.0
 11
-90.354236191575922
 21
12.86945928458556
 31
0.0
  0
LINE
  5
59B0
  8
0
 10
-63.901450973040738
 20
12.347340836328581
 30
0.0
 11
-90.354236191575922
 21
12.347340836328581
 31
0.0
  0
LINE
  5
59B1
  8
0
 10
-63.901450973040738
 20
10.641673883413141
 30
0.0
 11
-90.354236191575922
 21
10.64167388341326
 31
0.0
  0
LINE
  5
59B2
  8
0
 10
-63.901450973040738
 20
9.4194972845854732
 30
0.0
 11
-90.354236191575922
 21
9.4194972845856721
 31
0.0
  0
LINE
  5
59B3
  8
0
 10
-63.901450973040738
 20
6.9895393845855551
 30
0.0
 11
-90.354236191575922
 21
6.9895393845853562
 31
0.0
  0
LINE
  5
59B4
  8
¤¤¤ß˝u
 10
-83.901450973040539
 20
-0.9605159648144478
 30
0.0
 11
-83.901450973040539
 21
17.639484035185571
 31
0.0
  0
LINE
  5
59B5
  8
0
 10
-63.901450973040738
 20
-0.4605159648144479
 30
0.0
 11
-63.901450973040738
 21
17.039484035185581
 31
0.0
  0
LINE
  5
59B6
  8
¤¤¤ß˝u
 10
-143.9014509730404
 20
-2.1335232925522969
 30
0.0
 11
-143.9014509730404
 21
4.8837591881870699
 31
0.0
  0
LINE
  5
59B7
  8
µę˝u
 10
-140.401600124943
 20
-0.4603203469849291
 30
0.0
 11
-140.90156824584139
 21
0.0396613398993395
 31
0.0
  0
LINE
  5
59B8
  8
µę˝u
 10
-147.40135321447659
 20
-0.4603203469850144
 30
0.0
 11
-146.901330829203
 21
0.0397020382887661
 31
0.0
  0
LINE
  5
59B9
  8
µę˝u
 10
-146.90138848738439
 20
0.039702038288624
 30
0.0
 11
-140.901330829203
 21
0.039702038288624
 31
0.0
  0
LINE
  5
59BA
  8
µę˝u
 10
-140.901330829203
 20
4.1398752846032769
 30
0.0
 11
-140.901330829203
 21
0.0397020382887661
 31
0.0
  0
LINE
  5
59BB
  8
µę˝u
 10
-146.901330829203
 20
4.1398752846032769
 30
0.0
 11
-146.901330829203
 21
0.0397020382887661
 31
0.0
  0
LINE
  5
59BC
  8
0
 10
-223.9014509730404
 20
-0.4605159648143342
 30
0.0
 11
-223.9014509730404
 21
17.039484035185659
 31
0.0
  0
LINE
  5
59BD
  8
¤¤¤ß˝u
 10
-203.9014509730404
 20
-0.9605159648145047
 30
0.0
 11
-203.9014509730404
 21
17.639484035185461
 31
0.0
  0
LINE
  5
59BE
  8
0
 10
-207.40184755845581
 20
-0.4605159648143342
 30
0.0
 11
-206.90182517318209
 21
0.039506420459162
 31
0.0
  0
LINE
  5
59BF
  8
0
 10
-206.90182517318209
 20
0.039506420459162
 30
0.0
 11
-200.90206258982101
 21
0.0394657220700765
 31
0.0
  0
LINE
  5
59C0
  8
0
 10
-200.4020944689222
 20
-0.4605159648143342
 30
0.0
 11
-200.90206258982101
 21
0.0394657220700765
 31
0.0
  0
LINE
  5
59C1
  8
0
 10
-200.90182517318209
 20
8.2394840351854555
 30
0.0
 11
-200.90182517318209
 21
0.039506420459162
 31
0.0
  0
LINE
  5
59C2
  8
0
 10
-200.90194727318209
 20
8.2394840351854555
 30
0.0
 11
-200.60194727318211
 21
8.5394840351856658
 31
0.0
  0
LINE
  5
59C3
  8
0
 10
-206.90182517318209
 20
8.2394840351854555
 30
0.0
 11
-206.90182517318209
 21
0.039506420459162
 31
0.0
  0
LINE
  5
59C4
  8
0
 10
-206.90182517318209
 20
8.2394840351854555
 30
0.0
 11
-207.2018251731821
 21
8.5394840351856658
 31
0.0
  0
LINE
  5
59C5
  8
0
 10
-208.65182517318209
 20
8.5394840351856658
 30
0.0
 11
-199.15182517318209
 21
8.5394840351856658
 31
0.0
  0
LINE
  5
59C6
  8
0
 10
-206.90182517318209
 20
8.2394840351854555
 30
0.0
 11
-200.90182517318209
 21
8.2394840351854555
 31
0.0
  0
LINE
  5
59C7
  8
0
 10
-208.65182517318209
 20
16.639484035185571
 30
0.0
 11
-208.65182517318209
 21
8.5394840351856658
 31
0.0
  0
LINE
  5
59C8
  8
0
 10
-208.651825354941
 20
16.639483356852558
 30
0.0
 11
-208.88276585425291
 21
17.039484035185659
 31
0.0
  0
LINE
  5
59C9
  8
0
 10
-199.15182517318209
 20
16.639484035185571
 30
0.0
 11
-199.15182517318209
 21
8.5394840351856658
 31
0.0
  0
LINE
  5
59CA
  8
0
 10
-199.15182499142321
 20
16.639483356852558
 30
0.0
 11
-198.92088449211161
 21
17.039484035185659
 31
0.0
  0
LINE
  5
59CB
  8
0
 10
-208.65182652984871
 20
16.639484035185571
 30
0.0
 11
-199.15182517318209
 21
16.639484035185571
 31
0.0
  0
LINE
  5
59CC
  8
0
 10
-180.78558047285901
 20
6.989539384585469
 30
0.0
 11
-190.0992440365217
 21
6.989539384585469
 31
0.0
  0
LINE
  5
59CD
  8
0
 10
-180.78558047285901
 20
9.4194972845857592
 30
0.0
 11
-190.6510038913778
 21
9.4194972845856721
 31
0.0
  0
LINE
  5
59CE
  8
0
 10
-180.78558047285901
 20
10.641673883413141
 30
0.0
 11
-190.16168964893541
 21
10.641673883413141
 31
0.0
  0
LINE
  5
59CF
  8
0
 10
-180.78558047285901
 20
12.347340836328581
 30
0.0
 11
-189.47880377652911
 21
12.347340836328581
 31
0.0
  0
LINE
  5
59D0
  8
0
 10
-180.78558047285901
 20
14.19949228458557
 30
0.0
 11
-190.0363778856626
 21
14.19949228458557
 31
0.0
  0
LINE
  5
59D1
  8
0
 10
-180.78558047285901
 20
12.869459284585471
 30
0.0
 11
-189.611759314023
 21
12.869459284585471
 31
0.0
  0
LINE
  5
59D2
  8
«Řşc˝u
 10
-190.8779490578618
 20
4.871133528558488
 30
0.0
 11
-189.98825919944761
 21
-0.4605159648146469
 31
0.0
  0
LINE
  5
59D3
  8
«Řşc˝u
 10
-189.7208817495457
 20
8.0188442721412514
 30
0.0
 11
-190.8779490578618
 21
4.871133528558488
 31
0.0
  0
LINE
  5
59D4
  8
«Řşc˝u
 10
-190.7204036127776
 20
9.2461552722286626
 30
0.0
 11
-189.7208817495457
 21
8.0188442721412514
 31
0.0
  0
LINE
  5
59D5
  8
«Řşc˝u
 10
-189.46003626322181
 20
12.394217083927259
 30
0.0
 11
-190.7204036127776
 21
9.2461552722286626
 31
0.0
  0
LINE
  5
59D6
  8
«Řşc˝u
 10
-190.94305707377859
 20
17.03948403518547
 30
0.0
 11
-189.46003626322181
 21
12.394217083927259
 31
0.0
  0
LINE
  5
59D7
  8
0
 10
-63.901450973040738
 20
3.5396311845854589
 30
0.0
 11
-190.6557618842001
 21
3.5396311845854589
 31
0.0
  0
LINE
  5
59D8
  8
0
 10
-63.901450973040738
 20
0.5398752845855768
 30
0.0
 11
-190.15519401955231
 21
0.5398752845855768
 31
0.0
  0
LINE
  5
59D9
  8
0
 10
-63.901450973040738
 20
-0.4605159648147037
 30
0.0
 11
-223.9014509730404
 21
-0.4605159648143342
 31
0.0
  0
LINE
  5
59DA
  8
0
 10
-102.9699083322175
 20
5.6394840351854887
 30
0.0
 11
-168.1699083322174
 21
5.6394840351854887
 31
0.0
  0
LINE
  5
59DB
  8
0
 10
-102.9699083322175
 20
29.53948403518547
 30
0.0
 11
-168.1699083322174
 21
29.53948403518547
 31
0.0
  0
LINE
  5
59DC
  8
0
 10
-102.9699083322175
 20
28.53948403518547
 30
0.0
 11
-168.1699083322174
 21
28.53948403518547
 31
0.0
  0
LINE
  5
59DD
  8
0
 10
-168.1699083322174
 20
4.1394840351852622
 30
0.0
 11
-168.1699083322174
 21
29.53948403518547
 31
0.0
  0
LINE
  5
59DE
  8
µę˝u
 10
-163.0699083322173
 20
22.939484035185469
 30
0.0
 11
-158.0699083322173
 21
22.939484035185469
 31
0.0
  0
LINE
  5
59DF
  8
µę˝u
 10
-162.66990833221729
 20
28.53948403518547
 30
0.0
 11
-163.66990833221729
 21
29.53948403518547
 31
0.0
  0
LINE
  5
59E0
  8
µę˝u
 10
-163.0699083322173
 20
28.939484035185469
 30
0.0
 11
-163.0699083322173
 21
22.939484035185469
 31
0.0
  0
LINE
  5
59E1
  8
µę˝u
 10
-160.5699083322173
 20
19.32704846988716
 30
0.0
 11
-158.46990833221739
 21
20.539484035185581
 31
0.0
  0
LINE
  5
59E2
  8
¤¤¤ß˝u
 10
-160.56990833221741
 20
30.03948403518547
 30
0.0
 11
-160.56990833221721
 21
18.82704846988716
 31
0.0
  0
LINE
  5
59E3
  8
µę˝u
 10
-160.56990833221721
 20
19.32704846988716
 30
0.0
 11
-162.66990833221729
 21
20.539484035185669
 31
0.0
  0
LINE
  5
59E4
  8
µę˝u
 10
-162.66990833221729
 20
28.53948403518547
 30
0.0
 11
-162.66990833221729
 21
20.539484035185581
 31
0.0
  0
LINE
  5
59E5
  8
µę˝u
 10
-158.4699083322173
 20
28.53948403518547
 30
0.0
 11
-158.46990833221739
 21
20.539484035185581
 31
0.0
  0
LINE
  5
59E6
  8
µę˝u
 10
-158.0699083322173
 20
28.939484035185469
 30
0.0
 11
-158.0699083322173
 21
22.939484035185469
 31
0.0
  0
LINE
  5
59E7
  8
µę˝u
 10
-162.66990833221729
 20
20.539484035185581
 30
0.0
 11
-158.46990833221739
 21
20.539484035185581
 31
0.0
  0
LINE
  5
59E8
  8
µę˝u
 10
-162.66990833221729
 20
28.53948403518547
 30
0.0
 11
-158.4699083322173
 21
28.53948403518547
 31
0.0
  0
LINE
  5
59E9
  8
µę˝u
 10
-158.4699083322173
 20
28.53948403518547
 30
0.0
 11
-157.4699083322173
 21
29.53948403518547
 31
0.0
  0
LINE
  5
59EA
  8
0
 10
-102.9699083322175
 20
4.1394840351852622
 30
0.0
 11
-102.9699083322175
 21
29.53948403518547
 31
0.0
  0
LINE
  5
59EB
  8
¤¤¤ß˝u
 10
-110.56990833221739
 20
30.03948403518547
 30
0.0
 11
-110.5699083322172
 21
18.82704846988716
 31
0.0
  0
LINE
  5
59EC
  8
µę˝u
 10
-110.5699083322173
 20
19.32704846988716
 30
0.0
 11
-108.4699083322174
 21
20.539484035185581
 31
0.0
  0
LINE
  5
59ED
  8
µę˝u
 10
-110.5699083322172
 20
19.32704846988716
 30
0.0
 11
-112.6699083322173
 21
20.539484035185669
 31
0.0
  0
LINE
  5
59EE
  8
µę˝u
 10
-113.0699083322173
 20
28.939484035185469
 30
0.0
 11
-113.0699083322173
 21
22.939484035185469
 31
0.0
  0
LINE
  5
59EF
  8
µę˝u
 10
-112.6699083322173
 20
28.53948403518547
 30
0.0
 11
-112.6699083322173
 21
20.539484035185581
 31
0.0
  0
LINE
  5
59F0
  8
µę˝u
 10
-108.0699083322173
 20
28.939484035185469
 30
0.0
 11
-108.0699083322173
 21
22.939484035185469
 31
0.0
  0
LINE
  5
59F1
  8
µę˝u
 10
-108.4699083322173
 20
28.53948403518547
 30
0.0
 11
-108.4699083322174
 21
20.539484035185581
 31
0.0
  0
LINE
  5
59F2
  8
µę˝u
 10
-113.0699083322173
 20
22.939484035185469
 30
0.0
 11
-108.0699083322173
 21
22.939484035185469
 31
0.0
  0
LINE
  5
59F3
  8
µę˝u
 10
-112.6699083322173
 20
20.539484035185581
 30
0.0
 11
-108.4699083322174
 21
20.539484035185581
 31
0.0
  0
LINE
  5
59F4
  8
µę˝u
 10
-112.6699083322173
 20
28.53948403518547
 30
0.0
 11
-108.4699083322173
 21
28.53948403518547
 31
0.0
  0
LINE
  5
59F5
  8
µę˝u
 10
-112.6699083322173
 20
28.53948403518547
 30
0.0
 11
-113.6699083322173
 21
29.53948403518547
 31
0.0
  0
LINE
  5
59F6
  8
µę˝u
 10
-108.4699083322173
 20
28.53948403518547
 30
0.0
 11
-107.4699083322173
 21
29.53948403518547
 31
0.0
  0
LINE
  5
59F7
  8
¤¤¤ß˝u
 10
-142.91947361078621
 20
142.42933668875429
 30
0.0
 11
-142.91947361078621
 21
93.809336688754286
 31
0.0
  0
LINE
  5
59F8
  8
0
 10
-175.51947361078621
 20
107.0335502511543
 30
0.0
 11
-110.3194736107862
 21
107.0335502511543
 31
0.0
  0
LINE
  5
59F9
  8
0
 10
-175.51947361078621
 20
106.1193366887543
 30
0.0
 11
-110.3194736107862
 21
106.1193366887543
 31
0.0
  0
LINE
  5
59FA
  8
0
 10
-175.51947361078621
 20
96.119336688754302
 30
0.0
 11
-110.3194736107862
 21
96.119336688754302
 31
0.0
  0
LINE
  5
59FB
  8
0
 10
-175.51947361078621
 20
97.119336688754288
 30
0.0
 11
-110.3194736107862
 21
97.119336688754288
 31
0.0
  0
LINE
  5
59FC
  8
0
 10
-175.51947361078621
 20
114.1193366887543
 30
0.0
 11
-110.3194736107862
 21
114.1193366887543
 31
0.0
  0
LINE
  5
59FD
  8
0
 10
-175.51947361078621
 20
113.20512312635429
 30
0.0
 11
-110.3194736107862
 21
113.20512312635429
 31
0.0
  0
LINE
  5
59FE
  8
0
 10
-175.51947361078621
 20
122.1193366887543
 30
0.0
 11
-110.3194736107861
 21
122.1193366887543
 31
0.0
  0
LINE
  5
59FF
  8
0
 10
-175.51947361078621
 20
123.0335502511542
 30
0.0
 11
-110.3194736107861
 21
123.0335502511542
 31
0.0
  0
LINE
  5
5A00
  8
0
 10
-175.51947361078621
 20
129.20512312635429
 30
0.0
 11
-110.3194736107861
 21
129.20512312635429
 31
0.0
  0
LINE
  5
5A01
  8
0
 10
-175.51947361078621
 20
130.11933668875429
 30
0.0
 11
-110.3194736107861
 21
130.11933668875429
 31
0.0
  0
LINE
  5
5A02
  8
0
 10
-175.51947361078621
 20
139.11933668875429
 30
0.0
 11
-110.3194736107861
 21
139.11933668875429
 31
0.0
  0
LINE
  5
5A03
  8
0
 10
-175.51947361078621
 20
140.11933668875429
 30
0.0
 11
-110.3194736107861
 21
140.11933668875429
 31
0.0
  0
LINE
  5
5A04
  8
¤¤¤ß˝u
 10
-96.577273297628381
 20
118.1193366887543
 30
0.0
 11
-189.26167392394399
 21
118.1193366887543
 31
0.0
  0
LINE
  5
5A05
  8
0
 10
-175.51947361078621
 20
140.11933668875429
 30
0.0
 11
-175.51947361078621
 21
96.119336688754302
 31
0.0
  0
ARC
  5
5A06
  8
AM4
 10
-167.91947361078621
 20
134.11933668875429
 30
0.0
 40
2.5
 50
263.10789742065339
 51
186.89210257934641
  0
LINE
  5
5A07
  8
¤¤¤ß˝u
 10
-167.91947361078621
 20
131.11933668875429
 30
0.0
 11
-167.91947361078621
 21
137.11933668875429
 31
0.0
  0
LINE
  5
5A08
  8
¤¤¤ß˝u
 10
-170.91947361078621
 20
134.11933668875429
 30
0.0
 11
-164.9194736107861
 21
134.11933668875429
 31
0.0
  0
CIRCLE
  5
5A09
  8
0
 10
-167.91947361078621
 20
134.11933668875429
 30
0.0
 40
2.1000000000000001
  0
LINE
  5
5A0A
  8
¤¤¤ß˝u
 10
-117.9194736107862
 20
131.11933668875429
 30
0.0
 11
-117.9194736107862
 21
137.11933668875429
 31
0.0
  0
ARC
  5
5A0B
  8
AM4
 10
-117.9194736107863
 20
134.11933668875429
 30
0.0
 40
2.5
 50
263.10789742065339
 51
186.89210257934641
  0
LINE
  5
5A0C
  8
¤¤¤ß˝u
 10
-114.9194736107862
 20
134.11933668875429
 30
0.0
 11
-120.9194736107862
 21
134.11933668875429
 31
0.0
  0
CIRCLE
  5
5A0D
  8
0
 10
-117.9194736107862
 20
134.11933668875429
 30
0.0
 40
2.1000000000000001
  0
ARC
  5
5A0E
  8
AM4
 10
-167.91947361078621
 20
102.1193366887543
 30
0.0
 40
2.5
 50
263.10789742065339
 51
186.89210257934641
  0
CIRCLE
  5
5A0F
  8
0
 10
-167.91947361078621
 20
102.1193366887543
 30
0.0
 40
2.1000000000000001
  0
LINE
  5
5A10
  8
¤¤¤ß˝u
 10
-167.91947361078621
 20
105.1193366887543
 30
0.0
 11
-167.91947361078621
 21
99.119336688754288
 31
0.0
  0
LINE
  5
5A11
  8
¤¤¤ß˝u
 10
-170.91947361078621
 20
102.1193366887543
 30
0.0
 11
-164.9194736107861
 21
102.1193366887543
 31
0.0
  0
LINE
  5
5A12
  8
¤¤¤ß˝u
 10
-117.9194736107862
 20
105.1193366887543
 30
0.0
 11
-117.9194736107862
 21
99.119336688754288
 31
0.0
  0
ARC
  5
5A13
  8
AM4
 10
-117.9194736107863
 20
102.1193366887543
 30
0.0
 40
2.5
 50
263.10789742065339
 51
186.89210257934641
  0
CIRCLE
  5
5A14
  8
0
 10
-117.9194736107862
 20
102.1193366887543
 30
0.0
 40
2.1000000000000001
  0
LINE
  5
5A15
  8
¤¤¤ß˝u
 10
-114.9194736107862
 20
102.1193366887543
 30
0.0
 11
-120.9194736107862
 21
102.1193366887543
 31
0.0
  0
LINE
  5
5A16
  8
0
 10
-110.3194736107861
 20
140.11933668875429
 30
0.0
 11
-110.3194736107862
 21
96.119336688754302
 31
0.0
  0
LINE
  5
5A17
  8
0
 10
-102.9699083322175
 20
28.53948403518547
 30
0.0
 11
-90.354236191575922
 21
28.53948403518547
 31
0.0
  0
LINE
  5
5A18
  8
0
 10
-102.9699083322175
 20
27.03948797848545
 30
0.0
 11
-91.854236191575922
 21
27.03948797848545
 31
0.0
  0
CIRCLE
  5
5A19
  8
0
 10
-96.554236191576024
 20
22.539484035185271
 30
0.0
 40
1.0
  0
LINE
  5
5A1A
  8
¤¤¤ß˝u
 10
-92.804236191576024
 20
22.539484035185271
 30
0.0
 11
-100.304236191576
 21
22.539484035185271
 31
0.0
  0
LINE
  5
5A1B
  8
¤¤¤ß˝u
 10
-96.554236191576024
 20
18.789484035185271
 30
0.0
 11
-96.554236191576024
 21
26.289484035185271
 31
0.0
  0
CIRCLE
  5
5A1C
  8
0
 10
-96.554236191576024
 20
22.539484035185271
 30
0.0
 40
3.1447818619999981
  0
CIRCLE
  5
5A1D
  8
0
 10
-96.554236191576024
 20
22.539484035185271
 30
0.0
 40
2.4999999728999991
  0
CIRCLE
  5
5A1E
  8
0
 10
-96.554236191576024
 20
22.539484035185271
 30
0.0
 40
2.8277919627000001
  0
LINE
  5
5A1F
  8
0
 10
-91.854236191575922
 20
4.1394840351854887
 30
0.0
 11
-91.854236191575922
 21
28.53948797848545
 31
0.0
  0
LINE
  5
5A20
  8
0
 10
-90.354236191575922
 20
4.1394840351852622
 30
0.0
 11
-90.354236191575922
 21
28.53948403518547
 31
0.0
  0
LINE
  5
5A21
  8
0
 10
-91.854236191575922
 20
27.03948403518547
 30
0.0
 11
-90.354236191575922
 21
27.03948403518547
 31
0.0
  0
LINE
  5
5A22
  8
0
 10
-102.9699083322175
 20
5.6394800917854857
 30
0.0
 11
-90.354236191575922
 21
5.6394800917854857
 31
0.0
  0
LINE
  5
5A23
  8
0
 10
-179.28558047285901
 20
4.1394840351854887
 30
0.0
 11
-179.28558047285901
 21
28.53948797848545
 31
0.0
  0
CIRCLE
  5
5A24
  8
0
 10
-174.58558047285891
 20
22.539484035185271
 30
0.0
 40
2.8277919627000001
  0
CIRCLE
  5
5A25
  8
0
 10
-174.58558047285891
 20
22.539484035185271
 30
0.0
 40
2.4999999728999991
  0
CIRCLE
  5
5A26
  8
0
 10
-174.58558047285891
 20
22.539484035185271
 30
0.0
 40
3.1447818619999981
  0
LINE
  5
5A27
  8
¤¤¤ß˝u
 10
-174.58558047285891
 20
18.789484035185271
 30
0.0
 11
-174.58558047285891
 21
26.289484035185271
 31
0.0
  0
LINE
  5
5A28
  8
¤¤¤ß˝u
 10
-178.33558047285891
 20
22.539484035185271
 30
0.0
 11
-170.83558047285891
 21
22.539484035185271
 31
0.0
  0
CIRCLE
  5
5A29
  8
0
 10
-174.58558047285891
 20
22.539484035185271
 30
0.0
 40
1.0
  0
LINE
  5
5A2A
  8
0
 10
-168.1699083322174
 20
27.03948797848545
 30
0.0
 11
-179.28558047285901
 21
27.03948797848545
 31
0.0
  0
LINE
  5
5A2B
  8
0
 10
-180.78558047285901
 20
4.1394840351855464
 30
0.0
 11
-180.78558047285901
 21
28.53948403518547
 31
0.0
  0
LINE
  5
5A2C
  8
0
 10
-179.28558047285901
 20
27.03948403518547
 30
0.0
 11
-180.78558047285901
 21
27.03948403518547
 31
0.0
  0
LINE
  5
5A2D
  8
0
 10
-168.1699083322174
 20
28.53948403518547
 30
0.0
 11
-180.78558047285901
 21
28.53948403518547
 31
0.0
  0
LINE
  5
5A2E
  8
¤¤¤ß˝u
 10
-195.78557871384231
 20
23.539484035185581
 30
0.0
 11
-180.4811105993054
 21
23.539484035185581
 31
0.0
  0
ARC
  5
5A2F
  8
0
 10
-181.59396347285909
 20
21.539503366285661
 30
0.0
 40
2.9541109999999762
 50
137.38859300450039
 51
222.6114069976017
  0
ARC
  5
5A30
  8
0
 10
-181.59396247285909
 20
25.539503366285569
 30
0.0
 40
2.954111999999975
 50
137.3885980022001
 51
222.61140199989731
  0
POLYLINE
  5
5A31
  8
0
 66
     1
 10
0.0
 20
0.0
 30
0.0
  0
VERTEX
  5
5B45
  8
0
 10
-191.876791472859
 20
23.539503366285569
 30
0.0
  0
VERTEX
  5
5B46
  8
0
 10
-191.90960947285899
 20
23.74975836628559
 30
0.0
  0
VERTEX
  5
5B47
  8
0
 10
-191.953756472859
 20
23.855245366285459
 30
0.0
  0
VERTEX
  5
5B48
  8
0
 10
-192.01678947285899
 20
23.953024366285579
 30
0.0
  0
VERTEX
  5
5B49
  8
0
 10
-192.09626547285899
 20
24.037137366285581
 30
0.0
  0
VERTEX
  5
5B4A
  8
0
 10
-192.18775647285901
 20
24.103010366285591
 30
0.0
  0
VERTEX
  5
5B4B
  8
0
 10
-192.285676472859
 20
24.148291366285459
 30
0.0
  0
VERTEX
  5
5B4C
  8
0
 10
-192.41831247285899
 20
24.17723236628547
 30
0.0
  0
VERTEX
  5
5B4D
  8
0
 10
-192.54132147285901
 20
24.174573366285468
 30
0.0
  0
VERTEX
  5
5B4E
  8
0
 10
-192.648245472859
 20
24.149067366285578
 30
0.0
  0
VERTEX
  5
5B4F
  8
0
 10
-192.76445047285901
 20
24.093299366285581
 30
0.0
  0
VERTEX
  5
5B50
  8
0
 10
-192.87502047285901
 20
24.003810366285592
 30
0.0
  0
VERTEX
  5
5B51
  8
0
 10
-192.96325047285899
 20
23.88926036628558
 30
0.0
  0
VERTEX
  5
5B52
  8
0
 10
-193.01988447285899
 20
23.769421366285599
 30
0.0
  0
VERTEX
  5
5B53
  8
0
 10
-193.04773547285899
 20
23.665765366285338
 30
0.0
  0
VERTEX
  5
5B54
  8
0
 10
-193.05935647285901
 20
23.539503366285569
 30
0.0
  0
VERTEX
  5
5B55
  8
0
 10
-193.02653847285899
 20
23.329248366285579
 30
0.0
  0
VERTEX
  5
5B56
  8
0
 10
-192.98239047285901
 20
23.223760366285578
 30
0.0
  0
VERTEX
  5
5B57
  8
0
 10
-192.91935847285899
 20
23.125982366285601
 30
0.0
  0
VERTEX
  5
5B58
  8
0
 10
-192.83988247285899
 20
23.041869366285599
 30
0.0
  0
VERTEX
  5
5B59
  8
0
 10
-192.748391472859
 20
22.975996366285589
 30
0.0
  0
VERTEX
  5
5B5A
  8
0
 10
-192.65047147285901
 20
22.930715366285369
 30
0.0
  0
VERTEX
  5
5B5B
  8
0
 10
-192.51783547285899
 20
22.901773366285369
 30
0.0
  0
VERTEX
  5
5B5C
  8
0
 10
-192.39482647285899
 20
22.904433366285591
 30
0.0
  0
VERTEX
  5
5B5D
  8
0
 10
-192.287902472859
 20
22.929938366285601
 30
0.0
  0
VERTEX
  5
5B5E
  8
0
 10
-192.17169747285899
 20
22.985706366285601
 30
0.0
  0
VERTEX
  5
5B5F
  8
0
 10
-192.061127472859
 20
23.075196366285471
 30
0.0
  0
VERTEX
  5
5B60
  8
0
 10
-191.97289747285899
 20
23.189745366285589
 30
0.0
  0
VERTEX
  5
5B61
  8
0
 10
-191.91626347285899
 20
23.309584366285581
 30
0.0
  0
VERTEX
  5
5B62
  8
0
 10
-191.88841147285899
 20
23.413241366285568
 30
0.0
  0
VERTEX
  5
5B63
  8
0
 10
-191.876791472859
 20
23.539503366285569
 30
0.0
  0
SEQEND
  5
5B64
  8
0
  0
ARC
  5
5A32
  8
0
 10
-188.296414472859
 20
23.539503366285569
 30
0.0
 40
3.999999999999968
 50
90.0
 51
131.4096219995989
  0
ARC
  5
5A33
  8
0
 10
-188.296414472859
 20
23.539503366285569
 30
0.0
 40
3.999999999999968
 50
228.59037799730081
 51
270.0
  0
LINE
  5
5A34
  8
0
 10
-180.78558047285901
 20
27.539503366285579
 30
0.0
 11
-188.296414472859
 21
27.539503366285579
 31
0.0
  0
LINE
  5
5A35
  8
0
 10
-183.76807847285909
 20
23.539503366285569
 30
0.0
 11
-180.78558047285901
 21
23.539503366285569
 31
0.0
  0
LINE
  5
5A36
  8
0
 10
-188.296414472859
 20
19.539503366285569
 30
0.0
 11
-180.78558047285901
 21
19.539503366285569
 31
0.0
  0
LINE
  5
5A37
  8
0
 10
-184.5480744728591
 20
27.539503366285579
 30
0.0
 11
-184.5480744728591
 21
19.539503366285569
 31
0.0
  0
LINE
  5
5A38
  8
0
 10
-191.82385147285899
 20
26.539503366285569
 30
0.0
 11
-187.92407547285899
 21
26.539503366285569
 31
0.0
  0
LINE
  5
5A39
  8
0
 10
-192.070244472859
 20
21.001430366285579
 30
0.0
 11
-191.82385147285899
 21
20.539503366285569
 31
0.0
  0
LINE
  5
5A3A
  8
0
 10
-191.82385147285899
 20
26.539503366285569
 30
0.0
 11
-192.070244472859
 21
26.077576366285601
 31
0.0
  0
LINE
  5
5A3B
  8
0
 10
-187.02323347285909
 20
23.539503366285569
 30
0.0
 11
-186.32386947285909
 21
23.539503366285569
 31
0.0
  0
LINE
  5
5A3C
  8
0
 10
-187.92407547285899
 20
26.539503366285569
 30
0.0
 11
-186.32386947285909
 21
23.539503366285569
 31
0.0
  0
LINE
  5
5A3D
  8
0
 10
-187.92407547285899
 20
20.539503366285569
 30
0.0
 11
-191.82385147285899
 21
20.539503366285569
 31
0.0
  0
LINE
  5
5A3E
  8
0
 10
-186.32386947285909
 20
23.539503366285569
 30
0.0
 11
-187.92407547285899
 21
20.539503366285569
 31
0.0
  0
LINE
  5
5A3F
  8
0
 10
-191.70277247285901
 20
26.069037366285588
 30
0.0
 11
-191.28430547285899
 21
26.3111413662856
 31
0.0
  0
LINE
  5
5A40
  8
0
 10
-191.70277247285901
 20
21.009968366285591
 30
0.0
 11
-191.28430547285899
 21
20.767864366285579
 31
0.0
  0
LINE
  5
5A41
  8
0
 10
-191.28430547285899
 20
26.3111413662856
 30
0.0
 11
-190.764365472859
 21
26.48185936628548
 31
0.0
  0
LINE
  5
5A42
  8
0
 10
-191.28430547285899
 20
20.767864366285579
 30
0.0
 11
-190.764365472859
 21
20.597147366285579
 31
0.0
  0
LINE
  5
5A43
  8
0
 10
-190.764365472859
 20
26.48185936628548
 30
0.0
 11
-190.223645472859
 21
26.539503366285569
 31
0.0
  0
LINE
  5
5A44
  8
0
 10
-190.764365472859
 20
20.597147366285579
 30
0.0
 11
-190.223645472859
 21
20.539503366285569
 31
0.0
  0
LINE
  5
5A45
  8
0
 10
-190.223645472859
 20
26.539503366285569
 30
0.0
 11
-189.68292547285901
 21
26.48185936628548
 31
0.0
  0
LINE
  5
5A46
  8
0
 10
-190.223645472859
 20
20.539503366285569
 30
0.0
 11
-189.68292547285901
 21
20.597147366285579
 31
0.0
  0
LINE
  5
5A47
  8
0
 10
-189.68292547285901
 20
26.48185936628548
 30
0.0
 11
-189.16298547285911
 21
26.3111413662856
 31
0.0
  0
LINE
  5
5A48
  8
0
 10
-189.68292547285901
 20
20.597147366285579
 30
0.0
 11
-189.16298547285911
 21
20.767864366285579
 31
0.0
  0
LINE
  5
5A49
  8
0
 10
-189.16298547285911
 20
26.3111413662856
 30
0.0
 11
-188.68380547285901
 21
26.033912366285591
 31
0.0
  0
LINE
  5
5A4A
  8
0
 10
-189.16298547285911
 20
20.767864366285579
 30
0.0
 11
-188.68380547285901
 21
21.045094366285579
 31
0.0
  0
LINE
  5
5A4B
  8
0
 10
-188.68380547285901
 20
26.033912366285591
 30
0.0
 11
-188.26380147285909
 21
25.660823366285602
 31
0.0
  0
LINE
  5
5A4C
  8
0
 10
-188.68380547285901
 20
21.045094366285579
 30
0.0
 11
-188.26380147285909
 21
21.418182366285581
 31
0.0
  0
LINE
  5
5A4D
  8
0
 10
-188.62343947285899
 20
26.539503366285569
 30
0.0
 11
-187.02323347285909
 21
23.539503366285569
 31
0.0
  0
LINE
  5
5A4E
  8
0
 10
-187.02323347285909
 20
23.539503366285569
 30
0.0
 11
-188.62343947285899
 21
20.539503366285569
 31
0.0
  0
LINE
  5
5A4F
  8
0
 10
-188.26380147285909
 20
25.660823366285602
 30
0.0
 11
-187.91911247285901
 21
25.206213366285599
 31
0.0
  0
LINE
  5
5A50
  8
0
 10
-187.91911247285901
 20
21.87279236628558
 30
0.0
 11
-188.26380147285909
 21
21.418182366285581
 31
0.0
  0
LINE
  5
5A51
  8
0
 10
-187.91911247285901
 20
25.206213366285599
 30
0.0
 11
-187.66298547285911
 21
24.687553366285591
 31
0.0
  0
LINE
  5
5A52
  8
0
 10
-187.66298547285911
 20
22.391452366285591
 30
0.0
 11
-187.91911247285901
 21
21.87279236628558
 31
0.0
  0
LINE
  5
5A53
  8
0
 10
-187.66298547285911
 20
24.687553366285591
 30
0.0
 11
-187.5052634728591
 21
24.124774366285671
 31
0.0
  0
LINE
  5
5A54
  8
0
 10
-187.5052634728591
 20
22.954232366285591
 30
0.0
 11
-187.66298547285911
 21
22.391452366285591
 31
0.0
  0
LINE
  5
5A55
  8
0
 10
-187.5052634728591
 20
24.124774366285671
 30
0.0
 11
-187.45200747285901
 21
23.539503366285569
 31
0.0
  0
LINE
  5
5A56
  8
0
 10
-187.45200747285901
 20
23.539503366285569
 30
0.0
 11
-187.5052634728591
 21
22.954232366285591
 31
0.0
  0
LINE
  5
5A57
  8
0
 10
-193.12754247285901
 20
25.179730366285469
 30
0.0
 11
-193.124571472859
 21
25.178115366285599
 31
0.0
  0
LINE
  5
5A58
  8
0
 10
-193.12754247285901
 20
21.89927536628559
 30
0.0
 11
-193.124571472859
 21
21.900891366285581
 31
0.0
  0
LINE
  5
5A59
  8
0
 10
-194.240252472859
 20
24.03764536628557
 30
0.0
 11
-194.28558047285901
 21
23.539503366285569
 31
0.0
  0
LINE
  5
5A5A
  8
0
 10
-194.106010472859
 20
24.516643366285589
 30
0.0
 11
-194.240252472859
 21
24.03764536628557
 31
0.0
  0
LINE
  5
5A5B
  8
0
 10
-194.28558047285901
 20
23.539503366285569
 30
0.0
 11
-194.240252472859
 21
23.041361366285571
 31
0.0
  0
LINE
  5
5A5C
  8
0
 10
-193.888013472859
 20
24.958091366285569
 30
0.0
 11
-194.106010472859
 21
24.516643366285589
 31
0.0
  0
LINE
  5
5A5D
  8
0
 10
-194.240252472859
 20
23.041361366285571
 30
0.0
 11
-194.106010472859
 21
22.56236236628558
 31
0.0
  0
LINE
  5
5A5E
  8
0
 10
-193.59463747285901
 20
25.345023366285581
 30
0.0
 11
-193.888013472859
 21
24.958091366285569
 31
0.0
  0
LINE
  5
5A5F
  8
0
 10
-194.106010472859
 20
22.56236236628558
 30
0.0
 11
-193.888013472859
 21
22.120915366285569
 31
0.0
  0
LINE
  5
5A60
  8
0
 10
-193.59463747285901
 20
25.345023366285581
 30
0.0
 11
-193.23715947285899
 21
25.662570366285589
 31
0.0
  0
LINE
  5
5A61
  8
0
 10
-193.888013472859
 20
22.120915366285569
 30
0.0
 11
-193.59463747285901
 21
21.73398336628534
 31
0.0
  0
LINE
  5
5A62
  8
0
 10
-194.09154947285899
 20
23.889039366285569
 30
0.0
 11
-194.123355472859
 21
23.539503366285569
 31
0.0
  0
LINE
  5
5A63
  8
0
 10
-193.997354472859
 20
24.225143366285579
 30
0.0
 11
-194.09154947285899
 21
23.889039366285569
 31
0.0
  0
LINE
  5
5A64
  8
0
 10
-194.123355472859
 20
23.539503366285569
 30
0.0
 11
-194.09154947285899
 21
23.189967366285568
 31
0.0
  0
LINE
  5
5A65
  8
0
 10
-193.844390472859
 20
24.534898366285582
 30
0.0
 11
-193.997354472859
 21
24.225143366285579
 31
0.0
  0
LINE
  5
5A66
  8
0
 10
-194.09154947285899
 20
23.189967366285568
 30
0.0
 11
-193.997354472859
 21
22.853863366285601
 31
0.0
  0
LINE
  5
5A67
  8
0
 10
-193.23715947285899
 20
25.662570366285589
 30
0.0
 11
-192.82931447285901
 21
25.898529366285569
 31
0.0
  0
LINE
  5
5A68
  8
0
 10
-193.59463747285901
 20
21.73398336628534
 30
0.0
 11
-193.23715947285899
 21
21.416436366285581
 31
0.0
  0
LINE
  5
5A69
  8
0
 10
-193.63853447285899
 20
24.806400366285569
 30
0.0
 11
-193.844390472859
 21
24.534898366285582
 31
0.0
  0
LINE
  5
5A6A
  8
0
 10
-193.997354472859
 20
22.853863366285601
 30
0.0
 11
-193.844390472859
 21
22.54410836628557
 31
0.0
  0
LINE
  5
5A6B
  8
0
 10
-192.82931447285901
 20
25.898529366285569
 30
0.0
 11
-192.38677747285899
 21
26.04383136628547
 31
0.0
  0
LINE
  5
5A6C
  8
0
 10
-193.23715947285899
 20
21.416436366285581
 30
0.0
 11
-192.82931447285901
 21
21.180477366285569
 31
0.0
  0
LINE
  5
5A6D
  8
0
 10
-193.63853447285899
 20
24.806400366285569
 30
0.0
 11
-193.387699472859
 21
25.0292173662856
 31
0.0
  0
LINE
  5
5A6E
  8
0
 10
-193.844390472859
 20
22.54410836628557
 30
0.0
 11
-193.63853447285899
 21
22.27260536628566
 31
0.0
  0
LINE
  5
5A6F
  8
0
 10
-192.38677747285899
 20
26.04383136628547
 30
0.0
 11
-191.92655447285901
 21
26.092894366285581
 31
0.0
  0
LINE
  5
5A70
  8
0
 10
-192.82931447285901
 20
21.180477366285569
 30
0.0
 11
-192.38677747285899
 21
21.035174366285592
 31
0.0
  0
LINE
  5
5A71
  8
0
 10
-193.387699472859
 20
25.0292173662856
 30
0.0
 11
-193.10152247285899
 21
25.194784366285582
 31
0.0
  0
LINE
  5
5A72
  8
0
 10
-193.63853447285899
 20
22.27260536628566
 30
0.0
 11
-193.387699472859
 21
22.04978936628558
 31
0.0
  0
LINE
  5
5A73
  8
0
 10
-191.32189547285901
 20
26.016484366285599
 30
0.0
 11
-190.88419147285899
 21
25.87276836628547
 31
0.0
  0
LINE
  5
5A74
  8
0
 10
-193.10152247285899
 20
25.194784366285582
 30
0.0
 11
-192.79100347285899
 21
25.296740366285579
 31
0.0
  0
LINE
  5
5A75
  8
0
 10
-193.387699472859
 20
22.04978936628558
 30
0.0
 11
-193.10152247285899
 21
21.884221366285569
 31
0.0
  0
LINE
  5
5A76
  8
0
 10
-191.466331472859
 20
26.04383136628547
 30
0.0
 11
-191.32189547285901
 21
26.016484366285599
 31
0.0
  0
LINE
  5
5A77
  8
0
 10
-191.92655447285901
 20
26.092894366285581
 30
0.0
 11
-191.466331472859
 21
26.04383136628547
 31
0.0
  0
LINE
  5
5A78
  8
0
 10
-192.38677747285899
 20
21.035174366285592
 30
0.0
 11
-191.92655447285901
 21
20.9861123662856
 31
0.0
  0
LINE
  5
5A79
  8
0
 10
-190.88419147285899
 20
25.87276836628547
 30
0.0
 11
-190.48080047285899
 21
25.639386366285581
 31
0.0
  0
LINE
  5
5A7A
  8
0
 10
-191.32189547285901
 20
21.062522366285581
 30
0.0
 11
-190.88419147285899
 21
21.206238366285589
 31
0.0
  0
LINE
  5
5A7B
  8
0
 10
-190.48080047285899
 20
25.639386366285581
 30
0.0
 11
-190.12722547285901
 21
25.325307366285578
 31
0.0
  0
LINE
  5
5A7C
  8
0
 10
-190.88419147285899
 20
21.206238366285589
 30
0.0
 11
-190.48080047285899
 21
21.439620366285592
 31
0.0
  0
LINE
  5
5A7D
  8
0
 10
-192.79100347285899
 20
25.296740366285579
 30
0.0
 11
-192.468073472859
 21
25.331166366285579
 31
0.0
  0
LINE
  5
5A7E
  8
0
 10
-193.10152247285899
 20
21.884221366285569
 30
0.0
 11
-192.79100347285899
 21
21.782265366285571
 31
0.0
  0
LINE
  5
5A7F
  8
0
 10
-191.466331472859
 20
26.04383136628547
 30
0.0
 11
-191.02379447285901
 21
25.898529366285569
 31
0.0
  0
LINE
  5
5A80
  8
0
 10
-191.466331472859
 20
21.035174366285592
 30
0.0
 11
-191.32189547285901
 21
21.062522366285581
 31
0.0
  0
LINE
  5
5A81
  8
0
 10
-191.92655447285901
 20
20.9861123662856
 30
0.0
 11
-191.466331472859
 21
21.035174366285592
 31
0.0
  0
LINE
  5
5A82
  8
0
 10
-190.12722547285901
 20
25.325307366285578
 30
0.0
 11
-189.83705447285899
 21
24.942600366285578
 31
0.0
  0
LINE
  5
5A83
  8
0
 10
-190.48080047285899
 20
21.439620366285592
 30
0.0
 11
-190.12722547285901
 21
21.753699366285591
 31
0.0
  0
LINE
  5
5A84
  8
0
 10
-192.468073472859
 20
25.331166366285579
 30
0.0
 11
-192.14514447285899
 21
25.296740366285579
 31
0.0
  0
LINE
  5
5A85
  8
0
 10
-192.79100347285899
 20
21.782265366285571
 30
0.0
 11
-192.468073472859
 21
21.74783936628566
 31
0.0
  0
LINE
  5
5A86
  8
0
 10
-191.02379447285901
 20
25.898529366285569
 30
0.0
 11
-190.615950472859
 21
25.662570366285589
 31
0.0
  0
LINE
  5
5A87
  8
0
 10
-191.466331472859
 20
21.035174366285592
 30
0.0
 11
-191.02379447285901
 21
21.180477366285569
 31
0.0
  0
LINE
  5
5A88
  8
0
 10
-189.83705447285899
 20
24.942600366285578
 30
0.0
 11
-189.62143747285899
 21
24.505973366285591
 31
0.0
  0
LINE
  5
5A89
  8
0
 10
-189.83705447285899
 20
22.136406366285598
 30
0.0
 11
-190.12722547285901
 21
21.753699366285591
 31
0.0
  0
LINE
  5
5A8A
  8
0
 10
-189.62143747285899
 20
24.505973366285591
 30
0.0
 11
-189.48866147285909
 21
24.032205366285581
 31
0.0
  0
LINE
  5
5A8B
  8
0
 10
-189.62143747285899
 20
22.573033366285589
 30
0.0
 11
-189.83705447285899
 21
22.136406366285598
 31
0.0
  0
LINE
  5
5A8C
  8
0
 10
-190.615950472859
 20
25.662570366285589
 30
0.0
 11
-190.2584714728591
 21
25.345023366285581
 31
0.0
  0
LINE
  5
5A8D
  8
0
 10
-191.02379447285901
 20
21.180477366285569
 30
0.0
 11
-190.615950472859
 21
21.416436366285581
 31
0.0
  0
LINE
  5
5A8E
  8
0
 10
-189.48866147285909
 20
24.032205366285581
 30
0.0
 11
-189.443828472859
 21
23.539503366285569
 31
0.0
  0
LINE
  5
5A8F
  8
0
 10
-189.48866147285909
 20
23.046801366285589
 30
0.0
 11
-189.62143747285899
 21
22.573033366285589
 31
0.0
  0
LINE
  5
5A90
  8
0
 10
-192.14514447285899
 20
25.296740366285579
 30
0.0
 11
-191.83462547285899
 21
25.194784366285582
 31
0.0
  0
LINE
  5
5A91
  8
0
 10
-192.468073472859
 20
21.74783936628566
 30
0.0
 11
-192.14514447285899
 21
21.782265366285571
 31
0.0
  0
LINE
  5
5A92
  8
0
 10
-189.443828472859
 20
23.539503366285569
 30
0.0
 11
-189.48866147285909
 21
23.046801366285589
 31
0.0
  0
LINE
  5
5A93
  8
0
 10
-190.2584714728591
 20
25.345023366285581
 30
0.0
 11
-189.96509647285899
 21
24.958091366285569
 31
0.0
  0
LINE
  5
5A94
  8
0
 10
-190.615950472859
 20
21.416436366285581
 30
0.0
 11
-190.2584714728591
 21
21.73398336628534
 31
0.0
  0
LINE
  5
5A95
  8
0
 10
-191.83462547285899
 20
25.194784366285582
 30
0.0
 11
-191.54844847285901
 21
25.0292173662856
 31
0.0
  0
LINE
  5
5A96
  8
0
 10
-192.14514447285899
 20
21.782265366285571
 30
0.0
 11
-191.83462547285899
 21
21.884221366285569
 31
0.0
  0
LINE
  5
5A97
  8
0
 10
-189.96509647285899
 20
24.958091366285569
 30
0.0
 11
-189.74709947285911
 21
24.516643366285589
 31
0.0
  0
LINE
  5
5A98
  8
0
 10
-189.96509647285899
 20
22.120915366285569
 30
0.0
 11
-190.2584714728591
 21
21.73398336628534
 31
0.0
  0
LINE
  5
5A99
  8
0
 10
-189.74709947285911
 20
24.516643366285589
 30
0.0
 11
-189.61285647285911
 21
24.03764536628557
 31
0.0
  0
LINE
  5
5A9A
  8
0
 10
-189.74709947285911
 20
22.56236236628558
 30
0.0
 11
-189.96509647285899
 21
22.120915366285569
 31
0.0
  0
LINE
  5
5A9B
  8
0
 10
-191.54844847285901
 20
25.0292173662856
 30
0.0
 11
-191.29761347285901
 21
24.806400366285569
 31
0.0
  0
LINE
  5
5A9C
  8
0
 10
-191.83462547285899
 20
21.884221366285569
 30
0.0
 11
-191.54844847285901
 21
22.04978936628558
 31
0.0
  0
LINE
  5
5A9D
  8
0
 10
-189.61285647285911
 20
24.03764536628557
 30
0.0
 11
-189.56752847285901
 21
23.539503366285569
 31
0.0
  0
LINE
  5
5A9E
  8
0
 10
-189.61285647285911
 20
23.041361366285571
 30
0.0
 11
-189.74709947285911
 21
22.56236236628558
 31
0.0
  0
LINE
  5
5A9F
  8
0
 10
-189.56752847285901
 20
23.539503366285569
 30
0.0
 11
-189.61285647285911
 21
23.041361366285571
 31
0.0
  0
LINE
  5
5AA0
  8
0
 10
-191.29761347285901
 20
24.806400366285569
 30
0.0
 11
-191.09175747285909
 21
24.534898366285582
 31
0.0
  0
LINE
  5
5AA1
  8
0
 10
-191.54844847285901
 20
22.04978936628558
 30
0.0
 11
-191.29761347285901
 21
22.27260536628566
 31
0.0
  0
LINE
  5
5AA2
  8
0
 10
-191.09175747285909
 20
24.534898366285582
 30
0.0
 11
-190.938793472859
 21
24.225143366285579
 31
0.0
  0
LINE
  5
5AA3
  8
0
 10
-191.09175747285909
 20
22.54410836628557
 30
0.0
 11
-191.29761347285901
 21
22.27260536628566
 31
0.0
  0
LINE
  5
5AA4
  8
0
 10
-190.938793472859
 20
24.225143366285579
 30
0.0
 11
-190.84459847285899
 21
23.889039366285569
 31
0.0
  0
LINE
  5
5AA5
  8
0
 10
-190.938793472859
 20
22.853863366285601
 30
0.0
 11
-191.09175747285909
 21
22.54410836628557
 31
0.0
  0
LINE
  5
5AA6
  8
0
 10
-190.84459847285899
 20
23.889039366285569
 30
0.0
 11
-190.812792472859
 21
23.539503366285569
 31
0.0
  0
LINE
  5
5AA7
  8
0
 10
-190.84459847285899
 20
23.189967366285568
 30
0.0
 11
-190.938793472859
 21
22.853863366285601
 31
0.0
  0
LINE
  5
5AA8
  8
0
 10
-190.812792472859
 20
23.539503366285569
 30
0.0
 11
-190.84459847285899
 21
23.189967366285568
 31
0.0
  0
POINT
  5
5AA9
  8
0
 10
-194.28558047285901
 20
23.539503366285569
 30
0.0
1001
PNTFLAG
1000
endpoint
  0
LINE
  5
5AAA
  8
0
 10
-168.1699083322174
 20
5.6394800917854857
 30
0.0
 11
-180.78558047285901
 21
5.6394800917854857
 31
0.0
  0
LINE
  5
5AAB
  8
0
 10
-97.703801470144626
 20
108.11659369143381
 30
0.0
 11
-63.901016251609121
 21
108.1158589634128
 31
0.0
  0
LINE
  5
5AAC
  8
0
 10
-97.703801470144626
 20
128.11659370088279
 30
0.0
 11
-63.901016251609228
 21
128.1158589728617
 31
0.0
  0
LINE
  5
5AAD
  8
0
 10
-110.3194736107861
 20
139.61933668875429
 30
0.0
 11
-97.703801470144526
 21
139.61933668875429
 31
0.0
  0
LINE
  5
5AAE
  8
0
 10
-97.703801470144626
 20
96.619336688754288
 30
0.0
 11
-97.703801470144526
 21
139.61933668875429
 31
0.0
  0
LINE
  5
5AAF
  8
0
 10
-99.203801470144626
 20
96.619336688754288
 30
0.0
 11
-99.203801470144526
 21
139.61933668875429
 31
0.0
  0
LINE
  5
5AB0
  8
0
 10
-110.3194736107862
 20
96.619336688754288
 30
0.0
 11
-97.703801470144626
 21
96.619336688754288
 31
0.0
  0
LINE
  5
5AB1
  8
0
 10
-63.901016251609121
 20
108.1158589634128
 30
0.0
 11
-63.901016251609228
 21
128.1158589728617
 31
0.0
  0
LINE
  5
5AB2
  8
¤¤¤ß˝u
 10
-83.901016251609121
 20
112.3432818798415
 30
0.0
 11
-83.901016251609121
 21
123.8893054854063
 31
0.0
  0
LINE
  5
5AB3
  8
¤¤¤ß˝u
 10
-89.674028054391528
 20
118.11629368262381
 30
0.0
 11
-78.128004448826815
 21
118.11629368262381
 31
0.0
  0
CIRCLE
  5
5AB4
  8
0
 10
-83.901016251609121
 20
118.11629368262381
 30
0.0
 40
4.7498798561624724
  0
CIRCLE
  5
5AB5
  8
0
 10
-83.901016251609121
 20
118.11629368262381
 30
0.0
 40
2.999879856162456
  0
LINE
  5
5AB6
  8
0
 10
-186.6351457514277
 20
96.619336688754288
 30
0.0
 11
-186.6351457514277
 21
139.61933668875429
 31
0.0
  0
LINE
  5
5AB7
  8
0
 10
-188.1351457514277
 20
96.619336688754288
 30
0.0
 11
-188.1351457514277
 21
139.61933668875429
 31
0.0
  0
LINE
  5
5AB8
  8
0
 10
-223.90145097304051
 20
108.11901717360681
 30
0.0
 11
-223.90101625855391
 21
128.11901717360689
 31
0.0
  0
ARC
  5
5AB9
  8
0
  6
CONTINUOUS
 10
-183.93020577179411
 20
118.1193366887543
 30
0.0
 40
7.9674339796336779
 50
163.2213499979124
 51
196.7786500020876
  0
ARC
  5
5ABA
  8
0
  6
CONTINUOUS
 10
-195.49619857391289
 20
118.1193366887543
 30
0.0
 40
4.0
 50
90.0
 51
210.83520489408471
  0
LINE
  5
5ABB
  8
0
  6
CONTINUOUS
 10
-191.89763975142779
 20
114.6693365891614
 30
0.0
 11
-191.89763975142779
 21
121.5693367883472
 31
0.0
  0
LINE
  5
5ABC
  8
0
  6
CONTINUOUS
 10
-193.691167896823
 20
111.9592935888224
 30
0.0
 11
-193.11904800345721
 21
113.34051319468961
 31
0.0
  0
ARC
  5
5ABD
  8
0
  6
CONTINUOUS
 10
-194.64465029882149
 20
112.28678195533649
 30
0.0
 40
1.8541337299152449
 50
34.632779998936613
 51
100.3672200010636
  0
LINE
  5
5ABE
  8
0
  6
CONTINUOUS
 10
-194.36259527327209
 20
114.1193366887543
 30
0.0
 11
-191.82501766341281
 21
114.1193366887543
 31
0.0
  0
ARC
  5
5ABF
  8
0
  6
CONTINUOUS
 10
-198.6468754965228
 20
109.7959488707166
 30
0.0
 40
2.860349020536761
 50
331.41351417373693
 51
16.413514173737632
  0
LINE
  5
5AC0
  8
0
  6
CONTINUOUS
 10
-201.89763975142779
 20
107.7821940397059
 30
0.0
 11
-201.89763975142779
 21
110.81419000209171
 31
0.0
  0
LINE
  5
5AC1
  8
0
  6
CONTINUOUS
 10
-201.89763975142779
 20
110.81419000209171
 30
0.0
 11
-196.1352148676269
 21
108.4273154630651
 31
0.0
  0
LINE
  5
5AC2
  8
0
  6
CONTINUOUS
 10
-201.89763975142779
 20
107.7821940397059
 30
0.0
 11
-198.27915977316019
 21
106.2833705575318
 31
0.0
  0
LINE
  5
5AC3
  8
0
  6
CONTINUOUS
 10
-198.27915977316019
 20
106.2833705575318
 30
0.0
 11
-196.1352148676269
 21
108.4273154630651
 31
0.0
  0
LINE
  5
5AC4
  8
0
  6
CONTINUOUS
 10
-200.3123002187597
 20
114.38061290815649
 30
0.0
 11
-194.73437738020201
 21
112.0701616185554
 31
0.0
  0
LINE
  5
5AC5
  8
0
  6
CONTINUOUS
 10
-200.33771502633661
 20
112.4410716452918
 30
0.0
 11
-196.08786917678469
 21
110.6807278564124
 31
0.0
  0
LINE
  5
5AC6
  8
0
  6
CONTINUOUS
 10
-199.51302687755131
 20
116.3102294485452
 30
0.0
 11
-193.93510403899359
 21
113.999778158944
 31
0.0
  0
ARC
  5
5AC7
  8
0
  6
CONTINUOUS
 10
-199.6027539589318
 20
116.0936091117642
 30
0.0
 40
1.8541337299152449
 50
214.6327799989366
 51
280.36722000106028
  0
ARC
  5
5AC8
  8
0
  6
CONTINUOUS
 10
-200.2225731373791
 20
114.5972332449377
 30
0.0
 40
1.8541337299152449
 50
34.632779998936613
 51
100.3672200010636
  0
ARC
  5
5AC9
  8
0
  6
CONTINUOUS
 10
-202.40186587757151
 20
113.36034506176431
 30
0.0
 40
2.0596736098176041
 50
335.84790116505968
 51
45.847901165062247
  0
ARC
  5
5ACA
  8
0
  6
CONTINUOUS
 10
-199.15385752518739
 20
110.00594770286899
 30
0.0
 40
2.860349020536761
 50
118.5864858262624
 51
163.5864858262623
  0
LINE
  5
5ACB
  8
0
  6
CONTINUOUS
 10
-201.12835588149241
 20
115.0399379986319
 30
0.0
 11
-200.5562786129768
 21
116.4210546990076
 31
0.0
  0
LINE
  5
5ACC
  8
0
  6
CONTINUOUS
 10
-195.5504333649763
 20
112.72948684242471
 30
0.0
 11
-194.9783560964606
 21
114.1106035428005
 31
0.0
  0
ARC
  5
5ACD
  8
0
  6
CONTINUOUS
 10
-194.85545943982089
 20
119.6662177962223
 30
0.0
 40
6.9715047321794721
 50
230.72134999791231
 51
264.27865000208948
  0
ARC
  5
5ACE
  8
0
  6
CONTINUOUS
 10
-193.9782696459323
 20
109.8711772586645
 30
0.0
 40
2.0596736098176041
 50
89.152098834939196
 51
159.15209883493981
  0
ARC
  5
5ACF
  8
0
  6
CONTINUOUS
 10
-194.02483112037419
 20
113.78315782216291
 30
0.0
 40
1.8541337299152449
 50
214.6327799989366
 51
280.36722000106028
  0
ARC
  5
5AD0
  8
0
  6
CONTINUOUS
 10
-199.3919448179324
 20
108.7141732708784
 30
0.0
 40
6.9715047321794721
 50
50.721349997912377
 51
84.278650002086209
  0
LINE
  5
5AD1
  8
0
  6
CONTINUOUS
 10
-199.26904816129269
 20
114.2697875243003
 30
0.0
 11
-198.69697089277699
 21
115.6509042246759
 31
0.0
  0
ARC
  5
5AD2
  8
0
  6
CONTINUOUS
 10
-189.77862977438181
 20
114.6693365891614
 30
0.0
 40
2.119009977045994
 50
147.13277999893791
 51
212.86722000106201
  0
LINE
  5
5AD3
  8
0
  6
CONTINUOUS
 10
-191.5583872093184
 20
113.51933668875419
 30
0.0
 11
-188.1351457514277
 21
113.51933668875419
 31
0.0
  0
LINE
  5
5AD4
  8
0
  6
CONTINUOUS
 10
-191.5583872093184
 20
115.8193368879401
 30
0.0
 11
-188.1351457514277
 21
115.8193368879401
 31
0.0
  0
LINE
  5
5AD5
  8
0
  6
CONTINUOUS
 10
-195.49619857391289
 20
122.1193366887543
 30
0.0
 11
-191.82501766341281
 21
122.1193366887543
 31
0.0
  0
ARC
  5
5AD6
  8
0
  6
CONTINUOUS
 10
-189.77862977438181
 20
121.5693367883472
 30
0.0
 40
2.119009977045994
 50
147.13277999893791
 51
212.86722000106201
  0
LINE
  5
5AD7
  8
0
  6
CONTINUOUS
 10
-191.5583872093184
 20
120.41933648956839
 30
0.0
 11
-188.1351457514277
 21
120.41933648956839
 31
0.0
  0
LINE
  5
5AD8
  8
0
  6
CONTINUOUS
 10
-191.5583872093184
 20
122.7193366887543
 30
0.0
 11
-188.1351457514277
 21
122.7193366887543
 31
0.0
  0
LINE
  5
5AD9
  8
0
 10
-223.90145097304051
 20
108.11901717360681
 30
0.0
 11
-201.89763975142779
 21
108.11853890483179
 31
0.0
  0
LINE
  5
5ADA
  8
0
 10
-223.90101625855391
 20
128.11901717360689
 30
0.0
 11
-188.1351457514277
 21
128.11823977650511
 31
0.0
  0
LINE
  5
5ADB
  8
0
 10
-196.44369206847301
 20
108.1188382622189
 30
0.0
 11
-188.1351457514277
 21
108.1186576699467
 31
0.0
  0
LINE
  5
5ADC
  8
0
 10
-175.51947361078621
 20
96.619336688754288
 30
0.0
 11
-188.1351457514277
 21
96.619336688754288
 31
0.0
  0
LINE
  5
5ADD
  8
0
 10
-175.51947361078621
 20
139.61933668875429
 30
0.0
 11
-188.1351457514277
 21
139.61933668875429
 31
0.0
  0
LINE
  5
5ADE
  8
¤¤¤ß˝u
 10
-203.90101625160901
 20
112.3432818798416
 30
0.0
 11
-203.90101625160901
 21
123.8893054854063
 31
0.0
  0
LINE
  5
5ADF
  8
¤¤¤ß˝u
 10
-209.67402805439141
 20
118.1162936826239
 30
0.0
 11
-198.1280044488266
 21
118.1162936826239
 31
0.0
  0
ARC
  5
5AE0
  8
0
 10
-203.90101625160901
 20
118.1162936826239
 30
0.0
 40
4.7498798561624724
 50
14.79960512823485
 51
311.76396533216803
  0
CIRCLE
  5
5AE1
  8
0
 10
-203.90101625160901
 20
118.1162936826239
 30
0.0
 40
2.999879856162456
  0
VIEWPORT
  5
4476
 67
     1
  8
0
 10
5.2499996395561626
 20
3.999999883606677
 30
0.0
 40
17.419213793271268
 41
8.9929997457669462
 68
     1
 69
     1
1001
ACAD
1000
MVIEW
1002
{
1070
    16
1010
0.0
1020
0.0
1030
0.0
1010
0.0
1020
0.0
1030
1.0
1040
0.0
1040
8.9929997457669462
1040
5.2499996395561626
1040
3.999999883606677
1040
50.0
1040
0.0
1040
0.0
1070
     0
1070
   100
1070
     1
1070
     1
1070
     0
1070
     0
1070
     0
1070
     0
1040
0.0
1040
0.0
1040
0.0
1040
10.0
1040
10.0
1040
10.0
1040
10.0
1070
     0
1002
{
1002
}
1002
}
  0
VIEWPORT
  5
4478
 67
     1
  8
0
 10
5.24999976158142
 20
3.99999976158142
 30
0.0
 40
8.3999996185302717
 41
6.3999996185302717
 68
     0
 69
     2
1001
ACAD
1000
MVIEW
1002
{
1070
    16
1010
0.0
1020
0.0
1030
0.0
1010
0.0
1020
0.0
1030
1.0
1040
0.0
1040
240.52802428899031
1040
216.10322050009469
1040
171.5381117419646
1040
1.0
1040
0.0
1040
0.0
1070
     0
1070
   100
1070
     1
1070
     1
1070
     0
1070
     0
1070
     0
1070
     0
1040
0.0
1040
457.99999999999972
1040
1082.0
1040
10.0
1040
10.0
1040
10.0
1040
10.0
1070
     0
1002
{
1002
}
1002
}
  0
ENDSEC
  0
EOF
