  0
SECTION
  2
HEADER
  9
$ACADVER
  1
AC1015
  9
$ACADMAINTVER
 70
    11
  9
$DWGCODEPAGE
  3
ANSI_950
  9
$INSBASE
 10
0.0
 20
0.0
 30
0.0
  9
$EXTMIN
 10
-23.99999999999256
 20
-52.87146020800921
 30
0.0
  9
$EXTMAX
 10
242.5895076135835
 20
137.0758648418114
 30
0.0
  9
$LIMMIN
 10
-10.0
 20
-15.0
  9
$LIMMAX
 10
120.0
 20
90.0
  9
$ORTHOMODE
 70
     1
  9
$REGENMODE
 70
     0
  9
$FILLMODE
 70
     1
  9
$QTEXTMODE
 70
     0
  9
$MIRRTEXT
 70
     0
  9
$LTSCALE
 40
2.0
  9
$ATTMODE
 70
     1
  9
$TEXTSIZE
 40
3.0
  9
$TRACEWID
 40
1.0
  9
$TEXTSTYLE
  7
STANDARD
  9
$CLAYER
  8
0
  9
$CELTYPE
  6
ByLayer
  9
$CECOLOR
 62
   256
  9
$CELTSCALE
 40
1.0
  9
$DISPSILH
 70
     0
  9
$DIMSCALE
 40
1.0
  9
$DIMASZ
 40
3.0
  9
$DIMEXO
 40
1.0
  9
$DIMDLI
 40
6.0
  9
$DIMRND
 40
0.0
  9
$DIMDLE
 40
0.0
  9
$DIMEXE
 40
1.0
  9
$DIMTP
 40
0.0
  9
$DIMTM
 40
0.0
  9
$DIMTXT
 40
3.0
  9
$DIMCEN
 40
1.5
  9
$DIMTSZ
 40
0.0
  9
$DIMTOL
 70
     0
  9
$DIMLIM
 70
     0
  9
$DIMTIH
 70
     1
  9
$DIMTOH
 70
     1
  9
$DIMSE1
 70
     0
  9
$DIMSE2
 70
     0
  9
$DIMTAD
 70
     0
  9
$DIMZIN
 70
     0
  9
$DIMBLK
  1

  9
$DIMASO
 70
     1
  9
$DIMSHO
 70
     0
  9
$DIMPOST
  1

  9
$DIMAPOST
  1

  9
$DIMALT
 70
     0
  9
$DIMALTD
 70
     2
  9
$DIMALTF
 40
25.4
  9
$DIMLFAC
 40
1.0
  9
$DIMTOFL
 70
     1
  9
$DIMTVP
 40
0.0
  9
$DIMTIX
 70
     0
  9
$DIMSOXD
 70
     0
  9
$DIMSAH
 70
     0
  9
$DIMBLK1
  1

  9
$DIMBLK2
  1

  9
$DIMSTYLE
  2
Standard
  9
$DIMCLRD
 70
     0
  9
$DIMCLRE
 70
     0
  9
$DIMCLRT
 70
     0
  9
$DIMTFAC
 40
1.0
  9
$DIMGAP
 40
0.09
  9
$DIMJUST
 70
     0
  9
$DIMSD1
 70
     0
  9
$DIMSD2
 70
     0
  9
$DIMTOLJ
 70
     1
  9
$DIMTZIN
 70
     0
  9
$DIMALTZ
 70
     0
  9
$DIMALTTZ
 70
     0
  9
$DIMUPT
 70
     0
  9
$DIMDEC
 70
     4
  9
$DIMTDEC
 70
     8
  9
$DIMALTU
 70
     2
  9
$DIMALTTD
 70
     2
  9
$DIMTXSTY
  7
STANDARD
  9
$DIMAUNIT
 70
     0
  9
$DIMADEC
 70
     0
  9
$DIMALTRND
 40
0.0
  9
$DIMAZIN
 70
     0
  9
$DIMDSEP
 70
    46
  9
$DIMATFIT
 70
     3
  9
$DIMFRAC
 70
     0
  9
$DIMLDRBLK
  1

  9
$DIMLUNIT
 70
     2
  9
$DIMLWD
 70
    -2
  9
$DIMLWE
 70
    -2
  9
$DIMTMOVE
 70
     2
  9
$LUNITS
 70
     2
  9
$LUPREC
 70
     4
  9
$SKETCHINC
 40
0.5
  9
$FILLETRAD
 40
0.0
  9
$AUNITS
 70
     0
  9
$AUPREC
 70
     0
  9
$MENU
  1
ACAD
  9
$ELEVATION
 40
0.0
  9
$PELEVATION
 40
0.0
  9
$THICKNESS
 40
0.0
  9
$LIMCHECK
 70
     0
  9
$CHAMFERA
 40
0.0
  9
$CHAMFERB
 40
0.0
  9
$CHAMFERC
 40
0.0
  9
$CHAMFERD
 40
0.0
  9
$SKPOLY
 70
     0
  9
$TDCREATE
 40
2444975.333333333
  9
$TDUCREATE
 40
2444974.999999999
  9
$TDUPDATE
 40
2453022.589059236
  9
$TDUUPDATE
 40
2453022.255725903
  9
$TDINDWG
 40
0.0745366898
  9
$TDUSRTIMER
 40
0.0000000000
  9
$USRTIMER
 70
     0
  9
$ANGBASE
 50
0.0
  9
$ANGDIR
 70
     0
  9
$PDMODE
 70
   171
  9
$PDSIZE
 40
0.001
  9
$PLINEWID
 40
0.0
  9
$SPLFRAME
 70
     0
  9
$SPLINETYPE
 70
     6
  9
$SPLINESEGS
 70
     8
  9
$HANDSEED
  5
4874
  9
$SURFTAB1
 70
     6
  9
$SURFTAB2
 70
     6
  9
$SURFTYPE
 70
     6
  9
$SURFU
 70
     6
  9
$SURFV
 70
     6
  9
$UCSBASE
  2

  9
$UCSNAME
  2

  9
$UCSORG
 10
0.0
 20
0.0
 30
0.0
  9
$UCSXDIR
 10
1.0
 20
0.0
 30
0.0
  9
$UCSYDIR
 10
0.0
 20
1.0
 30
0.0
  9
$UCSORTHOREF
  2

  9
$UCSORTHOVIEW
 70
     0
  9
$UCSORGTOP
 10
0.0
 20
0.0
 30
0.0
  9
$UCSORGBOTTOM
 10
0.0
 20
0.0
 30
0.0
  9
$UCSORGLEFT
 10
0.0
 20
0.0
 30
0.0
  9
$UCSORGRIGHT
 10
0.0
 20
0.0
 30
0.0
  9
$UCSORGFRONT
 10
0.0
 20
0.0
 30
0.0
  9
$UCSORGBACK
 10
0.0
 20
0.0
 30
0.0
  9
$PUCSBASE
  2

  9
$PUCSNAME
  2

  9
$PUCSORG
 10
0.0
 20
0.0
 30
0.0
  9
$PUCSXDIR
 10
1.0
 20
0.0
 30
0.0
  9
$PUCSYDIR
 10
0.0
 20
1.0
 30
0.0
  9
$PUCSORTHOREF
  2

  9
$PUCSORTHOVIEW
 70
     0
  9
$PUCSORGTOP
 10
0.0
 20
0.0
 30
0.0
  9
$PUCSORGBOTTOM
 10
0.0
 20
0.0
 30
0.0
  9
$PUCSORGLEFT
 10
0.0
 20
0.0
 30
0.0
  9
$PUCSORGRIGHT
 10
0.0
 20
0.0
 30
0.0
  9
$PUCSORGFRONT
 10
0.0
 20
0.0
 30
0.0
  9
$PUCSORGBACK
 10
0.0
 20
0.0
 30
0.0
  9
$USERI1
 70
     0
  9
$USERI2
 70
     0
  9
$USERI3
 70
     0
  9
$USERI4
 70
     0
  9
$USERI5
 70
     0
  9
$USERR1
 40
0.0
  9
$USERR2
 40
0.0
  9
$USERR3
 40
0.0
  9
$USERR4
 40
0.0
  9
$USERR5
 40
0.0
  9
$WORLDVIEW
 70
     1
  9
$SHADEDGE
 70
     3
  9
$SHADEDIF
 70
    70
  9
$TILEMODE
 70
     1
  9
$MAXACTVP
 70
    48
  9
$PINSBASE
 10
0.0
 20
0.0
 30
0.0
  9
$PLIMCHECK
 70
     0
  9
$PEXTMIN
 10
1.000000000000000E+20
 20
1.000000000000000E+20
 30
1.000000000000000E+20
  9
$PEXTMAX
 10
-1.000000000000000E+20
 20
-1.000000000000000E+20
 30
-1.000000000000000E+20
  9
$PLIMMIN
 10
0.0
 20
0.0
  9
$PLIMMAX
 10
12.0
 20
9.0
  9
$UNITMODE
 70
     0
  9
$VISRETAIN
 70
     1
  9
$PLINEGEN
 70
     0
  9
$PSLTSCALE
 70
     0
  9
$TREEDEPTH
 70
  3020
  9
$CMLSTYLE
  2
Standard
  9
$CMLJUST
 70
     0
  9
$CMLSCALE
 40
1.0
  9
$PROXYGRAPHICS
 70
     1
  9
$MEASUREMENT
 70
     0
  9
$CELWEIGHT
370
    -1
  9
$ENDCAPS
280
     0
  9
$JOINSTYLE
280
     0
  9
$LWDISPLAY
290
     0
  9
$INSUNITS
 70
     0
  9
$HYPERLINKBASE
  1

  9
$STYLESHEET
  1

  9
$XEDIT
290
     1
  9
$CEPSNTYPE
380
     0
  9
$PSTYLEMODE
290
     1
  9
$FINGERPRINTGUID
  2
{77095E5F-9CE7-11D7-970D-0040F4541FA8}
  9
$VERSIONGUID
  2
{A38B9E37-56EA-499D-99A0-836BBD417BC0}
  9
$EXTNAMES
290
     1
  9
$PSVPSCALE
 40
0.0
  9
$OLESTARTUP
290
     0
  0
ENDSEC
  0
SECTION
  2
CLASSES
  0
CLASS
  1
ACDBDICTIONARYWDFLT
  2
AcDbDictionaryWithDefault
  3
AutoCAD 2000
 90
        0
280
     0
281
     0
  0
CLASS
  1
ACDBPLACEHOLDER
  2
AcDbPlaceHolder
  3
AutoCAD 2000
 90
        0
280
     0
281
     0
  0
CLASS
  1
LAYOUT
  2
AcDbLayout
  3
AutoCAD 2000
 90
        0
280
     0
281
     0
  0
CLASS
  1
LONG_TRANSACTION
  2
AcDbLongTransaction
  3
AutoCAD 2000
 90
    32768
280
     0
281
     0
  0
CLASS
  1
LWPOLYLINE
  2
AcDbPolyline
  3
AutoCAD 2000
 90
    32768
280
     0
281
     1
  0
CLASS
  1
HATCH
  2
AcDbHatch
  3
AutoCAD 2000
 90
    32768
280
     0
281
     1
  0
CLASS
  1
XRECORD
  2
AcDbXrecord
  3
AutoCAD 2000
 90
    32768
280
     0
281
     0
  0
CLASS
  1
LONG_TRANSACTION
  2
AcDbLongTransaction
  3
AutoCAD 2000
 90
    32768
280
     0
281
     0
  0
CLASS
  1
LWPOLYLINE
  2
AcDbPolyline
  3
AutoCAD 2000
 90
    32768
280
     0
281
     1
  0
CLASS
  1
HATCH
  2
AcDbHatch
  3
AutoCAD 2000
 90
    32768
280
     0
281
     1
  0
CLASS
  1
XRECORD
  2
AcDbXrecord
  3
AutoCAD 2000
 90
    32768
280
     0
281
     0
  0
CLASS
  1
DICTIONARYVAR
  2
AcDbDictionaryVar
  3
AutoCAD 2000
 90
        0
280
     0
281
     0
  0
CLASS
  1
PLOTSETTINGS
  2
AcDbPlotSettings
  3
AutoCAD 2000
 90
        0
280
     0
281
     0
  0
ENDSEC
  0
SECTION
  2
TABLES
  0
TABLE
  2
VPORT
  5
8
330
0
100
AcDbSymbolTable
 70
     2
  0
VPORT
  5
4852
330
8
100
AcDbSymbolTableRecord
100
AcDbViewportTableRecord
  2
*Active
 70
     0
 10
0.0
 20
0.0
 11
1.0
 21
1.0
 12
109.2995328824952
 22
42.1044973636102
 13
457.9999999999997
 23
1082.0
 14
10.0
 24
10.0
 15
10.0
 25
10.0
 16
0.0
 26
0.0
 36
1.0
 17
0.0
 27
0.0
 37
0.0
 40
192.3545316952287
 41
1.936974789915966
 42
1.0
 43
0.0
 44
0.0
 50
0.0
 51
0.0
 71
     0
 72
   100
 73
     1
 74
     1
 75
     0
 76
     0
 77
     0
 78
     0
281
     0
 65
     1
110
0.0
120
0.0
130
0.0
111
1.0
121
0.0
131
0.0
112
0.0
122
1.0
132
0.0
 79
     0
146
0.0
  0
ENDTAB
  0
TABLE
  2
LTYPE
  5
5
330
0
100
AcDbSymbolTable
 70
     6
  0
LTYPE
  5
13
330
5
100
AcDbSymbolTableRecord
100
AcDbLinetypeTableRecord
  2
ByBlock
 70
     0
  3

 72
    65
 73
     0
 40
0.0
  0
LTYPE
  5
14
330
5
100
AcDbSymbolTableRecord
100
AcDbLinetypeTableRecord
  2
ByLayer
 70
     0
  3

 72
    65
 73
     0
 40
0.0
  0
LTYPE
  5
15
330
5
100
AcDbSymbolTableRecord
100
AcDbLinetypeTableRecord
  2
CONTINUOUS
 70
     0
  3
連續線 ________________________
 72
    65
 73
     2
 40
200000.0
 49
200000.0
 74
     0
 49
0.0
 74
     0
  0
LTYPE
  5
225
330
5
100
AcDbSymbolTableRecord
100
AcDbLinetypeTableRecord
  2
BYBLOCK
 70
     0
  3
Solid line
 72
    65
 73
     0
 40
0.0
  0
LTYPE
  5
226
330
5
100
AcDbSymbolTableRecord
100
AcDbLinetypeTableRecord
  2
BYLAYER
 70
     0
  3
Solid line
 72
    65
 73
     0
 40
0.0
  0
LTYPE
  5
413C
330
5
100
AcDbSymbolTableRecord
100
AcDbLinetypeTableRecord
  2
CENTER2
 70
     0
  3
Center (.5x) ___ _ ___ _ ___ _ ___ _ ___ _ ___
 72
    65
 73
     4
 40
28.57499999999999
 49
19.05
 74
     0
 49
-3.174999999999999
 74
     0
 49
3.174999999999999
 74
     0
 49
-3.174999999999999
 74
     0
  0
LTYPE
  5
413D
330
5
100
AcDbSymbolTableRecord
100
AcDbLinetypeTableRecord
  2
DASHED2
 70
     0
  3
Dashed (.5x) _ _ _ _ _ _ _ _ _ _ _ _ _ _ _ _ _
 72
    65
 73
     2
 40
9.524999999999998
 49
6.349999999999999
 74
     0
 49
-3.174999999999999
 74
     0
  0
LTYPE
  5
43B2
330
5
100
AcDbSymbolTableRecord
100
AcDbLinetypeTableRecord
  2
PHANTOM2
 70
     0
  3
Phantom (.5x) ___ _ _ ___ _ _ ___ _ _ ___ _ _
 72
    65
 73
     6
 40
31.75
 49
15.875
 74
     0
 49
-3.174999999999999
 74
     0
 49
3.174999999999999
 74
     0
 49
-3.174999999999999
 74
     0
 49
3.174999999999999
 74
     0
 49
-3.174999999999999
 74
     0
  0
ENDTAB
  0
TABLE
  2
LAYER
  5
2
102
{ACAD_XDICTIONARY
360
43C2
102
}
330
0
100
AcDbSymbolTable
 70
    10
  0
LAYER
  5
10
330
2
100
AcDbSymbolTableRecord
100
AcDbLayerTableRecord
  2
0
 70
     0
 62
     7
  6
CONTINUOUS
370
    -3
390
F
  0
LAYER
  5
413E
330
2
100
AcDbSymbolTableRecord
100
AcDbLayerTableRecord
  2
指線
 70
     0
 62
     3
  6
CONTINUOUS
370
    15
390
F
  0
LAYER
  5
413F
330
2
100
AcDbSymbolTableRecord
100
AcDbLayerTableRecord
  2
中心線
 70
     0
 62
     4
  6
CENTER2
370
    20
390
F
  0
LAYER
  5
4140
330
2
100
AcDbSymbolTableRecord
100
AcDbLayerTableRecord
  2
虛線
 70
     0
 62
     6
  6
DASHED2
290
     0
370
    -3
390
F
  0
LAYER
  5
43B3
330
2
100
AcDbSymbolTableRecord
100
AcDbLayerTableRecord
  2
假想線
 70
     0
 62
     3
  6
PHANTOM2
370
    15
390
F
  0
LAYER
  5
43B4
330
2
100
AcDbSymbolTableRecord
100
AcDbLayerTableRecord
  2
建構線
 70
     0
 62
     1
  6
CONTINUOUS
370
    -3
390
F
  0
LAYER
  5
4712
330
2
100
AcDbSymbolTableRecord
100
AcDbLayerTableRecord
  2
AM4
 70
     0
 62
     3
  6
CONTINUOUS
370
    15
390
F
  0
LAYER
  5
4713
330
2
100
AcDbSymbolTableRecord
100
AcDbLayerTableRecord
  2
標註
 70
     0
 62
     3
  6
CONTINUOUS
370
    15
390
F
  0
LAYER
  5
4714
330
2
100
AcDbSymbolTableRecord
100
AcDbLayerTableRecord
  2
中心
 70
     0
 62
     4
  6
CENTER2
370
    20
390
F
  0
LAYER
  5
4715
330
2
100
AcDbSymbolTableRecord
100
AcDbLayerTableRecord
  2
Defpoints
 70
     1
 62
     7
  6
CONTINUOUS
290
     0
370
    -3
390
F
  0
ENDTAB
  0
TABLE
  2
STYLE
  5
3
330
0
100
AcDbSymbolTable
 70
     2
  0
STYLE
  5
11
330
3
100
AcDbSymbolTableRecord
100
AcDbTextStyleTableRecord
  2
STANDARD
 70
     0
 40
0.0
 41
1.0
 50
0.0
 71
     0
 42
3.0
  3

  4

  0
STYLE
  5
4716
330
3
100
AcDbSymbolTableRecord
100
AcDbTextStyleTableRecord
  2
型式2
 70
     0
 40
0.0
 41
1.0
 50
0.0
 71
     0
 42
2.5
  3
KAIU.TTF
  4

1001
ACAD
1000
DFKai-SB
1071
    34881
  0
ENDTAB
  0
TABLE
  2
VIEW
  5
6
330
0
100
AcDbSymbolTable
 70
     0
  0
ENDTAB
  0
TABLE
  2
UCS
  5
7
330
0
100
AcDbSymbolTable
 70
     0
  0
ENDTAB
  0
TABLE
  2
APPID
  5
9
330
0
100
AcDbSymbolTable
 70
     4
  0
APPID
  5
12
330
9
100
AcDbSymbolTableRecord
100
AcDbRegAppTableRecord
  2
ACAD
 70
     0
  0
APPID
  5
230
330
9
100
AcDbSymbolTableRecord
100
AcDbRegAppTableRecord
  2
TCAD
 70
     0
  0
APPID
  5
4142
330
9
100
AcDbSymbolTableRecord
100
AcDbRegAppTableRecord
  2
CONTENTBLOCKICON
 70
     0
  0
APPID
  5
44BA
330
9
100
AcDbSymbolTableRecord
100
AcDbRegAppTableRecord
  2
pntflag
 70
     0
  0
ENDTAB
  0
TABLE
  2
DIMSTYLE
  5
A
330
0
100
AcDbSymbolTable
 70
     2
100
AcDbDimStyleTable
 71
     1
340
3C9D
  0
DIMSTYLE
105
3C9D
330
A
100
AcDbSymbolTableRecord
100
AcDbDimStyleTableRecord
  2
Standard
 70
     0
340
11
  0
DIMSTYLE
105
4372
330
A
100
AcDbSymbolTableRecord
100
AcDbDimStyleTableRecord
  2
ISO-25
 70
     0
 41
2.5
 42
0.625
 43
3.75
 44
1.25
 73
     0
 74
     0
 77
     1
 78
     8
140
2.5
141
2.5
143
0.03937007874016
147
0.625
171
     3
172
     1
271
     2
272
     2
274
     3
283
     0
284
     8
340
11
  0
ENDTAB
  0
TABLE
  2
BLOCK_RECORD
  5
1
330
0
100
AcDbSymbolTable
 70
     9
  0
BLOCK_RECORD
  5
1E
102
{ACAD_XDICTIONARY
360
3D1E
102
}
330
1
100
AcDbSymbolTableRecord
100
AcDbBlockTableRecord
  2
*Model_Space
340
21
  0
BLOCK_RECORD
  5
1A
102
{ACAD_XDICTIONARY
360
3D20
102
}
330
1
100
AcDbSymbolTableRecord
100
AcDbBlockTableRecord
  2
*Paper_Space
340
1D
  0
BLOCK_RECORD
  5
4380
330
1
100
AcDbSymbolTableRecord
100
AcDbBlockTableRecord
  2
HGH25CA_F
340
0
  0
BLOCK_RECORD
  5
43C4
330
1
100
AcDbSymbolTableRecord
100
AcDbBlockTableRecord
  2
HGR25R_F
340
0
  0
BLOCK_RECORD
  5
4486
330
1
100
AcDbSymbolTableRecord
100
AcDbBlockTableRecord
  2
C25_FWI
340
0
  0
BLOCK_RECORD
  5
44BB
330
1
100
AcDbSymbolTableRecord
100
AcDbBlockTableRecord
  2
34320001_f
340
0
  0
BLOCK_RECORD
  5
453B
330
1
100
AcDbSymbolTableRecord
100
AcDbBlockTableRecord
  2
34320001_l
340
0
  0
BLOCK_RECORD
  5
46C3
330
1
100
AcDbSymbolTableRecord
100
AcDbBlockTableRecord
  2
A$C02B53278
340
0
102
{BLKREFS
331
4744
331
474C
331
4756
331
4758
102
}
  0
BLOCK_RECORD
  5
46D6
330
1
100
AcDbSymbolTableRecord
100
AcDbBlockTableRecord
  2
1
340
0
310
2800000020000000200000000100080000000000000400000000000000000000000000000000000000000000000080000080000000808000800000008000800080800000C0C0C000C0DCC000F0CAA6000020400000206000002080000020A0000020C0000020E00000400000004020000040400000406000004080000040A0
310
000040C0000040E00000600000006020000060400000606000006080000060A0000060C0000060E00000800000008020000080400000806000008080000080A0000080C0000080E00000A0000000A0200000A0400000A0600000A0800000A0A00000A0C00000A0E00000C0000000C0200000C0400000C0600000C0800000C0
310
A00000C0C00000C0E00000E0000000E0200000E0400000E0600000E0800000E0A00000E0C00000E0E00040000000400020004000400040006000400080004000A0004000C0004000E00040200000402020004020400040206000402080004020A0004020C0004020E000404000004040200040404000404060004040800040
310
40A0004040C0004040E00040600000406020004060400040606000406080004060A0004060C0004060E00040800000408020004080400040806000408080004080A0004080C0004080E00040A0000040A0200040A0400040A0600040A0800040A0A00040A0C00040A0E00040C0000040C0200040C0400040C0600040C08000
310
40C0A00040C0C00040C0E00040E0000040E0200040E0400040E0600040E0800040E0A00040E0C00040E0E00080000000800020008000400080006000800080008000A0008000C0008000E00080200000802020008020400080206000802080008020A0008020C0008020E00080400000804020008040400080406000804080
310
008040A0008040C0008040E00080600000806020008060400080606000806080008060A0008060C0008060E00080800000808020008080400080806000808080008080A0008080C0008080E00080A0000080A0200080A0400080A0600080A0800080A0A00080A0C00080A0E00080C0000080C0200080C0400080C0600080C0
310
800080C0A00080C0C00080C0E00080E0000080E0200080E0400080E0600080E0800080E0A00080E0C00080E0E000C0000000C0002000C0004000C0006000C0008000C000A000C000C000C000E000C0200000C0202000C0204000C0206000C0208000C020A000C020C000C020E000C0400000C0402000C0404000C0406000C0
310
408000C040A000C040C000C040E000C0600000C0602000C0604000C0606000C0608000C060A000C060C000C060E000C0800000C0802000C0804000C0806000C0808000C080A000C080C000C080E000C0A00000C0A02000C0A04000C0A06000C0A08000C0A0A000C0A0C000C0A0E000C0C00000C0C02000C0C04000C0C06000
310
C0C08000C0C0A000F0FBFF00A4A0A000808080000000FF0000FF000000FFFF00FF000000FF00FF00FFFF0000FFFFFF00000000000000000000000000000000000000000000000000000000000000000000000000000000000000000000000000FE000000000000000000000000000000000000000000000000000000000000
310
00FE0000000000000000000000000000000000000000000000000000FD00000000FE000000FD00000000000000000000000000000000000000000000FDFD000000FE000000FD00000000000000000000000000000000000000000000FDFDFDFDFDFDFDFDFDFD00000000000000000000000000000000000000000000FDFD00
310
0000FE0000FDFD00000000000000000000000000000000000000000000FDFD000000FE0000FDFD00000000000000000000000000000000000000000000FDFD000000FE0000FDFD00000000000000000000000000000000000000000000FDFD000000FE0000FDFD00000000000000000000000000000000000000000000FDFD
310
000000FE0000FDFD00000000000000000000000000000000000000000000FDFD000000FE0000FDFD00000000000000000000000000000000000000000000FDFD000000FE0000FDFD00000000000000000000000000000000000000000000FDFD000000FE0000FDFD00000000000000000000000000000000000000000000FD
310
FD000000FE0000FDFD00000000000000000000000000000000000000000000FDFD000000FE0000FDFD00000000000000000000000000000000000000000000FDFD000000FE0000FDFD00000000000000000000000000000000000000000000FDFD000000FE0000FDFD00000000000000000000000000000000000000000000
310
FDFD000000FE0000FDFD00000000000000000000000000000000000000000000FDFD000000FE0000FDFD00000000000000000000000000000000000000000000FDFD000000FE0000FDFD00000000000000000000000000000000000000000000FDFD000000FE0000FDFD000000000000000000000000000000000000000000
310
00FDFD000000FE0000FDFD00000000000000000000000000000000000000000000FDFDFDFDFDFDFDFDFDFD0000000000000000000000000000000000000000000000FD000000FE0000FD000000000000000000000000000000000000000000000000FD000000FE0000FD000000000000000000000000000000000000000000
310
000000FD000000FE0000FD000000000000000000000000000000000000000000000000FDFDFDFDFEFDFDFD00000000000000000000000000000000000000000000000000FDFD00FEFDFD00000000000000000000000000000000000000000000000000000000FDFD0000000000000000000000000000000000000000000000
310
0000000000000000FE0000000000000000000000000000000000000000000000000000000000000000000000000000000000000000000000
1001
ACAD
1000
DesignCenter Data
1002
{
1070
     1
1070
     4
1002
}
  0
BLOCK_RECORD
  5
46E5
330
1
100
AcDbSymbolTableRecord
100
AcDbBlockTableRecord
  2
2
340
0
310
2800000020000000200000000100080000000000000400000000000000000000000000000000000000000000000080000080000000808000800000008000800080800000C0C0C000C0DCC000F0CAA6000020400000206000002080000020A0000020C0000020E00000400000004020000040400000406000004080000040A0
310
000040C0000040E00000600000006020000060400000606000006080000060A0000060C0000060E00000800000008020000080400000806000008080000080A0000080C0000080E00000A0000000A0200000A0400000A0600000A0800000A0A00000A0C00000A0E00000C0000000C0200000C0400000C0600000C0800000C0
310
A00000C0C00000C0E00000E0000000E0200000E0400000E0600000E0800000E0A00000E0C00000E0E00040000000400020004000400040006000400080004000A0004000C0004000E00040200000402020004020400040206000402080004020A0004020C0004020E000404000004040200040404000404060004040800040
310
40A0004040C0004040E00040600000406020004060400040606000406080004060A0004060C0004060E00040800000408020004080400040806000408080004080A0004080C0004080E00040A0000040A0200040A0400040A0600040A0800040A0A00040A0C00040A0E00040C0000040C0200040C0400040C0600040C08000
310
40C0A00040C0C00040C0E00040E0000040E0200040E0400040E0600040E0800040E0A00040E0C00040E0E00080000000800020008000400080006000800080008000A0008000C0008000E00080200000802020008020400080206000802080008020A0008020C0008020E00080400000804020008040400080406000804080
310
008040A0008040C0008040E00080600000806020008060400080606000806080008060A0008060C0008060E00080800000808020008080400080806000808080008080A0008080C0008080E00080A0000080A0200080A0400080A0600080A0800080A0A00080A0C00080A0E00080C0000080C0200080C0400080C0600080C0
310
800080C0A00080C0C00080C0E00080E0000080E0200080E0400080E0600080E0800080E0A00080E0C00080E0E000C0000000C0002000C0004000C0006000C0008000C000A000C000C000C000E000C0200000C0202000C0204000C0206000C0208000C020A000C020C000C020E000C0400000C0402000C0404000C0406000C0
310
408000C040A000C040C000C040E000C0600000C0602000C0604000C0606000C0608000C060A000C060C000C060E000C0800000C0802000C0804000C0806000C0808000C080A000C080C000C080E000C0A00000C0A02000C0A04000C0A06000C0A08000C0A0A000C0A0C000C0A0E000C0C00000C0C02000C0C04000C0C06000
310
C0C08000C0C0A000F0FBFF00A4A0A000808080000000FF0000FF000000FFFF00FF000000FF00FF00FFFF0000FFFFFF00000000000000000000000000000000000000000000000000000000000000000000000000000000000000000000000000FE000000000000000000000000000000000000000000000000000000000000
310
00FE00000000000000000000000000000000000000000000000000000000000000FE00000000000000000000000000000000000000000000FD0000000000000000FE00000000000000FD000000000000000000000000000000FD00000000000000FE00000000000000FD000000000000000000000000000000FDFDFDFDFDFD
310
FDFDFEFDFDFDFDFDFDFD00000000000000000000000000000000FD00000000000000FE000000000000FD00000000000000000000000000000000FD00000000000000FE000000000000FD00000000000000000000000000000000FDFDFDFDFDFDFDFDFEFDFDFDFDFDFDFD0000000000000000000000000000000000000000FD
310
FDFDFDFEFDFDFD000000000000000000000000000000000000000000000000FD000000FE0000FD000000000000000000000000000000000000000000000000FD000000FE0000FD000000000000000000000000000000000000000000000000FD000000FE0000FD000000000000000000000000000000000000000000000000
310
FD000000FE0000FD000000000000000000000000000000000000000000000000FD000000FE0000FD000000000000000000000000000000000000000000000000FD000000FE0000FD000000000000000000000000000000000000000000000000FD000000FE0000FD0000000000000000000000000000000000000000000000
310
00FD000000FE0000FD000000000000000000000000000000000000000000000000FD000000FE0000FD000000000000000000000000000000000000000000000000FD000000FE0000FD000000000000000000000000000000000000000000000000FDFDFDFDFDFDFDFD00000000000000000000000000000000000000000000
310
0000FD000000FE0000FD000000000000000000000000000000000000000000000000FD000000FE0000FD000000000000000000000000000000000000000000000000FD000000FE0000FD000000000000000000000000000000000000000000000000FDFDFDFDFDFDFDFD000000000000000000000000000000000000000000
310
00000000FDFD00FEFDFD00000000000000000000000000000000000000000000000000000000FDFD00000000000000000000000000000000000000000000000000000000000000FE00000000000000000000000000000000000000000000000000000000000000FE0000000000000000000000000000000000000000000000
310
0000000000000000FE0000000000000000000000000000000000000000000000000000000000000000000000000000000000000000000000
1001
ACAD
1000
DesignCenter Data
1002
{
1070
     1
1070
     4
1002
}
  0
BLOCK_RECORD
  5
46FA
330
1
100
AcDbSymbolTableRecord
100
AcDbBlockTableRecord
  2
3
340
0
310
2800000020000000200000000100080000000000000400000000000000000000000000000000000000000000000080000080000000808000800000008000800080800000C0C0C000C0DCC000F0CAA6000020400000206000002080000020A0000020C0000020E00000400000004020000040400000406000004080000040A0
310
000040C0000040E00000600000006020000060400000606000006080000060A0000060C0000060E00000800000008020000080400000806000008080000080A0000080C0000080E00000A0000000A0200000A0400000A0600000A0800000A0A00000A0C00000A0E00000C0000000C0200000C0400000C0600000C0800000C0
310
A00000C0C00000C0E00000E0000000E0200000E0400000E0600000E0800000E0A00000E0C00000E0E00040000000400020004000400040006000400080004000A0004000C0004000E00040200000402020004020400040206000402080004020A0004020C0004020E000404000004040200040404000404060004040800040
310
40A0004040C0004040E00040600000406020004060400040606000406080004060A0004060C0004060E00040800000408020004080400040806000408080004080A0004080C0004080E00040A0000040A0200040A0400040A0600040A0800040A0A00040A0C00040A0E00040C0000040C0200040C0400040C0600040C08000
310
40C0A00040C0C00040C0E00040E0000040E0200040E0400040E0600040E0800040E0A00040E0C00040E0E00080000000800020008000400080006000800080008000A0008000C0008000E00080200000802020008020400080206000802080008020A0008020C0008020E00080400000804020008040400080406000804080
310
008040A0008040C0008040E00080600000806020008060400080606000806080008060A0008060C0008060E00080800000808020008080400080806000808080008080A0008080C0008080E00080A0000080A0200080A0400080A0600080A0800080A0A00080A0C00080A0E00080C0000080C0200080C0400080C0600080C0
310
800080C0A00080C0C00080C0E00080E0000080E0200080E0400080E0600080E0800080E0A00080E0C00080E0E000C0000000C0002000C0004000C0006000C0008000C000A000C000C000C000E000C0200000C0202000C0204000C0206000C0208000C020A000C020C000C020E000C0400000C0402000C0404000C0406000C0
310
408000C040A000C040C000C040E000C0600000C0602000C0604000C0606000C0608000C060A000C060C000C060E000C0800000C0802000C0804000C0806000C0808000C080A000C080C000C080E000C0A00000C0A02000C0A04000C0A06000C0A08000C0A0A000C0A0C000C0A0E000C0C00000C0C02000C0C04000C0C06000
310
C0C08000C0C0A000F0FBFF00A4A0A000808080000000FF0000FF000000FFFF00FF000000FF00FF00FFFF0000FFFFFF00000000000000000000000000000000000000000000000000000000000000000000000000000000000000000000000000FE0000000000000000000000000000000000000000000000000000000000FD
310
FDFEFD00000000000000000000000000000000000000000000000000000000FD00FEFD00000000000000000000000000000000000000000000000000000000FDFDFEFD00000000000000000000000000000000000000000000000000000000FD00FEFD00000000000000000000000000000000000000000000000000000000
310
FD00FEFD00000000000000000000000000000000000000000000000000000000FD00FEFD00000000000000000000000000000000000000000000000000000000FD00FEFD00000000000000000000000000000000000000000000000000000000FD00FEFD000000000000000000000000000000000000000000000000000000
310
00FD00FEFD00000000000000000000000000000000000000000000000000000000FD00FEFD00000000000000000000000000000000000000000000000000000000FD00FEFD00000000000000000000000000000000000000000000000000000000FD00FEFD0000000000000000000000000000000000000000000000000000
310
0000FD00FEFD00000000000000000000000000000000000000000000000000000000FD00FEFD00000000000000000000000000000000000000000000000000000000FD00FEFD00000000000000000000000000000000000000000000000000000000FD00FEFD00000000000000000000000000000000000000000000000000
310
000000FD00FEFD00000000000000000000000000000000000000000000000000000000FD00FEFD00000000000000000000000000000000000000000000000000000000FD00FEFD00000000000000000000000000000000000000000000000000000000FD00FEFD000000000000000000000000000000000000000000000000
310
00000000FD00FEFD00000000000000000000000000000000000000000000000000000000FD00FEFD00000000000000000000000000000000000000000000000000000000FD00FEFD00000000000000000000000000000000000000000000000000000000FD00FEFD0000000000000000000000000000000000000000000000
310
0000000000FD00FEFD00000000000000000000000000000000000000000000000000000000FDFDFEFD00000000000000000000000000000000000000000000000000000000FD00FEFD00000000000000000000000000000000000000000000000000000000FDFDFEFD00000000000000000000000000000000000000000000
310
0000000000000000FE0000000000000000000000000000000000000000000000000000000000000000000000000000000000000000000000
1001
ACAD
1000
DesignCenter Data
1002
{
1070
     1
1070
     4
1002
}
  0
ENDTAB
  0
ENDSEC
  0
SECTION
  2
BLOCKS
  0
BLOCK
  5
254
330
1E
100
AcDbEntity
  8
0
100
AcDbBlockBegin
  2
*Model_Space
 70
     0
 10
0.0
 20
0.0
 30
0.0
  3
*Model_Space
  1

  0
ENDBLK
  5
255
330
1E
100
AcDbEntity
  8
0
100
AcDbBlockEnd
  0
BLOCK
  5
252
330
1A
100
AcDbEntity
 67
     1
  8
0
100
AcDbBlockBegin
  2
*Paper_Space
 70
     0
 10
0.0
 20
0.0
 30
0.0
  3
*Paper_Space
  1

  0
ENDBLK
  5
253
330
1A
100
AcDbEntity
 67
     1
  8
0
100
AcDbBlockEnd
  0
BLOCK
  5
43AF
330
4380
100
AcDbEntity
  8
0
100
AcDbBlockBegin
  2
HGH25CA_F
 70
     0
 10
0.0
 20
0.0
 30
0.0
  3
HGH25CA_F
  1

  0
LINE
  5
4381
330
4380
100
AcDbEntity
  8
0
 48
0.27
100
AcDbLine
 10
-38.50000000000003
 20
-0.0000000000000284
 30
0.0
 11
-38.50000000000003
 21
29.49999999999997
 31
0.0
  0
LINE
  5
4382
330
4380
100
AcDbEntity
  8
0
 48
0.27
100
AcDbLine
 10
-29.0
 20
34.5
 30
0.0
 11
-28.99999999999997
 21
0.0
 31
0.0
  0
LINE
  5
4383
330
4380
100
AcDbEntity
  8
0
 48
0.27
100
AcDbLine
 10
29.0
 20
34.50000000000002
 30
0.0
 11
29.0
 21
-0.0000000000000284
 31
0.0
  0
LINE
  5
4384
330
4380
100
AcDbEntity
  8
0
 48
0.27
100
AcDbLine
 10
38.5
 20
-0.0000000000000284
 30
0.0
 11
38.5
 21
29.49999999999997
 31
0.0
  0
LINE
  5
4385
330
4380
100
AcDbEntity
  8
虛線
 48
0.27
100
AcDbLine
 10
20.5
 20
33.69999999999999
 30
0.0
 11
14.5
 21
33.69999999999999
 31
0.0
  0
LINE
  5
4386
330
4380
100
AcDbEntity
  8
虛線
 48
0.27
100
AcDbLine
 10
14.5
 20
26.55000000000001
 30
0.0
 11
20.5
 21
26.55000000000001
 31
0.0
  0
LINE
  5
4387
330
4380
100
AcDbEntity
  8
虛線
 48
0.27
100
AcDbLine
 10
17.5
 20
22.10662432702594
 30
0.0
 11
20.0
 21
23.55000000000001
 31
0.0
  0
LINE
  5
4388
330
4380
100
AcDbEntity
  8
0
 48
0.27
100
AcDbLine
 10
-29.0
 20
32.99999999999994
 30
0.0
 11
29.0
 21
32.99999999999994
 31
0.0
  0
LINE
  5
4389
330
4380
100
AcDbEntity
  8
0
 48
0.27
100
AcDbLine
 10
29.0
 20
34.5
 30
0.0
 11
-29.0
 21
34.5
 31
0.0
  0
LINE
  5
438A
330
4380
100
AcDbEntity
  8
0
 48
0.27
100
AcDbLine
 10
-38.50000000000003
 20
29.49999999999997
 30
0.0
 11
-29.00000000000003
 21
29.49999999999997
 31
0.0
  0
LINE
  5
438B
330
4380
100
AcDbEntity
  8
0
 48
0.27
100
AcDbLine
 10
-38.50000000000003
 20
27.99999999999997
 30
0.0
 11
-29.00000000000003
 21
27.99999999999997
 31
0.0
  0
CIRCLE
  5
438C
330
4380
100
AcDbEntity
  8
0
 48
0.27
100
AcDbCircle
 10
-33.20000000000002
 20
21.49999999999999
 30
0.0
 40
2.1986552691
  0
CIRCLE
  5
438D
330
4380
100
AcDbEntity
  8
0
 48
0.27
100
AcDbCircle
 10
-33.20000000000002
 20
21.49999999999999
 30
0.0
 40
2.5
  0
CIRCLE
  5
438E
330
4380
100
AcDbEntity
  8
0
 48
0.27
100
AcDbCircle
 10
-33.20000000000002
 20
21.49999999999999
 30
0.0
 40
2.75
  0
LINE
  5
438F
330
4380
100
AcDbEntity
  8
中心線
 48
0.27
100
AcDbLine
 10
-33.20000000000002
 20
18.38629739016425
 30
0.0
 11
-33.20000000000002
 21
24.61370260983574
 31
0.0
  0
LINE
  5
4390
330
4380
100
AcDbEntity
  8
中心線
 48
0.27
100
AcDbLine
 10
-36.30024419756571
 20
21.49999999999999
 30
0.0
 11
-30.09975580243431
 21
21.49999999999999
 31
0.0
  0
CIRCLE
  5
4391
330
4380
100
AcDbEntity
  8
0
 48
0.27
100
AcDbCircle
 10
-33.20000000000002
 20
21.49999999999999
 30
0.0
 40
0.75
  0
LINE
  5
4392
330
4380
100
AcDbEntity
  8
中心線
 48
0.27
100
AcDbLine
 10
-17.5
 20
35.5
 30
0.0
 11
-17.5
 21
21.26228675972851
 31
0.0
  0
LINE
  5
4393
330
4380
100
AcDbEntity
  8
虛線
 48
0.27
100
AcDbLine
 10
-20.0
 20
33.69999999999999
 30
0.0
 11
-20.0
 21
23.55000000000001
 31
0.0
  0
LINE
  5
4394
330
4380
100
AcDbEntity
  8
虛線
 48
0.27
100
AcDbLine
 10
-20.5
 20
33.69999999999999
 30
0.0
 11
-20.5
 21
26.55000000000001
 31
0.0
  0
LINE
  5
4395
330
4380
100
AcDbEntity
  8
虛線
 48
0.27
100
AcDbLine
 10
-14.5
 20
33.69999999999999
 30
0.0
 11
-14.5
 21
26.55000000000001
 31
0.0
  0
LINE
  5
4396
330
4380
100
AcDbEntity
  8
虛線
 48
0.27
100
AcDbLine
 10
-15.0
 20
33.69999999999999
 30
0.0
 11
-15.0
 21
23.55000000000001
 31
0.0
  0
LINE
  5
4397
330
4380
100
AcDbEntity
  8
虛線
 48
0.27
100
AcDbLine
 10
-17.5
 20
22.10662432702594
 30
0.0
 11
-15.0
 21
23.55000000000001
 31
0.0
  0
LINE
  5
4398
330
4380
100
AcDbEntity
  8
虛線
 48
0.27
100
AcDbLine
 10
-20.0
 20
23.55000000000001
 30
0.0
 11
-17.5
 21
22.10662432702594
 31
0.0
  0
LINE
  5
4399
330
4380
100
AcDbEntity
  8
虛線
 48
0.27
100
AcDbLine
 10
-20.5
 20
26.55000000000001
 30
0.0
 11
-14.5
 21
26.55000000000001
 31
0.0
  0
LINE
  5
439A
330
4380
100
AcDbEntity
  8
虛線
 48
0.27
100
AcDbLine
 10
-21.29999999999984
 20
34.5
 30
0.0
 11
-20.5
 21
33.69999999999999
 31
0.0
  0
LINE
  5
439B
330
4380
100
AcDbEntity
  8
虛線
 48
0.27
100
AcDbLine
 10
-13.70000000000016
 20
34.5
 30
0.0
 11
-14.5
 21
33.69999999999999
 31
0.0
  0
LINE
  5
439C
330
4380
100
AcDbEntity
  8
虛線
 48
0.27
100
AcDbLine
 10
-14.5
 20
33.69999999999999
 30
0.0
 11
-20.5
 21
33.69999999999999
 31
0.0
  0
LINE
  5
439D
330
4380
100
AcDbEntity
  8
中心線
 48
0.27
100
AcDbLine
 10
17.5
 20
35.5
 30
0.0
 11
17.5
 21
21.26228675972851
 31
0.0
  0
LINE
  5
439E
330
4380
100
AcDbEntity
  8
虛線
 48
0.27
100
AcDbLine
 10
14.5
 20
33.69999999999999
 30
0.0
 11
14.5
 21
26.55000000000001
 31
0.0
  0
LINE
  5
439F
330
4380
100
AcDbEntity
  8
虛線
 48
0.27
100
AcDbLine
 10
15.0
 20
33.69999999999999
 30
0.0
 11
15.0
 21
23.55000000000001
 31
0.0
  0
LINE
  5
43A0
330
4380
100
AcDbEntity
  8
虛線
 48
0.27
100
AcDbLine
 10
15.0
 20
23.55000000000001
 30
0.0
 11
17.5
 21
22.10662432702594
 31
0.0
  0
LINE
  5
43A1
330
4380
100
AcDbEntity
  8
虛線
 48
0.27
100
AcDbLine
 10
13.70000000000016
 20
34.5
 30
0.0
 11
14.5
 21
33.69999999999999
 31
0.0
  0
CIRCLE
  5
43A2
330
4380
100
AcDbEntity
  8
0
 48
0.27
100
AcDbCircle
 10
33.18067659162676
 20
21.49999999999997
 30
0.0
 40
2.75
  0
LINE
  5
43A3
330
4380
100
AcDbEntity
  8
0
 48
0.27
100
AcDbLine
 10
29.0
 20
29.49999999999997
 30
0.0
 11
38.5
 21
29.49999999999997
 31
0.0
  0
LINE
  5
43A4
330
4380
100
AcDbEntity
  8
0
 48
0.27
100
AcDbLine
 10
29.0
 20
27.99999999999997
 30
0.0
 11
38.5
 21
27.99999999999997
 31
0.0
  0
LINE
  5
43A5
330
4380
100
AcDbEntity
  8
中心線
 48
0.27
100
AcDbLine
 10
30.08043239406106
 20
21.49999999999997
 30
0.0
 11
36.28092078919246
 21
21.49999999999997
 31
0.0
  0
LINE
  5
43A6
330
4380
100
AcDbEntity
  8
虛線
 48
0.27
100
AcDbLine
 10
20.5
 20
33.69999999999999
 30
0.0
 11
20.5
 21
26.55000000000001
 31
0.0
  0
LINE
  5
43A7
330
4380
100
AcDbEntity
  8
虛線
 48
0.27
100
AcDbLine
 10
20.0
 20
33.69999999999999
 30
0.0
 11
20.0
 21
23.55000000000001
 31
0.0
  0
CIRCLE
  5
43A8
330
4380
100
AcDbEntity
  8
0
 48
0.27
100
AcDbCircle
 10
33.18067659162676
 20
21.49999999999997
 30
0.0
 40
2.1986552691
  0
CIRCLE
  5
43A9
330
4380
100
AcDbEntity
  8
0
 48
0.27
100
AcDbCircle
 10
33.18067659162676
 20
21.49999999999997
 30
0.0
 40
2.5
  0
LINE
  5
43AA
330
4380
100
AcDbEntity
  8
中心線
 48
0.27
100
AcDbLine
 10
33.18067659162676
 20
18.38629739016423
 30
0.0
 11
33.18067659162676
 21
24.61370260983571
 31
0.0
  0
CIRCLE
  5
43AB
330
4380
100
AcDbEntity
  8
0
 48
0.27
100
AcDbCircle
 10
33.18067659162676
 20
21.49999999999997
 30
0.0
 40
0.75
  0
LINE
  5
43AC
330
4380
100
AcDbEntity
  8
虛線
 48
0.27
100
AcDbLine
 10
21.29999999999984
 20
34.5
 30
0.0
 11
20.5
 21
33.69999999999999
 31
0.0
  0
LINE
  5
43AD
330
4380
100
AcDbEntity
  8
0
 48
0.27
100
AcDbLine
 10
38.5
 20
1.499999999983401
 30
0.0
 11
-38.50000000000003
 21
1.499999999983401
 31
0.0
  0
LINE
  5
43AE
330
4380
100
AcDbEntity
  8
0
 48
0.27
100
AcDbLine
 10
38.5
 20
-0.0000000000000284
 30
0.0
 11
-38.50000000000003
 21
-0.0000000000000284
 31
0.0
  0
ENDBLK
  5
43B0
330
4380
100
AcDbEntity
  8
0
100
AcDbBlockEnd
  0
BLOCK
  5
4424
330
43C4
100
AcDbEntity
  8
0
100
AcDbBlockBegin
  2
HGR25R_F
 70
     0
 10
0.0
 20
0.0
 30
0.0
  3
HGR25R_F
  1

  0
LINE
  5
43C5
330
43C4
100
AcDbEntity
  8
0
 48
0.27
100
AcDbLine
 10
-5.081542672397972
 20
0.5986495001021411
 30
0.0
 11
-48.89891011993438
 21
0.5986495001021411
 31
0.0
  0
LINE
  5
43C6
330
43C4
100
AcDbEntity
  8
0
 48
0.27
100
AcDbLine
 10
-5.081542672397915
 20
-4.000000000003637
 30
0.0
 11
-48.96743521154189
 21
-4.000000000003637
 31
0.0
  0
LINE
  5
43C7
102
{ACAD_REACTORS
330
4406
102
}
330
43C4
100
AcDbEntity
  8
0
 48
0.27
100
AcDbLine
 10
-5.081542672397915
 20
16.49999999999616
 30
0.0
 11
-85.08154267239802
 21
16.49999999999621
 31
0.0
  0
LINE
  5
43C8
330
43C4
100
AcDbEntity
  8
0
 48
0.27
100
AcDbLine
 10
-5.081542672397972
 20
4.298649000109435
 30
0.0
 11
-48.61287278970763
 21
4.298649000109378
 31
0.0
  0
LINE
  5
43C9
330
43C4
100
AcDbEntity
  8
0
 48
0.27
100
AcDbLine
 10
-5.081542672397972
 20
7.880138099795033
 30
0.0
 11
-48.62407516409177
 21
7.880138099795004
 31
0.0
  0
LINE
  5
43CA
330
43C4
100
AcDbEntity
  8
0
 48
0.27
100
AcDbLine
 10
-5.081542672397915
 20
9.125222738373707
 30
0.0
 11
-49.08440937049175
 21
9.125222738373679
 31
0.0
  0
LINE
  5
43CB
330
43C4
100
AcDbEntity
  8
0
 48
0.27
100
AcDbLine
 10
-5.081542672397915
 20
11.15926108360642
 30
0.0
 11
-48.78054550624347
 21
11.15926108360642
 31
0.0
  0
LINE
  5
43CC
330
43C4
100
AcDbEntity
  8
0
 48
0.27
100
AcDbLine
 10
-5.081542672397915
 20
11.58013699999642
 30
0.0
 11
-48.71767108569833
 21
11.58013699999631
 31
0.0
  0
LINE
  5
43CD
330
43C4
100
AcDbEntity
  8
0
 48
0.27
100
AcDbLine
 10
0.4184573276018569
 20
13.4086979999964
 30
0.0
 11
-49.37779927389795
 21
13.40869799999635
 31
0.0
  0
LINE
  5
43CE
330
43C4
100
AcDbEntity
  8
0
 48
0.27
100
AcDbLine
 10
-5.081542672397972
 20
13.84251259878229
 30
0.0
 11
-49.21310902592598
 21
13.84251259878235
 31
0.0
  0
LINE
  5
43CF
330
43C4
100
AcDbEntity
  8
0
 48
0.27
100
AcDbLine
 10
-5.081542672397972
 20
15.8615961074052
 30
0.0
 11
-48.44659871336006
 21
15.86159610740523
 31
0.0
  0
LINE
  5
43D0
102
{ACAD_REACTORS
330
4406
102
}
330
43C4
100
AcDbEntity
  8
0
 48
0.27
100
AcDbLine
 10
-9.081542672398256
 20
-5.500000000003822
 30
0.0
 11
-85.08154267239797
 21
-5.500000000003836
 31
0.0
  0
LINE
  5
43D1
102
{ACAD_REACTORS
330
4406
102
}
330
43C4
100
AcDbEntity
  8
0
 48
0.27
100
AcDbLine
 10
-85.08154267239802
 20
-5.500000000003836
 30
0.0
 11
-85.08154267239802
 21
16.49999999999621
 31
0.0
  0
LINE
  5
43D2
330
43C4
100
AcDbEntity
  8
假想線
 48
0.27
100
AcDbLine
 10
32.54715147863078
 20
18.59999999999629
 30
0.0
 11
30.0394258329174
 21
-7.000000000003709
 31
0.0
  0
LINE
  5
43D3
330
43C4
100
AcDbEntity
  8
0
 48
0.27
100
AcDbLine
 10
74.91845732760208
 20
13.40869799999637
 30
0.0
 11
32.03862174581655
 21
13.40869799999637
 31
0.0
  0
LINE
  5
43D4
330
43C4
100
AcDbEntity
  8
0
 48
0.27
100
AcDbLine
 10
74.91845732760208
 20
13.84251259878235
 30
0.0
 11
32.08111737061585
 21
13.84251259878232
 31
0.0
  0
LINE
  5
43D5
330
43C4
100
AcDbEntity
  8
0
 48
0.27
100
AcDbLine
 10
74.91845732760208
 20
16.49999999999633
 30
0.0
 11
32.34143960925587
 21
16.49999999999636
 31
0.0
  0
LINE
  5
43D6
330
43C4
100
AcDbEntity
  8
0
 48
0.27
100
AcDbLine
 10
74.91845732760203
 20
15.86159610740523
 30
0.0
 11
32.27890281965528
 21
15.8615961074052
 31
0.0
  0
LINE
  5
43D7
330
43C4
100
AcDbEntity
  8
0
 48
0.27
100
AcDbLine
 10
74.91845732760208
 20
11.58013699999634
 30
0.0
 11
31.85949950697084
 21
11.58013699999634
 31
0.0
  0
LINE
  5
43D8
330
43C4
100
AcDbEntity
  8
0
 48
0.27
100
AcDbLine
 10
74.91845732760208
 20
11.15926108360645
 30
0.0
 11
31.81827133004918
 21
11.15926108360642
 31
0.0
  0
LINE
  5
43D9
330
43C4
100
AcDbEntity
  8
0
 48
0.27
100
AcDbLine
 10
74.91845732760203
 20
4.298649000109378
 30
0.0
 11
31.14621926492901
 21
4.298649000109406
 31
0.0
  0
LINE
  5
43DA
330
43C4
100
AcDbEntity
  8
0
 48
0.27
100
AcDbLine
 10
74.91845732760208
 20
7.880138099795459
 30
0.0
 11
31.49705489247299
 21
7.880138099795232
 31
0.0
  0
LINE
  5
43DB
330
43C4
100
AcDbEntity
  8
0
 48
0.27
100
AcDbLine
 10
74.91845732760208
 20
9.125222738373679
 30
0.0
 11
31.61902093463101
 21
9.125222738373679
 31
0.0
  0
LINE
  5
43DC
330
43C4
100
AcDbEntity
  8
0
 48
0.27
100
AcDbLine
 10
74.91845732760203
 20
0.5986495001021695
 30
0.0
 11
30.78377459167529
 21
0.5986495001021695
 31
0.0
  0
LINE
  5
43DD
330
43C4
100
AcDbEntity
  8
0
 48
0.27
100
AcDbLine
 10
74.91845732760203
 20
-4.000000000003637
 30
0.0
 11
30.33329993202443
 21
-4.000000000003637
 31
0.0
  0
LINE
  5
43DE
330
43C4
100
AcDbEntity
  8
0
 48
0.27
100
AcDbLine
 10
74.91845732760208
 20
-5.500000000003694
 30
0.0
 11
30.18636288247097
 21
-5.500000000003694
 31
0.0
  0
LINE
  5
43DF
330
43C4
100
AcDbEntity
  8
假想線
 48
0.27
100
AcDbLine
 10
31.54236504548379
 20
18.59999999999629
 30
0.0
 11
29.03463939977041
 21
-7.000000000003709
 31
0.0
  0
LINE
  5
43E0
330
43C4
100
AcDbEntity
  8
中心線
 48
0.27
100
AcDbLine
 10
-5.081542672397972
 20
-6.000000000003694
 30
0.0
 11
-5.081542672397972
 21
16.9999999999963
 31
0.0
  0
LINE
  5
43E1
330
43C4
100
AcDbEntity
  8
中心線
 48
0.27
100
AcDbLine
 10
54.91845732760203
 20
-6.000000000003694
 30
0.0
 11
54.91845732760203
 21
16.9999999999963
 31
0.0
  0
LINE
  5
43E2
330
43C4
100
AcDbEntity
  8
0
 48
0.27
100
AcDbLine
 10
74.91845732760203
 20
-5.500000000003851
 30
0.0
 11
74.91845732760208
 21
16.49999999999621
 31
0.0
  0
LINE
  5
43E3
330
43C4
100
AcDbEntity
  8
0
 48
0.27
100
AcDbLine
 10
74.91845732760203
 20
-5.500000000003851
 30
0.0
 11
74.91845732760208
 21
16.49999999999621
 31
0.0
  0
LINE
  5
43E4
330
43C4
100
AcDbEntity
  8
0
 48
0.27
100
AcDbLine
 10
31.33665317610882
 20
16.49999999999636
 30
0.0
 11
-9.1315617324409
 21
16.49999999999636
 31
0.0
  0
LINE
  5
43E5
330
43C4
100
AcDbEntity
  8
0
 48
0.27
100
AcDbLine
 10
31.27411638650829
 20
15.8615961074052
 30
0.0
 11
-9.194098522041429
 21
15.8615961074052
 31
0.0
  0
LINE
  5
43E6
330
43C4
100
AcDbEntity
  8
0
 48
0.27
100
AcDbLine
 10
31.07633093746887
 20
13.84251259878232
 30
0.0
 11
-9.391883971080915
 21
13.84251259878232
 31
0.0
  0
LINE
  5
43E7
330
43C4
100
AcDbEntity
  8
0
 48
0.27
100
AcDbLine
 10
31.03383531266962
 20
13.40869799999637
 30
0.0
 11
-9.434379595880159
 21
13.40869799999637
 31
0.0
  0
LINE
  5
43E8
330
43C4
100
AcDbEntity
  8
0
 48
0.27
100
AcDbLine
 10
30.81348489690219
 20
11.15926108360642
 30
0.0
 11
-9.654730011647586
 21
11.15926108360639
 31
0.0
  0
LINE
  5
43E9
330
43C4
100
AcDbEntity
  8
0
 48
0.27
100
AcDbLine
 10
30.85471307382386
 20
11.58013699999634
 30
0.0
 11
-9.613501834725923
 21
11.58013699999634
 31
0.0
  0
LINE
  5
43EA
330
43C4
100
AcDbEntity
  8
0
 48
0.27
100
AcDbLine
 10
30.61423450148407
 20
9.125222738373679
 30
0.0
 11
-9.853980407065705
 21
9.125222738373679
 31
0.0
  0
LINE
  5
43EB
330
43C4
100
AcDbEntity
  8
0
 48
0.27
100
AcDbLine
 10
29.32851349887744
 20
-4.000000000003637
 30
0.0
 11
-11.13970140967228
 21
-4.000000000003637
 31
0.0
  0
LINE
  5
43EC
330
43C4
100
AcDbEntity
  8
0
 48
0.27
100
AcDbLine
 10
29.18157644932392
 20
-5.500000000003694
 30
0.0
 11
-11.28663845922585
 21
-5.500000000003694
 31
0.0
  0
LINE
  5
43ED
330
43C4
100
AcDbEntity
  8
0
 48
0.27
100
AcDbLine
 10
30.49226845932599
 20
7.880138099795232
 30
0.0
 11
-9.97594644922384
 21
7.880138099794976
 31
0.0
  0
LINE
  5
43EE
330
43C4
100
AcDbEntity
  8
0
 48
0.27
100
AcDbLine
 10
30.14143283178202
 20
4.298649000109406
 30
0.0
 11
-10.32678207676775
 21
4.298649000109378
 31
0.0
  0
LINE
  5
43EF
330
43C4
100
AcDbEntity
  8
0
 48
0.27
100
AcDbLine
 10
29.77898815852836
 20
0.5986495001021695
 30
0.0
 11
-10.68922674605028
 21
0.5986495001021695
 31
0.0
  0
LINE
  5
43F0
102
{ACAD_REACTORS
330
4406
102
}
330
43C4
100
AcDbEntity
  8
0
 48
0.27
100
AcDbLine
 10
-59.58154267239803
 20
7.499999999996219
 30
0.0
 11
-59.58154267239809
 21
16.09999999999624
 31
0.0
  0
LINE
  5
43F1
102
{ACAD_REACTORS
330
4406
102
}
330
43C4
100
AcDbEntity
  8
0
 48
0.27
100
AcDbLine
 10
-70.58154267239803
 20
7.499999999996219
 30
0.0
 11
-70.58154267239808
 21
16.09999999999624
 31
0.0
  0
LINE
  5
43F2
330
43C4
100
AcDbEntity
  8
中心線
 48
0.27
100
AcDbLine
 10
-65.08154267239802
 20
17.49999999999622
 30
0.0
 11
-65.08154267239802
 21
-6.00000000000378
 31
0.0
  0
LINE
  5
43F3
330
43C4
100
AcDbEntity
  8
0
 48
0.27
100
AcDbLine
 10
-68.58154267239808
 20
7.199999999996208
 30
0.0
 11
-61.58154267239808
 21
7.199999999996208
 31
0.0
  0
LINE
  5
43F4
330
43C4
100
AcDbEntity
  8
0
 48
0.27
100
AcDbLine
 10
-68.58154267239808
 20
-5.000000000003723
 30
0.0
 11
-61.58154267239808
 21
-5.000000000003723
 31
0.0
  0
LINE
  5
43F5
102
{ACAD_REACTORS
330
4406
102
}
330
43C4
100
AcDbEntity
  8
0
 48
0.27
100
AcDbLine
 10
-70.58154267239803
 20
7.499999999996219
 30
0.0
 11
-59.58154267239797
 21
7.499999999995878
 31
0.0
  0
LINE
  5
43F6
102
{ACAD_REACTORS
330
4406
102
}
330
43C4
100
AcDbEntity
  8
0
 48
0.27
100
AcDbLine
 10
-68.58154267239808
 20
-5.000000000003723
 30
0.0
 11
-68.58154267239808
 21
7.199999999996151
 31
0.0
  0
LINE
  5
43F7
102
{ACAD_REACTORS
330
4406
102
}
330
43C4
100
AcDbEntity
  8
0
 48
0.27
100
AcDbLine
 10
-69.08154267239814
 20
-5.50000000000378
 30
0.0
 11
-68.58154267239808
 21
-5.000000000003723
 31
0.0
  0
LINE
  5
43F8
102
{ACAD_REACTORS
330
4406
102
}
330
43C4
100
AcDbEntity
  8
0
 48
0.27
100
AcDbLine
 10
-68.88154267239809
 20
7.499999999996163
 30
0.0
 11
-68.58154267239808
 21
7.199999999996151
 31
0.0
  0
LINE
  5
43F9
102
{ACAD_REACTORS
330
4406
102
}
330
43C4
100
AcDbEntity
  8
0
 48
0.27
100
AcDbLine
 10
-61.58154267239808
 20
-5.000000000003723
 30
0.0
 11
-61.58154267239808
 21
7.199999999996208
 31
0.0
  0
LINE
  5
43FA
102
{ACAD_REACTORS
330
4406
102
}
330
43C4
100
AcDbEntity
  8
0
 48
0.27
100
AcDbLine
 10
-61.58154267239808
 20
-5.000000000003723
 30
0.0
 11
-61.08154267239803
 21
-5.50000000000378
 31
0.0
  0
LINE
  5
43FB
102
{ACAD_REACTORS
330
4406
102
}
330
43C4
100
AcDbEntity
  8
0
 48
0.27
100
AcDbLine
 10
-61.58154267239808
 20
7.199999999996208
 30
0.0
 11
-61.28154267239807
 21
7.499999999996219
 31
0.0
  0
LINE
  5
43FC
330
43C4
100
AcDbEntity
  8
0
 48
0.27
100
AcDbLine
 10
-70.58154267239803
 20
16.09999999999624
 30
0.0
 11
-59.58154267239809
 21
16.09999999999624
 31
0.0
  0
LINE
  5
43FD
102
{ACAD_REACTORS
330
4406
102
}
330
43C4
100
AcDbEntity
  8
0
 48
0.27
100
AcDbLine
 10
-70.58154267239803
 20
16.09999999999641
 30
0.0
 11
-70.81248278007388
 21
16.49999999999644
 31
0.0
  0
LINE
  5
43FE
102
{ACAD_REACTORS
330
4406
102
}
330
43C4
100
AcDbEntity
  8
0
 48
0.27
100
AcDbLine
 10
-59.58154267239791
 20
16.09999999999641
 30
0.0
 11
-59.35060256472201
 21
16.49999999999644
 31
0.0
  0
LINE
  5
43FF
102
{ACAD_REACTORS
330
4406
102
}
330
43C4
100
AcDbEntity
  8
建構線
 48
0.27
100
AcDbLine
 10
-46.7085623723184
 20
20.43980002202332
 30
0.0
 11
-49.37779927389795
 21
13.40869799999623
 31
0.0
  0
LINE
  5
4400
102
{ACAD_REACTORS
330
4406
102
}
330
43C4
100
AcDbEntity
  8
建構線
 48
0.27
100
AcDbLine
 10
-49.37779927389795
 20
13.40869799999623
 30
0.0
 11
-48.71767108569827
 21
11.58013699999625
 31
0.0
  0
LINE
  5
4401
102
{ACAD_REACTORS
330
4406
102
}
330
43C4
100
AcDbEntity
  8
建構線
 48
0.27
100
AcDbLine
 10
-48.71767108569827
 20
11.58013699999625
 30
0.0
 11
-49.0844093704917
 21
9.125222738373537
 31
0.0
  0
LINE
  5
4402
102
{ACAD_REACTORS
330
4406
102
}
330
43C4
100
AcDbEntity
  8
建構線
 48
0.27
100
AcDbLine
 10
-49.0844093704917
 20
9.125222738373537
 30
0.0
 11
-48.13089127888599
 21
6.546203599757831
 31
0.0
  0
LINE
  5
4403
102
{ACAD_REACTORS
330
4406
102
}
330
43C4
100
AcDbEntity
  8
建構線
 48
0.27
100
AcDbLine
 10
-48.13089127888599
 20
6.546203599757831
 30
0.0
 11
-49.23110371850441
 21
1.415742215378912
 31
0.0
  0
LINE
  5
4404
102
{ACAD_REACTORS
330
4406
102
}
330
43C4
100
AcDbEntity
  8
建構線
 48
0.27
100
AcDbLine
 10
-49.23110371850441
 20
1.415742215378912
 30
0.0
 11
-48.27758683427953
 21
-0.9296121302417361
 31
0.0
  0
LINE
  5
4405
102
{ACAD_REACTORS
330
4406
102
}
330
43C4
100
AcDbEntity
  8
建構線
 48
0.27
100
AcDbLine
 10
-48.27758683427953
 20
-0.9296121302417361
 30
0.0
 11
-50.08099099890785
 21
-8.956231390153305
 31
0.0
  0
HATCH
  5
4406
330
43C4
100
AcDbEntity
  8
建構線
 48
0.27
100
AcDbHatch
 10
0.0
 20
0.0
 30
0.0
210
0.0
220
0.0
230
1.0
  2
ANSI31
 70
     0
 71
     1
 91
        2
 92
        7
 72
     0
 73
     1
 93
        9
 10
-85.08154267239802
 20
-5.500000000003836
 10
-69.0815426723982
 20
-5.500000000003833
 10
-68.58154267239808
 20
-5.000000000003722
 10
-68.58154267239808
 20
7.199999999996159
 10
-68.88154267239809
 20
7.499999999996166
 10
-70.58154267239801
 20
7.499999999996219
 10
-70.58154267239808
 20
16.09999999999651
 10
-70.81248278007373
 20
16.49999999999621
 10
-85.08154267239802
 20
16.49999999999621
 97
        9
330
43FD
330
43C7
330
43D1
330
43D0
330
43F7
330
43F6
330
43F8
330
43F5
330
43F1
 92
        7
 72
     0
 73
     1
 93
       15
 10
-59.58154267239796
 20
7.499999999995879
 10
-61.28154267239835
 20
7.499999999995933
 10
-61.58154267239808
 20
7.199999999996222
 10
-61.58154267239808
 20
-5.000000000003712
 10
-61.08154267239797
 20
-5.500000000003832
 10
-49.30445209989155
 20
-5.500000000003829
 10
-48.27758683427953
 20
-0.929612130241724
 10
-49.23110371850441
 20
1.41574221537893
 10
-48.13089127888599
 20
6.54620359975783
 10
-49.0844093704917
 20
9.125222738373539
 10
-48.71767108569827
 20
11.58013699999624
 10
-49.37779927389794
 20
13.40869799999623
 10
-48.20423966027316
 20
16.49999999999619
 10
-59.35060256472215
 20
16.4999999999962
 10
-59.58154267239809
 20
16.09999999999612
 97
       15
330
4401
330
4400
330
43FF
330
43C7
330
43FE
330
43F0
330
43F5
330
43FB
330
43F9
330
43FA
330
43D0
330
4405
330
4404
330
4403
330
4402
 75
     0
 76
     1
 52
0.0
 41
0.5
 77
     0
 78
     1
 53
45.0
 43
-305.5551704836537
 44
-74.0197207512106
 45
-1.122532015133643
 46
1.122532015133644
 79
     0
 47
0.0714786060910426
 98
        2
 10
-81.87330068424296
 20
9.752945349724626
 10
-54.4804463454833
 20
7.179715333071811
  0
LINE
  5
4407
330
43C4
100
AcDbEntity
  8
虛線
 48
0.27
100
AcDbLine
 10
0.4184573276019706
 20
7.499999999996333
 30
0.0
 11
0.4184573276019137
 21
16.09999999999635
 31
0.0
  0
LINE
  5
4408
330
43C4
100
AcDbEntity
  8
虛線
 48
0.27
100
AcDbLine
 10
-10.58154267239802
 20
16.09999999999635
 30
0.0
 11
0.4184573276019137
 21
16.09999999999635
 31
0.0
  0
LINE
  5
4409
330
43C4
100
AcDbEntity
  8
虛線
 48
0.27
100
AcDbLine
 10
-10.58154267239802
 20
7.499999999996333
 30
0.0
 11
-10.58154267239808
 21
16.09999999999635
 31
0.0
  0
LINE
  5
440A
330
43C4
100
AcDbEntity
  8
虛線
 48
0.27
100
AcDbLine
 10
-10.58154267239802
 20
7.499999999996333
 30
0.0
 11
0.4184573276019706
 21
7.499999999995992
 31
0.0
  0
LINE
  5
440B
330
43C4
100
AcDbEntity
  8
虛線
 48
0.27
100
AcDbLine
 10
-8.581542672398086
 20
7.199999999996322
 30
0.0
 11
-1.581542672398086
 21
7.199999999996322
 31
0.0
  0
LINE
  5
440C
330
43C4
100
AcDbEntity
  8
虛線
 48
0.27
100
AcDbLine
 10
-8.581542672398086
 20
-5.000000000003623
 30
0.0
 11
-8.581542672398086
 21
7.199999999996265
 31
0.0
  0
LINE
  5
440D
330
43C4
100
AcDbEntity
  8
虛線
 48
0.27
100
AcDbLine
 10
-8.581542672398086
 20
-5.000000000003623
 30
0.0
 11
-1.581542672398086
 21
-5.000000000003623
 31
0.0
  0
LINE
  5
440E
330
43C4
100
AcDbEntity
  8
虛線
 48
0.27
100
AcDbLine
 10
-1.581542672398086
 20
-5.000000000003623
 30
0.0
 11
-1.581542672398086
 21
7.199999999996322
 31
0.0
  0
LINE
  5
440F
330
43C4
100
AcDbEntity
  8
虛線
 48
0.27
100
AcDbLine
 10
-1.581542672398086
 20
7.19999999999635
 30
0.0
 11
-1.281542672398074
 21
7.499999999996362
 31
0.0
  0
LINE
  5
4410
330
43C4
100
AcDbEntity
  8
虛線
 48
0.27
100
AcDbLine
 10
-8.881542672398097
 20
7.499999999996305
 30
0.0
 11
-8.581542672398086
 21
7.199999999996293
 31
0.0
  0
LINE
  5
4411
330
43C4
100
AcDbEntity
  8
虛線
 48
0.27
100
AcDbLine
 10
-10.58154267239802
 20
16.09999999999652
 30
0.0
 11
-10.81248278007387
 21
16.49999999999656
 31
0.0
  0
LINE
  5
4412
330
43C4
100
AcDbEntity
  8
虛線
 48
0.27
100
AcDbLine
 10
0.4184573276020842
 20
16.09999999999652
 30
0.0
 11
0.6493974352779901
 21
16.49999999999656
 31
0.0
  0
LINE
  5
4413
330
43C4
100
AcDbEntity
  8
虛線
 48
0.27
100
AcDbLine
 10
-9.081542672398086
 20
-5.500000000003637
 30
0.0
 11
-8.581542672398029
 21
-5.000000000003581
 31
0.0
  0
LINE
  5
4414
330
43C4
100
AcDbEntity
  8
虛線
 48
0.27
100
AcDbLine
 10
-1.581542672398029
 20
-5.000000000003581
 30
0.0
 11
-1.081542672397972
 21
-5.500000000003637
 31
0.0
  0
LINE
  5
4415
330
43C4
100
AcDbEntity
  8
虛線
 48
0.27
100
AcDbLine
 10
58.41845732760191
 20
-5.000000000003637
 30
0.0
 11
58.41845732760191
 21
7.199999999996293
 31
0.0
  0
LINE
  5
4416
330
43C4
100
AcDbEntity
  8
虛線
 48
0.27
100
AcDbLine
 10
51.41845732760192
 20
-5.000000000003637
 30
0.0
 11
51.41845732760192
 21
7.199999999996236
 31
0.0
  0
LINE
  5
4417
330
43C4
100
AcDbEntity
  8
虛線
 48
0.27
100
AcDbLine
 10
51.41845732760192
 20
7.199999999996293
 30
0.0
 11
58.41845732760191
 21
7.199999999996293
 31
0.0
  0
LINE
  5
4418
330
43C4
100
AcDbEntity
  8
虛線
 48
0.27
100
AcDbLine
 10
49.41845732760197
 20
7.499999999996305
 30
0.0
 11
60.41845732760197
 21
7.499999999995964
 31
0.0
  0
LINE
  5
4419
330
43C4
100
AcDbEntity
  8
虛線
 48
0.27
100
AcDbLine
 10
51.1184573276019
 20
7.499999999996276
 30
0.0
 11
51.41845732760192
 21
7.199999999996265
 31
0.0
  0
LINE
  5
441A
330
43C4
100
AcDbEntity
  8
虛線
 48
0.27
100
AcDbLine
 10
60.41845732760197
 20
7.499999999996305
 30
0.0
 11
60.41845732760191
 21
16.09999999999632
 31
0.0
  0
LINE
  5
441B
330
43C4
100
AcDbEntity
  8
虛線
 48
0.27
100
AcDbLine
 10
49.41845732760197
 20
7.499999999996305
 30
0.0
 11
49.41845732760191
 21
16.09999999999632
 31
0.0
  0
LINE
  5
441C
330
43C4
100
AcDbEntity
  8
虛線
 48
0.27
100
AcDbLine
 10
51.41845732760192
 20
-5.000000000003637
 30
0.0
 11
58.41845732760191
 21
-5.000000000003637
 31
0.0
  0
LINE
  5
441D
330
43C4
100
AcDbEntity
  8
虛線
 48
0.27
100
AcDbLine
 10
49.41845732760191
 20
16.09999999999635
 30
0.0
 11
60.41845732760186
 21
16.09999999999635
 31
0.0
  0
LINE
  5
441E
330
43C4
100
AcDbEntity
  8
虛線
 48
0.27
100
AcDbLine
 10
58.41845732760191
 20
7.199999999996322
 30
0.0
 11
58.71845732760192
 21
7.499999999996333
 31
0.0
  0
LINE
  5
441F
330
43C4
100
AcDbEntity
  8
虛線
 48
0.27
100
AcDbLine
 10
58.41845732760197
 20
-5.000000000003595
 30
0.0
 11
58.91845732760202
 21
-5.500000000003652
 31
0.0
  0
LINE
  5
4420
330
43C4
100
AcDbEntity
  8
虛線
 48
0.27
100
AcDbLine
 10
50.91845732760191
 20
-5.500000000003652
 30
0.0
 11
51.41845732760197
 21
-5.000000000003595
 31
0.0
  0
LINE
  5
4421
330
43C4
100
AcDbEntity
  8
虛線
 48
0.27
100
AcDbLine
 10
51.1184573276019
 20
7.499999999996276
 30
0.0
 11
51.41845732760192
 21
7.199999999996265
 31
0.0
  0
LINE
  5
4422
330
43C4
100
AcDbEntity
  8
虛線
 48
0.27
100
AcDbLine
 10
49.41845732760191
 20
16.09999999999658
 30
0.0
 11
49.18751721992606
 21
16.49999999999661
 31
0.0
  0
LINE
  5
4423
330
43C4
100
AcDbEntity
  8
虛線
 48
0.27
100
AcDbLine
 10
60.41845732760203
 20
16.09999999999658
 30
0.0
 11
60.64939743527793
 21
16.49999999999661
 31
0.0
  0
ENDBLK
  5
4425
330
43C4
100
AcDbEntity
  8
0
100
AcDbBlockEnd
  0
BLOCK
  5
4496
330
4486
100
AcDbEntity
  8
0
100
AcDbBlockBegin
  2
C25_FWI
 70
     0
 10
0.0
 20
0.0
 30
0.0
  3
C25_FWI
  1

  0
LINE
  5
4487
330
4486
100
AcDbEntity
  8
0
100
AcDbLine
 10
-1.499999999999943
 20
28.5
 30
0.0
 11
-1.5
 21
0.0
 31
0.0
  0
LINE
  5
4488
330
4486
100
AcDbEntity
  8
0
100
AcDbLine
 10
-3.0
 20
16.72397459621558
 30
0.0
 11
-3.0
 21
0.0000000000000284
 31
0.0
  0
LINE
  5
4489
330
4486
100
AcDbEntity
  8
中心線
100
AcDbLine
 10
-3.283849796371157
 20
2.700000000006127
 30
0.0
 11
2.467787178009814
 21
2.700000000006127
 31
0.0
  0
LINE
  5
448A
330
4486
100
AcDbEntity
  8
0
100
AcDbLine
 10
-2.384327859358279
 20
3.700000000006127
 30
0.0
 11
-2.384327859358279
 21
1.700000000006127
 31
0.0
  0
LINE
  5
448B
330
4486
100
AcDbEntity
  8
0
100
AcDbLine
 10
-3.0
 20
0.0000000000000284
 30
0.0
 11
0.0
 21
0.0000000000000284
 31
0.0
  0
ARC
  5
448C
330
4486
100
AcDbEntity
  8
0
100
AcDbCircle
 10
-1.164476180505801
 20
1.71975163802324
 30
0.0
 40
1.220011576012179
100
AcDbArc
 50
180.9276427879975
 51
254.0369778311712
  0
LINE
  5
448D
330
4486
100
AcDbEntity
  8
0
100
AcDbLine
 10
0.0
 20
1.49999999998343
 30
0.0
 11
-1.5
 21
1.49999999998343
 31
0.0
  0
ARC
  5
448E
330
4486
100
AcDbEntity
  8
0
100
AcDbCircle
 10
-1.164476180505801
 20
3.680248361989015
 30
0.0
 40
1.220011576012179
100
AcDbArc
 50
105.9630221688287
 51
179.0723572120024
  0
LINE
  5
448F
330
4486
100
AcDbEntity
  8
0
100
AcDbLine
 10
-1.499999999999943
 20
17.59000000000003
 30
0.0
 11
-3.0
 21
16.72397459621558
 31
0.0
  0
LINE
  5
4490
330
4486
100
AcDbEntity
  8
中心線
100
AcDbLine
 10
-3.2838497963711
 20
26.00000000000935
 30
0.0
 11
2.467787178009871
 21
26.00000000000935
 31
0.0
  0
LINE
  5
4491
330
4486
100
AcDbEntity
  8
0
100
AcDbLine
 10
-2.384327859358222
 20
27.00000000000935
 30
0.0
 11
-2.384327859358222
 21
25.00000000000935
 31
0.0
  0
ARC
  5
4492
330
4486
100
AcDbEntity
  8
0
100
AcDbCircle
 10
-1.164476180505744
 20
25.01975163802646
 30
0.0
 40
1.220011576012179
100
AcDbArc
 50
180.9276427879975
 51
254.0369778311712
  0
ARC
  5
4493
330
4486
100
AcDbEntity
  8
0
100
AcDbCircle
 10
-1.164476180505744
 20
26.98024836199223
 30
0.0
 40
1.220011576012179
100
AcDbArc
 50
105.9630221688287
 51
179.0723572120024
  0
LINE
  5
4494
330
4486
100
AcDbEntity
  8
0
100
AcDbLine
 10
0.0
 20
28.5
 30
0.0
 11
-1.499999999999943
 21
28.5
 31
0.0
  0
LINE
  5
4495
330
4486
100
AcDbEntity
  8
0
100
AcDbLine
 10
-1.499999999999943
 20
27.0
 30
0.0
 11
0.0
 21
27.0
 31
0.0
  0
ENDBLK
  5
4497
330
4486
100
AcDbEntity
  8
0
100
AcDbBlockEnd
  0
BLOCK
  5
4538
330
44BB
100
AcDbEntity
  8
0
100
AcDbBlockBegin
  2
34320001_f
 70
     0
 10
0.0
 20
0.0
 30
0.0
  3
34320001_f
  1

  0
ARC
  5
44BC
330
44BB
100
AcDbEntity
  8
0
 48
0.27
100
AcDbCircle
 10
0.0
 20
0.0
 30
0.0
 40
5.249999999999996
100
AcDbArc
 50
30.24329777399997
 51
329.7566907593
  0
LWPOLYLINE
  5
44BD
330
44BB
100
AcDbEntity
  8
0
 48
0.27
100
AcDbPolyline
 90
       17
 70
     0
 43
0.0
 10
8.95168772729999
 20
-0.0000000000000071
 10
8.985236028700022
 20
-0.2170372425000195
 10
9.018127017900006
 20
-0.2799414764999923
 10
9.054697351699978
 20
-0.3094831132000095
 10
9.088674509099995
 20
-0.3091758331999941
 10
9.125167354900007
 20
-0.2789715404000006
 10
9.156511255900021
 20
-0.2192015629000181
 10
9.185897916600019
 20
-0.0891285822000114
 10
9.190865165400019
 20
-0.0000000000000071
 10
9.157318200000013
 20
0.2170359064999801
 10
9.124425874799975
 20
0.2799401404999955
 10
9.087855541000003
 20
0.3094817771999985
 10
9.053879719600011
 20
0.3091744970999812
 10
9.017385537800002
 20
0.2789702042999878
 10
8.986042972799985
 20
0.2192002267999911
 10
8.95665497609999
 20
0.0891272461999862
 10
8.95168772729999
 20
-0.0000000000000071
  0
ARC
  5
44BE
330
44BB
100
AcDbEntity
  8
0
 48
0.27
100
AcDbCircle
 10
0.0
 20
0.0
 30
0.0
 40
3.999999331999998
100
AcDbArc
 50
48.59037799889993
 51
311.4096220031999
  0
LINE
  5
44BF
330
44BB
100
AcDbEntity
  8
0
 48
0.27
100
AcDbLine
 10
2.886751770999985
 20
2.999999164999984
 30
0.0
 11
2.309400615199997
 21
3.999999331999987
 31
0.0
  0
LINE
  5
44C0
330
44BB
100
AcDbEntity
  8
0
 48
0.27
100
AcDbLine
 10
-2.309400615200004
 20
3.999999331999987
 30
0.0
 11
2.309400615199997
 21
3.999999331999987
 31
0.0
  0
LINE
  5
44C1
330
44BB
100
AcDbEntity
  8
0
 48
0.27
100
AcDbLine
 10
-2.309400615200004
 20
3.999999331999987
 30
0.0
 11
-4.618801230399995
 21
0.0
 31
0.0
  0
LINE
  5
44C2
330
44BB
100
AcDbEntity
  8
0
 48
0.27
100
AcDbLine
 10
-4.618801230399995
 20
0.0
 30
0.0
 11
-2.309400615200004
 21
-4.000000668000012
 31
0.0
  0
LINE
  5
44C3
330
44BB
100
AcDbEntity
  8
0
 48
0.27
100
AcDbLine
 10
2.309401951199994
 20
-4.000000668000012
 30
0.0
 11
-2.309400615200004
 21
-4.000000668000012
 31
0.0
  0
LINE
  5
44C4
330
44BB
100
AcDbEntity
  8
0
 48
0.27
100
AcDbLine
 10
2.886751770999985
 20
-3.000000501000009
 30
0.0
 11
2.309401951199994
 21
-4.000000668000012
 31
0.0
  0
LINE
  5
44C5
330
44BB
100
AcDbEntity
  8
0
 48
0.27
100
AcDbLine
 10
1.301506023000001
 20
-3.000000501000009
 30
0.0
 11
4.31557460619998
 21
-3.000000501000009
 31
0.0
  0
LINE
  5
44C6
330
44BB
100
AcDbEntity
  8
0
 48
0.27
100
AcDbLine
 10
4.378473496199994
 20
2.715312215699995
 30
0.0
 11
4.31557460619998
 21
2.999999164999984
 31
0.0
  0
LINE
  5
44C7
330
44BB
100
AcDbEntity
  8
0
 48
0.27
100
AcDbLine
 10
4.31557460619998
 20
-3.000000501000009
 30
0.0
 11
4.378473496199994
 21
-2.715313551700006
 31
0.0
  0
LINE
  5
44C8
330
44BB
100
AcDbEntity
  8
0
 48
0.27
100
AcDbLine
 10
1.301506023000001
 20
2.999999164999984
 30
0.0
 11
4.31557460619998
 21
2.999999164999984
 31
0.0
  0
LINE
  5
44C9
330
44BB
100
AcDbEntity
  8
0
 48
0.27
100
AcDbLine
 10
3.876721248399995
 20
-2.942356099800001
 30
0.0
 11
5.878527854699989
 21
-2.036541275800004
 31
0.0
  0
LINE
  5
44CA
330
44BB
100
AcDbEntity
  8
0
 48
0.27
100
AcDbLine
 10
9.743742133299967
 20
-0.3495363996000194
 30
0.0
 11
9.756916431399993
 21
0.0
 31
0.0
  0
LINE
  5
44CB
330
44BB
100
AcDbEntity
  8
0
 48
0.27
100
AcDbLine
 10
9.704725583100007
 20
-0.6856406530000143
 30
0.0
 11
9.743742133299967
 21
-0.3495363996000194
 31
0.0
  0
LINE
  5
44CC
330
44BB
100
AcDbEntity
  8
0
 48
0.27
100
AcDbLine
 10
9.756916431399993
 20
0.0
 30
0.0
 11
9.743742133299967
 21
0.349536399599998
 31
0.0
  0
LINE
  5
44CD
330
44BB
100
AcDbEntity
  8
0
 48
0.27
100
AcDbLine
 10
3.652747492799996
 20
-3.000000501000009
 30
0.0
 11
3.876721248399995
 21
-2.942356099800001
 31
0.0
  0
LINE
  5
44CE
330
44BB
100
AcDbEntity
  8
0
 48
0.27
100
AcDbLine
 10
3.652747492799996
 20
2.999999164999984
 30
0.0
 11
3.876721248399995
 21
2.94235476379999
 31
0.0
  0
LINE
  5
44CF
330
44BB
100
AcDbEntity
  8
0
 48
0.27
100
AcDbLine
 10
3.876721248399995
 20
2.94235476379999
 30
0.0
 11
5.878527854699989
 21
2.036539939799993
 31
0.0
  0
LINE
  5
44D0
330
44BB
100
AcDbEntity
  8
0
 48
0.27
100
AcDbLine
 10
9.641365772999996
 20
-0.9953949743000123
 30
0.0
 11
9.704725583100007
 21
-0.6856406530000143
 31
0.0
  0
LINE
  5
44D1
330
44BB
100
AcDbEntity
  8
0
 48
0.27
100
AcDbLine
 10
9.743742133299967
 20
0.349536399599998
 30
0.0
 11
9.704725583100007
 21
0.6856393169999891
 31
0.0
  0
LINE
  5
44D2
330
44BB
100
AcDbEntity
  8
0
 48
0.27
100
AcDbLine
 10
9.556096895399981
 20
-1.266898273400009
 30
0.0
 11
9.641365772999996
 21
-0.9953949743000123
 31
0.0
  0
LINE
  5
44D3
330
44BB
100
AcDbEntity
  8
0
 48
0.27
100
AcDbLine
 10
8.796742430699971
 20
-1.638309004500001
 30
0.0
 11
8.798640886999983
 21
-1.637380484400011
 31
0.0
  0
LINE
  5
44D4
330
44BB
100
AcDbEntity
  8
0
 48
0.27
100
AcDbLine
 10
9.704725583100007
 20
0.6856393169999891
 30
0.0
 11
9.641365772999996
 21
0.9953949742999981
 31
0.0
  0
LINE
  5
44D5
330
44BB
100
AcDbEntity
  8
0
 48
0.27
100
AcDbLine
 10
3.428773737199996
 20
-2.942356099800001
 30
0.0
 11
3.652747492799996
 21
-3.000000501000009
 31
0.0
  0
LINE
  5
44D6
330
44BB
100
AcDbEntity
  8
0
 48
0.27
100
AcDbLine
 10
3.428773737199996
 20
2.94235476379999
 30
0.0
 11
3.652747492799996
 21
2.999999164999984
 31
0.0
  0
LINE
  5
44D7
330
44BB
100
AcDbEntity
  8
0
 48
0.27
100
AcDbLine
 10
9.452197494899998
 20
-1.489715052900002
 30
0.0
 11
9.556096895399981
 21
-1.266898273400009
 31
0.0
  0
LINE
  5
44D8
330
44BB
100
AcDbEntity
  8
0
 48
0.27
100
AcDbLine
 10
9.641365772999996
 20
0.9953949742999981
 30
0.0
 11
9.556096895399981
 21
1.266896937399984
 31
0.0
  0
LINE
  5
44D9
330
44BB
100
AcDbEntity
  8
0
 48
0.27
100
AcDbLine
 10
5.878527854699989
 20
-2.036541275800004
 30
0.0
 11
6.119650508999974
 21
-1.938138180199985
 31
0.0
  0
LINE
  5
44DA
330
44BB
100
AcDbEntity
  8
0
 48
0.27
100
AcDbLine
 10
5.878527854699989
 20
2.036539939799993
 30
0.0
 11
6.119650508999974
 21
1.938138180199985
 31
0.0
  0
LINE
  5
44DB
330
44BB
100
AcDbEntity
  8
0
 48
0.27
100
AcDbLine
 10
9.333659540099993
 20
-1.655281551200005
 30
0.0
 11
9.452197494899998
 21
-1.489715052900002
 31
0.0
  0
LINE
  5
44DC
330
44BB
100
AcDbEntity
  8
0
 48
0.27
100
AcDbLine
 10
9.556096895399981
 20
1.266896937399984
 30
0.0
 11
9.452197494899998
 21
1.489713716900006
 31
0.0
  0
LINE
  5
44DD
330
44BB
100
AcDbEntity
  8
0
 48
0.27
100
AcDbLine
 10
3.213407830899988
 20
-2.77163932070001
 30
0.0
 11
3.428773737199996
 21
-2.942356099800001
 31
0.0
  0
LINE
  5
44DE
330
44BB
100
AcDbEntity
  8
0
 48
0.27
100
AcDbLine
 10
3.213407830899988
 20
2.771637984699992
 30
0.0
 11
3.428773737199996
 21
2.94235476379999
 31
0.0
  0
LINE
  5
44DF
330
44BB
100
AcDbEntity
  8
0
 48
0.27
100
AcDbLine
 10
6.119650508999974
 20
-1.938138180199985
 30
0.0
 11
6.334574199199984
 21
-1.947265733600005
 31
0.0
  0
LINE
  5
44E0
330
44BB
100
AcDbEntity
  8
0
 48
0.27
100
AcDbLine
 10
6.119650508999974
 20
1.938138180199985
 30
0.0
 11
6.334574199199984
 21
1.94726439759998
 31
0.0
  0
LINE
  5
44E1
330
44BB
100
AcDbEntity
  8
0
 48
0.27
100
AcDbLine
 10
7.954563968800009
 20
-2.504328390200001
 30
0.0
 11
9.205038791599982
 21
-1.757238407400009
 31
0.0
  0
LINE
  5
44E2
330
44BB
100
AcDbEntity
  8
0
 48
0.27
100
AcDbLine
 10
9.205038791599982
 20
-1.757238407400009
 30
0.0
 11
9.333659540099993
 21
-1.655281551200005
 31
0.0
  0
LINE
  5
44E3
330
44BB
100
AcDbEntity
  8
0
 48
0.27
100
AcDbLine
 10
9.452197494899998
 20
1.489713716900006
 30
0.0
 11
9.333659540099993
 21
1.655280215199979
 31
0.0
  0
LINE
  5
44E4
330
44BB
100
AcDbEntity
  8
0
 48
0.27
100
AcDbLine
 10
0.6386789095999959
 20
0.0
 30
0.0
 11
1.301506023000001
 21
2.999999164999984
 31
0.0
  0
LINE
  5
44E5
330
44BB
100
AcDbEntity
  8
0
 48
0.27
100
AcDbLine
 10
0.6386789095999959
 20
0.0
 30
0.0
 11
2.327093265999998
 21
0.0
 31
0.0
  0
LINE
  5
44E6
330
44BB
100
AcDbEntity
  8
0
 48
0.27
100
AcDbLine
 10
1.301506023000001
 20
-3.000000501000009
 30
0.0
 11
0.6386789095999959
 21
0.0
 31
0.0
  0
LINE
  5
44E7
330
44BB
100
AcDbEntity
  8
0
 48
0.27
100
AcDbLine
 10
3.213407830899988
 20
-2.77163932070001
 30
0.0
 11
3.014924959399998
 21
-2.494409924600006
 31
0.0
  0
LINE
  5
44E8
330
44BB
100
AcDbEntity
  8
0
 48
0.27
100
AcDbLine
 10
3.014924959399998
 20
2.494408588599981
 30
0.0
 11
3.213407830899988
 21
2.771637984699992
 31
0.0
  0
LINE
  5
44E9
330
44BB
100
AcDbEntity
  8
0
 48
0.27
100
AcDbLine
 10
7.763934106499981
 20
-2.553391662000016
 30
0.0
 11
7.954563968800009
 21
-2.504328390200001
 31
0.0
  0
LINE
  5
44EA
330
44BB
100
AcDbEntity
  8
0
 48
0.27
100
AcDbLine
 10
7.403101825099973
 20
-2.525508001600009
 30
0.0
 11
7.763934106499981
 21
-2.553391662000016
 31
0.0
  0
LINE
  5
44EB
330
44BB
100
AcDbEntity
  8
0
 48
0.27
100
AcDbLine
 10
6.334574199199984
 20
-1.947265733600005
 30
0.0
 11
6.888521303299988
 21
-2.312482767700011
 31
0.0
  0
LINE
  5
44EC
330
44BB
100
AcDbEntity
  8
0
 48
0.27
100
AcDbLine
 10
9.071277114299995
 20
-1.791664460900015
 30
0.0
 11
9.205038791599982
 21
-1.757238407400009
 31
0.0
  0
LINE
  5
44ED
330
44BB
100
AcDbEntity
  8
0
 48
0.27
100
AcDbLine
 10
7.954563968800009
 20
2.504328390199979
 30
0.0
 11
9.205038791599982
 21
1.757237071399998
 31
0.0
  0
LINE
  5
44EE
330
44BB
100
AcDbEntity
  8
0
 48
0.27
100
AcDbLine
 10
9.205038791599982
 20
1.757237071399998
 30
0.0
 11
9.333659540099993
 21
1.655280215199979
 31
0.0
  0
LINE
  5
44EF
330
44BB
100
AcDbEntity
  8
0
 48
0.27
100
AcDbLine
 10
7.763934106499981
 20
2.553390325999991
 30
0.0
 11
7.954563968800009
 21
2.504328390199979
 31
0.0
  0
LINE
  5
44F0
330
44BB
100
AcDbEntity
  8
0
 48
0.27
100
AcDbLine
 10
7.403101825099973
 20
2.525508001499993
 30
0.0
 11
7.763934106499981
 21
2.553390325999991
 31
0.0
  0
LINE
  5
44F1
330
44BB
100
AcDbEntity
  8
0
 48
0.27
100
AcDbLine
 10
6.143738592899985
 20
-1.802762614600013
 30
0.0
 11
6.283819551099988
 21
-1.913802936299987
 31
0.0
  0
LINE
  5
44F2
330
44BB
100
AcDbEntity
  8
0
 48
0.27
100
AcDbLine
 10
6.888521303299988
 20
-2.312482767700011
 30
0.0
 11
7.21455345109998
 21
-2.4769818018
 31
0.0
  0
LINE
  5
44F3
330
44BB
100
AcDbEntity
  8
0
 48
0.27
100
AcDbLine
 10
7.21455345109998
 20
-2.4769818018
 30
0.0
 11
7.403101825099973
 21
-2.525508001600009
 31
0.0
  0
LINE
  5
44F4
330
44BB
100
AcDbEntity
  8
0
 48
0.27
100
AcDbLine
 10
6.334574199199984
 20
1.94726439759998
 30
0.0
 11
6.888521303299988
 21
2.312481431699985
 31
0.0
  0
LINE
  5
44F5
330
44BB
100
AcDbEntity
  8
0
 48
0.27
100
AcDbLine
 10
6.143738592899985
 20
1.802761278599987
 30
0.0
 11
6.283819551099988
 21
1.913801600299997
 31
0.0
  0
LINE
  5
44F6
330
44BB
100
AcDbEntity
  8
0
 48
0.27
100
AcDbLine
 10
3.014924959399998
 20
-2.494409924600006
 30
0.0
 11
2.840953683699986
 21
-2.121321177300011
 31
0.0
  0
LINE
  5
44F7
330
44BB
100
AcDbEntity
  8
0
 48
0.27
100
AcDbLine
 10
2.840953683699986
 20
2.121319841299985
 30
0.0
 11
3.014924959399998
 21
2.494408588599981
 31
0.0
  0
LINE
  5
44F8
330
44BB
100
AcDbEntity
  8
0
 48
0.27
100
AcDbLine
 10
7.57330290819997
 20
-2.504328390200001
 30
0.0
 11
7.763934106499981
 21
-2.553391662000016
 31
0.0
  0
LINE
  5
44F9
330
44BB
100
AcDbEntity
  8
0
 48
0.27
100
AcDbLine
 10
7.21455345109998
 20
2.476980465799996
 30
0.0
 11
7.403101825099973
 21
2.525508001499993
 31
0.0
  0
LINE
  5
44FA
330
44BB
100
AcDbEntity
  8
0
 48
0.27
100
AcDbLine
 10
6.888521303299988
 20
2.312481431699985
 30
0.0
 11
7.21455345109998
 21
2.476980465799996
 31
0.0
  0
LINE
  5
44FB
330
44BB
100
AcDbEntity
  8
0
 48
0.27
100
AcDbLine
 10
2.989920379400011
 20
-3.000000501000009
 30
0.0
 11
2.327093265999998
 21
0.0
 31
0.0
  0
LINE
  5
44FC
330
44BB
100
AcDbEntity
  8
0
 48
0.27
100
AcDbLine
 10
2.327093265999998
 20
0.0
 30
0.0
 11
2.989920379400011
 21
2.999999164999984
 31
0.0
  0
LINE
  5
44FD
330
44BB
100
AcDbEntity
  8
0
 48
0.27
100
AcDbLine
 10
6.143738592899985
 20
-1.802762614600013
 30
0.0
 11
6.014638220299993
 21
-1.622444002000008
 31
0.0
  0
LINE
  5
44FE
330
44BB
100
AcDbEntity
  8
0
 48
0.27
100
AcDbLine
 10
8.937515437099982
 20
-1.757238407400009
 30
0.0
 11
9.071277114299995
 21
-1.791664460900015
 31
0.0
  0
LINE
  5
44FF
330
44BB
100
AcDbEntity
  8
0
 48
0.27
100
AcDbLine
 10
9.071277114299995
 20
1.79166312489999
 30
0.0
 11
9.205038791599982
 21
1.757237071399998
 31
0.0
  0
LINE
  5
4500
330
44BB
100
AcDbEntity
  8
0
 48
0.27
100
AcDbLine
 10
7.57330290819997
 20
2.504328390199979
 30
0.0
 11
7.763934106499981
 21
2.553390325999991
 31
0.0
  0
LINE
  5
4501
330
44BB
100
AcDbEntity
  8
0
 48
0.27
100
AcDbLine
 10
6.719258092399989
 20
2.178309602299982
 30
0.0
 11
6.888521303299988
 21
2.312481431699985
 31
0.0
  0
LINE
  5
4502
330
44BB
100
AcDbEntity
  8
0
 48
0.27
100
AcDbLine
 10
6.014638220299993
 20
1.622442665999997
 30
0.0
 11
6.143738592899985
 21
1.802761278599987
 31
0.0
  0
LINE
  5
4503
330
44BB
100
AcDbEntity
  8
0
 48
0.27
100
AcDbLine
 10
2.840953683699986
 20
-2.121321177300011
 30
0.0
 11
2.698178012999996
 21
-1.666711033000026
 31
0.0
  0
LINE
  5
4504
330
44BB
100
AcDbEntity
  8
0
 48
0.27
100
AcDbLine
 10
2.698178012999996
 20
1.666709696999987
 30
0.0
 11
2.840953683699986
 21
2.121319841299985
 31
0.0
  0
LINE
  5
4505
330
44BB
100
AcDbEntity
  8
0
 48
0.27
100
AcDbLine
 10
6.014638220299993
 20
-1.622444002000008
 30
0.0
 11
5.901481674399995
 21
-1.379775595399998
 31
0.0
  0
LINE
  5
4506
330
44BB
100
AcDbEntity
  8
0
 48
0.27
100
AcDbLine
 10
7.389998334999994
 20
-2.359026343100012
 30
0.0
 11
7.57330290819997
 21
-2.504328390200001
 31
0.0
  0
LINE
  5
4507
330
44BB
100
AcDbEntity
  8
0
 48
0.27
100
AcDbLine
 10
5.901481674399995
 20
1.379774259399987
 30
0.0
 11
6.014638220299993
 21
1.622442665999997
 31
0.0
  0
LINE
  5
4508
330
44BB
100
AcDbEntity
  8
0
 48
0.27
100
AcDbLine
 10
8.808893352599973
 20
-1.655281551200005
 30
0.0
 11
8.937515437099982
 21
-1.757238407400009
 31
0.0
  0
LINE
  5
4509
330
44BB
100
AcDbEntity
  8
0
 48
0.27
100
AcDbLine
 10
7.389998334999994
 20
2.359025007099987
 30
0.0
 11
7.57330290819997
 21
2.504328390199979
 31
0.0
  0
LINE
  5
450A
330
44BB
100
AcDbEntity
  8
0
 48
0.27
100
AcDbLine
 10
8.937515437099982
 20
1.757237071399998
 30
0.0
 11
9.071277114299995
 21
1.79166312489999
 31
0.0
  0
LINE
  5
450B
330
44BB
100
AcDbEntity
  8
0
 48
0.27
100
AcDbLine
 10
5.901481674399995
 20
-1.379775595399998
 30
0.0
 11
5.808616299599997
 21
-1.084082676400001
 31
0.0
  0
LINE
  5
450C
330
44BB
100
AcDbEntity
  8
0
 48
0.27
100
AcDbLine
 10
2.698178012999996
 20
-1.666711033000026
 30
0.0
 11
2.592087572199993
 21
-1.148050366499994
 31
0.0
  0
LINE
  5
450D
330
44BB
100
AcDbEntity
  8
0
 48
0.27
100
AcDbLine
 10
2.592087572199993
 20
1.148050366499973
 30
0.0
 11
2.698178012999996
 21
1.666709696999987
 31
0.0
  0
LINE
  5
450E
330
44BB
100
AcDbEntity
  8
0
 48
0.27
100
AcDbLine
 10
5.808616299599997
 20
1.084081340399976
 30
0.0
 11
5.901481674399995
 21
1.379774259399987
 31
0.0
  0
LINE
  5
450F
330
44BB
100
AcDbEntity
  8
0
 48
0.27
100
AcDbLine
 10
7.389998334999994
 20
-2.359026343100012
 30
0.0
 11
7.221063780199976
 21
-2.123067329600004
 31
0.0
  0
LINE
  5
4510
330
44BB
100
AcDbEntity
  8
0
 48
0.27
100
AcDbLine
 10
5.808616299599997
 20
-1.084082676400001
 30
0.0
 11
5.739611888599988
 21
-0.7467292626999936
 31
0.0
  0
LINE
  5
4511
330
44BB
100
AcDbEntity
  8
0
 48
0.27
100
AcDbLine
 10
2.592087572199993
 20
-1.148050366499994
 30
0.0
 11
2.526757161799991
 21
-0.5852709651000012
 31
0.0
  0
LINE
  5
4512
330
44BB
100
AcDbEntity
  8
0
 48
0.27
100
AcDbLine
 10
2.526757161799991
 20
0.5852709649999924
 30
0.0
 11
2.592087572199993
 21
1.148050366499973
 31
0.0
  0
LINE
  5
4513
330
44BB
100
AcDbEntity
  8
0
 48
0.27
100
AcDbLine
 10
8.808893352599973
 20
1.655280215199979
 30
0.0
 11
8.937515437099982
 21
1.757237071399998
 31
0.0
  0
LINE
  5
4514
330
44BB
100
AcDbEntity
  8
0
 48
0.27
100
AcDbLine
 10
8.808893352599973
 20
-1.655281551200005
 30
0.0
 11
8.690355397800011
 21
-1.489715052900002
 31
0.0
  0
LINE
  5
4515
330
44BB
100
AcDbEntity
  8
0
 48
0.27
100
AcDbLine
 10
7.221063780199976
 20
2.123065993599979
 30
0.0
 11
7.389998334999994
 21
2.359025007099987
 31
0.0
  0
LINE
  5
4516
330
44BB
100
AcDbEntity
  8
0
 48
0.27
100
AcDbLine
 10
5.739611888599988
 20
0.7467279266999825
 30
0.0
 11
5.808616299599997
 21
1.084081340399976
 31
0.0
  0
LINE
  5
4517
330
44BB
100
AcDbEntity
  8
0
 48
0.27
100
AcDbLine
 10
5.739611888599988
 20
-0.7467292626999936
 30
0.0
 11
5.697117729899993
 21
-0.3806799005000201
 31
0.0
  0
LINE
  5
4518
330
44BB
100
AcDbEntity
  8
0
 48
0.27
100
AcDbLine
 10
2.526757161799991
 20
-0.5852709651000012
 30
0.0
 11
2.504697126300001
 21
0.0
 31
0.0
  0
LINE
  5
4519
330
44BB
100
AcDbEntity
  8
0
 48
0.27
100
AcDbLine
 10
2.504697126300001
 20
0.0
 30
0.0
 11
2.526757161799991
 21
0.5852709649999924
 31
0.0
  0
LINE
  5
451A
330
44BB
100
AcDbEntity
  8
0
 48
0.27
100
AcDbLine
 10
5.697117729899993
 20
0.3806785644999806
 30
0.0
 11
5.739611888599988
 21
0.7467279266999825
 31
0.0
  0
LINE
  5
451B
330
44BB
100
AcDbEntity
  8
0
 48
0.27
100
AcDbLine
 10
5.697117729899993
 20
-0.3806799005000201
 30
0.0
 11
5.682770423599997
 21
0.0
 31
0.0
  0
LINE
  5
451C
330
44BB
100
AcDbEntity
  8
0
 48
0.27
100
AcDbLine
 10
5.682770423599997
 20
0.0
 30
0.0
 11
5.697117729899993
 21
0.3806785644999806
 31
0.0
  0
LINE
  5
451D
330
44BB
100
AcDbEntity
  8
0
 48
0.27
100
AcDbLine
 10
7.221063780199976
 20
-2.123067329600004
 30
0.0
 11
7.072990868599994
 21
-1.805520119100009
 31
0.0
  0
LINE
  5
451E
330
44BB
100
AcDbEntity
  8
0
 48
0.27
100
AcDbLine
 10
8.690355397800011
 20
1.489713716900006
 30
0.0
 11
8.808893352599973
 21
1.655280215199979
 31
0.0
  0
LINE
  5
451F
330
44BB
100
AcDbEntity
  8
0
 48
0.27
100
AcDbLine
 10
8.690355397800011
 20
-1.489715052900002
 30
0.0
 11
8.586455997299971
 21
-1.266898273400009
 31
0.0
  0
LINE
  5
4520
330
44BB
100
AcDbEntity
  8
0
 48
0.27
100
AcDbLine
 10
7.072990868599994
 20
1.805520119099995
 30
0.0
 11
7.221063780199976
 21
2.123065993599979
 31
0.0
  0
LINE
  5
4521
330
44BB
100
AcDbEntity
  8
0
 48
0.27
100
AcDbLine
 10
8.586455997299971
 20
1.266896937399984
 30
0.0
 11
8.690355397800011
 21
1.489713716900006
 31
0.0
  0
LINE
  5
4522
330
44BB
100
AcDbEntity
  8
0
 48
0.27
100
AcDbLine
 10
7.072990868599994
 20
-1.805520119100009
 30
0.0
 11
6.951470961299996
 21
-1.41858907360001
 31
0.0
  0
LINE
  5
4523
330
44BB
100
AcDbEntity
  8
0
 48
0.27
100
AcDbLine
 10
8.586455997299971
 20
-1.266898273400009
 30
0.0
 11
8.501188455699967
 21
-0.9953949743000123
 31
0.0
  0
LINE
  5
4524
330
44BB
100
AcDbEntity
  8
0
 48
0.27
100
AcDbLine
 10
6.951470961299996
 20
1.41858773749999
 30
0.0
 11
7.072990868599994
 21
1.805520119099995
 31
0.0
  0
LINE
  5
4525
330
44BB
100
AcDbEntity
  8
0
 48
0.27
100
AcDbLine
 10
8.501188455699967
 20
0.9953949742999981
 30
0.0
 11
8.586455997299971
 21
1.266896937399984
 31
0.0
  0
LINE
  5
4526
330
44BB
100
AcDbEntity
  8
0
 48
0.27
100
AcDbLine
 10
6.951470961299996
 20
-1.41858907360001
 30
0.0
 11
6.861173378900012
 21
-0.9771412034000164
 31
0.0
  0
LINE
  5
4527
330
44BB
100
AcDbEntity
  8
0
 48
0.27
100
AcDbLine
 10
8.501188455699967
 20
-0.9953949743000123
 30
0.0
 11
8.437828645599999
 21
-0.6856406530000143
 31
0.0
  0
LINE
  5
4528
330
44BB
100
AcDbEntity
  8
0
 48
0.27
100
AcDbLine
 10
6.861173378900012
 20
0.9771398673999911
 30
0.0
 11
6.951470961299996
 21
1.41858773749999
 31
0.0
  0
LINE
  5
4529
330
44BB
100
AcDbEntity
  8
0
 48
0.27
100
AcDbLine
 10
8.437828645599999
 20
0.6856393169999891
 30
0.0
 11
8.501188455699967
 21
0.9953949742999981
 31
0.0
  0
LINE
  5
452A
330
44BB
100
AcDbEntity
  8
0
 48
0.27
100
AcDbLine
 10
6.861173378900012
 20
-0.9771412034000164
 30
0.0
 11
6.805569050099983
 21
-0.4981423752000041
 31
0.0
  0
LINE
  5
452B
330
44BB
100
AcDbEntity
  8
0
 48
0.27
100
AcDbLine
 10
8.437828645599999
 20
-0.6856406530000143
 30
0.0
 11
8.398810759399971
 21
-0.3495363996000194
 31
0.0
  0
LINE
  5
452C
330
44BB
100
AcDbEntity
  8
0
 48
0.27
100
AcDbLine
 10
6.805569050099983
 20
0.4981410392000001
 30
0.0
 11
6.861173378900012
 21
0.9771398673999911
 31
0.0
  0
LINE
  5
452D
330
44BB
100
AcDbEntity
  8
0
 48
0.27
100
AcDbLine
 10
8.398810759399971
 20
0.349536399599998
 30
0.0
 11
8.437828645599999
 21
0.6856393169999891
 31
0.0
  0
LINE
  5
452E
330
44BB
100
AcDbEntity
  8
0
 48
0.27
100
AcDbLine
 10
6.805569050099983
 20
-0.4981423752000041
 30
0.0
 11
6.786792903099971
 21
0.0
 31
0.0
  0
LINE
  5
452F
330
44BB
100
AcDbEntity
  8
0
 48
0.27
100
AcDbLine
 10
8.398810759399971
 20
-0.3495363996000194
 30
0.0
 11
8.385636461300002
 21
0.0
 31
0.0
  0
LINE
  5
4530
330
44BB
100
AcDbEntity
  8
0
 48
0.27
100
AcDbLine
 10
8.385636461300002
 20
0.0
 30
0.0
 11
8.398810759399971
 21
0.349536399599998
 31
0.0
  0
LINE
  5
4531
330
44BB
100
AcDbEntity
  8
0
 48
0.27
100
AcDbLine
 10
6.786792903099971
 20
0.0
 30
0.0
 11
6.805569050099983
 21
0.4981410392000001
 31
0.0
  0
LINE
  5
4532
330
44BB
100
AcDbEntity
  8
0
 48
0.27
100
AcDbLine
 10
6.283819551099988
 20
-1.913802936299987
 30
0.0
 11
6.334574199199984
 21
-1.947265733600005
 31
0.0
  0
LINE
  5
4533
330
44BB
100
AcDbEntity
  8
0
 48
0.27
100
AcDbLine
 10
6.07129665339999
 20
-1.936084747800002
 30
0.0
 11
6.119650508999974
 21
-1.938138180199985
 31
0.0
  0
LINE
  5
4534
330
44BB
100
AcDbEntity
  8
0
 48
0.27
100
AcDbLine
 10
6.283819551099988
 20
1.913801600299997
 30
0.0
 11
6.334574199199984
 21
1.94726439759998
 31
0.0
  0
LINE
  5
4535
330
44BB
100
AcDbEntity
  8
中心線
 48
0.27
100
AcDbLine
 10
-0.0000000000000006
 20
-6.749999999999996
 30
0.0
 11
0.0000000000000004
 21
6.749999999999996
 31
0.0
  0
LINE
  5
4536
330
44BB
100
AcDbEntity
  8
中心線
 48
0.27
100
AcDbLine
 10
11.25691643139999
 20
-0.0000000000000017
 30
0.0
 11
-6.749999999999996
 21
-0.0000000000000008
 31
0.0
  0
POINT
  5
4537
330
44BB
100
AcDbEntity
  8
0
100
AcDbPoint
 10
9.756916431399993
 20
0.0
 30
0.0
1001
pntflag
1000
endpoint
  0
ENDBLK
  5
4539
330
44BB
100
AcDbEntity
  8
0
100
AcDbBlockEnd
  0
BLOCK
  5
45B8
330
453B
100
AcDbEntity
  8
0
100
AcDbBlockBegin
  2
34320001_l
 70
     0
 10
0.0
 20
0.0
 30
0.0
  3
34320001_l
  1

  0
LINE
  5
453C
330
453B
100
AcDbEntity
  8
中心線
 48
0.27
100
AcDbLine
 10
-14.99999824098329
 20
0.0000000000000002
 30
0.0
 11
0.3044698735536144
 21
0.0
 31
0.0
  0
ARC
  5
453D
330
453B
100
AcDbEntity
  8
0
 48
0.27
100
AcDbCircle
 10
-0.8083830000001341
 20
-1.999980668899951
 30
0.0
 40
2.954110999999976
100
AcDbArc
 50
137.3885930045003
 51
222.6114069976007
  0
ARC
  5
453E
330
453B
100
AcDbEntity
  8
0
 48
0.27
100
AcDbCircle
 10
-0.8083820000001082
 20
2.000019331099935
 30
0.0
 40
2.954111999999976
100
AcDbArc
 50
137.3885980021991
 51
222.6114019998989
  0
LWPOLYLINE
  5
453F
330
453B
100
AcDbEntity
  8
0
 48
0.27
100
AcDbPolyline
 90
       31
 70
     0
 43
0.0
 10
-11.09121100000001
 20
0.0000193310999634
 10
-11.12402900000003
 20
0.2102743310999813
 10
-11.16817600000004
 20
0.3157613310999636
 10
-11.23120900000003
 20
0.4135403310999664
 10
-11.31068500000003
 20
0.4976533310999685
 10
-11.40217600000002
 20
0.563526331099979
 10
-11.50009600000001
 20
0.6088073310999107
 10
-11.63273200000003
 20
0.6377483310999424
 10
-11.75574100000002
 20
0.6350893310999482
 10
-11.86266500000002
 20
0.609583331099941
 10
-11.97887000000003
 20
0.5538153310999406
 10
-12.08944000000002
 20
0.4643263310999828
 10
-12.17767
 20
0.3497763310999744
 10
-12.234304
 20
0.2299373311000181
 10
-12.262155
 20
0.1262813310999604
 10
-12.27377600000002
 20
0.0000193310999634
 10
-12.24095800000003
 20
-0.2102356688999976
 10
-12.19681000000002
 20
-0.3157236689000342
 10
-12.13377800000003
 20
-0.4135016689000395
 10
-12.054302
 20
-0.4976146689000416
 10
-11.96281100000001
 20
-0.5634876689000521
 10
-11.86489100000002
 20
-0.6087686689000407
 10
-11.732255
 20
-0.6377106689000698
 10
-11.60924600000001
 20
-0.6350506689000213
 10
-11.50232200000002
 20
-0.6095456689000116
 10
-11.38611700000001
 20
-0.5537776689000112
 10
-11.27554700000001
 20
-0.4642876689000559
 10
-11.18731700000003
 20
-0.349738668900045
 10
-11.13068300000003
 20
-0.2298996689000319
 10
-11.102831
 20
-0.1262426688999767
 10
-11.09121100000001
 20
0.0000193310999634
  0
ARC
  5
4540
330
453B
100
AcDbEntity
  8
0
 48
0.27
100
AcDbCircle
 10
-7.510834000000059
 20
0.0000193310999919
 30
0.0
 40
3.999999999999968
100
AcDbArc
 50
90.0
 51
131.4096219996001
  0
ARC
  5
4541
330
453B
100
AcDbEntity
  8
0
 48
0.27
100
AcDbCircle
 10
-7.510834000000059
 20
0.0000193310999919
 30
0.0
 40
3.999999999999968
100
AcDbArc
 50
228.5903779973003
 51
270.0
  0
LINE
  5
4542
330
453B
100
AcDbEntity
  8
0
 48
0.27
100
AcDbLine
 10
0.0
 20
4.000019331099991
 30
0.0
 11
-7.510834000000059
 21
4.000019331099991
 31
0.0
  0
LINE
  5
4543
330
453B
100
AcDbEntity
  8
0
 48
0.27
100
AcDbLine
 10
-2.982498000000092
 20
0.0000193310999919
 30
0.0
 11
0.0
 21
0.0000193310999919
 31
0.0
  0
LINE
  5
4544
330
453B
100
AcDbEntity
  8
0
 48
0.27
100
AcDbLine
 10
-7.510834000000059
 20
-3.999980668900008
 30
0.0
 11
0.0
 21
-3.999980668900008
 31
0.0
  0
LINE
  5
4545
330
453B
100
AcDbEntity
  8
0
 48
0.27
100
AcDbLine
 10
-3.762494000000074
 20
4.000019331099991
 30
0.0
 11
-3.762494000000074
 21
-3.999980668900008
 31
0.0
  0
LINE
  5
4546
330
453B
100
AcDbEntity
  8
0
 48
0.27
100
AcDbLine
 10
-11.03827100000002
 20
3.000019331099963
 30
0.0
 11
-7.138495000000069
 21
3.000019331099963
 31
0.0
  0
LINE
  5
4547
330
453B
100
AcDbEntity
  8
0
 48
0.27
100
AcDbLine
 10
-11.28466400000002
 20
-2.538053668900005
 30
0.0
 11
-11.03827100000002
 21
-2.999980668899979
 31
0.0
  0
LINE
  5
4548
330
453B
100
AcDbEntity
  8
0
 48
0.27
100
AcDbLine
 10
-11.03827100000002
 20
3.000019331099963
 30
0.0
 11
-11.28466400000002
 21
2.538092331099988
 31
0.0
  0
LINE
  5
4549
330
453B
100
AcDbEntity
  8
0
 48
0.27
100
AcDbLine
 10
-6.237653000000065
 20
0.0000193310999919
 30
0.0
 11
-5.538289000000062
 21
0.0000193310999919
 31
0.0
  0
LINE
  5
454A
330
453B
100
AcDbEntity
  8
0
 48
0.27
100
AcDbLine
 10
-7.138495000000069
 20
3.000019331099963
 30
0.0
 11
-5.538289000000062
 21
0.0000193310999919
 31
0.0
  0
LINE
  5
454B
330
453B
100
AcDbEntity
  8
0
 48
0.27
100
AcDbLine
 10
-7.138495000000069
 20
-2.999980668899979
 30
0.0
 11
-11.03827100000002
 21
-2.999980668899979
 31
0.0
  0
LINE
  5
454C
330
453B
100
AcDbEntity
  8
0
 48
0.27
100
AcDbLine
 10
-5.538289000000062
 20
0.0000193310999919
 30
0.0
 11
-7.138495000000069
 21
-2.999980668899979
 31
0.0
  0
LINE
  5
454D
330
453B
100
AcDbEntity
  8
0
 48
0.27
100
AcDbLine
 10
-10.91719200000003
 20
2.529553331099975
 30
0.0
 11
-10.49872500000005
 21
2.771657331099959
 31
0.0
  0
LINE
  5
454E
330
453B
100
AcDbEntity
  8
0
 48
0.27
100
AcDbLine
 10
-10.91719200000003
 20
-2.529515668899961
 30
0.0
 11
-10.49872500000005
 21
-2.771619668900001
 31
0.0
  0
LINE
  5
454F
330
453B
100
AcDbEntity
  8
0
 48
0.27
100
AcDbLine
 10
-10.49872500000005
 20
2.771657331099959
 30
0.0
 11
-9.978785000000044
 21
2.942375331099924
 31
0.0
  0
LINE
  5
4550
330
453B
100
AcDbEntity
  8
0
 48
0.27
100
AcDbLine
 10
-10.49872500000005
 20
-2.771619668900001
 30
0.0
 11
-9.978785000000044
 21
-2.94233666889994
 31
0.0
  0
LINE
  5
4551
330
453B
100
AcDbEntity
  8
0
 48
0.27
100
AcDbLine
 10
-9.978785000000044
 20
2.942375331099924
 30
0.0
 11
-9.43806500000003
 21
3.000019331099963
 31
0.0
  0
LINE
  5
4552
330
453B
100
AcDbEntity
  8
0
 48
0.27
100
AcDbLine
 10
-9.978785000000044
 20
-2.94233666889994
 30
0.0
 11
-9.43806500000003
 21
-2.999980668899979
 31
0.0
  0
LINE
  5
4553
330
453B
100
AcDbEntity
  8
0
 48
0.27
100
AcDbLine
 10
-9.43806500000003
 20
3.000019331099963
 30
0.0
 11
-8.897345000000044
 21
2.942375331099924
 31
0.0
  0
LINE
  5
4554
330
453B
100
AcDbEntity
  8
0
 48
0.27
100
AcDbLine
 10
-9.43806500000003
 20
-2.999980668899979
 30
0.0
 11
-8.897345000000044
 21
-2.94233666889994
 31
0.0
  0
LINE
  5
4555
330
453B
100
AcDbEntity
  8
0
 48
0.27
100
AcDbLine
 10
-8.897345000000044
 20
2.942375331099924
 30
0.0
 11
-8.377405000000067
 21
2.771657331099959
 31
0.0
  0
LINE
  5
4556
330
453B
100
AcDbEntity
  8
0
 48
0.27
100
AcDbLine
 10
-8.897345000000044
 20
-2.94233666889994
 30
0.0
 11
-8.377405000000067
 21
-2.771619668900001
 31
0.0
  0
LINE
  5
4557
330
453B
100
AcDbEntity
  8
0
 48
0.27
100
AcDbLine
 10
-8.377405000000067
 20
2.771657331099959
 30
0.0
 11
-7.898225000000053
 21
2.494428331099982
 31
0.0
  0
LINE
  5
4558
330
453B
100
AcDbEntity
  8
0
 48
0.27
100
AcDbLine
 10
-8.377405000000067
 20
-2.771619668900001
 30
0.0
 11
-7.898225000000053
 21
-2.494389668899998
 31
0.0
  0
LINE
  5
4559
330
453B
100
AcDbEntity
  8
0
 48
0.27
100
AcDbLine
 10
-7.898225000000053
 20
2.494428331099982
 30
0.0
 11
-7.478221000000054
 21
2.121339331099989
 31
0.0
  0
LINE
  5
455A
330
453B
100
AcDbEntity
  8
0
 48
0.27
100
AcDbLine
 10
-7.898225000000053
 20
-2.494389668899998
 30
0.0
 11
-7.478221000000054
 21
-2.121301668900031
 31
0.0
  0
LINE
  5
455B
330
453B
100
AcDbEntity
  8
0
 48
0.27
100
AcDbLine
 10
-7.837859000000051
 20
3.000019331099963
 30
0.0
 11
-6.237653000000065
 21
0.0000193310999919
 31
0.0
  0
LINE
  5
455C
330
453B
100
AcDbEntity
  8
0
 48
0.27
100
AcDbLine
 10
-6.237653000000065
 20
0.0000193310999919
 30
0.0
 11
-7.837859000000051
 21
-2.999980668899979
 31
0.0
  0
LINE
  5
455D
330
453B
100
AcDbEntity
  8
0
 48
0.27
100
AcDbLine
 10
-7.478221000000054
 20
2.121339331099989
 30
0.0
 11
-7.133532000000066
 21
1.666729331099986
 31
0.0
  0
LINE
  5
455E
330
453B
100
AcDbEntity
  8
0
 48
0.27
100
AcDbLine
 10
-7.133532000000066
 20
-1.666691668900028
 30
0.0
 11
-7.478221000000054
 21
-2.121301668900031
 31
0.0
  0
LINE
  5
455F
330
453B
100
AcDbEntity
  8
0
 48
0.27
100
AcDbLine
 10
-7.133532000000066
 20
1.666729331099986
 30
0.0
 11
-6.877405000000052
 21
1.148069331099975
 31
0.0
  0
LINE
  5
4560
330
453B
100
AcDbEntity
  8
0
 48
0.27
100
AcDbLine
 10
-6.877405000000052
 20
-1.14803166889996
 30
0.0
 11
-7.133532000000066
 21
-1.666691668900028
 31
0.0
  0
LINE
  5
4561
330
453B
100
AcDbEntity
  8
0
 48
0.27
100
AcDbLine
 10
-6.877405000000052
 20
1.148069331099975
 30
0.0
 11
-6.719683000000074
 21
0.5852903311000262
 31
0.0
  0
LINE
  5
4562
330
453B
100
AcDbEntity
  8
0
 48
0.27
100
AcDbLine
 10
-6.719683000000074
 20
-0.5852516689000425
 30
0.0
 11
-6.877405000000052
 21
-1.14803166889996
 31
0.0
  0
LINE
  5
4563
330
453B
100
AcDbEntity
  8
0
 48
0.27
100
AcDbLine
 10
-6.719683000000074
 20
0.5852903311000262
 30
0.0
 11
-6.666427000000055
 21
0.0000193310999919
 31
0.0
  0
LINE
  5
4564
330
453B
100
AcDbEntity
  8
0
 48
0.27
100
AcDbLine
 10
-6.666427000000055
 20
0.0000193310999919
 30
0.0
 11
-6.719683000000074
 21
-0.5852516689000425
 31
0.0
  0
LINE
  5
4565
330
453B
100
AcDbEntity
  8
0
 48
0.27
100
AcDbLine
 10
-12.34196200000001
 20
1.640246331099945
 30
0.0
 11
-12.33899100000002
 21
1.638631331099986
 31
0.0
  0
LINE
  5
4566
330
453B
100
AcDbEntity
  8
0
 48
0.27
100
AcDbLine
 10
-12.34196200000001
 20
-1.640208668899987
 30
0.0
 11
-12.33899100000002
 21
-1.638592668900002
 31
0.0
  0
LINE
  5
4567
330
453B
100
AcDbEntity
  8
0
 48
0.27
100
AcDbLine
 10
-13.454672
 20
0.4981613310999933
 30
0.0
 11
-13.5
 21
0.0000193310999919
 31
0.0
  0
LINE
  5
4568
330
453B
100
AcDbEntity
  8
0
 48
0.27
100
AcDbLine
 10
-13.32043000000001
 20
0.9771593310999833
 30
0.0
 11
-13.454672
 21
0.4981613310999933
 31
0.0
  0
LINE
  5
4569
330
453B
100
AcDbEntity
  8
0
 48
0.27
100
AcDbLine
 10
-13.5
 20
0.0000193310999919
 30
0.0
 11
-13.454672
 21
-0.4981226689000096
 31
0.0
  0
LINE
  5
456A
330
453B
100
AcDbEntity
  8
0
 48
0.27
100
AcDbLine
 10
-13.102433
 20
1.418607331099991
 30
0.0
 11
-13.32043000000001
 21
0.9771593310999833
 31
0.0
  0
LINE
  5
456B
330
453B
100
AcDbEntity
  8
0
 48
0.27
100
AcDbLine
 10
-13.454672
 20
-0.4981226689000096
 30
0.0
 11
-13.32043000000001
 21
-0.9771216689000254
 31
0.0
  0
LINE
  5
456C
330
453B
100
AcDbEntity
  8
0
 48
0.27
100
AcDbLine
 10
-12.809057
 20
1.805539331100021
 30
0.0
 11
-13.102433
 21
1.418607331099991
 31
0.0
  0
LINE
  5
456D
330
453B
100
AcDbEntity
  8
0
 48
0.27
100
AcDbLine
 10
-13.32043000000001
 20
-0.9771216689000254
 30
0.0
 11
-13.102433
 21
-1.418568668900007
 31
0.0
  0
LINE
  5
456E
330
453B
100
AcDbEntity
  8
0
 48
0.27
100
AcDbLine
 10
-12.809057
 20
1.805539331100021
 30
0.0
 11
-12.45157900000001
 21
2.123086331099983
 31
0.0
  0
LINE
  5
456F
330
453B
100
AcDbEntity
  8
0
 48
0.27
100
AcDbLine
 10
-13.102433
 20
-1.418568668900007
 30
0.0
 11
-12.809057
 21
-1.805500668900037
 31
0.0
  0
LINE
  5
4570
330
453B
100
AcDbEntity
  8
0
 48
0.27
100
AcDbLine
 10
-13.30596900000001
 20
0.3495553310999924
 30
0.0
 11
-13.33777500000001
 21
0.0000193310999919
 31
0.0
  0
LINE
  5
4571
330
453B
100
AcDbEntity
  8
0
 48
0.27
100
AcDbLine
 10
-13.211774
 20
0.6856593310999984
 30
0.0
 11
-13.30596900000001
 21
0.3495553310999924
 31
0.0
  0
LINE
  5
4572
330
453B
100
AcDbEntity
  8
0
 48
0.27
100
AcDbLine
 10
-13.33777500000001
 20
0.0000193310999919
 30
0.0
 11
-13.30596900000001
 21
-0.3495166689000086
 31
0.0
  0
LINE
  5
4573
330
453B
100
AcDbEntity
  8
0
 48
0.27
100
AcDbLine
 10
-13.05881000000001
 20
0.9954143310999654
 30
0.0
 11
-13.211774
 21
0.6856593310999984
 31
0.0
  0
LINE
  5
4574
330
453B
100
AcDbEntity
  8
0
 48
0.27
100
AcDbLine
 10
-13.30596900000001
 20
-0.3495166689000086
 30
0.0
 11
-13.211774
 21
-0.6856206689000146
 31
0.0
  0
LINE
  5
4575
330
453B
100
AcDbEntity
  8
0
 48
0.27
100
AcDbLine
 10
-12.45157900000001
 20
2.123086331099983
 30
0.0
 11
-12.04373400000001
 21
2.359045331099963
 31
0.0
  0
LINE
  5
4576
330
453B
100
AcDbEntity
  8
0
 48
0.27
100
AcDbLine
 10
-12.809057
 20
-1.805500668900037
 30
0.0
 11
-12.45157900000001
 21
-2.123047668899999
 31
0.0
  0
LINE
  5
4577
330
453B
100
AcDbEntity
  8
0
 48
0.27
100
AcDbLine
 10
-12.85295399999999
 20
1.266916331099992
 30
0.0
 11
-13.05881000000001
 21
0.9954143310999654
 31
0.0
  0
LINE
  5
4578
330
453B
100
AcDbEntity
  8
0
 48
0.27
100
AcDbLine
 10
-13.211774
 20
-0.6856206689000146
 30
0.0
 11
-13.05881000000001
 21
-0.9953756688999817
 31
0.0
  0
LINE
  5
4579
330
453B
100
AcDbEntity
  8
0
 48
0.27
100
AcDbLine
 10
-12.04373400000001
 20
2.359045331099963
 30
0.0
 11
-11.60119700000001
 21
2.504347331099921
 31
0.0
  0
LINE
  5
457A
330
453B
100
AcDbEntity
  8
0
 48
0.27
100
AcDbLine
 10
-12.45157900000001
 20
-2.123047668899999
 30
0.0
 11
-12.04373400000001
 21
-2.359006668900008
 31
0.0
  0
LINE
  5
457B
330
453B
100
AcDbEntity
  8
0
 48
0.27
100
AcDbLine
 10
-12.85295399999999
 20
1.266916331099992
 30
0.0
 11
-12.602119
 21
1.489733331099955
 31
0.0
  0
LINE
  5
457C
330
453B
100
AcDbEntity
  8
0
 48
0.27
100
AcDbLine
 10
-13.05881000000001
 20
-0.9953756688999817
 30
0.0
 11
-12.85295399999999
 21
-1.266878668899948
 31
0.0
  0
LINE
  5
457D
330
453B
100
AcDbEntity
  8
0
 48
0.27
100
AcDbLine
 10
-11.60119700000001
 20
2.504347331099921
 30
0.0
 11
-11.14097400000002
 21
2.553410331099968
 31
0.0
  0
LINE
  5
457E
330
453B
100
AcDbEntity
  8
0
 48
0.27
100
AcDbLine
 10
-12.04373400000001
 20
-2.359006668900008
 30
0.0
 11
-11.60119700000001
 21
-2.50430966890002
 31
0.0
  0
LINE
  5
457F
330
453B
100
AcDbEntity
  8
0
 48
0.27
100
AcDbLine
 10
-12.602119
 20
1.489733331099955
 30
0.0
 11
-12.31594200000002
 21
1.655300331099937
 31
0.0
  0
LINE
  5
4580
330
453B
100
AcDbEntity
  8
0
 48
0.27
100
AcDbLine
 10
-12.85295399999999
 20
-1.266878668899948
 30
0.0
 11
-12.602119
 21
-1.489694668899971
 31
0.0
  0
LINE
  5
4581
330
453B
100
AcDbEntity
  8
0
 48
0.27
100
AcDbLine
 10
-10.53631500000003
 20
2.477000331099958
 30
0.0
 11
-10.09861100000001
 21
2.333284331099946
 31
0.0
  0
LINE
  5
4582
330
453B
100
AcDbEntity
  8
0
 48
0.27
100
AcDbLine
 10
-12.31594200000002
 20
1.655300331099937
 30
0.0
 11
-12.00542300000002
 21
1.757256331099966
 31
0.0
  0
LINE
  5
4583
330
453B
100
AcDbEntity
  8
0
 48
0.27
100
AcDbLine
 10
-12.602119
 20
-1.489694668899971
 30
0.0
 11
-12.31594200000002
 21
-1.655262668899979
 31
0.0
  0
LINE
  5
4584
330
453B
100
AcDbEntity
  8
0
 48
0.27
100
AcDbLine
 10
-10.68075100000002
 20
2.504347331099921
 30
0.0
 11
-10.53631500000003
 21
2.477000331099958
 31
0.0
  0
LINE
  5
4585
330
453B
100
AcDbEntity
  8
0
 48
0.27
100
AcDbLine
 10
-11.14097400000002
 20
2.553410331099968
 30
0.0
 11
-10.68075100000002
 21
2.504347331099921
 31
0.0
  0
LINE
  5
4586
330
453B
100
AcDbEntity
  8
0
 48
0.27
100
AcDbLine
 10
-11.60119700000001
 20
-2.50430966890002
 30
0.0
 11
-11.14097400000002
 21
-2.553371668899984
 31
0.0
  0
LINE
  5
4587
330
453B
100
AcDbEntity
  8
0
 48
0.27
100
AcDbLine
 10
-10.09861100000001
 20
2.333284331099946
 30
0.0
 11
-9.695220000000041
 21
2.099902331099968
 31
0.0
  0
LINE
  5
4588
330
453B
100
AcDbEntity
  8
0
 48
0.27
100
AcDbLine
 10
-10.53631500000003
 20
-2.476961668899974
 30
0.0
 11
-10.09861100000001
 21
-2.333245668899962
 31
0.0
  0
LINE
  5
4589
330
453B
100
AcDbEntity
  8
0
 48
0.27
100
AcDbLine
 10
-9.695220000000041
 20
2.099902331099968
 30
0.0
 11
-9.341645000000028
 21
1.785823331099976
 31
0.0
  0
LINE
  5
458A
330
453B
100
AcDbEntity
  8
0
 48
0.27
100
AcDbLine
 10
-10.09861100000001
 20
-2.333245668899962
 30
0.0
 11
-9.695220000000041
 21
-2.099863668899985
 31
0.0
  0
LINE
  5
458B
330
453B
100
AcDbEntity
  8
0
 48
0.27
100
AcDbLine
 10
-12.00542300000002
 20
1.757256331099966
 30
0.0
 11
-11.68249300000002
 21
1.791682331099991
 31
0.0
  0
LINE
  5
458C
330
453B
100
AcDbEntity
  8
0
 48
0.27
100
AcDbLine
 10
-12.31594200000002
 20
-1.655262668899979
 30
0.0
 11
-12.00542300000002
 21
-1.757218668900009
 31
0.0
  0
LINE
  5
458D
330
453B
100
AcDbEntity
  8
0
 48
0.27
100
AcDbLine
 10
-10.68075100000002
 20
2.504347331099921
 30
0.0
 11
-10.23821400000003
 21
2.359045331099963
 31
0.0
  0
LINE
  5
458E
330
453B
100
AcDbEntity
  8
0
 48
0.27
100
AcDbLine
 10
-10.68075100000002
 20
-2.50430966890002
 30
0.0
 11
-10.53631500000003
 21
-2.476961668899974
 31
0.0
  0
LINE
  5
458F
330
453B
100
AcDbEntity
  8
0
 48
0.27
100
AcDbLine
 10
-11.14097400000002
 20
-2.553371668899984
 30
0.0
 11
-10.68075100000002
 21
-2.50430966890002
 31
0.0
  0
LINE
  5
4590
330
453B
100
AcDbEntity
  8
0
 48
0.27
100
AcDbLine
 10
-9.341645000000028
 20
1.785823331099976
 30
0.0
 11
-9.051474000000027
 21
1.403116331099965
 31
0.0
  0
LINE
  5
4591
330
453B
100
AcDbEntity
  8
0
 48
0.27
100
AcDbLine
 10
-9.695220000000041
 20
-2.099863668899985
 30
0.0
 11
-9.341645000000028
 21
-1.785784668900021
 31
0.0
  0
LINE
  5
4592
330
453B
100
AcDbEntity
  8
0
 48
0.27
100
AcDbLine
 10
-11.68249300000002
 20
1.791682331099991
 30
0.0
 11
-11.35956400000003
 21
1.757256331099966
 31
0.0
  0
LINE
  5
4593
330
453B
100
AcDbEntity
  8
0
 48
0.27
100
AcDbLine
 10
-12.00542300000002
 20
-1.757218668900009
 30
0.0
 11
-11.68249300000002
 21
-1.791644668899976
 31
0.0
  0
LINE
  5
4594
330
453B
100
AcDbEntity
  8
0
 48
0.27
100
AcDbLine
 10
-10.23821400000003
 20
2.359045331099963
 30
0.0
 11
-9.83037000000003
 21
2.123086331099983
 31
0.0
  0
LINE
  5
4595
330
453B
100
AcDbEntity
  8
0
 48
0.27
100
AcDbLine
 10
-10.68075100000002
 20
-2.50430966890002
 30
0.0
 11
-10.23821400000003
 21
-2.359006668900008
 31
0.0
  0
LINE
  5
4596
330
453B
100
AcDbEntity
  8
0
 48
0.27
100
AcDbLine
 10
-9.051474000000027
 20
1.403116331099965
 30
0.0
 11
-8.835857000000046
 21
0.9664893310999786
 31
0.0
  0
LINE
  5
4597
330
453B
100
AcDbEntity
  8
0
 48
0.27
100
AcDbLine
 10
-9.051474000000027
 20
-1.403077668899982
 30
0.0
 11
-9.341645000000028
 21
-1.785784668900021
 31
0.0
  0
LINE
  5
4598
330
453B
100
AcDbEntity
  8
0
 48
0.27
100
AcDbLine
 10
-8.835857000000046
 20
0.9664893310999786
 30
0.0
 11
-8.703081000000054
 21
0.4927213311000003
 31
0.0
  0
LINE
  5
4599
330
453B
100
AcDbEntity
  8
0
 48
0.27
100
AcDbLine
 10
-8.835857000000046
 20
-0.9664506688999949
 30
0.0
 11
-9.051474000000027
 21
-1.403077668899982
 31
0.0
  0
LINE
  5
459A
330
453B
100
AcDbEntity
  8
0
 48
0.27
100
AcDbLine
 10
-9.83037000000003
 20
2.123086331099983
 30
0.0
 11
-9.472891000000061
 21
1.805539331100021
 31
0.0
  0
LINE
  5
459B
330
453B
100
AcDbEntity
  8
0
 48
0.27
100
AcDbLine
 10
-10.23821400000003
 20
-2.359006668900008
 30
0.0
 11
-9.83037000000003
 21
-2.123047668899999
 31
0.0
  0
LINE
  5
459C
330
453B
100
AcDbEntity
  8
0
 48
0.27
100
AcDbLine
 10
-8.703081000000054
 20
0.4927213311000003
 30
0.0
 11
-8.658248000000028
 21
0.0000193310999919
 31
0.0
  0
LINE
  5
459D
330
453B
100
AcDbEntity
  8
0
 48
0.27
100
AcDbLine
 10
-8.703081000000054
 20
-0.4926826689000166
 30
0.0
 11
-8.835857000000046
 21
-0.9664506688999949
 31
0.0
  0
LINE
  5
459E
330
453B
100
AcDbEntity
  8
0
 48
0.27
100
AcDbLine
 10
-11.35956400000003
 20
1.757256331099966
 30
0.0
 11
-11.04904500000003
 21
1.655300331099937
 31
0.0
  0
LINE
  5
459F
330
453B
100
AcDbEntity
  8
0
 48
0.27
100
AcDbLine
 10
-11.68249300000002
 20
-1.791644668899976
 30
0.0
 11
-11.35956400000003
 21
-1.757218668900009
 31
0.0
  0
LINE
  5
45A0
330
453B
100
AcDbEntity
  8
0
 48
0.27
100
AcDbLine
 10
-8.658248000000028
 20
0.0000193310999919
 30
0.0
 11
-8.703081000000054
 21
-0.4926826689000166
 31
0.0
  0
LINE
  5
45A1
330
453B
100
AcDbEntity
  8
0
 48
0.27
100
AcDbLine
 10
-9.472891000000061
 20
1.805539331100021
 30
0.0
 11
-9.179516000000049
 21
1.418607331099991
 31
0.0
  0
LINE
  5
45A2
330
453B
100
AcDbEntity
  8
0
 48
0.27
100
AcDbLine
 10
-9.83037000000003
 20
-2.123047668899999
 30
0.0
 11
-9.472891000000061
 21
-1.805500668900037
 31
0.0
  0
LINE
  5
45A3
330
453B
100
AcDbEntity
  8
0
 48
0.27
100
AcDbLine
 10
-11.04904500000003
 20
1.655300331099937
 30
0.0
 11
-10.76286800000002
 21
1.489733331099955
 31
0.0
  0
LINE
  5
45A4
330
453B
100
AcDbEntity
  8
0
 48
0.27
100
AcDbLine
 10
-11.35956400000003
 20
-1.757218668900009
 30
0.0
 11
-11.04904500000003
 21
-1.655262668899979
 31
0.0
  0
LINE
  5
45A5
330
453B
100
AcDbEntity
  8
0
 48
0.27
100
AcDbLine
 10
-9.179516000000049
 20
1.418607331099991
 30
0.0
 11
-8.961519000000052
 21
0.9771593310999833
 31
0.0
  0
LINE
  5
45A6
330
453B
100
AcDbEntity
  8
0
 48
0.27
100
AcDbLine
 10
-9.179516000000049
 20
-1.418568668900007
 30
0.0
 11
-9.472891000000061
 21
-1.805500668900037
 31
0.0
  0
LINE
  5
45A7
330
453B
100
AcDbEntity
  8
0
 48
0.27
100
AcDbLine
 10
-8.961519000000052
 20
0.9771593310999833
 30
0.0
 11
-8.827276000000061
 21
0.4981613310999933
 31
0.0
  0
LINE
  5
45A8
330
453B
100
AcDbEntity
  8
0
 48
0.27
100
AcDbLine
 10
-8.961519000000052
 20
-0.9771216689000254
 30
0.0
 11
-9.179516000000049
 21
-1.418568668900007
 31
0.0
  0
LINE
  5
45A9
330
453B
100
AcDbEntity
  8
0
 48
0.27
100
AcDbLine
 10
-10.76286800000002
 20
1.489733331099955
 30
0.0
 11
-10.51203300000003
 21
1.266916331099992
 31
0.0
  0
LINE
  5
45AA
330
453B
100
AcDbEntity
  8
0
 48
0.27
100
AcDbLine
 10
-11.04904500000003
 20
-1.655262668899979
 30
0.0
 11
-10.76286800000002
 21
-1.489694668899971
 31
0.0
  0
LINE
  5
45AB
330
453B
100
AcDbEntity
  8
0
 48
0.27
100
AcDbLine
 10
-8.827276000000061
 20
0.4981613310999933
 30
0.0
 11
-8.781948000000056
 21
0.0000193310999919
 31
0.0
  0
LINE
  5
45AC
330
453B
100
AcDbEntity
  8
0
 48
0.27
100
AcDbLine
 10
-8.827276000000061
 20
-0.4981226689000096
 30
0.0
 11
-8.961519000000052
 21
-0.9771216689000254
 31
0.0
  0
LINE
  5
45AD
330
453B
100
AcDbEntity
  8
0
 48
0.27
100
AcDbLine
 10
-8.781948000000056
 20
0.0000193310999919
 30
0.0
 11
-8.827276000000061
 21
-0.4981226689000096
 31
0.0
  0
LINE
  5
45AE
330
453B
100
AcDbEntity
  8
0
 48
0.27
100
AcDbLine
 10
-10.51203300000003
 20
1.266916331099992
 30
0.0
 11
-10.30617700000005
 21
0.9954143310999654
 31
0.0
  0
LINE
  5
45AF
330
453B
100
AcDbEntity
  8
0
 48
0.27
100
AcDbLine
 10
-10.76286800000002
 20
-1.489694668899971
 30
0.0
 11
-10.51203300000003
 21
-1.266878668899948
 31
0.0
  0
LINE
  5
45B0
330
453B
100
AcDbEntity
  8
0
 48
0.27
100
AcDbLine
 10
-10.30617700000005
 20
0.9954143310999654
 30
0.0
 11
-10.15321300000003
 21
0.6856593310999984
 31
0.0
  0
LINE
  5
45B1
330
453B
100
AcDbEntity
  8
0
 48
0.27
100
AcDbLine
 10
-10.30617700000005
 20
-0.9953756688999817
 30
0.0
 11
-10.51203300000003
 21
-1.266878668899948
 31
0.0
  0
LINE
  5
45B2
330
453B
100
AcDbEntity
  8
0
 48
0.27
100
AcDbLine
 10
-10.15321300000003
 20
0.6856593310999984
 30
0.0
 11
-10.05901800000003
 21
0.3495553310999924
 31
0.0
  0
LINE
  5
45B3
330
453B
100
AcDbEntity
  8
0
 48
0.27
100
AcDbLine
 10
-10.15321300000003
 20
-0.6856206689000146
 30
0.0
 11
-10.30617700000005
 21
-0.9953756688999817
 31
0.0
  0
LINE
  5
45B4
330
453B
100
AcDbEntity
  8
0
 48
0.27
100
AcDbLine
 10
-10.05901800000003
 20
0.3495553310999924
 30
0.0
 11
-10.02721200000004
 21
0.0000193310999919
 31
0.0
  0
LINE
  5
45B5
330
453B
100
AcDbEntity
  8
0
 48
0.27
100
AcDbLine
 10
-10.05901800000003
 20
-0.3495166689000086
 30
0.0
 11
-10.15321300000003
 21
-0.6856206689000146
 31
0.0
  0
LINE
  5
45B6
330
453B
100
AcDbEntity
  8
0
 48
0.27
100
AcDbLine
 10
-10.02721200000004
 20
0.0000193310999919
 30
0.0
 11
-10.05901800000003
 21
-0.3495166689000086
 31
0.0
  0
POINT
  5
45B7
330
453B
100
AcDbEntity
  8
0
100
AcDbPoint
 10
-13.5
 20
0.0000193310999919
 30
0.0
1001
pntflag
1000
endpoint
  0
ENDBLK
  5
45B9
330
453B
100
AcDbEntity
  8
0
100
AcDbBlockEnd
  0
BLOCK
  5
46C8
330
46C3
100
AcDbEntity
  8
0
100
AcDbBlockBegin
  2
A$C02B53278
 70
     0
 10
0.0
 20
0.0
 30
0.0
  3
A$C02B53278
  1

  0
LINE
  5
46C4
330
46C3
100
AcDbEntity
  8
中心
100
AcDbLine
 10
-3.5
 20
0.0
 30
0.0
 11
3.5
 21
0.0
 31
0.0
  0
ARC
  5
46C5
330
46C3
100
AcDbEntity
  8
AM4
100
AcDbCircle
 10
0.0
 20
0.0
 30
0.0
 40
2.999999999999886
100
AcDbArc
 50
266.1774462707258
 51
183.8225537292741
  0
LINE
  5
46C6
330
46C3
100
AcDbEntity
  8
中心
100
AcDbLine
 10
0.0
 20
-3.5
 30
0.0
 11
0.0
 21
3.5
 31
0.0
  0
CIRCLE
  5
46C7
330
46C3
100
AcDbEntity
  8
0
100
AcDbCircle
 10
0.0
 20
0.0
 30
0.0
 40
2.499999999999914
  0
ENDBLK
  5
46C9
330
46C3
100
AcDbEntity
  8
0
100
AcDbBlockEnd
  0
BLOCK
  5
46E3
330
46D6
100
AcDbEntity
  8
0
100
AcDbBlockBegin
  2
1
 70
     0
 10
0.0
 20
0.0
 30
0.0
  3
1
  1

  0
LINE
  5
46D7
330
46D6
100
AcDbEntity
  8
虛線
100
AcDbLine
 10
-1.074999999999931
 20
7.549999999999613
 30
0.0
 11
1.075000000000159
 21
7.54999999999984
 31
0.0
  0
LINE
  5
46D8
330
46D6
100
AcDbEntity
  8
虛線
100
AcDbLine
 10
0.0
 20
8.170651539379036
 30
0.0
 11
1.075000000000045
 21
7.550000000000068
 31
0.0
  0
LINE
  5
46D9
330
46D6
100
AcDbEntity
  8
中心
100
AcDbLine
 10
0.0
 20
8.470651539379332
 30
0.0
 11
0.0
 21
-0.601036297107612
 31
0.0
  0
LINE
  5
46DA
330
46D6
100
AcDbEntity
  8
虛線
100
AcDbLine
 10
0.0
 20
8.170651539379036
 30
0.0
 11
-1.075000000000045
 21
7.550000000000068
 31
0.0
  0
LINE
  5
46DB
330
46D6
100
AcDbEntity
  8
虛線
100
AcDbLine
 10
1.075000000000045
 20
7.550000000000068
 30
0.0
 11
1.075000000000045
 21
0.4000000000002047
 31
0.0
  0
LINE
  5
46DC
330
46D6
100
AcDbEntity
  8
虛線
100
AcDbLine
 10
1.299999999999954
 20
6.200000000000159
 30
0.0
 11
1.300000000000181
 21
0.1749999999999545
 31
0.0
  0
LINE
  5
46DD
330
46D6
100
AcDbEntity
  8
虛線
100
AcDbLine
 10
-1.299999999999954
 20
6.199999999999931
 30
0.0
 11
1.299999999999954
 21
6.200000000000159
 31
0.0
  0
LINE
  5
46DE
330
46D6
100
AcDbEntity
  8
虛線
100
AcDbLine
 10
-1.075000000000045
 20
7.550000000000068
 30
0.0
 11
-1.074999999999931
 21
0.3999999999998636
 31
0.0
  0
LINE
  5
46DF
330
46D6
100
AcDbEntity
  8
虛線
100
AcDbLine
 10
-1.299999999999954
 20
6.199999999999931
 30
0.0
 11
-1.29999999999984
 21
0.1750000000000682
 31
0.0
  0
LINE
  5
46E0
330
46D6
100
AcDbEntity
  8
虛線
100
AcDbLine
 10
-1.074999999999931
 20
0.400000000000091
 30
0.0
 11
1.075000000000159
 21
0.400000000000091
 31
0.0
  0
LINE
  5
46E1
330
46D6
100
AcDbEntity
  8
虛線
100
AcDbLine
 10
-1.074999999999931
 20
0.400000000000091
 30
0.0
 11
-1.475000000000022
 21
0.0
 31
0.0
  0
LINE
  5
46E2
330
46D6
100
AcDbEntity
  8
虛線
100
AcDbLine
 10
1.075000000000159
 20
0.400000000000091
 30
0.0
 11
1.475000000000022
 21
0.0
 31
0.0
  0
ENDBLK
  5
46E4
330
46D6
100
AcDbEntity
  8
0
100
AcDbBlockEnd
  0
BLOCK
  5
46F8
330
46E5
100
AcDbEntity
  8
0
100
AcDbBlockBegin
  2
2
 70
     0
 10
0.0
 20
0.0
 30
0.0
  3
2
  1

  0
LINE
  5
46E6
330
46E5
100
AcDbEntity
  8
虛線
100
AcDbLine
 10
2.5
 20
1.700000000000045
 30
0.0
 11
-2.5
 21
1.700000000000045
 31
0.0
  0
LINE
  5
46E7
330
46E5
100
AcDbEntity
  8
虛線
100
AcDbLine
 10
2.5
 20
1.700000000000045
 30
0.0
 11
2.5
 21
0.5000000000001137
 31
0.0
  0
LINE
  5
46E8
330
46E5
100
AcDbEntity
  8
虛線
100
AcDbLine
 10
-2.5
 20
0.5000000000001137
 30
0.0
 11
2.500000000000113
 21
0.5
 31
0.0
  0
LINE
  5
46E9
330
46E5
100
AcDbEntity
  8
虛線
100
AcDbLine
 10
2.5
 20
0.5000000000001137
 30
0.0
 11
3.0
 21
0.0000000000001137
 31
0.0
  0
LINE
  5
46EA
330
46E5
100
AcDbEntity
  8
虛線
100
AcDbLine
 10
-2.5
 20
0.5000000000001137
 30
0.0
 11
-3.0
 21
0.0000000000001137
 31
0.0
  0
LINE
  5
46EB
330
46E5
100
AcDbEntity
  8
虛線
100
AcDbLine
 10
-2.5
 20
1.700000000000045
 30
0.0
 11
-2.5
 21
0.5000000000001137
 31
0.0
  0
LINE
  5
46EC
330
46E5
100
AcDbEntity
  8
虛線
100
AcDbLine
 10
-1.075000000000045
 20
7.25
 30
0.0
 11
-1.074999999999931
 21
2.099999999999795
 31
0.0
  0
LINE
  5
46ED
330
46E5
100
AcDbEntity
  8
虛線
100
AcDbLine
 10
-1.299999999999954
 20
5.90000000000009
 30
0.0
 11
-1.299999999999954
 21
1.875000000000113
 31
0.0
  0
LINE
  5
46EE
330
46E5
100
AcDbEntity
  8
虛線
100
AcDbLine
 10
-1.075000000000045
 20
2.100000000000022
 30
0.0
 11
-1.475000000000136
 21
1.700000000000045
 31
0.0
  0
LINE
  5
46EF
330
46E5
100
AcDbEntity
  8
虛線
100
AcDbLine
 10
-1.075000000000045
 20
2.100000000000022
 30
0.0
 11
1.075000000000045
 21
2.100000000000022
 31
0.0
  0
LINE
  5
46F0
330
46E5
100
AcDbEntity
  8
虛線
100
AcDbLine
 10
1.075000000000045
 20
7.250000000000113
 30
0.0
 11
1.075000000000159
 21
2.099999999999909
 31
0.0
  0
LINE
  5
46F1
330
46E5
100
AcDbEntity
  8
虛線
100
AcDbLine
 10
1.299999999999954
 20
5.900000000000204
 30
0.0
 11
1.300000000000068
 21
1.875
 31
0.0
  0
LINE
  5
46F2
330
46E5
100
AcDbEntity
  8
虛線
100
AcDbLine
 10
1.075000000000045
 20
2.100000000000022
 30
0.0
 11
1.474999999999909
 21
1.700000000000045
 31
0.0
  0
LINE
  5
46F3
330
46E5
100
AcDbEntity
  8
中心
100
AcDbLine
 10
0.0
 20
8.771687836486989
 30
0.0
 11
0.0
 21
-1.0
 31
0.0
  0
LINE
  5
46F4
330
46E5
100
AcDbEntity
  8
虛線
100
AcDbLine
 10
-1.299999999999954
 20
5.90000000000009
 30
0.0
 11
1.299999999999954
 21
5.900000000000204
 31
0.0
  0
LINE
  5
46F5
330
46E5
100
AcDbEntity
  8
虛線
100
AcDbLine
 10
-1.075000000000045
 20
7.25
 30
0.0
 11
1.075000000000045
 21
7.250000000000113
 31
0.0
  0
LINE
  5
46F6
330
46E5
100
AcDbEntity
  8
虛線
100
AcDbLine
 10
0.0
 20
7.870651539378968
 30
0.0
 11
-1.075000000000045
 21
7.25
 31
0.0
  0
LINE
  5
46F7
330
46E5
100
AcDbEntity
  8
虛線
100
AcDbLine
 10
0.0
 20
7.870651539378968
 30
0.0
 11
1.075000000000045
 21
7.25
 31
0.0
  0
ENDBLK
  5
46F9
330
46E5
100
AcDbEntity
  8
0
100
AcDbBlockEnd
  0
BLOCK
  5
4710
330
46FA
100
AcDbEntity
  8
0
100
AcDbBlockBegin
  2
3
 70
     0
 10
0.0
 20
0.0
 30
0.0
  3
3
  1

  0
LINE
  5
46FB
330
46FA
100
AcDbEntity
  8
虛線
100
AcDbLine
 10
2.649999999999977
 20
53.5
 30
0.0
 11
-2.649999999999977
 21
53.50000000000022
 31
0.0
  0
LINE
  5
46FC
330
46FA
100
AcDbEntity
  8
虛線
100
AcDbLine
 10
2.500000000000113
 20
53.35000000000002
 30
0.0
 11
-2.500000000000113
 21
53.35000000000002
 31
0.0
  0
LINE
  5
46FD
330
46FA
100
AcDbEntity
  8
虛線
100
AcDbLine
 10
-2.649999999999977
 20
57.13397459621558
 30
0.0
 11
2.649999999999977
 21
57.13397459621558
 31
0.0
  0
LINE
  5
46FE
330
46FA
100
AcDbEntity
  8
虛線
100
AcDbLine
 10
-2.649999999999977
 20
53.5
 30
0.0
 11
-2.500000000000113
 21
53.35000000000002
 31
0.0
  0
LINE
  5
46FF
330
46FA
100
AcDbEntity
  8
虛線
100
AcDbLine
 10
-2.649999999999977
 20
53.5
 30
0.0
 11
-2.649999999999977
 21
57.13397459621558
 31
0.0
  0
LINE
  5
4700
330
46FA
100
AcDbEntity
  8
虛線
100
AcDbLine
 10
-2.649999999999977
 20
57.13397459621558
 30
0.0
 11
-3.149999999999977
 21
58.0
 31
0.0
  0
LINE
  5
4701
330
46FA
100
AcDbEntity
  8
虛線
100
AcDbLine
 10
2.500000000000113
 20
53.35000000000002
 30
0.0
 11
2.649999999999977
 21
53.5
 31
0.0
  0
LINE
  5
4702
330
46FA
100
AcDbEntity
  8
虛線
100
AcDbLine
 10
2.649999999999977
 20
53.5
 30
0.0
 11
2.649999999999977
 21
57.13397459621558
 31
0.0
  0
LINE
  5
4703
330
46FA
100
AcDbEntity
  8
虛線
100
AcDbLine
 10
2.649999999999977
 20
57.13397459621558
 30
0.0
 11
3.149999999999977
 21
58.0
 31
0.0
  0
LINE
  5
4704
330
46FA
100
AcDbEntity
  8
虛線
100
AcDbLine
 10
2.649999999999977
 20
4.5
 30
0.0
 11
2.649999999999977
 21
0.8660254037844197
 31
0.0
  0
LINE
  5
4705
330
46FA
100
AcDbEntity
  8
虛線
100
AcDbLine
 10
-2.649999999999977
 20
4.5
 30
0.0
 11
-2.649999999999977
 21
0.8660254037844197
 31
0.0
  0
LINE
  5
4706
330
46FA
100
AcDbEntity
  8
虛線
100
AcDbLine
 10
-2.649999999999977
 20
0.8660254037844197
 30
0.0
 11
2.649999999999977
 21
0.8660254037844197
 31
0.0
  0
LINE
  5
4707
330
46FA
100
AcDbEntity
  8
虛線
100
AcDbLine
 10
-2.649999999999977
 20
0.8660254037844197
 30
0.0
 11
-3.149999999999977
 21
0.0
 31
0.0
  0
LINE
  5
4708
330
46FA
100
AcDbEntity
  8
虛線
100
AcDbLine
 10
2.649999999999977
 20
0.8660254037844197
 30
0.0
 11
3.149999999999977
 21
0.0
 31
0.0
  0
LINE
  5
4709
330
46FA
100
AcDbEntity
  8
虛線
100
AcDbLine
 10
2.500000000000113
 20
4.649999999999977
 30
0.0
 11
-2.500000000000113
 21
4.649999999999977
 31
0.0
  0
LINE
  5
470A
330
46FA
100
AcDbEntity
  8
虛線
100
AcDbLine
 10
2.649999999999977
 20
4.5
 30
0.0
 11
-2.649999999999977
 21
4.499999999999772
 31
0.0
  0
LINE
  5
470B
330
46FA
100
AcDbEntity
  8
虛線
100
AcDbLine
 10
-2.649999999999977
 20
4.5
 30
0.0
 11
-2.500000000000113
 21
4.649999999999977
 31
0.0
  0
LINE
  5
470C
330
46FA
100
AcDbEntity
  8
虛線
100
AcDbLine
 10
2.500000000000113
 20
4.649999999999977
 30
0.0
 11
2.649999999999977
 21
4.5
 31
0.0
  0
LINE
  5
470D
330
46FA
100
AcDbEntity
  8
虛線
 48
1.199999999999999
100
AcDbLine
 10
2.500000000000113
 20
4.649999999999977
 30
0.0
 11
2.5
 21
53.34999999999991
 31
0.0
  0
LINE
  5
470E
330
46FA
100
AcDbEntity
  8
中心
 48
2.0
100
AcDbLine
 10
0.0
 20
-1.0
 30
0.0
 11
0.0
 21
59.00000000000011
 31
0.0
  0
LINE
  5
470F
330
46FA
100
AcDbEntity
  8
虛線
 48
1.199999999999999
100
AcDbLine
 10
-2.5
 20
4.649999999999977
 30
0.0
 11
-2.499999999999886
 21
53.34999999999991
 31
0.0
  0
ENDBLK
  5
4711
330
46FA
100
AcDbEntity
  8
0
100
AcDbBlockEnd
  0
ENDSEC
  0
SECTION
  2
ENTITIES
  0
MTEXT
  5
413A
330
1E
100
AcDbEntity
  8
0
100
AcDbMText
 10
-18.45198991220513
 20
-14.4776199970675
 30
0.0
 40
7.800000159341863
 41
100.6094999999999
 71
     1
 72
     5
  1
\A1;{\fTimes New Roman|b0|i0|c0|p18;HGH25CA\PC : 2700 kgf\PC\fProxy 1|b0|i0|c0|p0;\H0.7x;\S^ 0;\fTimes New Roman|b0|i0|c0|p18;\H1.429x;: 5730 kgf}
 73
     1
 44
1.0
  0
LINE
  5
426D
330
1E
100
AcDbEntity
  8
0
 48
0.27
100
AcDbLine
 10
-23.20000000001
 20
1.50000000000368
 30
0.0
 11
-23.1999999999984
 21
28.00000000000368
 31
0.0
  0
LINE
  5
426E
330
1E
100
AcDbEntity
  8
0
 48
0.27
100
AcDbLine
 10
23.20000000000157
 20
27.99999999998338
 30
0.0
 11
23.19999999998997
 21
1.499999999983387
 31
0.0
  0
ARC
  5
426F
330
1E
100
AcDbEntity
  8
0
 48
0.27
100
AcDbCircle
 10
-10.69075001643509
 20
16.60796928313611
 30
0.0
 40
0.5
100
AcDbArc
 50
135.0000137315018
 51
205.7922836031186
  0
LINE
  5
4270
330
1E
100
AcDbEntity
  8
0
 48
0.27
100
AcDbLine
 10
-8.508698852271475
 20
16.39999999999726
 30
0.0
 11
-9.057532008431632
 21
17.72499999999747
 31
0.0
  0
LINE
  5
4271
330
1E
100
AcDbEntity
  8
0
 48
0.27
100
AcDbLine
 10
-9.057532008431632
 20
17.72499999999747
 30
0.0
 11
-10.27221160581369
 21
16.5103198203955
 31
0.0
  0
LINE
  5
4272
330
1E
100
AcDbEntity
  8
0
 48
0.27
100
AcDbLine
 10
-11.04430349176096
 20
16.9615225889968
 30
0.0
 11
-10.27221160581306
 21
16.51031982039525
 31
0.0
  0
LINE
  5
4273
330
1E
100
AcDbEntity
  8
0
 48
0.27
100
AcDbLine
 10
8.508698852264462
 20
16.39999999998981
 30
0.0
 11
9.057532008425756
 21
17.72499999998955
 31
0.0
  0
ARC
  5
4274
330
1E
100
AcDbEntity
  8
0
 48
0.27
100
AcDbCircle
 10
10.69075001642831
 20
16.60796928312679
 30
0.0
 40
0.5
100
AcDbArc
 50
334.2077163968307
 51
44.99998626844742
  0
LINE
  5
4275
330
1E
100
AcDbEntity
  8
0
 48
0.27
100
AcDbLine
 10
11.04430349175446
 20
16.96152258898716
 30
0.0
 11
10.27221160580616
 21
16.51031982038627
 31
0.0
  0
LINE
  5
4276
330
1E
100
AcDbEntity
  8
0
 48
0.27
100
AcDbLine
 10
9.057532008425756
 20
17.72499999998955
 30
0.0
 11
10.27221160580679
 21
16.51031982038652
 31
0.0
  0
LINE
  5
4277
330
1E
100
AcDbEntity
  8
0
 48
0.27
100
AcDbLine
 10
23.49999999999666
 20
1.799999999989822
 30
0.0
 11
23.50000000000351
 21
17.49999999998969
 31
0.0
  0
LINE
  5
4278
330
1E
100
AcDbEntity
  8
0
 48
0.27
100
AcDbLine
 10
-23.50000000000336
 20
1.799999999997297
 30
0.0
 11
-23.49999999999276
 21
26.00000000001021
 31
0.0
  0
LINE
  5
4279
330
1E
100
AcDbEntity
  8
0
 48
0.27
100
AcDbLine
 10
7.699999999991252
 20
4.398648986679333
 30
0.0
 11
12.09864958097175
 21
-0.0000000000117524
 31
0.0
  0
LINE
  5
427A
330
1E
100
AcDbEntity
  8
0
 48
0.27
100
AcDbLine
 10
8.929704990899825
 20
9.009842724315674
 30
0.0
 11
7.699999999992758
 21
7.780138132221694
 31
0.0
  0
LINE
  5
427B
330
1E
100
AcDbEntity
  8
0
 48
0.27
100
AcDbLine
 10
7.699999999992758
 20
7.780138132221694
 30
0.0
 11
9.024999999992491
 21
7.231305036215374
 31
0.0
  0
LINE
  5
427C
330
1E
100
AcDbEntity
  8
0
 48
0.27
100
AcDbLine
 10
7.699999999991252
 20
4.398648986679333
 30
0.0
 11
9.024999999991496
 21
4.947482009256347
 31
0.0
  0
ARC
  5
427D
330
1E
100
AcDbEntity
  8
0
 48
0.27
100
AcDbCircle
 10
11.44706701449319
 20
8.757278985488525
 30
0.0
 40
2.53
100
AcDbArc
 50
95.72922242478901
 51
174.2707590208204
  0
ARC
  5
427E
330
1E
100
AcDbEntity
  8
0
 48
0.27
100
AcDbCircle
 10
11.44706701449645
 20
16.24247701448853
 30
0.0
 40
2.53
100
AcDbArc
 50
186.0063102577856
 51
263.9936732034378
  0
LINE
  5
427F
330
1E
100
AcDbEntity
  8
0
 48
0.27
100
AcDbLine
 10
8.508698852264462
 20
16.39999999998981
 30
0.0
 11
8.930955760388076
 21
15.97774288946941
 31
0.0
  0
LINE
  5
4280
330
1E
100
AcDbEntity
  8
0
 48
0.27
100
AcDbLine
 10
-7.700000000008781
 20
4.398648986686069
 30
0.0
 11
-12.09864958099303
 21
-0.0000000000011795
 31
0.0
  0
LINE
  5
4281
330
1E
100
AcDbEntity
  8
0
 48
0.27
100
AcDbLine
 10
-8.929704990913261
 20
9.009842724323462
 30
0.0
 11
-7.700000000007275
 21
7.780138132228429
 31
0.0
  0
LINE
  5
4282
330
1E
100
AcDbEntity
  8
0
 48
0.27
100
AcDbLine
 10
-7.700000000007275
 20
7.780138132228429
 30
0.0
 11
-9.025000000007519
 21
7.231305036223247
 31
0.0
  0
LINE
  5
4283
330
1E
100
AcDbEntity
  8
0
 48
0.27
100
AcDbLine
 10
-7.700000000008781
 20
4.398648986686069
 30
0.0
 11
-9.025000000008514
 21
4.94748200926422
 31
0.0
  0
LINE
  5
4284
330
1E
100
AcDbEntity
  8
0
 48
0.27
100
AcDbLine
 10
-8.508698852271532
 20
16.39999999999726
 30
0.0
 11
8.508698852264462
 21
16.39999999998981
 31
0.0
  0
LINE
  5
4285
330
1E
100
AcDbEntity
  8
0
 48
0.27
100
AcDbLine
 10
-9.890000000008381
 20
5.30577677494729
 30
0.0
 11
-11.87762707029331
 21
3.31814997320869
 31
0.0
  0
LINE
  5
4286
330
1E
100
AcDbEntity
  8
0
 48
0.27
100
AcDbLine
 10
-9.025000000008514
 20
4.94748200926422
 30
0.0
 11
-9.890000000008381
 21
5.30577677494729
 31
0.0
  0
LINE
  5
4287
330
1E
100
AcDbEntity
  8
0
 48
0.27
100
AcDbLine
 10
-9.025000000007519
 20
7.231305036223247
 30
0.0
 11
-9.025000000008514
 21
4.94748200926422
 31
0.0
  0
LINE
  5
4288
330
1E
100
AcDbEntity
  8
0
 48
0.27
100
AcDbLine
 10
-13.50000000000399
 20
0.0000000000058691
 30
0.0
 11
-17.5000000000041
 21
0.0000000000076028
 31
0.0
  0
LINE
  5
4289
330
1E
100
AcDbEntity
  8
0
 48
0.27
100
AcDbLine
 10
-21.70000000001063
 20
0.0000000000029985
 30
0.0
 11
-12.09864958099303
 21
-0.0000000000011795
 31
0.0
  0
LINE
  5
428A
330
1E
100
AcDbEntity
  8
0
 48
0.27
100
AcDbLine
 10
-23.50000000000336
 20
1.799999999997297
 30
0.0
 11
-21.70000000001063
 21
0.0000000000029985
 31
0.0
  0
LINE
  5
428B
330
1E
100
AcDbEntity
  8
0
 48
0.27
100
AcDbLine
 10
-9.025000000008514
 20
4.94748200926422
 30
0.0
 11
-11.87326020794484
 21
2.099222186153397
 31
0.0
  0
LINE
  5
428C
330
1E
100
AcDbEntity
  8
0
 48
0.27
100
AcDbLine
 10
-13.69922251403748
 20
0.2732601267646686
 30
0.0
 11
-13.97248267772242
 21
-0.0000000000003837
 31
0.0
  0
LINE
  5
428D
330
1E
100
AcDbEntity
  8
0
 48
0.27
100
AcDbLine
 10
-14.91815030050268
 20
0.2776271538011912
 30
0.0
 11
-15.19577749181364
 21
0.0000000000001563
 31
0.0
  0
ARC
  5
428E
330
1E
100
AcDbEntity
  8
0
 48
0.27
100
AcDbCircle
 10
-11.44706701450685
 20
8.75727898549853
 30
0.0
 40
2.53
100
AcDbArc
 50
5.729240979127214
 51
84.27077757515858
  0
LINE
  5
428F
330
1E
100
AcDbEntity
  8
0
 48
0.27
100
AcDbLine
 10
-11.19450409088785
 20
11.27464109088047
 30
0.0
 11
-11.72377422274918
 21
9.930078252596999
 31
0.0
  0
LINE
  5
4290
330
1E
100
AcDbEntity
  8
0
 48
0.27
100
AcDbLine
 10
-12.72500000000583
 20
10.93130402985492
 30
0.0
 11
-11.72377422274872
 21
9.930078252596544
 31
0.0
  0
LINE
  5
4291
330
1E
100
AcDbEntity
  8
0
 48
0.27
100
AcDbLine
 10
-13.59000000000427
 20
14.41582570159646
 30
0.0
 11
-13.59000000000601
 21
10.57300929840265
 31
0.0
  0
LINE
  5
4292
330
1E
100
AcDbEntity
  8
0
 48
0.27
100
AcDbLine
 10
-12.72500000000583
 20
10.93130402985492
 30
0.0
 11
-13.59000000000601
 21
10.57300929840265
 31
0.0
  0
LINE
  5
4293
330
1E
100
AcDbEntity
  8
0
 48
0.27
100
AcDbLine
 10
-12.17344558654779
 20
9.156454884942618
 30
0.0
 11
-11.72377422274872
 21
9.930078252596544
 31
0.0
  0
ARC
  5
4294
330
1E
100
AcDbEntity
  8
0
 48
0.27
100
AcDbCircle
 10
-11.81989219595432
 20
9.510008275535639
 30
0.0
 40
0.5
100
AcDbArc
 50
224.9999999999645
 51
296.3491143007122
  0
LINE
  5
4295
330
1E
100
AcDbEntity
  8
0
 48
0.27
100
AcDbLine
 10
-13.59000000000601
 20
10.57300929840265
 30
0.0
 11
-12.17344558654779
 21
9.156454884942618
 31
0.0
  0
ARC
  5
4296
330
1E
100
AcDbEntity
  8
0
 48
0.27
100
AcDbCircle
 10
-11.44706701450685
 20
8.75727898549853
 30
0.0
 40
1.205
100
AcDbArc
 50
346.7245850711628
 51
103.2754386934385
  0
LINE
  5
4297
330
1E
100
AcDbEntity
  8
0
 48
0.27
100
AcDbLine
 10
-10.27426763263893
 20
8.480572263699272
 30
0.0
 11
-8.929704990913261
 21
9.009842724323462
 31
0.0
  0
LINE
  5
4298
330
1E
100
AcDbEntity
  8
0
 48
0.27
100
AcDbLine
 10
-10.27426763263893
 20
8.480572263699272
 30
0.0
 11
-9.025000000007519
 21
7.231305036223247
 31
0.0
  0
LINE
  5
4299
330
1E
100
AcDbEntity
  8
0
 48
0.27
100
AcDbLine
 10
-9.025000000007519
 20
7.231305036223247
 30
0.0
 11
-9.89000000000767
 21
6.873010222604747
 31
0.0
  0
ARC
  5
429A
330
1E
100
AcDbEntity
  8
0
 48
0.27
100
AcDbCircle
 10
-10.69433754272618
 20
8.384454170989201
 30
0.0
 40
0.5
100
AcDbArc
 50
153.6509136296524
 51
225.0000092909186
  0
LINE
  5
429B
330
1E
100
AcDbEntity
  8
0
 48
0.27
100
AcDbLine
 10
-11.14239079973814
 20
8.606373703435068
 30
0.0
 11
-10.27426763263893
 21
8.480572263699272
 31
0.0
  0
LINE
  5
429C
330
1E
100
AcDbEntity
  8
0
 48
0.27
100
AcDbLine
 10
-9.89000000000767
 20
6.873010222604747
 30
0.0
 11
-9.890000000008381
 21
5.30577677494729
 31
0.0
  0
LINE
  5
429D
330
1E
100
AcDbEntity
  8
0
 48
0.27
100
AcDbLine
 10
-10.27426763263893
 20
8.480572263699272
 30
0.0
 11
-11.04789087598821
 21
8.030900723064732
 31
0.0
  0
LINE
  5
429E
330
1E
100
AcDbEntity
  8
0
 48
0.27
100
AcDbLine
 10
-11.04789087598824
 20
8.030900723064732
 30
0.0
 11
-9.89000000000767
 21
6.873010222604747
 31
0.0
  0
ARC
  5
429F
330
1E
100
AcDbEntity
  8
0
 48
0.27
100
AcDbCircle
 10
-11.44706701450685
 20
8.75727898549853
 30
0.0
 40
0.3400000000000003
100
AcDbArc
 50
333.6509136296541
 51
116.34911430071
  0
LINE
  5
42A0
330
1E
100
AcDbEntity
  8
0
 48
0.27
100
AcDbLine
 10
-11.59797244509261
 20
9.061955126703779
 30
0.0
 11
-11.72377422275068
 21
9.930078252593162
 31
0.0
  0
LINE
  5
42A1
330
1E
100
AcDbEntity
  8
0
 48
0.27
100
AcDbLine
 10
-11.40000000000473
 20
13.50869799999848
 30
0.0
 11
-12.72500000000446
 21
14.05753097014339
 31
0.0
  0
LINE
  5
42A2
330
1E
100
AcDbEntity
  8
0
 48
0.27
100
AcDbLine
 10
-11.40000000000561
 20
11.48013699999857
 30
0.0
 11
-12.72500000000583
 21
10.93130402985492
 31
0.0
  0
LINE
  5
42A3
330
1E
100
AcDbEntity
  8
0
 48
0.27
100
AcDbLine
 10
-11.71490944900825
 20
15.06762152113888
 30
0.0
 11
-12.72500000000446
 21
14.05753097014339
 31
0.0
  0
LINE
  5
42A4
330
1E
100
AcDbEntity
  8
0
 48
0.27
100
AcDbLine
 10
-12.16611241810833
 20
15.83971328349152
 30
0.0
 11
-11.71490944900825
 21
15.06762152113888
 31
0.0
  0
ARC
  5
42A5
330
1E
100
AcDbEntity
  8
0
 48
0.27
100
AcDbCircle
 10
-11.81255902751514
 20
15.48615989289815
 30
0.0
 40
0.5
100
AcDbArc
 50
64.20773576216268
 51
134.9999999999836
  0
LINE
  5
42A6
330
1E
100
AcDbEntity
  8
0
 48
0.27
100
AcDbLine
 10
-12.72500000000446
 20
14.05753097014339
 30
0.0
 11
-13.59000000000427
 21
14.41582570159646
 31
0.0
  0
LINE
  5
42A7
330
1E
100
AcDbEntity
  8
0
 48
0.27
100
AcDbLine
 10
-12.16611241810831
 20
15.83971328349149
 30
0.0
 11
-13.59000000000427
 21
14.41582570159646
 31
0.0
  0
LINE
  5
42A8
330
1E
100
AcDbEntity
  8
0
 48
0.27
100
AcDbLine
 10
-12.72500000000446
 20
14.05753097014339
 30
0.0
 11
-12.72500000000583
 21
10.93130402985492
 31
0.0
  0
ARC
  5
42A9
330
1E
100
AcDbEntity
  8
0
 48
0.27
100
AcDbCircle
 10
-11.44706701450358
 20
16.24247701449853
 30
0.0
 40
2.53
100
AcDbArc
 50
276.0063267965097
 51
353.9936897421619
  0
LINE
  5
42AA
330
1E
100
AcDbEntity
  8
0
 48
0.27
100
AcDbLine
 10
-8.508698852271475
 20
16.39999999999726
 30
0.0
 11
-8.930955760395431
 21
15.9777428894772
 31
0.0
  0
ARC
  5
42AB
330
1E
100
AcDbEntity
  8
0
 48
0.27
100
AcDbCircle
 10
-11.44706701450358
 20
16.24247701449853
 30
0.0
 40
1.205
100
AcDbArc
 50
257.1572584101224
 51
12.84275970207395
  0
LINE
  5
42AC
330
1E
100
AcDbEntity
  8
0
 48
0.27
100
AcDbLine
 10
-8.930955760395544
 20
15.97774288947708
 30
0.0
 11
-10.27221160581369
 21
16.5103198203955
 31
0.0
  0
LINE
  5
42AD
330
1E
100
AcDbEntity
  8
0
 48
0.27
100
AcDbLine
 10
-10.27221160581306
 20
16.51031982039525
 30
0.0
 11
-11.14093870576122
 21
16.39041436132821
 31
0.0
  0
ARC
  5
42AE
330
1E
100
AcDbEntity
  8
0
 48
0.27
100
AcDbCircle
 10
-11.44706701450358
 20
16.24247701449853
 30
0.0
 40
0.3400000000000003
100
AcDbArc
 50
244.2077357621642
 51
25.79228360311681
  0
LINE
  5
42AF
330
1E
100
AcDbEntity
  8
0
 48
0.27
100
AcDbLine
 10
-11.18233216319587
 20
13.72636583680723
 30
0.0
 11
-11.71490944900837
 21
15.06762152113837
 31
0.0
  0
LINE
  5
42B0
330
1E
100
AcDbEntity
  8
0
 48
0.27
100
AcDbLine
 10
-11.18233216319596
 20
13.72636583680714
 30
0.0
 11
-11.40000000000473
 21
13.50869799999848
 31
0.0
  0
LINE
  5
42B1
330
1E
100
AcDbEntity
  8
0
 48
0.27
100
AcDbLine
 10
-11.40000000000561
 20
11.48013699999857
 30
0.0
 11
-11.19450409088788
 21
11.27464109088059
 31
0.0
  0
LINE
  5
42B2
330
1E
100
AcDbEntity
  8
0
 48
0.27
100
AcDbLine
 10
-11.40000000000473
 20
13.50869799999848
 30
0.0
 11
-11.40000000000561
 21
11.48013699999857
 31
0.0
  0
LINE
  5
42B3
330
1E
100
AcDbEntity
  8
0
 48
0.27
100
AcDbLine
 10
-11.71490944900825
 20
15.06762152113888
 30
0.0
 11
-11.59500425786556
 21
15.93634865575514
 31
0.0
  0
LINE
  5
42B4
330
1E
100
AcDbEntity
  8
0
 48
0.27
100
AcDbLine
 10
-7.700000000007275
 20
7.780138132228429
 30
0.0
 11
-7.700000000008781
 21
4.398648986686069
 31
0.0
  0
LINE
  5
42B5
330
1E
100
AcDbEntity
  8
0
 48
0.27
100
AcDbLine
 10
7.699999999992758
 20
7.780138132221694
 30
0.0
 11
7.699999999991252
 21
4.398648986679333
 31
0.0
  0
LINE
  5
42B6
330
1E
100
AcDbEntity
  8
0
 48
0.27
100
AcDbLine
 10
9.889999999991648
 20
5.305776774938649
 30
0.0
 11
11.87762707027484
 21
3.318149973198259
 31
0.0
  0
LINE
  5
42B7
330
1E
100
AcDbEntity
  8
0
 48
0.27
100
AcDbLine
 10
9.024999999992491
 20
7.231305036215374
 30
0.0
 11
9.024999999991496
 21
4.947482009256347
 31
0.0
  0
LINE
  5
42B8
330
1E
100
AcDbEntity
  8
0
 48
0.27
100
AcDbLine
 10
9.024999999991496
 20
4.947482009256347
 30
0.0
 11
9.889999999991648
 21
5.305776774938649
 31
0.0
  0
LINE
  5
42B9
330
1E
100
AcDbEntity
  8
0
 48
0.27
100
AcDbLine
 10
21.69999999998935
 20
-0.0000000000159588
 30
0.0
 11
12.09864958097175
 21
-0.0000000000117524
 31
0.0
  0
LINE
  5
42BA
330
1E
100
AcDbEntity
  8
0
 48
0.27
100
AcDbLine
 10
13.49999999999601
 20
-0.0000000000059259
 30
0.0
 11
17.49999999999589
 21
-0.0000000000076881
 31
0.0
  0
LINE
  5
42BB
330
1E
100
AcDbEntity
  8
0
 48
0.27
100
AcDbLine
 10
9.024999999991496
 20
4.947482009256347
 30
0.0
 11
11.87326020792536
 21
2.099222186142966
 31
0.0
  0
LINE
  5
42BC
330
1E
100
AcDbEntity
  8
0
 48
0.27
100
AcDbLine
 10
13.69922251401637
 20
0.2732601267527315
 30
0.0
 11
13.97248267770114
 21
-0.000000000012605
 31
0.0
  0
LINE
  5
42BD
330
1E
100
AcDbEntity
  8
0
 48
0.27
100
AcDbLine
 10
14.91815030048163
 20
0.277627153788174
 30
0.0
 11
15.19577749179235
 21
-0.0000000000131166
 31
0.0
  0
LINE
  5
42BE
330
1E
100
AcDbEntity
  8
0
 48
0.27
100
AcDbLine
 10
21.69999999998935
 20
-0.0000000000159588
 30
0.0
 11
23.49999999999666
 21
1.799999999989822
 31
0.0
  0
LINE
  5
42BF
330
1E
100
AcDbEntity
  8
0
 48
0.27
100
AcDbLine
 10
12.7249999999941
 20
10.93130402984381
 30
0.0
 11
11.72377422273608
 21
9.930078252586284
 31
0.0
  0
LINE
  5
42C0
330
1E
100
AcDbEntity
  8
0
 48
0.27
100
AcDbLine
 10
11.19450409087641
 20
11.2746410908707
 30
0.0
 11
11.72377422273654
 21
9.930078252586739
 31
0.0
  0
LINE
  5
42C1
330
1E
100
AcDbEntity
  8
0
 48
0.27
100
AcDbLine
 10
12.7249999999941
 20
10.93130402984381
 30
0.0
 11
13.58999999999394
 21
10.57300929839077
 31
0.0
  0
LINE
  5
42C2
330
1E
100
AcDbEntity
  8
0
 48
0.27
100
AcDbLine
 10
13.58999999999555
 20
14.41582570158458
 30
0.0
 11
13.58999999999394
 21
10.57300929839077
 31
0.0
  0
LINE
  5
42C3
330
1E
100
AcDbEntity
  8
0
 48
0.27
100
AcDbLine
 10
13.58999999999394
 20
10.57300929839077
 30
0.0
 11
12.17344558653447
 21
9.156454884931989
 31
0.0
  0
ARC
  5
42C4
330
1E
100
AcDbEntity
  8
0
 48
0.27
100
AcDbCircle
 10
11.81989219594128
 20
9.510008275525322
 30
0.0
 40
0.5
100
AcDbArc
 50
243.6508856992392
 51
314.9999999999859
  0
LINE
  5
42C5
330
1E
100
AcDbEntity
  8
0
 48
0.27
100
AcDbLine
 10
12.17344558653447
 20
9.156454884931989
 30
0.0
 11
11.72377422273608
 21
9.930078252586284
 31
0.0
  0
ARC
  5
42C6
330
1E
100
AcDbEntity
  8
0
 48
0.27
100
AcDbCircle
 10
11.44706701449319
 20
8.757278985488525
 30
0.0
 40
1.205
100
AcDbArc
 50
76.72456130651126
 51
193.2754149287869
  0
ARC
  5
42C7
330
1E
100
AcDbEntity
  8
0
 48
0.27
100
AcDbCircle
 10
10.69433754271218
 20
8.38445417097985
 30
0.0
 40
0.5
100
AcDbArc
 50
314.9999907090307
 51
26.34908637029661
  0
LINE
  5
42C8
330
1E
100
AcDbEntity
  8
0
 48
0.27
100
AcDbLine
 10
11.14239079972431
 20
8.606373703425347
 30
0.0
 11
10.27426763262498
 21
8.480572263690291
 31
0.0
  0
LINE
  5
42C9
330
1E
100
AcDbEntity
  8
0
 48
0.27
100
AcDbLine
 10
10.27426763262498
 20
8.480572263690291
 30
0.0
 11
8.929704990899825
 21
9.009842724315674
 31
0.0
  0
LINE
  5
42CA
330
1E
100
AcDbEntity
  8
0
 48
0.27
100
AcDbLine
 10
9.889999999992358
 20
6.873010222596107
 30
0.0
 11
9.889999999991648
 21
5.305776774938649
 31
0.0
  0
LINE
  5
42CB
330
1E
100
AcDbEntity
  8
0
 48
0.27
100
AcDbLine
 10
9.024999999992491
 20
7.231305036215374
 30
0.0
 11
9.889999999992358
 21
6.873010222596107
 31
0.0
  0
LINE
  5
42CC
330
1E
100
AcDbEntity
  8
0
 48
0.27
100
AcDbLine
 10
10.27426763262498
 20
8.480572263690291
 30
0.0
 11
11.04789087597392
 21
8.030900723055069
 31
0.0
  0
LINE
  5
42CD
330
1E
100
AcDbEntity
  8
0
 48
0.27
100
AcDbLine
 10
11.04789087597395
 20
8.030900723055069
 30
0.0
 11
9.889999999992358
 21
6.873010222596107
 31
0.0
  0
LINE
  5
42CE
330
1E
100
AcDbEntity
  8
0
 48
0.27
100
AcDbLine
 10
10.27426763262498
 20
8.480572263690291
 30
0.0
 11
9.024999999992491
 21
7.231305036215374
 31
0.0
  0
ARC
  5
42CF
330
1E
100
AcDbEntity
  8
0
 48
0.27
100
AcDbCircle
 10
11.44706701449319
 20
8.757278985488525
 30
0.0
 40
0.3400000000000003
100
AcDbArc
 50
63.65088569923926
 51
206.3490863702948
  0
LINE
  5
42D0
330
1E
100
AcDbEntity
  8
0
 48
0.27
100
AcDbLine
 10
11.59797244507918
 20
9.061955126693661
 30
0.0
 11
11.72377422273804
 21
9.930078252582902
 31
0.0
  0
LINE
  5
42D1
330
1E
100
AcDbEntity
  8
0
 48
0.27
100
AcDbLine
 10
12.16611241810078
 20
15.83971328348086
 30
0.0
 11
13.58999999999555
 21
14.41582570158458
 31
0.0
  0
LINE
  5
42D2
330
1E
100
AcDbEntity
  8
0
 48
0.27
100
AcDbLine
 10
12.7249999999954
 20
14.05753097013227
 30
0.0
 11
13.58999999999555
 21
14.41582570158458
 31
0.0
  0
LINE
  5
42D3
330
1E
100
AcDbEntity
  8
0
 48
0.27
100
AcDbLine
 10
11.7149094490001
 20
15.06762152112865
 30
0.0
 11
12.7249999999954
 21
14.05753097013227
 31
0.0
  0
LINE
  5
42D4
330
1E
100
AcDbEntity
  8
0
 48
0.27
100
AcDbLine
 10
11.39999999999522
 20
13.50869799998854
 30
0.0
 11
12.7249999999954
 21
14.05753097013227
 31
0.0
  0
LINE
  5
42D5
330
1E
100
AcDbEntity
  8
0
 48
0.27
100
AcDbLine
 10
11.39999999999433
 20
11.48013699998863
 30
0.0
 11
12.7249999999941
 21
10.93130402984381
 31
0.0
  0
ARC
  5
42D6
330
1E
100
AcDbEntity
  8
0
 48
0.27
100
AcDbCircle
 10
11.81255902750733
 20
15.48615989288784
 30
0.0
 40
0.5
100
AcDbArc
 50
44.99999999996568
 51
115.7922642377869
  0
LINE
  5
42D7
330
1E
100
AcDbEntity
  8
0
 48
0.27
100
AcDbLine
 10
12.16611241810081
 20
15.83971328348089
 30
0.0
 11
11.7149094490001
 21
15.06762152112865
 31
0.0
  0
LINE
  5
42D8
330
1E
100
AcDbEntity
  8
0
 48
0.27
100
AcDbLine
 10
12.7249999999954
 20
14.05753097013227
 30
0.0
 11
12.7249999999941
 21
10.93130402984381
 31
0.0
  0
LINE
  5
42D9
330
1E
100
AcDbEntity
  8
0
 48
0.27
100
AcDbLine
 10
8.93095576038819
 20
15.97774288946929
 30
0.0
 11
10.27221160580679
 21
16.51031982038652
 31
0.0
  0
LINE
  5
42DA
330
1E
100
AcDbEntity
  8
0
 48
0.27
100
AcDbLine
 10
10.27221160580616
 20
16.51031982038627
 30
0.0
 11
11.14093870575421
 21
16.39041436131849
 31
0.0
  0
ARC
  5
42DB
330
1E
100
AcDbEntity
  8
0
 48
0.27
100
AcDbCircle
 10
11.44706701449645
 20
16.24247701448853
 30
0.0
 40
1.205
100
AcDbArc
 50
167.1572402978759
 51
282.8427415898277
  0
LINE
  5
42DC
330
1E
100
AcDbEntity
  8
0
 48
0.27
100
AcDbLine
 10
11.18233216318653
 20
13.72636583679748
 30
0.0
 11
11.71490944900022
 21
15.06762152112814
 31
0.0
  0
LINE
  5
42DD
330
1E
100
AcDbEntity
  8
0
 48
0.27
100
AcDbLine
 10
11.18233216318661
 20
13.7263658367974
 30
0.0
 11
11.39999999999522
 21
13.50869799998854
 31
0.0
  0
LINE
  5
42DE
330
1E
100
AcDbEntity
  8
0
 48
0.27
100
AcDbLine
 10
11.39999999999433
 20
11.48013699998863
 30
0.0
 11
11.19450409087644
 21
11.27464109087081
 31
0.0
  0
LINE
  5
42DF
330
1E
100
AcDbEntity
  8
0
 48
0.27
100
AcDbLine
 10
11.39999999999522
 20
13.50869799998854
 30
0.0
 11
11.39999999999433
 21
11.48013699998863
 31
0.0
  0
ARC
  5
42E0
330
1E
100
AcDbEntity
  8
0
 48
0.27
100
AcDbCircle
 10
11.44706701449645
 20
16.24247701448853
 30
0.0
 40
0.3400000000000003
100
AcDbArc
 50
154.2077163968325
 51
295.7922642377848
  0
LINE
  5
42E1
330
1E
100
AcDbEntity
  8
0
 48
0.27
100
AcDbLine
 10
11.7149094490001
 20
15.06762152112865
 30
0.0
 11
11.59500425785815
 21
15.93634865574502
 31
0.0
  0
LINE
  5
42E2
330
1E
100
AcDbEntity
  8
0
 48
0.27
100
AcDbLine
 10
-9.415826861321033
 20
18.58999999999768
 30
0.0
 11
9.415826861316009
 21
18.58999999998944
 31
0.0
  0
LINE
  5
42E3
330
1E
100
AcDbEntity
  8
0
 48
0.27
100
AcDbLine
 10
-9.057532008431603
 20
17.7249999999975
 30
0.0
 11
9.057532008425756
 21
17.72499999998955
 31
0.0
  0
LINE
  5
42E4
330
1E
100
AcDbEntity
  8
0
 48
0.27
100
AcDbLine
 10
-21.69999999999778
 20
29.50000000000299
 30
0.0
 11
21.70000000000222
 21
29.49999999998404
 31
0.0
  0
LINE
  5
42E5
330
1E
100
AcDbEntity
  8
0
 48
0.27
100
AcDbLine
 10
13.00000000001073
 20
33.99999999999427
 30
0.0
 11
5.000000000010732
 21
33.99999999999776
 31
0.0
  0
LINE
  5
42E6
330
1E
100
AcDbEntity
  8
0
 48
0.27
100
AcDbLine
 10
-12.99999999998926
 20
34.00000000000561
 30
0.0
 11
-4.999999999989267
 21
34.00000000000214
 31
0.0
  0
LINE
  5
42E7
330
1E
100
AcDbEntity
  8
中心線
 48
0.27
100
AcDbLine
 10
-17.49999999998864
 20
35.5000000000076
 30
0.0
 11
-17.49999999999483
 21
21.26228675973611
 31
0.0
  0
LINE
  5
42E8
330
1E
100
AcDbEntity
  8
0
 48
0.27
100
AcDbLine
 10
-23.99999999999256
 20
26.50000000001044
 30
0.0
 11
-23.99999999998972
 21
33.00000000001044
 31
0.0
  0
LINE
  5
42E9
330
1E
100
AcDbEntity
  8
0
 48
0.27
100
AcDbLine
 10
-21.69999999999775
 20
29.50000000000299
 30
0.0
 11
-23.1999999999984
 21
28.00000000000368
 31
0.0
  0
LINE
  5
42EA
330
1E
100
AcDbEntity
  8
虛線
 48
0.27
100
AcDbLine
 10
-20.49999999998941
 20
33.7000000000089
 30
0.0
 11
-20.49999999999253
 21
26.55000000000892
 31
0.0
  0
LINE
  5
42EB
330
1E
100
AcDbEntity
  8
虛線
 48
0.27
100
AcDbLine
 10
-14.49999999998941
 20
33.70000000000628
 30
0.0
 11
-14.49999999999253
 21
26.5500000000063
 31
0.0
  0
LINE
  5
42EC
330
1E
100
AcDbEntity
  8
虛線
 48
0.27
100
AcDbLine
 10
-19.99999999998941
 20
33.7000000000087
 30
0.0
 11
-19.99999999999384
 21
23.55000000000872
 31
0.0
  0
LINE
  5
42ED
330
1E
100
AcDbEntity
  8
虛線
 48
0.27
100
AcDbLine
 10
-14.99999999998941
 20
33.70000000000648
 30
0.0
 11
-14.99999999999384
 21
23.5500000000065
 31
0.0
  0
LINE
  5
42EE
330
1E
100
AcDbEntity
  8
虛線
 48
0.27
100
AcDbLine
 10
-14.99999999999384
 20
23.5500000000065
 30
0.0
 11
-17.49999999999446
 21
22.10662432703354
 31
0.0
  0
LINE
  5
42EF
330
1E
100
AcDbEntity
  8
虛線
 48
0.27
100
AcDbLine
 10
-14.99999999999384
 20
23.5500000000065
 30
0.0
 11
-19.99999999999384
 21
23.55000000000872
 31
0.0
  0
LINE
  5
42F0
330
1E
100
AcDbEntity
  8
虛線
 48
0.27
100
AcDbLine
 10
-14.49999999999253
 20
26.5500000000063
 30
0.0
 11
-20.49999999999253
 21
26.55000000000892
 31
0.0
  0
LINE
  5
42F1
330
1E
100
AcDbEntity
  8
虛線
 48
0.27
100
AcDbLine
 10
-17.49999999999446
 20
22.10662432703354
 30
0.0
 11
-19.99999999999384
 21
23.55000000000872
 31
0.0
  0
LINE
  5
42F2
330
1E
100
AcDbEntity
  8
0
 48
0.27
100
AcDbLine
 10
-23.99999999999256
 20
26.50000000001044
 30
0.0
 11
-23.49999999999276
 21
26.00000000001021
 31
0.0
  0
LINE
  5
42F3
330
1E
100
AcDbEntity
  8
0
 48
0.27
100
AcDbLine
 10
-9.41582686132109
 20
18.58999999999765
 30
0.0
 11
-11.04430349176093
 21
16.96152258899677
 31
0.0
  0
LINE
  5
42F4
330
1E
100
AcDbEntity
  8
0
 48
0.27
100
AcDbLine
 10
-9.057532008431632
 20
17.72499999999747
 30
0.0
 11
-9.41582686132109
 21
18.58999999999765
 31
0.0
  0
LINE
  5
42F5
330
1E
100
AcDbEntity
  8
0
 48
0.27
100
AcDbLine
 10
-22.49999999998907
 20
34.50000000000979
 30
0.0
 11
-13.49999999998906
 21
34.50000000000587
 31
0.0
  0
LINE
  5
42F6
330
1E
100
AcDbEntity
  8
虛線
 48
0.27
100
AcDbLine
 10
-20.49999999998941
 20
33.7000000000089
 30
0.0
 11
-14.49999999998941
 21
33.70000000000628
 31
0.0
  0
LINE
  5
42F7
330
1E
100
AcDbEntity
  8
0
 48
0.27
100
AcDbLine
 10
-22.49999999998907
 20
34.50000000000979
 30
0.0
 11
-23.99999999998972
 21
33.00000000001044
 31
0.0
  0
LINE
  5
42F8
330
1E
100
AcDbEntity
  8
虛線
 48
0.27
100
AcDbLine
 10
-21.29999999998891
 20
34.50000000000928
 30
0.0
 11
-20.49999999998941
 21
33.7000000000089
 31
0.0
  0
LINE
  5
42F9
330
1E
100
AcDbEntity
  8
虛線
 48
0.27
100
AcDbLine
 10
-13.69999999998922
 20
34.50000000000595
 30
0.0
 11
-14.49999999998941
 21
33.70000000000628
 31
0.0
  0
LINE
  5
42FA
330
1E
100
AcDbEntity
  8
0
 48
0.27
100
AcDbLine
 10
-12.99999999998926
 20
34.00000000000561
 30
0.0
 11
-13.49999999998906
 21
34.50000000000587
 31
0.0
  0
LINE
  5
42FB
330
1E
100
AcDbEntity
  8
0
 48
0.27
100
AcDbLine
 10
-5.249999999999982
 20
24.49999999999583
 30
0.0
 11
-5.249999999997765
 21
29.49999999999586
 31
0.0
  0
LINE
  5
42FD
330
1E
100
AcDbEntity
  8
0
 48
0.27
100
AcDbLine
 10
5.250000000001047
 20
26.82094795717716
 30
0.0
 11
5.250000000002234
 21
29.49999999999126
 31
0.0
  0
LINE
  5
4300
330
1E
100
AcDbEntity
  8
0
 48
0.27
100
AcDbLine
 10
-4.499999999989068
 20
34.50000000000192
 30
0.0
 11
4.500000000010931
 21
34.49999999999799
 31
0.0
  0
LINE
  5
4301
330
1E
100
AcDbEntity
  8
0
 48
0.27
100
AcDbLine
 10
-4.499999999989068
 20
34.50000000000192
 30
0.0
 11
-4.999999999989267
 21
34.00000000000214
 31
0.0
  0
LINE
  5
4302
330
1E
100
AcDbEntity
  8
0
 48
0.27
100
AcDbLine
 10
4.500000000010931
 20
34.49999999999799
 30
0.0
 11
5.000000000010732
 21
33.99999999999776
 31
0.0
  0
LINE
  5
4303
330
1E
100
AcDbEntity
  8
中心線
 48
0.27
100
AcDbLine
 10
17.50000000001135
 20
35.49999999999231
 30
0.0
 11
17.50000000000516
 21
21.26228675972082
 31
0.0
  0
LINE
  5
4304
330
1E
100
AcDbEntity
  8
0
 48
0.27
100
AcDbLine
 10
24.00000000000374
 20
17.99999999998947
 30
0.0
 11
24.00000000001027
 21
32.99999999998947
 31
0.0
  0
LINE
  5
4305
330
1E
100
AcDbEntity
  8
0
 48
0.27
100
AcDbLine
 10
23.20000000000157
 20
27.99999999998338
 30
0.0
 11
21.70000000000222
 21
29.49999999998404
 31
0.0
  0
LINE
  5
4306
330
1E
100
AcDbEntity
  8
虛線
 48
0.27
100
AcDbLine
 10
20.50000000001058
 20
33.69999999999096
 30
0.0
 11
20.50000000000746
 21
26.54999999999098
 31
0.0
  0
LINE
  5
4307
330
1E
100
AcDbEntity
  8
虛線
 48
0.27
100
AcDbLine
 10
14.50000000001059
 20
33.69999999999361
 30
0.0
 11
14.50000000000746
 21
26.54999999999363
 31
0.0
  0
LINE
  5
4308
330
1E
100
AcDbEntity
  8
虛線
 48
0.27
100
AcDbLine
 10
15.00000000001059
 20
33.69999999999338
 30
0.0
 11
15.00000000000615
 21
23.5499999999934
 31
0.0
  0
LINE
  5
4309
330
1E
100
AcDbEntity
  8
虛線
 48
0.27
100
AcDbLine
 10
20.00000000001059
 20
33.69999999999122
 30
0.0
 11
20.00000000000615
 21
23.54999999999124
 31
0.0
  0
LINE
  5
430A
330
1E
100
AcDbEntity
  8
虛線
 48
0.27
100
AcDbLine
 10
15.00000000000615
 20
23.5499999999934
 30
0.0
 11
17.50000000000553
 21
22.10662432701825
 31
0.0
  0
LINE
  5
430B
330
1E
100
AcDbEntity
  8
虛線
 48
0.27
100
AcDbLine
 10
14.50000000000746
 20
26.54999999999363
 30
0.0
 11
20.50000000000746
 21
26.54999999999098
 31
0.0
  0
LINE
  5
430C
330
1E
100
AcDbEntity
  8
虛線
 48
0.27
100
AcDbLine
 10
15.00000000000615
 20
23.5499999999934
 30
0.0
 11
20.00000000000615
 21
23.54999999999124
 31
0.0
  0
LINE
  5
430D
330
1E
100
AcDbEntity
  8
0
 48
0.27
100
AcDbLine
 10
9.057532008425756
 20
17.72499999998955
 30
0.0
 11
9.415826861316009
 21
18.58999999998944
 31
0.0
  0
LINE
  5
430E
330
1E
100
AcDbEntity
  8
0
 48
0.27
100
AcDbLine
 10
9.415826861316009
 20
18.58999999998944
 30
0.0
 11
11.04430349175443
 21
16.96152258898713
 31
0.0
  0
LINE
  5
430F
330
1E
100
AcDbEntity
  8
虛線
 48
0.27
100
AcDbLine
 10
17.50000000000553
 20
22.10662432701825
 30
0.0
 11
20.00000000000615
 21
23.54999999999124
 31
0.0
  0
LINE
  5
4310
330
1E
100
AcDbEntity
  8
0
 48
0.27
100
AcDbLine
 10
24.00000000000374
 20
17.99999999998947
 30
0.0
 11
23.50000000000351
 21
17.49999999998969
 31
0.0
  0
LINE
  5
4311
330
1E
100
AcDbEntity
  8
0
 48
0.27
100
AcDbLine
 10
13.50000000001093
 20
34.49999999999407
 30
0.0
 11
22.50000000001093
 21
34.49999999999015
 31
0.0
  0
LINE
  5
4312
330
1E
100
AcDbEntity
  8
虛線
 48
0.27
100
AcDbLine
 10
20.50000000001058
 20
33.69999999999096
 30
0.0
 11
14.50000000001059
 21
33.69999999999361
 31
0.0
  0
LINE
  5
4313
330
1E
100
AcDbEntity
  8
0
 48
0.27
100
AcDbLine
 10
13.00000000001073
 20
33.99999999999427
 30
0.0
 11
13.50000000001093
 21
34.49999999999407
 31
0.0
  0
LINE
  5
4314
330
1E
100
AcDbEntity
  8
虛線
 48
0.27
100
AcDbLine
 10
13.70000000001109
 20
34.49999999999398
 30
0.0
 11
14.50000000001059
 21
33.69999999999361
 31
0.0
  0
LINE
  5
4315
330
1E
100
AcDbEntity
  8
虛線
 48
0.27
100
AcDbLine
 10
21.30000000001077
 20
34.49999999999066
 30
0.0
 11
20.50000000001058
 21
33.69999999999096
 31
0.0
  0
LINE
  5
4316
330
1E
100
AcDbEntity
  8
0
 48
0.27
100
AcDbLine
 10
22.50000000001093
 20
34.49999999999015
 30
0.0
 11
24.00000000001027
 21
32.99999999998947
 31
0.0
  0
LINE
  5
4317
330
1E
100
AcDbEntity
  8
指線
 48
0.27
100
AcDbLine
 10
-19.26048340696848
 20
26.50333248014135
 30
0.0
 11
-21.21984384765629
 21
26.50368375008501
 31
0.0
  0
LINE
  5
4318
330
1E
100
AcDbEntity
  8
指線
 48
0.27
100
AcDbLine
 10
-19.26063903289386
 20
25.4972330777501
 30
0.0
 11
-21.21999947358167
 21
25.49758434769376
 31
0.0
  0
LINE
  5
4319
330
1E
100
AcDbEntity
  8
指線
 48
0.27
100
AcDbLine
 10
-18.25438602352518
 20
26.50317675835158
 30
0.0
 11
-16.29099340539081
 21
26.50292087190745
 31
0.0
  0
LINE
  5
431A
330
1E
100
AcDbEntity
  8
指線
 48
0.27
100
AcDbLine
 10
-18.25454164945033
 20
25.49707735596057
 30
0.0
 11
-16.29114903131597
 21
25.4968214695162
 31
0.0
  0
LINE
  5
431B
330
1E
100
AcDbEntity
  8
指線
 48
0.27
100
AcDbLine
 10
-19.26063903289386
 20
25.4972330777501
 30
0.0
 11
-19.26078130840139
 21
24.5774433590881
 31
0.0
  0
LINE
  5
431C
330
1E
100
AcDbEntity
  8
指線
 48
0.27
100
AcDbLine
 10
-18.25454164945033
 20
25.49707735596057
 30
0.0
 11
-18.25468392475678
 21
24.57728763730291
 31
0.0
  0
LINE
  5
431D
330
1E
100
AcDbEntity
  8
指線
 48
0.27
100
AcDbLine
 10
-19.26034113166226
 20
27.42312219879877
 30
0.0
 11
-19.26048340696848
 21
26.50333248014135
 31
0.0
  0
LINE
  5
431E
330
1E
100
AcDbEntity
  8
指線
 48
0.27
100
AcDbLine
 10
-18.25424374801764
 20
27.42296647701381
 30
0.0
 11
-18.25438602352518
 21
26.50317675835158
 31
0.0
  0
LINE
  5
431F
330
1E
100
AcDbEntity
  8
指線
 48
0.27
100
AcDbLine
 10
-14.81048340697866
 20
3.20333248013938
 30
0.0
 11
-16.76984384766647
 21
3.203683750083037
 31
0.0
  0
LINE
  5
4320
330
1E
100
AcDbEntity
  8
指線
 48
0.27
100
AcDbLine
 10
-14.81063903290405
 20
2.19723307774813
 30
0.0
 11
-16.76999947359185
 21
2.197584347691787
 31
0.0
  0
LINE
  5
4321
330
1E
100
AcDbEntity
  8
指線
 48
0.27
100
AcDbLine
 10
-13.80438602353536
 20
3.203176758349613
 30
0.0
 11
-11.840993405401
 21
3.202920871905483
 31
0.0
  0
LINE
  5
4322
330
1E
100
AcDbEntity
  8
指線
 48
0.27
100
AcDbLine
 10
-13.80454164946052
 20
2.197077355958597
 30
0.0
 11
-11.84114903132615
 21
2.196821469514233
 31
0.0
  0
LINE
  5
4323
330
1E
100
AcDbEntity
  8
指線
 48
0.27
100
AcDbLine
 10
-14.81063903290405
 20
2.19723307774813
 30
0.0
 11
-14.81078130841158
 21
1.277443359086134
 31
0.0
  0
LINE
  5
4324
330
1E
100
AcDbEntity
  8
指線
 48
0.27
100
AcDbLine
 10
-13.80454164946052
 20
2.197077355958597
 30
0.0
 11
-13.80468392476696
 21
1.277287637300943
 31
0.0
  0
LINE
  5
4325
330
1E
100
AcDbEntity
  8
指線
 48
0.27
100
AcDbLine
 10
-14.81034113167244
 20
4.123122198796806
 30
0.0
 11
-14.81048340697866
 21
3.20333248013938
 31
0.0
  0
LINE
  5
4326
330
1E
100
AcDbEntity
  8
指線
 48
0.27
100
AcDbLine
 10
-13.80424374802783
 20
4.122966477011843
 30
0.0
 11
-13.80438602353536
 21
3.203176758349613
 31
0.0
  0
LINE
  5
4327
330
1E
100
AcDbEntity
  8
指線
 48
0.27
100
AcDbLine
 10
18.23951659303151
 20
26.50333248012495
 30
0.0
 11
16.28015615234371
 21
26.50368375006861
 31
0.0
  0
LINE
  5
4328
330
1E
100
AcDbEntity
  8
指線
 48
0.27
100
AcDbLine
 10
18.23936096710613
 20
25.49723307773371
 30
0.0
 11
16.28000052641833
 21
25.49758434767736
 31
0.0
  0
LINE
  5
4329
330
1E
100
AcDbEntity
  8
指線
 48
0.27
100
AcDbLine
 10
19.24561397647482
 20
26.50317675833518
 30
0.0
 11
21.20900659460918
 21
26.50292087189105
 31
0.0
  0
LINE
  5
432A
330
1E
100
AcDbEntity
  8
指線
 48
0.27
100
AcDbLine
 10
19.24545835054966
 20
25.49707735594417
 30
0.0
 11
21.20885096868402
 21
25.4968214694998
 31
0.0
  0
LINE
  5
432B
330
1E
100
AcDbEntity
  8
指線
 48
0.27
100
AcDbLine
 10
18.23936096710613
 20
25.49723307773371
 30
0.0
 11
18.2392186915986
 21
24.5774433590717
 31
0.0
  0
LINE
  5
432C
330
1E
100
AcDbEntity
  8
指線
 48
0.27
100
AcDbLine
 10
19.24545835054966
 20
25.49707735594417
 30
0.0
 11
19.24531607524321
 21
24.57728763728651
 31
0.0
  0
LINE
  5
432D
330
1E
100
AcDbEntity
  8
指線
 48
0.27
100
AcDbLine
 10
18.23965886833773
 20
27.42312219878238
 30
0.0
 11
18.23951659303151
 21
26.50333248012495
 31
0.0
  0
LINE
  5
432E
330
1E
100
AcDbEntity
  8
指線
 48
0.27
100
AcDbLine
 10
19.24575628095351
 20
27.42315377120187
 30
0.0
 11
19.24561397647482
 21
26.50317675833518
 31
0.0
  0
LINE
  5
432F
330
1E
100
AcDbEntity
  8
指線
 48
0.27
100
AcDbLine
 10
13.78951659302135
 20
3.203332480126874
 30
0.0
 11
11.83015615233354
 21
3.203683750070531
 31
0.0
  0
LINE
  5
4330
330
1E
100
AcDbEntity
  8
指線
 48
0.27
100
AcDbLine
 10
13.78936096709597
 20
2.197233077735624
 30
0.0
 11
11.83000052640816
 21
2.197584347679281
 31
0.0
  0
LINE
  5
4331
330
1E
100
AcDbEntity
  8
指線
 48
0.27
100
AcDbLine
 10
14.79561397646465
 20
3.203176758337107
 30
0.0
 11
16.75900659459902
 21
3.202920871892978
 31
0.0
  0
LINE
  5
4332
330
1E
100
AcDbEntity
  8
指線
 48
0.27
100
AcDbLine
 10
14.7954583505395
 20
2.197077355946092
 30
0.0
 11
16.75885096867386
 21
2.196821469501728
 31
0.0
  0
LINE
  5
4333
330
1E
100
AcDbEntity
  8
指線
 48
0.27
100
AcDbLine
 10
13.78936096709597
 20
2.197233077735624
 30
0.0
 11
13.78921869158844
 21
1.277443359073629
 31
0.0
  0
LINE
  5
4334
330
1E
100
AcDbEntity
  8
指線
 48
0.27
100
AcDbLine
 10
14.7954583505395
 20
2.197077355946092
 30
0.0
 11
14.79531607523305
 21
1.277287637288438
 31
0.0
  0
LINE
  5
4335
330
1E
100
AcDbEntity
  8
指線
 48
0.27
100
AcDbLine
 10
13.78965886832757
 20
4.123122198784301
 30
0.0
 11
13.78951659302135
 21
3.203332480126874
 31
0.0
  0
LINE
  5
4336
330
1E
100
AcDbEntity
  8
指線
 48
0.27
100
AcDbLine
 10
14.79575625197218
 20
4.122966476999337
 30
0.0
 11
14.79561397646465
 21
3.203176758337107
 31
0.0
  0
CIRCLE
  5
4337
330
1E
100
AcDbEntity
  8
指線
 48
0.27
100
AcDbCircle
 10
18.74472693835132
 20
26.0002981706733
 30
0.0
 40
2.512096663740535
  0
ARC
  5
4338
330
1E
100
AcDbEntity
  8
指線
 48
0.27
100
AcDbCircle
 10
18.74472693835132
 20
26.0002981706733
 30
0.0
 40
1.508492115360205
100
AcDbArc
 50
109.5613892979122
 51
160.5139541657127
  0
ARC
  5
4339
330
1E
100
AcDbEntity
  8
指線
 48
0.27
100
AcDbCircle
 10
18.74472693835132
 20
26.0002981706733
 30
0.0
 40
1.508492115360205
100
AcDbArc
 50
19.46831212368986
 51
70.60133311813122
  0
ARC
  5
433A
330
1E
100
AcDbEntity
  8
指線
 48
0.27
100
AcDbCircle
 10
18.74472693835132
 20
26.0002981706733
 30
0.0
 40
1.508492115360205
100
AcDbArc
 50
289.3809415722936
 51
340.5082247682504
  0
ARC
  5
433B
330
1E
100
AcDbEntity
  8
指線
 48
0.27
100
AcDbCircle
 10
18.74472693835132
 20
26.0002981706733
 30
0.0
 40
1.508492115360205
100
AcDbArc
 50
199.4740415212036
 51
250.4208853925178
  0
ARC
  5
433C
330
1E
100
AcDbEntity
  8
指線
 48
0.27
100
AcDbCircle
 10
-18.7581152186184
 20
26.00106104886725
 30
0.0
 40
1.508492115360205
100
AcDbArc
 50
199.4740415212036
 51
250.4208853925178
  0
ARC
  5
433D
330
1E
100
AcDbEntity
  8
指線
 48
0.27
100
AcDbCircle
 10
-18.7581152186184
 20
26.00106104886725
 30
0.0
 40
1.508492115360205
100
AcDbArc
 50
289.3809415722936
 51
340.5082247682504
  0
ARC
  5
433E
330
1E
100
AcDbEntity
  8
指線
 48
0.27
100
AcDbCircle
 10
-18.7581152186184
 20
26.00106104886725
 30
0.0
 40
1.508492115360205
100
AcDbArc
 50
19.46831212368986
 51
70.60133311813122
  0
ARC
  5
433F
330
1E
100
AcDbEntity
  8
指線
 48
0.27
100
AcDbCircle
 10
-18.7581152186184
 20
26.00106104886725
 30
0.0
 40
1.508492115360205
100
AcDbArc
 50
109.5613892979122
 51
160.5139541657127
  0
CIRCLE
  5
4340
330
1E
100
AcDbEntity
  8
指線
 48
0.27
100
AcDbCircle
 10
-18.7581152186184
 20
26.00106104886725
 30
0.0
 40
2.512096663740535
  0
ARC
  5
4341
330
1E
100
AcDbEntity
  8
指線
 48
0.27
100
AcDbCircle
 10
-14.30527306165886
 20
2.70029817068773
 30
0.0
 40
1.508492115360205
100
AcDbArc
 50
199.4740415212036
 51
250.4208853925178
  0
ARC
  5
4342
330
1E
100
AcDbEntity
  8
指線
 48
0.27
100
AcDbCircle
 10
-14.30527306165886
 20
2.70029817068773
 30
0.0
 40
1.508492115360205
100
AcDbArc
 50
289.3809415722936
 51
340.5082247682504
  0
ARC
  5
4343
330
1E
100
AcDbEntity
  8
指線
 48
0.27
100
AcDbCircle
 10
-14.30527306165886
 20
2.70029817068773
 30
0.0
 40
1.508492115360205
100
AcDbArc
 50
19.46831212368986
 51
70.60133311813122
  0
ARC
  5
4344
330
1E
100
AcDbEntity
  8
指線
 48
0.27
100
AcDbCircle
 10
-14.30527306165886
 20
2.70029817068773
 30
0.0
 40
1.508492115360205
100
AcDbArc
 50
109.5613892979122
 51
160.5139541657127
  0
CIRCLE
  5
4345
330
1E
100
AcDbEntity
  8
指線
 48
0.27
100
AcDbCircle
 10
-14.30527306165886
 20
2.70029817068773
 30
0.0
 40
2.512096663740535
  0
ARC
  5
4346
330
1E
100
AcDbEntity
  8
指線
 48
0.27
100
AcDbCircle
 10
14.29472693834116
 20
2.700298170675225
 30
0.0
 40
1.508492115360205
100
AcDbArc
 50
199.4740415212036
 51
250.4208853925178
  0
ARC
  5
4347
330
1E
100
AcDbEntity
  8
指線
 48
0.27
100
AcDbCircle
 10
14.29472693834116
 20
2.700298170675225
 30
0.0
 40
1.508492115360205
100
AcDbArc
 50
289.3809415722936
 51
340.5082247682504
  0
ARC
  5
4348
330
1E
100
AcDbEntity
  8
指線
 48
0.27
100
AcDbCircle
 10
14.29472693834116
 20
2.700298170675225
 30
0.0
 40
1.508492115360205
100
AcDbArc
 50
19.46831212368986
 51
70.60133311813122
  0
ARC
  5
4349
330
1E
100
AcDbEntity
  8
指線
 48
0.27
100
AcDbCircle
 10
14.29472693834116
 20
2.700298170675225
 30
0.0
 40
1.508492115360205
100
AcDbArc
 50
109.5613892979122
 51
160.5139541657127
  0
CIRCLE
  5
434A
330
1E
100
AcDbEntity
  8
指線
 48
0.27
100
AcDbCircle
 10
14.29472693834116
 20
2.700298170675225
 30
0.0
 40
2.512096663740535
  0
LINE
  5
434B
330
1E
100
AcDbEntity
  8
中心線
 48
0.27
100
AcDbLine
 10
-0.000000000015131
 20
-10.34663117638537
 30
0.0
 11
-0.0000000000030447
 21
17.39999999999354
 31
0.0
  0
LINE
  5
434C
330
1E
100
AcDbEntity
  8
0
 62
     0
 48
0.27
100
AcDbLine
 10
9.999999999977081
 20
-5.500000000003851
 30
0.0
 11
-10.00000000002291
 21
-5.499999999980602
 31
0.0
  0
LINE
  5
434D
330
1E
100
AcDbEntity
  8
0
 48
0.27
100
AcDbLine
 10
7.699999999991252
 20
4.398648986679333
 30
0.0
 11
11.49999999998415
 21
0.5986495000939556
 31
0.0
  0
LINE
  5
434E
330
1E
100
AcDbEntity
  8
0
 48
0.27
100
AcDbLine
 10
8.929704990899825
 20
9.009842724315674
 30
0.0
 11
7.699999999992758
 21
7.780138132221694
 31
0.0
  0
ARC
  5
434F
330
1E
100
AcDbEntity
  8
0
 48
0.27
100
AcDbCircle
 10
11.44706701449319
 20
8.757278985488525
 30
0.0
 40
2.53
100
AcDbArc
 50
95.72922242478901
 51
174.2707590208204
  0
ARC
  5
4350
330
1E
100
AcDbEntity
  8
0
 48
0.27
100
AcDbCircle
 10
11.44706701449645
 20
16.24247701448853
 30
0.0
 40
2.53
100
AcDbArc
 50
186.0063102577856
 51
263.9936732034378
  0
LINE
  5
4351
330
1E
100
AcDbEntity
  8
0
 48
0.27
100
AcDbLine
 10
8.508698852264462
 20
16.39999999998981
 30
0.0
 11
8.930955760388076
 21
15.97774288946941
 31
0.0
  0
LINE
  5
4352
330
1E
100
AcDbEntity
  8
0
 48
0.27
100
AcDbLine
 10
-7.700000000008781
 20
4.398648986686069
 30
0.0
 11
-11.50000000001584
 21
0.5986495000930887
 31
0.0
  0
LINE
  5
4353
330
1E
100
AcDbEntity
  8
0
 48
0.27
100
AcDbLine
 10
-8.929704990913261
 20
9.009842724323462
 30
0.0
 11
-7.700000000007275
 21
7.780138132228429
 31
0.0
  0
LINE
  5
4354
330
1E
100
AcDbEntity
  8
0
 48
0.27
100
AcDbLine
 10
-8.508698852271532
 20
16.39999999999726
 30
0.0
 11
8.508698852264462
 21
16.39999999998981
 31
0.0
  0
LINE
  5
4355
330
1E
100
AcDbEntity
  8
0
 62
     0
 48
0.27
100
AcDbLine
 10
-11.50000000001584
 20
0.598649500126939
 30
0.0
 11
-11.50000000002118
 21
-3.999999999978868
 31
0.0
  0
LINE
  5
4356
330
1E
100
AcDbEntity
  8
0
 62
     0
 48
0.27
100
AcDbLine
 10
-11.50000000002118
 20
-3.999999999978868
 30
0.0
 11
-10.00000000002291
 21
-5.499999999980602
 31
0.0
  0
ARC
  5
4357
330
1E
100
AcDbEntity
  8
0
 48
0.27
100
AcDbCircle
 10
-11.44706701450685
 20
8.75727898549853
 30
0.0
 40
2.53
100
AcDbArc
 50
5.729240979127214
 51
84.27077757515858
  0
ARC
  5
4358
330
1E
100
AcDbEntity
  8
0
 48
0.27
100
AcDbCircle
 10
-11.44706701450358
 20
16.24247701449853
 30
0.0
 40
2.53
100
AcDbArc
 50
276.0063267965097
 51
353.9936897421619
  0
LINE
  5
4359
330
1E
100
AcDbEntity
  8
0
 48
0.27
100
AcDbLine
 10
-8.508698852271475
 20
16.39999999999726
 30
0.0
 11
-8.930955760395431
 21
15.9777428894772
 31
0.0
  0
LINE
  5
435A
330
1E
100
AcDbEntity
  8
0
 48
0.27
100
AcDbLine
 10
-11.18233216319596
 20
13.72636583680714
 30
0.0
 11
-11.40000000000473
 21
13.50869799999848
 31
0.0
  0
LINE
  5
435B
330
1E
100
AcDbEntity
  8
0
 48
0.27
100
AcDbLine
 10
-11.40000000000561
 20
11.48013699999857
 30
0.0
 11
-11.19450409088788
 21
11.27464109088059
 31
0.0
  0
LINE
  5
435C
330
1E
100
AcDbEntity
  8
0
 48
0.27
100
AcDbLine
 10
-11.40000000000473
 20
13.50869799999848
 30
0.0
 11
-11.40000000000561
 21
11.48013699999857
 31
0.0
  0
LINE
  5
435D
330
1E
100
AcDbEntity
  8
虛線
 62
     6
 48
0.27
100
AcDbLine
 10
-3.500000000022406
 20
-4.999999999988105
 30
0.0
 11
-3.500000000008224
 21
7.200000000011769
 31
0.0
  0
LINE
  5
435E
330
1E
100
AcDbEntity
  8
虛線
 62
     6
 48
0.27
100
AcDbLine
 10
3.499999999977593
 20
-4.999999999996248
 30
0.0
 11
3.499999999991775
 21
7.200000000003697
 31
0.0
  0
LINE
  5
435F
330
1E
100
AcDbEntity
  8
0
 48
0.27
100
AcDbLine
 10
-7.700000000007275
 20
7.780138132228429
 30
0.0
 11
-7.700000000008781
 21
4.398648986686069
 31
0.0
  0
LINE
  5
4360
330
1E
100
AcDbEntity
  8
0
 48
0.27
100
AcDbLine
 10
7.699999999992758
 20
7.780138132221694
 30
0.0
 11
7.699999999991252
 21
4.398648986679333
 31
0.0
  0
LINE
  5
4361
330
1E
100
AcDbEntity
  8
虛線
 62
     6
 48
0.27
100
AcDbLine
 10
-3.500000000022406
 20
-4.999999999988105
 30
0.0
 11
3.499999999977593
 21
-4.999999999996248
 31
0.0
  0
LINE
  5
4362
330
1E
100
AcDbEntity
  8
虛線
 62
     6
 48
0.27
100
AcDbLine
 10
-4.000000000023032
 20
-5.499999999987579
 30
0.0
 11
-3.500000000022406
 21
-4.999999999988105
 31
0.0
  0
LINE
  5
4363
330
1E
100
AcDbEntity
  8
虛線
 62
     6
 48
0.27
100
AcDbLine
 10
3.499999999977593
 20
-4.999999999996248
 30
0.0
 11
3.999999999977081
 21
-5.499999999996887
 31
0.0
  0
LINE
  5
4364
330
1E
100
AcDbEntity
  8
虛線
 62
     6
 48
0.27
100
AcDbLine
 10
-3.500000000008224
 20
7.200000000011826
 30
0.0
 11
3.499999999991775
 21
7.200000000003697
 31
0.0
  0
LINE
  5
4365
330
1E
100
AcDbEntity
  8
虛線
 62
     6
 48
0.27
100
AcDbLine
 10
-5.500000000007826
 20
7.500000000014168
 30
0.0
 11
5.499999999992201
 21
7.500000000001037
 31
0.0
  0
LINE
  5
4366
330
1E
100
AcDbEntity
  8
虛線
 62
     6
 48
0.27
100
AcDbLine
 10
-5.499999999997822
 20
16.10000000001419
 30
0.0
 11
5.50000000000212
 21
16.1000000000014
 31
0.0
  0
LINE
  5
4367
330
1E
100
AcDbEntity
  8
虛線
 62
     6
 48
0.27
100
AcDbLine
 10
-5.500000000007826
 20
7.500000000014168
 30
0.0
 11
-5.499999999997879
 21
16.10000000001419
 31
0.0
  0
LINE
  5
4368
330
1E
100
AcDbEntity
  8
虛線
 62
     1
 48
0.27
100
AcDbLine
 10
-3.800000000007894
 20
7.500000000012121
 30
0.0
 11
-3.500000000008224
 21
7.200000000011769
 31
0.0
  0
LINE
  5
4369
330
1E
100
AcDbEntity
  8
虛線
 62
     6
 48
0.27
100
AcDbLine
 10
-5.499999999997879
 20
16.10000000001419
 30
0.0
 11
-5.67320508074378
 21
16.39999999999604
 31
0.0
  0
LINE
  5
436A
330
1E
100
AcDbEntity
  8
虛線
 62
     6
 48
0.27
100
AcDbLine
 10
5.499999999992173
 20
7.500000000001378
 30
0.0
 11
5.50000000000212
 21
16.1000000000014
 31
0.0
  0
LINE
  5
436B
330
1E
100
AcDbEntity
  8
虛線
 62
     1
 48
0.27
100
AcDbLine
 10
3.499999999991775
 20
7.200000000003697
 30
0.0
 11
3.799999999992127
 21
7.500000000003339
 31
0.0
  0
LINE
  5
436C
330
1E
100
AcDbEntity
  8
虛線
 62
     6
 48
0.27
100
AcDbLine
 10
5.500000000002234
 20
16.1000000000014
 30
0.0
 11
5.673205080753621
 21
16.39999999999103
 31
0.0
  0
LINE
  5
436D
330
1E
100
AcDbEntity
  8
0
 62
     0
 48
0.27
100
AcDbLine
 10
11.49999999998415
 20
0.5986495001002226
 30
0.0
 11
11.49999999997881
 21
-4.000000000005599
 31
0.0
  0
LINE
  5
436E
330
1E
100
AcDbEntity
  8
0
 62
     0
 48
0.27
100
AcDbLine
 10
11.49999999997881
 20
-4.000000000005599
 30
0.0
 11
9.999999999977081
 21
-5.500000000003851
 31
0.0
  0
LINE
  5
436F
330
1E
100
AcDbEntity
  8
0
 48
0.27
100
AcDbLine
 10
11.18233216318661
 20
13.7263658367974
 30
0.0
 11
11.39999999999522
 21
13.50869799998854
 31
0.0
  0
LINE
  5
4370
330
1E
100
AcDbEntity
  8
0
 48
0.27
100
AcDbLine
 10
11.39999999999433
 20
11.48013699998863
 30
0.0
 11
11.19450409087644
 21
11.27464109087081
 31
0.0
  0
LINE
  5
4371
330
1E
100
AcDbEntity
  8
0
 48
0.27
100
AcDbLine
 10
11.39999999999522
 20
13.50869799998854
 30
0.0
 11
11.39999999999433
 21
11.48013699998863
 31
0.0
  0
LINE
  5
4427
330
1E
100
AcDbEntity
  8
0
 48
0.27
100
AcDbLine
 10
116.0079649411722
 20
0.5986495001021411
 30
0.0
 11
108.6090548212379
 21
0.5986495001021411
 31
0.0
  0
LINE
  5
4428
330
1E
100
AcDbEntity
  8
0
 48
0.27
100
AcDbLine
 10
152.4264222687743
 20
-4.000000000003637
 30
0.0
 11
108.5405297296304
 21
-4.000000000003637
 31
0.0
  0
LINE
  5
4429
330
1E
100
AcDbEntity
  8
0
 48
0.27
100
AcDbLine
 10
116.0079649411722
 20
16.49999999999619
 30
0.0
 11
72.42642226877427
 21
16.49999999999621
 31
0.0
  0
LINE
  5
442A
330
1E
100
AcDbEntity
  8
0
 48
0.27
100
AcDbLine
 10
116.0079649411722
 20
4.298649000109385
 30
0.0
 11
108.8950921514646
 21
4.298649000109378
 31
0.0
  0
LINE
  5
442B
330
1E
100
AcDbEntity
  8
0
 48
0.27
100
AcDbLine
 10
116.0079649411722
 20
7.880138099795011
 30
0.0
 11
108.8838897770805
 21
7.880138099795004
 31
0.0
  0
LINE
  5
442C
330
1E
100
AcDbEntity
  8
0
 48
0.27
100
AcDbLine
 10
116.0079649411722
 20
9.125222738373679
 30
0.0
 11
108.4235555706805
 21
9.125222738373679
 31
0.0
  0
LINE
  5
442D
330
1E
100
AcDbEntity
  8
0
 48
0.27
100
AcDbLine
 10
116.0079649411722
 20
11.15926108360642
 30
0.0
 11
108.7274194349288
 21
11.15926108360642
 31
0.0
  0
LINE
  5
442E
330
1E
100
AcDbEntity
  8
0
 48
0.27
100
AcDbLine
 10
116.0079649411722
 20
11.58013699999633
 30
0.0
 11
108.7902938554739
 21
11.58013699999631
 31
0.0
  0
LINE
  5
442F
330
1E
100
AcDbEntity
  8
0
 48
0.27
100
AcDbLine
 10
116.0079649411722
 20
13.40869799999635
 30
0.0
 11
108.1301656672743
 21
13.40869799999635
 31
0.0
  0
LINE
  5
4430
330
1E
100
AcDbEntity
  8
0
 48
0.27
100
AcDbLine
 10
116.0079649411722
 20
13.84251259878234
 30
0.0
 11
108.2948559152463
 21
13.84251259878235
 31
0.0
  0
LINE
  5
4431
330
1E
100
AcDbEntity
  8
0
 48
0.27
100
AcDbLine
 10
116.0079649411722
 20
15.86159610740523
 30
0.0
 11
109.0613662278122
 21
15.86159610740523
 31
0.0
  0
LINE
  5
4432
330
1E
100
AcDbEntity
  8
0
 48
0.27
100
AcDbLine
 10
148.426422268774
 20
-5.500000000003822
 30
0.0
 11
72.42642226877433
 21
-5.500000000003836
 31
0.0
  0
LINE
  5
4433
330
1E
100
AcDbEntity
  8
0
 48
0.27
100
AcDbLine
 10
72.42642226877427
 20
-5.500000000003836
 30
0.0
 11
72.42642226877427
 21
16.49999999999621
 31
0.0
  0
LINE
  5
4442
330
1E
100
AcDbEntity
  8
中心線
 48
0.27
100
AcDbLine
 10
152.4264222687743
 20
-6.000000000003694
 30
0.0
 11
152.4264222687743
 21
1.071822973999303
 31
0.0
  0
LINE
  5
4443
330
1E
100
AcDbEntity
  8
中心線
 48
0.27
100
AcDbLine
 10
212.4264222687743
 20
-6.000000000003694
 30
0.0
 11
212.4264222687743
 21
16.9999999999963
 31
0.0
  0
LINE
  5
4444
330
1E
100
AcDbEntity
  8
0
 48
0.27
100
AcDbLine
 10
232.4264222687743
 20
-5.500000000003851
 30
0.0
 11
232.4264222687744
 21
16.49999999999621
 31
0.0
  0
LINE
  5
4445
330
1E
100
AcDbEntity
  8
0
 48
0.27
100
AcDbLine
 10
232.4264222687743
 20
-5.500000000003851
 30
0.0
 11
232.4264222687744
 21
16.49999999999621
 31
0.0
  0
LINE
  5
4446
330
1E
100
AcDbEntity
  8
0
 48
0.27
100
AcDbLine
 10
232.4264222687744
 20
16.49999999999636
 30
0.0
 11
199.0079649411723
 21
16.49999999999636
 31
0.0
  0
LINE
  5
4447
330
1E
100
AcDbEntity
  8
0
 48
0.27
100
AcDbLine
 10
232.4264222687744
 20
15.8615961074052
 30
0.0
 11
199.0079649411723
 21
15.8615961074052
 31
0.0
  0
LINE
  5
4448
330
1E
100
AcDbEntity
  8
0
 48
0.27
100
AcDbLine
 10
232.4264222687743
 20
13.84251259878232
 30
0.0
 11
199.0079649411723
 21
13.84251259878232
 31
0.0
  0
LINE
  5
4449
330
1E
100
AcDbEntity
  8
0
 48
0.27
100
AcDbLine
 10
232.4264222687743
 20
13.40869799999637
 30
0.0
 11
199.0079649411723
 21
13.40869799999637
 31
0.0
  0
LINE
  5
444A
330
1E
100
AcDbEntity
  8
0
 48
0.27
100
AcDbLine
 10
232.4264222687743
 20
11.15926108360642
 30
0.0
 11
199.0079649411723
 21
11.15926108360641
 31
0.0
  0
LINE
  5
444B
330
1E
100
AcDbEntity
  8
0
 48
0.27
100
AcDbLine
 10
232.4264222687743
 20
11.58013699999634
 30
0.0
 11
199.0079649411723
 21
11.58013699999634
 31
0.0
  0
LINE
  5
444C
330
1E
100
AcDbEntity
  8
0
 48
0.27
100
AcDbLine
 10
232.4264222687743
 20
9.125222738373679
 30
0.0
 11
199.0079649411723
 21
9.125222738373679
 31
0.0
  0
LINE
  5
444D
330
1E
100
AcDbEntity
  8
0
 48
0.27
100
AcDbLine
 10
232.4264222687743
 20
-4.000000000003637
 30
0.0
 11
146.3682635315
 21
-4.000000000003637
 31
0.0
  0
LINE
  5
444E
330
1E
100
AcDbEntity
  8
0
 48
0.27
100
AcDbLine
 10
232.4264222687743
 20
-5.500000000003694
 30
0.0
 11
146.2213264819464
 21
-5.500000000003694
 31
0.0
  0
LINE
  5
444F
330
1E
100
AcDbEntity
  8
0
 48
0.27
100
AcDbLine
 10
232.4264222687743
 20
7.880138099795225
 30
0.0
 11
199.0079649411723
 21
7.880138099795125
 31
0.0
  0
LINE
  5
4450
330
1E
100
AcDbEntity
  8
0
 48
0.27
100
AcDbLine
 10
232.4264222687743
 20
4.298649000109406
 30
0.0
 11
199.0079649411723
 21
4.298649000109396
 31
0.0
  0
LINE
  5
4451
330
1E
100
AcDbEntity
  8
0
 48
0.27
100
AcDbLine
 10
232.4264222687743
 20
0.5986495001021695
 30
0.0
 11
199.0079649411723
 21
0.5986495001021695
 31
0.0
  0
LINE
  5
4452
330
1E
100
AcDbEntity
  8
0
 48
0.27
100
AcDbLine
 10
97.92642226877427
 20
7.499999999996219
 30
0.0
 11
97.92642226877422
 21
16.09999999999624
 31
0.0
  0
LINE
  5
4453
330
1E
100
AcDbEntity
  8
0
 48
0.27
100
AcDbLine
 10
86.92642226877428
 20
7.499999999996219
 30
0.0
 11
86.92642226877422
 21
16.09999999999624
 31
0.0
  0
LINE
  5
4454
330
1E
100
AcDbEntity
  8
中心線
 48
0.27
100
AcDbLine
 10
92.42642226877427
 20
17.49999999999622
 30
0.0
 11
92.42642226877427
 21
-6.00000000000378
 31
0.0
  0
LINE
  5
4455
330
1E
100
AcDbEntity
  8
0
 48
0.27
100
AcDbLine
 10
88.92642226877422
 20
7.199999999996208
 30
0.0
 11
95.92642226877421
 21
7.199999999996208
 31
0.0
  0
LINE
  5
4456
330
1E
100
AcDbEntity
  8
0
 48
0.27
100
AcDbLine
 10
88.92642226877422
 20
-5.000000000003723
 30
0.0
 11
95.92642226877421
 21
-5.000000000003723
 31
0.0
  0
LINE
  5
4457
330
1E
100
AcDbEntity
  8
0
 48
0.27
100
AcDbLine
 10
86.92642226877428
 20
7.499999999996219
 30
0.0
 11
97.92642226877433
 21
7.499999999995878
 31
0.0
  0
LINE
  5
4458
330
1E
100
AcDbEntity
  8
0
 48
0.27
100
AcDbLine
 10
88.92642226877422
 20
-5.000000000003723
 30
0.0
 11
88.92642226877422
 21
7.199999999996151
 31
0.0
  0
LINE
  5
4459
330
1E
100
AcDbEntity
  8
0
 48
0.27
100
AcDbLine
 10
88.42642226877416
 20
-5.50000000000378
 30
0.0
 11
88.92642226877422
 21
-5.000000000003723
 31
0.0
  0
LINE
  5
445A
330
1E
100
AcDbEntity
  8
0
 48
0.27
100
AcDbLine
 10
88.6264222687742
 20
7.499999999996163
 30
0.0
 11
88.92642226877422
 21
7.199999999996151
 31
0.0
  0
LINE
  5
445B
330
1E
100
AcDbEntity
  8
0
 48
0.27
100
AcDbLine
 10
95.92642226877421
 20
-5.000000000003723
 30
0.0
 11
95.92642226877421
 21
7.199999999996208
 31
0.0
  0
LINE
  5
445C
330
1E
100
AcDbEntity
  8
0
 48
0.27
100
AcDbLine
 10
95.92642226877421
 20
-5.000000000003723
 30
0.0
 11
96.42642226877427
 21
-5.50000000000378
 31
0.0
  0
LINE
  5
445D
330
1E
100
AcDbEntity
  8
0
 48
0.27
100
AcDbLine
 10
95.92642226877421
 20
7.199999999996208
 30
0.0
 11
96.22642226877424
 21
7.499999999996219
 31
0.0
  0
LINE
  5
445E
330
1E
100
AcDbEntity
  8
0
 48
0.27
100
AcDbLine
 10
86.92642226877428
 20
16.09999999999624
 30
0.0
 11
97.92642226877422
 21
16.09999999999624
 31
0.0
  0
LINE
  5
445F
330
1E
100
AcDbEntity
  8
0
 48
0.27
100
AcDbLine
 10
86.92642226877428
 20
16.09999999999641
 30
0.0
 11
86.69548216109843
 21
16.49999999999644
 31
0.0
  0
LINE
  5
4460
330
1E
100
AcDbEntity
  8
0
 48
0.27
100
AcDbLine
 10
97.9264222687744
 20
16.09999999999641
 30
0.0
 11
98.1573623764503
 21
16.49999999999644
 31
0.0
  0
LINE
  5
4461
330
1E
100
AcDbEntity
  8
建構線
 48
0.27
100
AcDbLine
 10
109.3037252808991
 20
16.49999999999619
 30
0.0
 11
108.1301656672743
 21
13.40869799999623
 31
0.0
  0
LINE
  5
4462
330
1E
100
AcDbEntity
  8
建構線
 48
0.27
100
AcDbLine
 10
108.1301656672743
 20
13.40869799999623
 30
0.0
 11
108.790293855474
 21
11.58013699999625
 31
0.0
  0
LINE
  5
4463
330
1E
100
AcDbEntity
  8
建構線
 48
0.27
100
AcDbLine
 10
108.790293855474
 20
11.58013699999625
 30
0.0
 11
108.4235555706806
 21
9.125222738373537
 31
0.0
  0
LINE
  5
4464
330
1E
100
AcDbEntity
  8
建構線
 48
0.27
100
AcDbLine
 10
108.4235555706806
 20
9.125222738373537
 30
0.0
 11
109.3770736622863
 21
6.546203599757831
 31
0.0
  0
LINE
  5
4465
330
1E
100
AcDbEntity
  8
建構線
 48
0.27
100
AcDbLine
 10
109.3770736622863
 20
6.546203599757831
 30
0.0
 11
108.2768612226678
 21
1.415742215378912
 31
0.0
  0
LINE
  5
4466
330
1E
100
AcDbEntity
  8
建構線
 48
0.27
100
AcDbLine
 10
108.2768612226678
 20
1.415742215378912
 30
0.0
 11
109.2303781068927
 21
-0.9296121302417361
 31
0.0
  0
LINE
  5
4467
330
1E
100
AcDbEntity
  8
建構線
 48
0.27
100
AcDbLine
 10
109.2303781068927
 20
-0.9296121302417361
 30
0.0
 11
108.2035128412807
 21
-5.500000000003829
 31
0.0
  0
LINE
  5
446E
330
1E
100
AcDbEntity
  8
虛線
 48
0.27
100
AcDbLine
 10
148.9264222687742
 20
-5.000000000003623
 30
0.0
 11
148.9264222687742
 21
-0.0000000000000284
 31
0.0
  0
LINE
  5
446F
330
1E
100
AcDbEntity
  8
虛線
 48
0.27
100
AcDbLine
 10
148.9264222687742
 20
-5.000000000003623
 30
0.0
 11
155.9264222687742
 21
-5.000000000003623
 31
0.0
  0
LINE
  5
4470
330
1E
100
AcDbEntity
  8
虛線
 48
0.27
100
AcDbLine
 10
155.9264222687742
 20
-5.000000000003623
 30
0.0
 11
155.9264222687742
 21
-0.0000000000000284
 31
0.0
  0
LINE
  5
4475
330
1E
100
AcDbEntity
  8
虛線
 48
0.27
100
AcDbLine
 10
148.4264222687742
 20
-5.500000000003637
 30
0.0
 11
148.9264222687742
 21
-5.000000000003581
 31
0.0
  0
LINE
  5
4476
330
1E
100
AcDbEntity
  8
虛線
 48
0.27
100
AcDbLine
 10
155.9264222687742
 20
-5.000000000003581
 30
0.0
 11
156.4264222687743
 21
-5.500000000003637
 31
0.0
  0
LINE
  5
4477
330
1E
100
AcDbEntity
  8
虛線
 48
0.27
100
AcDbLine
 10
215.9264222687742
 20
-5.000000000003637
 30
0.0
 11
215.9264222687742
 21
7.199999999996293
 31
0.0
  0
LINE
  5
4478
330
1E
100
AcDbEntity
  8
虛線
 48
0.27
100
AcDbLine
 10
208.9264222687742
 20
-5.000000000003637
 30
0.0
 11
208.9264222687742
 21
7.199999999996236
 31
0.0
  0
LINE
  5
4479
330
1E
100
AcDbEntity
  8
虛線
 48
0.27
100
AcDbLine
 10
208.9264222687742
 20
7.199999999996293
 30
0.0
 11
215.9264222687742
 21
7.199999999996293
 31
0.0
  0
LINE
  5
447A
330
1E
100
AcDbEntity
  8
虛線
 48
0.27
100
AcDbLine
 10
206.9264222687742
 20
7.499999999996305
 30
0.0
 11
217.9264222687742
 21
7.499999999995964
 31
0.0
  0
LINE
  5
447B
330
1E
100
AcDbEntity
  8
虛線
 48
0.27
100
AcDbLine
 10
208.6264222687741
 20
7.499999999996276
 30
0.0
 11
208.9264222687742
 21
7.199999999996265
 31
0.0
  0
LINE
  5
447C
330
1E
100
AcDbEntity
  8
虛線
 48
0.27
100
AcDbLine
 10
217.9264222687742
 20
7.499999999996305
 30
0.0
 11
217.9264222687742
 21
16.09999999999632
 31
0.0
  0
LINE
  5
447D
330
1E
100
AcDbEntity
  8
虛線
 48
0.27
100
AcDbLine
 10
206.9264222687742
 20
7.499999999996305
 30
0.0
 11
206.9264222687742
 21
16.09999999999632
 31
0.0
  0
LINE
  5
447E
330
1E
100
AcDbEntity
  8
虛線
 48
0.27
100
AcDbLine
 10
208.9264222687742
 20
-5.000000000003637
 30
0.0
 11
215.9264222687742
 21
-5.000000000003637
 31
0.0
  0
LINE
  5
447F
330
1E
100
AcDbEntity
  8
虛線
 48
0.27
100
AcDbLine
 10
206.9264222687742
 20
16.09999999999635
 30
0.0
 11
217.9264222687741
 21
16.09999999999635
 31
0.0
  0
LINE
  5
4480
330
1E
100
AcDbEntity
  8
虛線
 48
0.27
100
AcDbLine
 10
215.9264222687742
 20
7.199999999996322
 30
0.0
 11
216.2264222687742
 21
7.499999999996333
 31
0.0
  0
LINE
  5
4481
330
1E
100
AcDbEntity
  8
虛線
 48
0.27
100
AcDbLine
 10
215.9264222687742
 20
-5.000000000003595
 30
0.0
 11
216.4264222687743
 21
-5.500000000003652
 31
0.0
  0
LINE
  5
4482
330
1E
100
AcDbEntity
  8
虛線
 48
0.27
100
AcDbLine
 10
208.4264222687742
 20
-5.500000000003652
 30
0.0
 11
208.9264222687742
 21
-5.000000000003595
 31
0.0
  0
LINE
  5
4483
330
1E
100
AcDbEntity
  8
虛線
 48
0.27
100
AcDbLine
 10
208.6264222687741
 20
7.499999999996276
 30
0.0
 11
208.9264222687742
 21
7.199999999996265
 31
0.0
  0
LINE
  5
4484
330
1E
100
AcDbEntity
  8
虛線
 48
0.27
100
AcDbLine
 10
206.9264222687742
 20
16.09999999999658
 30
0.0
 11
206.6954821610983
 21
16.49999999999661
 31
0.0
  0
LINE
  5
4485
330
1E
100
AcDbEntity
  8
虛線
 48
0.27
100
AcDbLine
 10
217.9264222687743
 20
16.09999999999658
 30
0.0
 11
218.1573623764502
 21
16.49999999999661
 31
0.0
  0
LINE
  5
4499
330
1E
100
AcDbEntity
  8
0
100
AcDbLine
 10
117.5079649411723
 20
29.49999999999997
 30
0.0
 11
117.5079649411722
 21
-0.0000000000000284
 31
0.0
  0
LINE
  5
449A
330
1E
100
AcDbEntity
  8
0
100
AcDbLine
 10
116.0079649411722
 20
16.72397459621555
 30
0.0
 11
116.0079649411722
 21
0.0
 31
0.0
  0
LINE
  5
449B
330
1E
100
AcDbEntity
  8
中心線
100
AcDbLine
 10
115.7241151448011
 20
2.700000000006099
 30
0.0
 11
121.475752119182
 21
2.700000000006099
 31
0.0
  0
LINE
  5
449C
330
1E
100
AcDbEntity
  8
0
100
AcDbLine
 10
116.623637081814
 20
3.700000000006099
 30
0.0
 11
116.623637081814
 21
1.700000000006099
 31
0.0
  0
LINE
  5
449D
330
1E
100
AcDbEntity
  8
0
100
AcDbLine
 10
116.0079649411722
 20
0.0
 30
0.0
 11
119.0079649411722
 21
0.0
 31
0.0
  0
ARC
  5
449E
330
1E
100
AcDbEntity
  8
0
100
AcDbCircle
 10
117.8434887606664
 20
1.719751638023211
 30
0.0
 40
1.220011576012179
100
AcDbArc
 50
180.9276427879975
 51
254.0369778311712
  0
LINE
  5
449F
330
1E
100
AcDbEntity
  8
0
100
AcDbLine
 10
119.0079649411722
 20
1.499999999983401
 30
0.0
 11
117.5079649411722
 21
1.499999999983401
 31
0.0
  0
ARC
  5
44A0
330
1E
100
AcDbEntity
  8
0
100
AcDbCircle
 10
117.8434887606664
 20
3.680248361988986
 30
0.0
 40
1.220011576012179
100
AcDbArc
 50
105.9630221688287
 51
179.0723572120024
  0
LINE
  5
44A1
330
1E
100
AcDbEntity
  8
0
100
AcDbLine
 10
117.5079649411723
 20
17.59
 30
0.0
 11
116.0079649411722
 21
16.72397459621555
 31
0.0
  0
LINE
  5
44A2
330
1E
100
AcDbEntity
  8
中心線
100
AcDbLine
 10
115.7241151448011
 20
26.00000000000932
 30
0.0
 11
121.4757521191821
 21
26.00000000000932
 31
0.0
  0
LINE
  5
44A3
330
1E
100
AcDbEntity
  8
0
100
AcDbLine
 10
116.623637081814
 20
27.00000000000932
 30
0.0
 11
116.623637081814
 21
25.00000000000932
 31
0.0
  0
ARC
  5
44A4
330
1E
100
AcDbEntity
  8
0
100
AcDbCircle
 10
117.8434887606665
 20
25.01975163802643
 30
0.0
 40
1.220011576012179
100
AcDbArc
 50
180.9276427879975
 51
254.0369778311712
  0
ARC
  5
44A5
330
1E
100
AcDbEntity
  8
0
100
AcDbCircle
 10
117.8434887606665
 20
26.98024836199221
 30
0.0
 40
1.220011576012179
100
AcDbArc
 50
105.9630221688287
 51
179.0723572120024
  0
LINE
  5
44A6
330
1E
100
AcDbEntity
  8
0
100
AcDbLine
 10
119.0079649411722
 20
29.49999999999997
 30
0.0
 11
117.5079649411723
 21
29.49999999999997
 31
0.0
  0
LINE
  5
44A7
330
1E
100
AcDbEntity
  8
0
100
AcDbLine
 10
117.5079649411723
 20
27.99999999999997
 30
0.0
 11
119.0079649411722
 21
27.99999999999997
 31
0.0
  0
LINE
  5
44A8
330
1E
100
AcDbEntity
  8
0
100
AcDbLine
 10
197.5079649411722
 20
29.49999999999996
 30
0.0
 11
197.5079649411723
 21
-0.000000000000032
 31
0.0
  0
LINE
  5
44A9
330
1E
100
AcDbEntity
  8
0
100
AcDbLine
 10
199.0079649411723
 20
16.72397459621555
 30
0.0
 11
199.0079649411723
 21
-0.0000000000000036
 31
0.0
  0
LINE
  5
44AA
330
1E
100
AcDbEntity
  8
中心線
100
AcDbLine
 10
199.2918147375434
 20
2.700000000006092
 30
0.0
 11
193.5401777631625
 21
2.700000000006095
 31
0.0
  0
LINE
  5
44AB
330
1E
100
AcDbEntity
  8
0
100
AcDbLine
 10
198.3922928005306
 20
3.700000000006095
 30
0.0
 11
198.3922928005306
 21
1.700000000006095
 31
0.0
  0
LINE
  5
44AC
330
1E
100
AcDbEntity
  8
0
100
AcDbLine
 10
196.0079649411723
 20
1.499999999983398
 30
0.0
 11
197.5079649411723
 21
1.499999999983398
 31
0.0
  0
LINE
  5
44AD
330
1E
100
AcDbEntity
  8
0
100
AcDbLine
 10
199.0079649411723
 20
-0.0000000000000036
 30
0.0
 11
196.0079649411723
 21
-0.0000000000000036
 31
0.0
  0
ARC
  5
44AE
330
1E
100
AcDbEntity
  8
0
100
AcDbCircle
 10
197.1724411216781
 20
1.719751638023208
 30
0.0
 40
1.220011576012179
100
AcDbArc
 50
285.9630221688287
 51
359.0723572120023
  0
ARC
  5
44AF
330
1E
100
AcDbEntity
  8
0
100
AcDbCircle
 10
197.1724411216781
 20
3.680248361988983
 30
0.0
 40
1.220011576012179
100
AcDbArc
 50
0.9276427879975949
 51
74.03697783117127
  0
LINE
  5
44B0
330
1E
100
AcDbEntity
  8
0
100
AcDbLine
 10
197.5079649411722
 20
17.59
 30
0.0
 11
199.0079649411723
 21
16.72397459621555
 31
0.0
  0
LINE
  5
44B1
330
1E
100
AcDbEntity
  8
中心線
100
AcDbLine
 10
199.2918147375434
 20
26.00000000000932
 30
0.0
 11
193.5401777631624
 21
26.00000000000932
 31
0.0
  0
LINE
  5
44B2
330
1E
100
AcDbEntity
  8
0
100
AcDbLine
 10
198.3922928005305
 20
27.00000000000932
 30
0.0
 11
198.3922928005305
 21
25.00000000000932
 31
0.0
  0
ARC
  5
44B3
330
1E
100
AcDbEntity
  8
0
100
AcDbCircle
 10
197.172441121678
 20
25.01975163802643
 30
0.0
 40
1.220011576012179
100
AcDbArc
 50
285.9630221688287
 51
359.0723572120023
  0
LINE
  5
44B4
330
1E
100
AcDbEntity
  8
0
100
AcDbLine
 10
196.0079649411723
 20
29.49999999999997
 30
0.0
 11
197.5079649411722
 21
29.49999999999997
 31
0.0
  0
LINE
  5
44B5
330
1E
100
AcDbEntity
  8
0
100
AcDbLine
 10
197.5079649411722
 20
27.99999999999997
 30
0.0
 11
196.0079649411723
 21
27.99999999999997
 31
0.0
  0
ARC
  5
44B6
330
1E
100
AcDbEntity
  8
0
100
AcDbCircle
 10
197.172441121678
 20
26.98024836199221
 30
0.0
 40
1.220011576012179
100
AcDbArc
 50
0.9276427879975949
 51
74.03697783117127
  0
LINE
  5
45BB
330
1E
100
AcDbEntity
  8
中心線
 48
0.27
100
AcDbLine
 10
102.507966700189
 20
24.49999999999333
 30
0.0
 11
116.7397286053947
 21
24.49999999999333
 31
0.0
  0
ARC
  5
45BC
330
1E
100
AcDbEntity
  8
0
 48
0.27
100
AcDbCircle
 10
116.6995819411721
 20
22.50001933109337
 30
0.0
 40
2.954110999999976
100
AcDbArc
 50
137.3885930045003
 51
222.6114069976005
  0
ARC
  5
45BD
330
1E
100
AcDbEntity
  8
0
 48
0.27
100
AcDbCircle
 10
116.6995829411722
 20
26.50001933109326
 30
0.0
 40
2.954111999999976
100
AcDbArc
 50
137.388598002199
 51
222.6114019998987
  0
LWPOLYLINE
  5
45BE
330
1E
100
AcDbEntity
  8
0
 48
0.27
100
AcDbPolyline
 90
       31
 70
     0
 43
0.0
 10
106.4167539411723
 20
24.50001933109329
 10
106.3839359411722
 20
24.7102743310933
 10
106.3397889411722
 20
24.81576133109329
 10
106.2767559411722
 20
24.91354033109329
 10
106.1972799411722
 20
24.99765333109329
 10
106.1057889411722
 20
25.0635263310933
 10
106.0078689411723
 20
25.10880733109324
 10
105.8752329411722
 20
25.13774833109327
 10
105.7522239411722
 20
25.13508933109327
 10
105.6452999411722
 20
25.10958333109327
 10
105.5290949411722
 20
25.05381533109327
 10
105.4185249411722
 20
24.96432633109331
 10
105.3302949411723
 20
24.8497763310933
 10
105.2736609411723
 20
24.72993733109334
 10
105.2458099411723
 20
24.62628133109328
 10
105.2341889411722
 20
24.50001933109329
 10
105.2670069411722
 20
24.28976433109333
 10
105.3111549411722
 20
24.18427633109329
 10
105.3741869411722
 20
24.08649833109329
 10
105.4536629411723
 20
24.00238533109328
 10
105.5451539411722
 20
23.93651233109327
 10
105.6430739411722
 20
23.89123133109329
 10
105.7757099411723
 20
23.86228933109325
 10
105.8987189411723
 20
23.8649493310933
 10
106.0056429411722
 20
23.89045433109331
 10
106.1218479411722
 20
23.94622233109331
 10
106.2324179411723
 20
24.03571233109327
 10
106.3206479411722
 20
24.15026133109328
 10
106.3772819411722
 20
24.27010033109329
 10
106.4051339411723
 20
24.37375733109335
 10
106.4167539411723
 20
24.50001933109329
  0
ARC
  5
45BF
330
1E
100
AcDbEntity
  8
0
 48
0.27
100
AcDbCircle
 10
109.9971309411722
 20
24.50001933109332
 30
0.0
 40
3.999999999999968
100
AcDbArc
 50
90.0
 51
131.4096219995999
  0
ARC
  5
45C0
330
1E
100
AcDbEntity
  8
0
 48
0.27
100
AcDbCircle
 10
109.9971309411722
 20
24.50001933109332
 30
0.0
 40
3.999999999999968
100
AcDbArc
 50
228.5903779973006
 51
270.0
  0
LINE
  5
45C1
330
1E
100
AcDbEntity
  8
0
 48
0.27
100
AcDbLine
 10
117.5079649411723
 20
28.50001933109332
 30
0.0
 11
109.9971309411722
 21
28.50001933109332
 31
0.0
  0
LINE
  5
45C2
330
1E
100
AcDbEntity
  8
0
 48
0.27
100
AcDbLine
 10
114.5254669411722
 20
24.50001933109332
 30
0.0
 11
116.7397195027445
 21
24.50001933109332
 31
0.0
  0
LINE
  5
45C3
330
1E
100
AcDbEntity
  8
0
 48
0.27
100
AcDbLine
 10
109.9971309411722
 20
20.50001933109331
 30
0.0
 11
117.5079649411723
 21
20.50001933109331
 31
0.0
  0
LINE
  5
45C4
330
1E
100
AcDbEntity
  8
0
 48
0.27
100
AcDbLine
 10
113.7454709411722
 20
28.50001933109332
 30
0.0
 11
113.7454709411722
 21
20.50001933109331
 31
0.0
  0
LINE
  5
45C5
330
1E
100
AcDbEntity
  8
0
 48
0.27
100
AcDbLine
 10
106.4696939411722
 20
27.50001933109329
 30
0.0
 11
110.3694699411722
 21
27.50001933109329
 31
0.0
  0
LINE
  5
45C6
330
1E
100
AcDbEntity
  8
0
 48
0.27
100
AcDbLine
 10
106.2233009411722
 20
21.96194633109332
 30
0.0
 11
106.4696939411722
 21
21.50001933109334
 31
0.0
  0
LINE
  5
45C7
330
1E
100
AcDbEntity
  8
0
 48
0.27
100
AcDbLine
 10
106.4696939411722
 20
27.50001933109329
 30
0.0
 11
106.2233009411722
 21
27.03809233109331
 31
0.0
  0
LINE
  5
45C8
330
1E
100
AcDbEntity
  8
0
 48
0.27
100
AcDbLine
 10
111.2703119411722
 20
24.50001933109332
 30
0.0
 11
111.9696759411722
 21
24.50001933109332
 31
0.0
  0
LINE
  5
45C9
330
1E
100
AcDbEntity
  8
0
 48
0.27
100
AcDbLine
 10
110.3694699411722
 20
27.50001933109329
 30
0.0
 11
111.9696759411722
 21
24.50001933109332
 31
0.0
  0
LINE
  5
45CA
330
1E
100
AcDbEntity
  8
0
 48
0.27
100
AcDbLine
 10
110.3694699411722
 20
21.50001933109334
 30
0.0
 11
106.4696939411722
 21
21.50001933109334
 31
0.0
  0
LINE
  5
45CB
330
1E
100
AcDbEntity
  8
0
 48
0.27
100
AcDbLine
 10
111.9696759411722
 20
24.50001933109332
 30
0.0
 11
110.3694699411722
 21
21.50001933109334
 31
0.0
  0
LINE
  5
45CC
330
1E
100
AcDbEntity
  8
0
 48
0.27
100
AcDbLine
 10
106.5907729411722
 20
27.0295533310933
 30
0.0
 11
107.0092399411722
 21
27.27165733109329
 31
0.0
  0
LINE
  5
45CD
330
1E
100
AcDbEntity
  8
0
 48
0.27
100
AcDbLine
 10
106.5907729411722
 20
21.97048433109336
 30
0.0
 11
107.0092399411722
 21
21.72838033109332
 31
0.0
  0
LINE
  5
45CE
330
1E
100
AcDbEntity
  8
0
 48
0.27
100
AcDbLine
 10
107.0092399411722
 20
27.27165733109329
 30
0.0
 11
107.5291799411722
 21
27.44237533109325
 31
0.0
  0
LINE
  5
45CF
330
1E
100
AcDbEntity
  8
0
 48
0.27
100
AcDbLine
 10
107.0092399411722
 20
21.72838033109332
 30
0.0
 11
107.5291799411722
 21
21.55766333109338
 31
0.0
  0
LINE
  5
45D0
330
1E
100
AcDbEntity
  8
0
 48
0.27
100
AcDbLine
 10
107.5291799411722
 20
27.44237533109325
 30
0.0
 11
108.0698999411722
 21
27.50001933109329
 31
0.0
  0
LINE
  5
45D1
330
1E
100
AcDbEntity
  8
0
 48
0.27
100
AcDbLine
 10
107.5291799411722
 20
21.55766333109338
 30
0.0
 11
108.0698999411722
 21
21.50001933109334
 31
0.0
  0
LINE
  5
45D2
330
1E
100
AcDbEntity
  8
0
 48
0.27
100
AcDbLine
 10
108.0698999411722
 20
27.50001933109329
 30
0.0
 11
108.6106199411722
 21
27.44237533109325
 31
0.0
  0
LINE
  5
45D3
330
1E
100
AcDbEntity
  8
0
 48
0.27
100
AcDbLine
 10
108.0698999411722
 20
21.50001933109334
 30
0.0
 11
108.6106199411722
 21
21.55766333109338
 31
0.0
  0
LINE
  5
45D4
330
1E
100
AcDbEntity
  8
0
 48
0.27
100
AcDbLine
 10
108.6106199411722
 20
27.44237533109325
 30
0.0
 11
109.1305599411722
 21
27.27165733109329
 31
0.0
  0
LINE
  5
45D5
330
1E
100
AcDbEntity
  8
0
 48
0.27
100
AcDbLine
 10
108.6106199411722
 20
21.55766333109338
 30
0.0
 11
109.1305599411722
 21
21.72838033109332
 31
0.0
  0
LINE
  5
45D6
330
1E
100
AcDbEntity
  8
0
 48
0.27
100
AcDbLine
 10
109.1305599411722
 20
27.27165733109329
 30
0.0
 11
109.6097399411722
 21
26.99442833109331
 31
0.0
  0
LINE
  5
45D7
330
1E
100
AcDbEntity
  8
0
 48
0.27
100
AcDbLine
 10
109.1305599411722
 20
21.72838033109332
 30
0.0
 11
109.6097399411722
 21
22.00561033109333
 31
0.0
  0
LINE
  5
45D8
330
1E
100
AcDbEntity
  8
0
 48
0.27
100
AcDbLine
 10
109.6097399411722
 20
26.99442833109331
 30
0.0
 11
110.0297439411722
 21
26.62133933109331
 31
0.0
  0
LINE
  5
45D9
330
1E
100
AcDbEntity
  8
0
 48
0.27
100
AcDbLine
 10
109.6097399411722
 20
22.00561033109333
 30
0.0
 11
110.0297439411722
 21
22.37869833109329
 31
0.0
  0
LINE
  5
45DA
330
1E
100
AcDbEntity
  8
0
 48
0.27
100
AcDbLine
 10
109.6701059411722
 20
27.50001933109329
 30
0.0
 11
111.2703119411722
 21
24.50001933109332
 31
0.0
  0
LINE
  5
45DB
330
1E
100
AcDbEntity
  8
0
 48
0.27
100
AcDbLine
 10
111.2703119411722
 20
24.50001933109332
 30
0.0
 11
109.6701059411722
 21
21.50001933109334
 31
0.0
  0
LINE
  5
45DC
330
1E
100
AcDbEntity
  8
0
 48
0.27
100
AcDbLine
 10
110.0297439411722
 20
26.62133933109331
 30
0.0
 11
110.3744329411722
 21
26.16672933109331
 31
0.0
  0
LINE
  5
45DD
330
1E
100
AcDbEntity
  8
0
 48
0.27
100
AcDbLine
 10
110.3744329411722
 20
22.83330833109329
 30
0.0
 11
110.0297439411722
 21
22.37869833109329
 31
0.0
  0
LINE
  5
45DE
330
1E
100
AcDbEntity
  8
0
 48
0.27
100
AcDbLine
 10
110.3744329411722
 20
26.16672933109331
 30
0.0
 11
110.6305599411722
 21
25.6480693310933
 31
0.0
  0
LINE
  5
45DF
330
1E
100
AcDbEntity
  8
0
 48
0.27
100
AcDbLine
 10
110.6305599411722
 20
23.35196833109336
 30
0.0
 11
110.3744329411722
 21
22.83330833109329
 31
0.0
  0
LINE
  5
45E0
330
1E
100
AcDbEntity
  8
0
 48
0.27
100
AcDbLine
 10
110.6305599411722
 20
25.6480693310933
 30
0.0
 11
110.7882819411722
 21
25.08529033109335
 31
0.0
  0
LINE
  5
45E1
330
1E
100
AcDbEntity
  8
0
 48
0.27
100
AcDbLine
 10
110.7882819411722
 20
23.91474833109328
 30
0.0
 11
110.6305599411722
 21
23.35196833109336
 31
0.0
  0
LINE
  5
45E2
330
1E
100
AcDbEntity
  8
0
 48
0.27
100
AcDbLine
 10
110.7882819411722
 20
25.08529033109335
 30
0.0
 11
110.8415379411722
 21
24.50001933109332
 31
0.0
  0
LINE
  5
45E3
330
1E
100
AcDbEntity
  8
0
 48
0.27
100
AcDbLine
 10
110.8415379411722
 20
24.50001933109332
 30
0.0
 11
110.7882819411722
 21
23.91474833109328
 31
0.0
  0
LINE
  5
45E4
330
1E
100
AcDbEntity
  8
0
 48
0.27
100
AcDbLine
 10
105.1660029411723
 20
26.14024633109327
 30
0.0
 11
105.1689739411723
 21
26.13863133109331
 31
0.0
  0
LINE
  5
45E5
330
1E
100
AcDbEntity
  8
0
 48
0.27
100
AcDbLine
 10
105.1660029411723
 20
22.85979133109333
 30
0.0
 11
105.1689739411723
 21
22.86140733109332
 31
0.0
  0
LINE
  5
45E6
330
1E
100
AcDbEntity
  8
0
 48
0.27
100
AcDbLine
 10
104.0532929411723
 20
24.99816133109332
 30
0.0
 11
104.0079649411723
 21
24.50001933109332
 31
0.0
  0
LINE
  5
45E7
330
1E
100
AcDbEntity
  8
0
 48
0.27
100
AcDbLine
 10
104.1875349411722
 20
25.47715933109331
 30
0.0
 11
104.0532929411723
 21
24.99816133109332
 31
0.0
  0
LINE
  5
45E8
330
1E
100
AcDbEntity
  8
0
 48
0.27
100
AcDbLine
 10
104.0079649411723
 20
24.50001933109332
 30
0.0
 11
104.0532929411723
 21
24.00187733109332
 31
0.0
  0
LINE
  5
45E9
330
1E
100
AcDbEntity
  8
0
 48
0.27
100
AcDbLine
 10
104.4055319411723
 20
25.91860733109331
 30
0.0
 11
104.1875349411722
 21
25.47715933109331
 31
0.0
  0
LINE
  5
45EA
330
1E
100
AcDbEntity
  8
0
 48
0.27
100
AcDbLine
 10
104.0532929411723
 20
24.00187733109332
 30
0.0
 11
104.1875349411722
 21
23.5228783310933
 31
0.0
  0
LINE
  5
45EB
330
1E
100
AcDbEntity
  8
0
 48
0.27
100
AcDbLine
 10
104.6989079411723
 20
26.30553933109335
 30
0.0
 11
104.4055319411723
 21
25.91860733109331
 31
0.0
  0
LINE
  5
45EC
330
1E
100
AcDbEntity
  8
0
 48
0.27
100
AcDbLine
 10
104.1875349411722
 20
23.5228783310933
 30
0.0
 11
104.4055319411723
 21
23.08143133109332
 31
0.0
  0
LINE
  5
45ED
330
1E
100
AcDbEntity
  8
0
 48
0.27
100
AcDbLine
 10
104.6989079411723
 20
26.30553933109335
 30
0.0
 11
105.0563859411723
 21
26.62308633109331
 31
0.0
  0
LINE
  5
45EE
330
1E
100
AcDbEntity
  8
0
 48
0.27
100
AcDbLine
 10
104.4055319411723
 20
23.08143133109332
 30
0.0
 11
104.6989079411723
 21
22.69449933109329
 31
0.0
  0
LINE
  5
45EF
330
1E
100
AcDbEntity
  8
0
 48
0.27
100
AcDbLine
 10
104.2019959411722
 20
24.84955533109332
 30
0.0
 11
104.1701899411723
 21
24.50001933109332
 31
0.0
  0
LINE
  5
45F0
330
1E
100
AcDbEntity
  8
0
 48
0.27
100
AcDbLine
 10
104.2961909411723
 20
25.18565933109332
 30
0.0
 11
104.2019959411722
 21
24.84955533109332
 31
0.0
  0
LINE
  5
45F1
330
1E
100
AcDbEntity
  8
0
 48
0.27
100
AcDbLine
 10
104.1701899411723
 20
24.50001933109332
 30
0.0
 11
104.2019959411722
 21
24.15048333109332
 31
0.0
  0
LINE
  5
45F2
330
1E
100
AcDbEntity
  8
0
 48
0.27
100
AcDbLine
 10
104.4491549411723
 20
25.49541433109329
 30
0.0
 11
104.2961909411723
 21
25.18565933109332
 31
0.0
  0
LINE
  5
45F3
330
1E
100
AcDbEntity
  8
0
 48
0.27
100
AcDbLine
 10
104.2019959411722
 20
24.15048333109332
 30
0.0
 11
104.2961909411723
 21
23.81437933109331
 31
0.0
  0
LINE
  5
45F4
330
1E
100
AcDbEntity
  8
0
 48
0.27
100
AcDbLine
 10
105.0563859411723
 20
26.62308633109331
 30
0.0
 11
105.4642309411722
 21
26.85904533109329
 31
0.0
  0
LINE
  5
45F5
330
1E
100
AcDbEntity
  8
0
 48
0.27
100
AcDbLine
 10
104.6989079411723
 20
22.69449933109329
 30
0.0
 11
105.0563859411723
 21
22.37695233109332
 31
0.0
  0
LINE
  5
45F6
330
1E
100
AcDbEntity
  8
0
 48
0.27
100
AcDbLine
 10
104.6550109411723
 20
25.76691633109332
 30
0.0
 11
104.4491549411723
 21
25.49541433109329
 31
0.0
  0
LINE
  5
45F7
330
1E
100
AcDbEntity
  8
0
 48
0.27
100
AcDbLine
 10
104.2961909411723
 20
23.81437933109331
 30
0.0
 11
104.4491549411723
 21
23.50462433109334
 31
0.0
  0
LINE
  5
45F8
330
1E
100
AcDbEntity
  8
0
 48
0.27
100
AcDbLine
 10
105.4642309411722
 20
26.85904533109329
 30
0.0
 11
105.9067679411723
 21
27.00434733109325
 31
0.0
  0
LINE
  5
45F9
330
1E
100
AcDbEntity
  8
0
 48
0.27
100
AcDbLine
 10
105.0563859411723
 20
22.37695233109332
 30
0.0
 11
105.4642309411722
 21
22.14099333109332
 31
0.0
  0
LINE
  5
45FA
330
1E
100
AcDbEntity
  8
0
 48
0.27
100
AcDbLine
 10
104.6550109411723
 20
25.76691633109332
 30
0.0
 11
104.9058459411723
 21
25.98973333109328
 31
0.0
  0
LINE
  5
45FB
330
1E
100
AcDbEntity
  8
0
 48
0.27
100
AcDbLine
 10
104.4491549411723
 20
23.50462433109334
 30
0.0
 11
104.6550109411723
 21
23.23312133109337
 31
0.0
  0
LINE
  5
45FC
330
1E
100
AcDbEntity
  8
0
 48
0.27
100
AcDbLine
 10
105.9067679411723
 20
27.00434733109325
 30
0.0
 11
106.3669909411723
 21
27.05341033109329
 31
0.0
  0
LINE
  5
45FD
330
1E
100
AcDbEntity
  8
0
 48
0.27
100
AcDbLine
 10
105.4642309411722
 20
22.14099333109332
 30
0.0
 11
105.9067679411723
 21
21.9956903310933
 31
0.0
  0
LINE
  5
45FE
330
1E
100
AcDbEntity
  8
0
 48
0.27
100
AcDbLine
 10
104.9058459411723
 20
25.98973333109328
 30
0.0
 11
105.1920229411722
 21
26.15530033109326
 31
0.0
  0
LINE
  5
45FF
330
1E
100
AcDbEntity
  8
0
 48
0.27
100
AcDbLine
 10
104.6550109411723
 20
23.23312133109337
 30
0.0
 11
104.9058459411723
 21
23.01030533109335
 31
0.0
  0
LINE
  5
4600
330
1E
100
AcDbEntity
  8
0
 48
0.27
100
AcDbLine
 10
106.9716499411722
 20
26.97700033109328
 30
0.0
 11
107.4093539411723
 21
26.83328433109327
 31
0.0
  0
LINE
  5
4601
330
1E
100
AcDbEntity
  8
0
 48
0.27
100
AcDbLine
 10
105.1920229411722
 20
26.15530033109326
 30
0.0
 11
105.5025419411723
 21
26.25725633109329
 31
0.0
  0
LINE
  5
4602
330
1E
100
AcDbEntity
  8
0
 48
0.27
100
AcDbLine
 10
104.9058459411723
 20
23.01030533109335
 30
0.0
 11
105.1920229411722
 21
22.84473733109334
 31
0.0
  0
LINE
  5
4603
330
1E
100
AcDbEntity
  8
0
 48
0.27
100
AcDbLine
 10
106.8272139411722
 20
27.00434733109325
 30
0.0
 11
106.9716499411722
 21
26.97700033109328
 31
0.0
  0
LINE
  5
4604
330
1E
100
AcDbEntity
  8
0
 48
0.27
100
AcDbLine
 10
106.3669909411723
 20
27.05341033109329
 30
0.0
 11
106.8272139411722
 21
27.00434733109325
 31
0.0
  0
LINE
  5
4605
330
1E
100
AcDbEntity
  8
0
 48
0.27
100
AcDbLine
 10
105.9067679411723
 20
21.9956903310933
 30
0.0
 11
106.3669909411723
 21
21.94662833109334
 31
0.0
  0
LINE
  5
4606
330
1E
100
AcDbEntity
  8
0
 48
0.27
100
AcDbLine
 10
107.4093539411723
 20
26.83328433109327
 30
0.0
 11
107.8127449411722
 21
26.59990233109329
 31
0.0
  0
LINE
  5
4607
330
1E
100
AcDbEntity
  8
0
 48
0.27
100
AcDbLine
 10
106.9716499411722
 20
22.02303833109335
 30
0.0
 11
107.4093539411723
 21
22.16675433109336
 31
0.0
  0
LINE
  5
4608
330
1E
100
AcDbEntity
  8
0
 48
0.27
100
AcDbLine
 10
107.8127449411722
 20
26.59990233109329
 30
0.0
 11
108.1663199411722
 21
26.2858233310933
 31
0.0
  0
LINE
  5
4609
330
1E
100
AcDbEntity
  8
0
 48
0.27
100
AcDbLine
 10
107.4093539411723
 20
22.16675433109336
 30
0.0
 11
107.8127449411722
 21
22.40013633109334
 31
0.0
  0
LINE
  5
460A
330
1E
100
AcDbEntity
  8
0
 48
0.27
100
AcDbLine
 10
105.5025419411723
 20
26.25725633109329
 30
0.0
 11
105.8254719411722
 21
26.29168233109332
 31
0.0
  0
LINE
  5
460B
330
1E
100
AcDbEntity
  8
0
 48
0.27
100
AcDbLine
 10
105.1920229411722
 20
22.84473733109334
 30
0.0
 11
105.5025419411723
 21
22.74278133109331
 31
0.0
  0
LINE
  5
460C
330
1E
100
AcDbEntity
  8
0
 48
0.27
100
AcDbLine
 10
106.8272139411722
 20
27.00434733109325
 30
0.0
 11
107.2697509411722
 21
26.85904533109329
 31
0.0
  0
LINE
  5
460D
330
1E
100
AcDbEntity
  8
0
 48
0.27
100
AcDbLine
 10
106.8272139411722
 20
21.9956903310933
 30
0.0
 11
106.9716499411722
 21
22.02303833109335
 31
0.0
  0
LINE
  5
460E
330
1E
100
AcDbEntity
  8
0
 48
0.27
100
AcDbLine
 10
106.3669909411723
 20
21.94662833109334
 30
0.0
 11
106.8272139411722
 21
21.9956903310933
 31
0.0
  0
LINE
  5
460F
330
1E
100
AcDbEntity
  8
0
 48
0.27
100
AcDbLine
 10
108.1663199411722
 20
26.2858233310933
 30
0.0
 11
108.4564909411722
 21
25.90311633109329
 31
0.0
  0
LINE
  5
4610
330
1E
100
AcDbEntity
  8
0
 48
0.27
100
AcDbLine
 10
107.8127449411722
 20
22.40013633109334
 30
0.0
 11
108.1663199411722
 21
22.7142153310933
 31
0.0
  0
LINE
  5
4611
330
1E
100
AcDbEntity
  8
0
 48
0.27
100
AcDbLine
 10
105.8254719411722
 20
26.29168233109332
 30
0.0
 11
106.1484009411722
 21
26.25725633109329
 31
0.0
  0
LINE
  5
4612
330
1E
100
AcDbEntity
  8
0
 48
0.27
100
AcDbLine
 10
105.5025419411723
 20
22.74278133109331
 30
0.0
 11
105.8254719411722
 21
22.70835533109335
 31
0.0
  0
LINE
  5
4613
330
1E
100
AcDbEntity
  8
0
 48
0.27
100
AcDbLine
 10
107.2697509411722
 20
26.85904533109329
 30
0.0
 11
107.6775949411722
 21
26.62308633109331
 31
0.0
  0
LINE
  5
4614
330
1E
100
AcDbEntity
  8
0
 48
0.27
100
AcDbLine
 10
106.8272139411722
 20
21.9956903310933
 30
0.0
 11
107.2697509411722
 21
22.14099333109332
 31
0.0
  0
LINE
  5
4615
330
1E
100
AcDbEntity
  8
0
 48
0.27
100
AcDbLine
 10
108.4564909411722
 20
25.90311633109329
 30
0.0
 11
108.6721079411722
 21
25.4664893310933
 31
0.0
  0
LINE
  5
4616
330
1E
100
AcDbEntity
  8
0
 48
0.27
100
AcDbLine
 10
108.4564909411722
 20
23.09692233109334
 30
0.0
 11
108.1663199411722
 21
22.7142153310933
 31
0.0
  0
LINE
  5
4617
330
1E
100
AcDbEntity
  8
0
 48
0.27
100
AcDbLine
 10
108.6721079411722
 20
25.4664893310933
 30
0.0
 11
108.8048839411722
 21
24.99272133109332
 31
0.0
  0
LINE
  5
4618
330
1E
100
AcDbEntity
  8
0
 48
0.27
100
AcDbLine
 10
108.6721079411722
 20
23.53354933109333
 30
0.0
 11
108.4564909411722
 21
23.09692233109334
 31
0.0
  0
LINE
  5
4619
330
1E
100
AcDbEntity
  8
0
 48
0.27
100
AcDbLine
 10
107.6775949411722
 20
26.62308633109331
 30
0.0
 11
108.0350739411722
 21
26.30553933109335
 31
0.0
  0
LINE
  5
461A
330
1E
100
AcDbEntity
  8
0
 48
0.27
100
AcDbLine
 10
107.2697509411722
 20
22.14099333109332
 30
0.0
 11
107.6775949411722
 21
22.37695233109332
 31
0.0
  0
LINE
  5
461B
330
1E
100
AcDbEntity
  8
0
 48
0.27
100
AcDbLine
 10
108.8048839411722
 20
24.99272133109332
 30
0.0
 11
108.8497169411722
 21
24.50001933109332
 31
0.0
  0
LINE
  5
461C
330
1E
100
AcDbEntity
  8
0
 48
0.27
100
AcDbLine
 10
108.8048839411722
 20
24.00731733109331
 30
0.0
 11
108.6721079411722
 21
23.53354933109333
 31
0.0
  0
LINE
  5
461D
330
1E
100
AcDbEntity
  8
0
 48
0.27
100
AcDbLine
 10
106.1484009411722
 20
26.25725633109329
 30
0.0
 11
106.4589199411722
 21
26.15530033109326
 31
0.0
  0
LINE
  5
461E
330
1E
100
AcDbEntity
  8
0
 48
0.27
100
AcDbLine
 10
105.8254719411722
 20
22.70835533109335
 30
0.0
 11
106.1484009411722
 21
22.74278133109331
 31
0.0
  0
LINE
  5
461F
330
1E
100
AcDbEntity
  8
0
 48
0.27
100
AcDbLine
 10
108.8497169411722
 20
24.50001933109332
 30
0.0
 11
108.8048839411722
 21
24.00731733109331
 31
0.0
  0
LINE
  5
4620
330
1E
100
AcDbEntity
  8
0
 48
0.27
100
AcDbLine
 10
108.0350739411722
 20
26.30553933109335
 30
0.0
 11
108.3284489411722
 21
25.91860733109331
 31
0.0
  0
LINE
  5
4621
330
1E
100
AcDbEntity
  8
0
 48
0.27
100
AcDbLine
 10
107.6775949411722
 20
22.37695233109332
 30
0.0
 11
108.0350739411722
 21
22.69449933109329
 31
0.0
  0
LINE
  5
4622
330
1E
100
AcDbEntity
  8
0
 48
0.27
100
AcDbLine
 10
106.4589199411722
 20
26.15530033109326
 30
0.0
 11
106.7450969411722
 21
25.98973333109328
 31
0.0
  0
LINE
  5
4623
330
1E
100
AcDbEntity
  8
0
 48
0.27
100
AcDbLine
 10
106.1484009411722
 20
22.74278133109331
 30
0.0
 11
106.4589199411722
 21
22.84473733109334
 31
0.0
  0
LINE
  5
4624
330
1E
100
AcDbEntity
  8
0
 48
0.27
100
AcDbLine
 10
108.3284489411722
 20
25.91860733109331
 30
0.0
 11
108.5464459411722
 21
25.47715933109331
 31
0.0
  0
LINE
  5
4625
330
1E
100
AcDbEntity
  8
0
 48
0.27
100
AcDbLine
 10
108.3284489411722
 20
23.08143133109332
 30
0.0
 11
108.0350739411722
 21
22.69449933109329
 31
0.0
  0
LINE
  5
4626
330
1E
100
AcDbEntity
  8
0
 48
0.27
100
AcDbLine
 10
108.5464459411722
 20
25.47715933109331
 30
0.0
 11
108.6806889411722
 21
24.99816133109332
 31
0.0
  0
LINE
  5
4627
330
1E
100
AcDbEntity
  8
0
 48
0.27
100
AcDbLine
 10
108.5464459411722
 20
23.5228783310933
 30
0.0
 11
108.3284489411722
 21
23.08143133109332
 31
0.0
  0
LINE
  5
4628
330
1E
100
AcDbEntity
  8
0
 48
0.27
100
AcDbLine
 10
106.7450969411722
 20
25.98973333109328
 30
0.0
 11
106.9959319411722
 21
25.76691633109332
 31
0.0
  0
LINE
  5
4629
330
1E
100
AcDbEntity
  8
0
 48
0.27
100
AcDbLine
 10
106.4589199411722
 20
22.84473733109334
 30
0.0
 11
106.7450969411722
 21
23.01030533109335
 31
0.0
  0
LINE
  5
462A
330
1E
100
AcDbEntity
  8
0
 48
0.27
100
AcDbLine
 10
108.6806889411722
 20
24.99816133109332
 30
0.0
 11
108.7260169411722
 21
24.50001933109332
 31
0.0
  0
LINE
  5
462B
330
1E
100
AcDbEntity
  8
0
 48
0.27
100
AcDbLine
 10
108.6806889411722
 20
24.00187733109332
 30
0.0
 11
108.5464459411722
 21
23.5228783310933
 31
0.0
  0
LINE
  5
462C
330
1E
100
AcDbEntity
  8
0
 48
0.27
100
AcDbLine
 10
108.7260169411722
 20
24.50001933109332
 30
0.0
 11
108.6806889411722
 21
24.00187733109332
 31
0.0
  0
LINE
  5
462D
330
1E
100
AcDbEntity
  8
0
 48
0.27
100
AcDbLine
 10
106.9959319411722
 20
25.76691633109332
 30
0.0
 11
107.2017879411722
 21
25.49541433109329
 31
0.0
  0
LINE
  5
462E
330
1E
100
AcDbEntity
  8
0
 48
0.27
100
AcDbLine
 10
106.7450969411722
 20
23.01030533109335
 30
0.0
 11
106.9959319411722
 21
23.23312133109337
 31
0.0
  0
LINE
  5
462F
330
1E
100
AcDbEntity
  8
0
 48
0.27
100
AcDbLine
 10
107.2017879411722
 20
25.49541433109329
 30
0.0
 11
107.3547519411722
 21
25.18565933109332
 31
0.0
  0
LINE
  5
4630
330
1E
100
AcDbEntity
  8
0
 48
0.27
100
AcDbLine
 10
107.2017879411722
 20
23.50462433109334
 30
0.0
 11
106.9959319411722
 21
23.23312133109337
 31
0.0
  0
LINE
  5
4631
330
1E
100
AcDbEntity
  8
0
 48
0.27
100
AcDbLine
 10
107.3547519411722
 20
25.18565933109332
 30
0.0
 11
107.4489469411722
 21
24.84955533109332
 31
0.0
  0
LINE
  5
4632
330
1E
100
AcDbEntity
  8
0
 48
0.27
100
AcDbLine
 10
107.3547519411722
 20
23.81437933109331
 30
0.0
 11
107.2017879411722
 21
23.50462433109334
 31
0.0
  0
LINE
  5
4633
330
1E
100
AcDbEntity
  8
0
 48
0.27
100
AcDbLine
 10
107.4489469411722
 20
24.84955533109332
 30
0.0
 11
107.4807529411722
 21
24.50001933109332
 31
0.0
  0
LINE
  5
4634
330
1E
100
AcDbEntity
  8
0
 48
0.27
100
AcDbLine
 10
107.4489469411722
 20
24.15048333109332
 30
0.0
 11
107.3547519411722
 21
23.81437933109331
 31
0.0
  0
LINE
  5
4635
330
1E
100
AcDbEntity
  8
0
 48
0.27
100
AcDbLine
 10
107.4807529411722
 20
24.50001933109332
 30
0.0
 11
107.4489469411722
 21
24.15048333109332
 31
0.0
  0
POINT
  5
4636
330
1E
100
AcDbEntity
  8
0
100
AcDbPoint
 10
104.0079649411723
 20
24.50001933109332
 30
0.0
1001
pntflag
1000
endpoint
  0
ARC
  5
4637
330
1E
100
AcDbEntity
  8
0
 48
0.27
100
AcDbCircle
 10
0.0000000000000178
 20
24.49999999999353
 30
0.0
 40
5.249999999999996
100
AcDbArc
 50
30.24329777399993
 51
329.7566907592998
  0
LWPOLYLINE
  5
4638
330
1E
100
AcDbEntity
  8
0
 48
0.27
100
AcDbPolyline
 90
       17
 70
     0
 43
0.0
 10
8.951687727300008
 20
24.49999999999352
 10
8.98523602870004
 20
24.28296275749351
 10
9.018127017900024
 20
24.22005852349354
 10
9.054697351699996
 20
24.19051688679352
 10
9.088674509100012
 20
24.19082416679354
 10
9.125167354900025
 20
24.22102845959353
 10
9.156511255900039
 20
24.28079843709351
 10
9.185897916600037
 20
24.41087141779352
 10
9.190865165400037
 20
24.49999999999352
 10
9.15731820000003
 20
24.71703590649351
 10
9.124425874799992
 20
24.77994014049353
 10
9.087855541000021
 20
24.80948177719353
 10
9.053879719600029
 20
24.80917449709351
 10
9.01738553780002
 20
24.77897020429352
 10
8.986042972800003
 20
24.71920022679352
 10
8.956654976100008
 20
24.58912724619352
 10
8.951687727300008
 20
24.49999999999352
  0
ARC
  5
4639
330
1E
100
AcDbEntity
  8
0
 48
0.27
100
AcDbCircle
 10
0.0000000000000178
 20
24.49999999999353
 30
0.0
 40
3.999999331999998
100
AcDbArc
 50
48.59037799889998
 51
311.4096220031999
  0
LINE
  5
463A
330
1E
100
AcDbEntity
  8
0
 48
0.27
100
AcDbLine
 10
2.886751771000003
 20
27.49999916499351
 30
0.0
 11
2.309400615200015
 21
28.49999933199352
 31
0.0
  0
LINE
  5
463B
330
1E
100
AcDbEntity
  8
0
 48
0.27
100
AcDbLine
 10
-2.309400615199987
 20
28.49999933199352
 30
0.0
 11
2.309400615200015
 21
28.49999933199352
 31
0.0
  0
LINE
  5
463C
330
1E
100
AcDbEntity
  8
0
 48
0.27
100
AcDbLine
 10
-2.309400615199987
 20
28.49999933199352
 30
0.0
 11
-4.618801230399977
 21
24.49999999999353
 31
0.0
  0
LINE
  5
463D
330
1E
100
AcDbEntity
  8
0
 48
0.27
100
AcDbLine
 10
-4.618801230399977
 20
24.49999999999353
 30
0.0
 11
-2.309400615199987
 21
20.49999933199352
 31
0.0
  0
LINE
  5
463E
330
1E
100
AcDbEntity
  8
0
 48
0.27
100
AcDbLine
 10
2.309401951200012
 20
20.49999933199352
 30
0.0
 11
-2.309400615199987
 21
20.49999933199352
 31
0.0
  0
LINE
  5
463F
330
1E
100
AcDbEntity
  8
0
 48
0.27
100
AcDbLine
 10
2.886751771000003
 20
21.49999949899352
 30
0.0
 11
2.309401951200012
 21
20.49999933199352
 31
0.0
  0
LINE
  5
4640
330
1E
100
AcDbEntity
  8
0
 48
0.27
100
AcDbLine
 10
1.301506023000019
 20
21.49999949899352
 30
0.0
 11
4.315574606199998
 21
21.49999949899352
 31
0.0
  0
LINE
  5
4641
330
1E
100
AcDbEntity
  8
0
 48
0.27
100
AcDbLine
 10
4.378473496200012
 20
27.21531221569353
 30
0.0
 11
4.315574606199998
 21
27.49999916499351
 31
0.0
  0
LINE
  5
4642
330
1E
100
AcDbEntity
  8
0
 48
0.27
100
AcDbLine
 10
4.315574606199998
 20
21.49999949899352
 30
0.0
 11
4.378473496200012
 21
21.78468644829352
 31
0.0
  0
LINE
  5
4643
330
1E
100
AcDbEntity
  8
0
 48
0.27
100
AcDbLine
 10
1.301506023000019
 20
27.49999916499351
 30
0.0
 11
4.315574606199998
 21
27.49999916499351
 31
0.0
  0
LINE
  5
4644
330
1E
100
AcDbEntity
  8
0
 48
0.27
100
AcDbLine
 10
3.876721248400013
 20
21.55764390019353
 30
0.0
 11
5.878527854700006
 21
22.46345872419353
 31
0.0
  0
LINE
  5
4645
330
1E
100
AcDbEntity
  8
0
 48
0.27
100
AcDbLine
 10
9.743742133299985
 20
24.15046360039351
 30
0.0
 11
9.756916431400011
 21
24.49999999999353
 31
0.0
  0
LINE
  5
4646
330
1E
100
AcDbEntity
  8
0
 48
0.27
100
AcDbLine
 10
9.704725583100024
 20
23.81435934699351
 30
0.0
 11
9.743742133299985
 21
24.15046360039351
 31
0.0
  0
LINE
  5
4647
330
1E
100
AcDbEntity
  8
0
 48
0.27
100
AcDbLine
 10
9.756916431400011
 20
24.49999999999353
 30
0.0
 11
9.743742133299985
 21
24.84953639959353
 31
0.0
  0
LINE
  5
4648
330
1E
100
AcDbEntity
  8
0
 48
0.27
100
AcDbLine
 10
3.652747492800013
 20
21.49999949899352
 30
0.0
 11
3.876721248400013
 21
21.55764390019353
 31
0.0
  0
LINE
  5
4649
330
1E
100
AcDbEntity
  8
0
 48
0.27
100
AcDbLine
 10
3.652747492800013
 20
27.49999916499351
 30
0.0
 11
3.876721248400013
 21
27.44235476379352
 31
0.0
  0
LINE
  5
464A
330
1E
100
AcDbEntity
  8
0
 48
0.27
100
AcDbLine
 10
3.876721248400013
 20
27.44235476379352
 30
0.0
 11
5.878527854700006
 21
26.53653993979352
 31
0.0
  0
LINE
  5
464B
330
1E
100
AcDbEntity
  8
0
 48
0.27
100
AcDbLine
 10
9.641365773000014
 20
23.50460502569352
 30
0.0
 11
9.704725583100024
 21
23.81435934699351
 31
0.0
  0
LINE
  5
464C
330
1E
100
AcDbEntity
  8
0
 48
0.27
100
AcDbLine
 10
9.743742133299985
 20
24.84953639959353
 30
0.0
 11
9.704725583100024
 21
25.18563931699352
 31
0.0
  0
LINE
  5
464D
330
1E
100
AcDbEntity
  8
0
 48
0.27
100
AcDbLine
 10
9.556096895399999
 20
23.23310172659352
 30
0.0
 11
9.641365773000014
 21
23.50460502569352
 31
0.0
  0
LINE
  5
464E
330
1E
100
AcDbEntity
  8
0
 48
0.27
100
AcDbLine
 10
8.796742430699989
 20
22.86169099549353
 30
0.0
 11
8.798640887000001
 21
22.86261951559352
 31
0.0
  0
LINE
  5
464F
330
1E
100
AcDbEntity
  8
0
 48
0.27
100
AcDbLine
 10
9.704725583100024
 20
25.18563931699352
 30
0.0
 11
9.641365773000014
 21
25.49539497429353
 31
0.0
  0
LINE
  5
4650
330
1E
100
AcDbEntity
  8
0
 48
0.27
100
AcDbLine
 10
3.428773737200014
 20
21.55764390019353
 30
0.0
 11
3.652747492800013
 21
21.49999949899352
 31
0.0
  0
LINE
  5
4651
330
1E
100
AcDbEntity
  8
0
 48
0.27
100
AcDbLine
 10
3.428773737200014
 20
27.44235476379352
 30
0.0
 11
3.652747492800013
 21
27.49999916499351
 31
0.0
  0
LINE
  5
4652
330
1E
100
AcDbEntity
  8
0
 48
0.27
100
AcDbLine
 10
9.452197494900016
 20
23.01028494709353
 30
0.0
 11
9.556096895399999
 21
23.23310172659352
 31
0.0
  0
LINE
  5
4653
330
1E
100
AcDbEntity
  8
0
 48
0.27
100
AcDbLine
 10
9.641365773000014
 20
25.49539497429353
 30
0.0
 11
9.556096895399999
 21
25.76689693739352
 31
0.0
  0
LINE
  5
4654
330
1E
100
AcDbEntity
  8
0
 48
0.27
100
AcDbLine
 10
5.878527854700006
 20
22.46345872419353
 30
0.0
 11
6.119650508999992
 21
22.56186181979355
 31
0.0
  0
LINE
  5
4655
330
1E
100
AcDbEntity
  8
0
 48
0.27
100
AcDbLine
 10
5.878527854700006
 20
26.53653993979352
 30
0.0
 11
6.119650508999992
 21
26.43813818019352
 31
0.0
  0
LINE
  5
4656
330
1E
100
AcDbEntity
  8
0
 48
0.27
100
AcDbLine
 10
9.333659540100011
 20
22.84471844879353
 30
0.0
 11
9.452197494900016
 21
23.01028494709353
 31
0.0
  0
LINE
  5
4657
330
1E
100
AcDbEntity
  8
0
 48
0.27
100
AcDbLine
 10
9.556096895399999
 20
25.76689693739352
 30
0.0
 11
9.452197494900016
 21
25.98971371689354
 31
0.0
  0
LINE
  5
4658
330
1E
100
AcDbEntity
  8
0
 48
0.27
100
AcDbLine
 10
3.213407830900006
 20
21.72836067929352
 30
0.0
 11
3.428773737200014
 21
21.55764390019353
 31
0.0
  0
LINE
  5
4659
330
1E
100
AcDbEntity
  8
0
 48
0.27
100
AcDbLine
 10
3.213407830900006
 20
27.27163798469352
 30
0.0
 11
3.428773737200014
 21
27.44235476379352
 31
0.0
  0
LINE
  5
465A
330
1E
100
AcDbEntity
  8
0
 48
0.27
100
AcDbLine
 10
6.119650508999992
 20
22.56186181979355
 30
0.0
 11
6.334574199200002
 21
22.55273426639353
 31
0.0
  0
LINE
  5
465B
330
1E
100
AcDbEntity
  8
0
 48
0.27
100
AcDbLine
 10
6.119650508999992
 20
26.43813818019352
 30
0.0
 11
6.334574199200002
 21
26.44726439759351
 31
0.0
  0
LINE
  5
465C
330
1E
100
AcDbEntity
  8
0
 48
0.27
100
AcDbLine
 10
7.954563968800027
 20
21.99567160979353
 30
0.0
 11
9.205038791599999
 21
22.74276159259352
 31
0.0
  0
LINE
  5
465D
330
1E
100
AcDbEntity
  8
0
 48
0.27
100
AcDbLine
 10
9.205038791599999
 20
22.74276159259352
 30
0.0
 11
9.333659540100011
 21
22.84471844879353
 31
0.0
  0
LINE
  5
465E
330
1E
100
AcDbEntity
  8
0
 48
0.27
100
AcDbLine
 10
9.452197494900016
 20
25.98971371689354
 30
0.0
 11
9.333659540100011
 21
26.15528021519351
 31
0.0
  0
LINE
  5
465F
330
1E
100
AcDbEntity
  8
0
 48
0.27
100
AcDbLine
 10
0.6386789096000137
 20
24.49999999999353
 30
0.0
 11
1.301506023000019
 21
27.49999916499351
 31
0.0
  0
LINE
  5
4660
330
1E
100
AcDbEntity
  8
0
 48
0.27
100
AcDbLine
 10
0.6386789096000137
 20
24.49999999999353
 30
0.0
 11
2.327093266000016
 21
24.49999999999353
 31
0.0
  0
LINE
  5
4661
330
1E
100
AcDbEntity
  8
0
 48
0.27
100
AcDbLine
 10
1.301506023000019
 20
21.49999949899352
 30
0.0
 11
0.6386789096000137
 21
24.49999999999353
 31
0.0
  0
LINE
  5
4662
330
1E
100
AcDbEntity
  8
0
 48
0.27
100
AcDbLine
 10
3.213407830900006
 20
21.72836067929352
 30
0.0
 11
3.014924959400016
 21
22.00559007539352
 31
0.0
  0
LINE
  5
4663
330
1E
100
AcDbEntity
  8
0
 48
0.27
100
AcDbLine
 10
3.014924959400016
 20
26.99440858859351
 30
0.0
 11
3.213407830900006
 21
27.27163798469352
 31
0.0
  0
LINE
  5
4664
330
1E
100
AcDbEntity
  8
0
 48
0.27
100
AcDbLine
 10
7.763934106499998
 20
21.94660833799351
 30
0.0
 11
7.954563968800027
 21
21.99567160979353
 31
0.0
  0
LINE
  5
4665
330
1E
100
AcDbEntity
  8
0
 48
0.27
100
AcDbLine
 10
7.403101825099991
 20
21.97449199839352
 30
0.0
 11
7.763934106499998
 21
21.94660833799351
 31
0.0
  0
LINE
  5
4666
330
1E
100
AcDbEntity
  8
0
 48
0.27
100
AcDbLine
 10
6.334574199200002
 20
22.55273426639353
 30
0.0
 11
6.888521303300006
 21
22.18751723229352
 31
0.0
  0
LINE
  5
4667
330
1E
100
AcDbEntity
  8
0
 48
0.27
100
AcDbLine
 10
9.071277114300013
 20
22.70833553909351
 30
0.0
 11
9.205038791599999
 21
22.74276159259352
 31
0.0
  0
LINE
  5
4668
330
1E
100
AcDbEntity
  8
0
 48
0.27
100
AcDbLine
 10
7.954563968800027
 20
27.00432839019351
 30
0.0
 11
9.205038791599999
 21
26.25723707139353
 31
0.0
  0
LINE
  5
4669
330
1E
100
AcDbEntity
  8
0
 48
0.27
100
AcDbLine
 10
9.205038791599999
 20
26.25723707139353
 30
0.0
 11
9.333659540100011
 21
26.15528021519351
 31
0.0
  0
LINE
  5
466A
330
1E
100
AcDbEntity
  8
0
 48
0.27
100
AcDbLine
 10
7.763934106499998
 20
27.05339032599352
 30
0.0
 11
7.954563968800027
 21
27.00432839019351
 31
0.0
  0
LINE
  5
466B
330
1E
100
AcDbEntity
  8
0
 48
0.27
100
AcDbLine
 10
7.403101825099991
 20
27.02550800149353
 30
0.0
 11
7.763934106499998
 21
27.05339032599352
 31
0.0
  0
LINE
  5
466C
330
1E
100
AcDbEntity
  8
0
 48
0.27
100
AcDbLine
 10
6.143738592900003
 20
22.69723738539352
 30
0.0
 11
6.283819551100005
 21
22.58619706369354
 31
0.0
  0
LINE
  5
466D
330
1E
100
AcDbEntity
  8
0
 48
0.27
100
AcDbLine
 10
6.888521303300006
 20
22.18751723229352
 30
0.0
 11
7.214553451099998
 21
22.02301819819353
 31
0.0
  0
LINE
  5
466E
330
1E
100
AcDbEntity
  8
0
 48
0.27
100
AcDbLine
 10
7.214553451099998
 20
22.02301819819353
 30
0.0
 11
7.403101825099991
 21
21.97449199839352
 31
0.0
  0
LINE
  5
466F
330
1E
100
AcDbEntity
  8
0
 48
0.27
100
AcDbLine
 10
6.334574199200002
 20
26.44726439759351
 30
0.0
 11
6.888521303300006
 21
26.81248143169352
 31
0.0
  0
LINE
  5
4670
330
1E
100
AcDbEntity
  8
0
 48
0.27
100
AcDbLine
 10
6.143738592900003
 20
26.30276127859352
 30
0.0
 11
6.283819551100005
 21
26.41380160029353
 31
0.0
  0
LINE
  5
4671
330
1E
100
AcDbEntity
  8
0
 48
0.27
100
AcDbLine
 10
3.014924959400016
 20
22.00559007539352
 30
0.0
 11
2.840953683700004
 21
22.37867882269352
 31
0.0
  0
LINE
  5
4672
330
1E
100
AcDbEntity
  8
0
 48
0.27
100
AcDbLine
 10
2.840953683700004
 20
26.62131984129352
 30
0.0
 11
3.014924959400016
 21
26.99440858859351
 31
0.0
  0
LINE
  5
4673
330
1E
100
AcDbEntity
  8
0
 48
0.27
100
AcDbLine
 10
7.573302908199988
 20
21.99567160979353
 30
0.0
 11
7.763934106499998
 21
21.94660833799351
 31
0.0
  0
LINE
  5
4674
330
1E
100
AcDbEntity
  8
0
 48
0.27
100
AcDbLine
 10
7.214553451099998
 20
26.97698046579353
 30
0.0
 11
7.403101825099991
 21
27.02550800149353
 31
0.0
  0
LINE
  5
4675
330
1E
100
AcDbEntity
  8
0
 48
0.27
100
AcDbLine
 10
6.888521303300006
 20
26.81248143169352
 30
0.0
 11
7.214553451099998
 21
26.97698046579353
 31
0.0
  0
LINE
  5
4676
330
1E
100
AcDbEntity
  8
0
 48
0.27
100
AcDbLine
 10
2.989920379400029
 20
21.49999949899352
 30
0.0
 11
2.327093266000016
 21
24.49999999999353
 31
0.0
  0
LINE
  5
4677
330
1E
100
AcDbEntity
  8
0
 48
0.27
100
AcDbLine
 10
2.327093266000016
 20
24.49999999999353
 30
0.0
 11
2.989920379400029
 21
27.49999916499351
 31
0.0
  0
LINE
  5
4678
330
1E
100
AcDbEntity
  8
0
 48
0.27
100
AcDbLine
 10
6.143738592900003
 20
22.69723738539352
 30
0.0
 11
6.01463822030001
 21
22.87755599799352
 31
0.0
  0
LINE
  5
4679
330
1E
100
AcDbEntity
  8
0
 48
0.27
100
AcDbLine
 10
8.9375154371
 20
22.74276159259352
 30
0.0
 11
9.071277114300013
 21
22.70833553909351
 31
0.0
  0
LINE
  5
467A
330
1E
100
AcDbEntity
  8
0
 48
0.27
100
AcDbLine
 10
9.071277114300013
 20
26.29166312489352
 30
0.0
 11
9.205038791599999
 21
26.25723707139353
 31
0.0
  0
LINE
  5
467B
330
1E
100
AcDbEntity
  8
0
 48
0.27
100
AcDbLine
 10
7.573302908199988
 20
27.00432839019351
 30
0.0
 11
7.763934106499998
 21
27.05339032599352
 31
0.0
  0
LINE
  5
467C
330
1E
100
AcDbEntity
  8
0
 48
0.27
100
AcDbLine
 10
6.719258092400007
 20
26.67830960229351
 30
0.0
 11
6.888521303300006
 21
26.81248143169352
 31
0.0
  0
LINE
  5
467D
330
1E
100
AcDbEntity
  8
0
 48
0.27
100
AcDbLine
 10
6.01463822030001
 20
26.12244266599353
 30
0.0
 11
6.143738592900003
 21
26.30276127859352
 31
0.0
  0
LINE
  5
467E
330
1E
100
AcDbEntity
  8
0
 48
0.27
100
AcDbLine
 10
2.840953683700004
 20
22.37867882269352
 30
0.0
 11
2.698178013000013
 21
22.8332889669935
 31
0.0
  0
LINE
  5
467F
330
1E
100
AcDbEntity
  8
0
 48
0.27
100
AcDbLine
 10
2.698178013000013
 20
26.16670969699352
 30
0.0
 11
2.840953683700004
 21
26.62131984129352
 31
0.0
  0
LINE
  5
4680
330
1E
100
AcDbEntity
  8
0
 48
0.27
100
AcDbLine
 10
6.01463822030001
 20
22.87755599799352
 30
0.0
 11
5.901481674400013
 21
23.12022440459353
 31
0.0
  0
LINE
  5
4681
330
1E
100
AcDbEntity
  8
0
 48
0.27
100
AcDbLine
 10
7.389998335000012
 20
22.14097365689352
 30
0.0
 11
7.573302908199988
 21
21.99567160979353
 31
0.0
  0
LINE
  5
4682
330
1E
100
AcDbEntity
  8
0
 48
0.27
100
AcDbLine
 10
5.901481674400013
 20
25.87977425939352
 30
0.0
 11
6.01463822030001
 21
26.12244266599353
 31
0.0
  0
LINE
  5
4683
330
1E
100
AcDbEntity
  8
0
 48
0.27
100
AcDbLine
 10
8.808893352599991
 20
22.84471844879353
 30
0.0
 11
8.9375154371
 21
22.74276159259352
 31
0.0
  0
LINE
  5
4684
330
1E
100
AcDbEntity
  8
0
 48
0.27
100
AcDbLine
 10
7.389998335000012
 20
26.85902500709352
 30
0.0
 11
7.573302908199988
 21
27.00432839019351
 31
0.0
  0
LINE
  5
4685
330
1E
100
AcDbEntity
  8
0
 48
0.27
100
AcDbLine
 10
8.9375154371
 20
26.25723707139353
 30
0.0
 11
9.071277114300013
 21
26.29166312489352
 31
0.0
  0
LINE
  5
4686
330
1E
100
AcDbEntity
  8
0
 48
0.27
100
AcDbLine
 10
5.901481674400013
 20
23.12022440459353
 30
0.0
 11
5.808616299600014
 21
23.41591732359353
 31
0.0
  0
LINE
  5
4687
330
1E
100
AcDbEntity
  8
0
 48
0.27
100
AcDbLine
 10
2.698178013000013
 20
22.8332889669935
 30
0.0
 11
2.592087572200011
 21
23.35194963349354
 31
0.0
  0
LINE
  5
4688
330
1E
100
AcDbEntity
  8
0
 48
0.27
100
AcDbLine
 10
2.592087572200011
 20
25.6480503664935
 30
0.0
 11
2.698178013000013
 21
26.16670969699352
 31
0.0
  0
LINE
  5
4689
330
1E
100
AcDbEntity
  8
0
 48
0.27
100
AcDbLine
 10
5.808616299600014
 20
25.58408134039351
 30
0.0
 11
5.901481674400013
 21
25.87977425939352
 31
0.0
  0
LINE
  5
468A
330
1E
100
AcDbEntity
  8
0
 48
0.27
100
AcDbLine
 10
7.389998335000012
 20
22.14097365689352
 30
0.0
 11
7.221063780199994
 21
22.37693267039353
 31
0.0
  0
LINE
  5
468B
330
1E
100
AcDbEntity
  8
0
 48
0.27
100
AcDbLine
 10
5.808616299600014
 20
23.41591732359353
 30
0.0
 11
5.739611888600006
 21
23.75327073729354
 31
0.0
  0
LINE
  5
468C
330
1E
100
AcDbEntity
  8
0
 48
0.27
100
AcDbLine
 10
2.592087572200011
 20
23.35194963349354
 30
0.0
 11
2.526757161800009
 21
23.91472903489353
 31
0.0
  0
LINE
  5
468D
330
1E
100
AcDbEntity
  8
0
 48
0.27
100
AcDbLine
 10
2.526757161800009
 20
25.08527096499352
 30
0.0
 11
2.592087572200011
 21
25.6480503664935
 31
0.0
  0
LINE
  5
468E
330
1E
100
AcDbEntity
  8
0
 48
0.27
100
AcDbLine
 10
8.808893352599991
 20
26.15528021519351
 30
0.0
 11
8.9375154371
 21
26.25723707139353
 31
0.0
  0
LINE
  5
468F
330
1E
100
AcDbEntity
  8
0
 48
0.27
100
AcDbLine
 10
8.808893352599991
 20
22.84471844879353
 30
0.0
 11
8.690355397800029
 21
23.01028494709353
 31
0.0
  0
LINE
  5
4690
330
1E
100
AcDbEntity
  8
0
 48
0.27
100
AcDbLine
 10
7.221063780199994
 20
26.62306599359351
 30
0.0
 11
7.389998335000012
 21
26.85902500709352
 31
0.0
  0
LINE
  5
4691
330
1E
100
AcDbEntity
  8
0
 48
0.27
100
AcDbLine
 10
5.739611888600006
 20
25.24672792669351
 30
0.0
 11
5.808616299600014
 21
25.58408134039351
 31
0.0
  0
LINE
  5
4692
330
1E
100
AcDbEntity
  8
0
 48
0.27
100
AcDbLine
 10
5.739611888600006
 20
23.75327073729354
 30
0.0
 11
5.697117729900011
 21
24.11932009949351
 31
0.0
  0
LINE
  5
4693
330
1E
100
AcDbEntity
  8
0
 48
0.27
100
AcDbLine
 10
2.526757161800009
 20
23.91472903489353
 30
0.0
 11
2.504697126300019
 21
24.49999999999353
 31
0.0
  0
LINE
  5
4694
330
1E
100
AcDbEntity
  8
0
 48
0.27
100
AcDbLine
 10
2.504697126300019
 20
24.49999999999353
 30
0.0
 11
2.526757161800009
 21
25.08527096499352
 31
0.0
  0
LINE
  5
4695
330
1E
100
AcDbEntity
  8
0
 48
0.27
100
AcDbLine
 10
5.697117729900011
 20
24.88067856449351
 30
0.0
 11
5.739611888600006
 21
25.24672792669351
 31
0.0
  0
LINE
  5
4696
330
1E
100
AcDbEntity
  8
0
 48
0.27
100
AcDbLine
 10
5.697117729900011
 20
24.11932009949351
 30
0.0
 11
5.682770423600015
 21
24.49999999999353
 31
0.0
  0
LINE
  5
4697
330
1E
100
AcDbEntity
  8
0
 48
0.27
100
AcDbLine
 10
5.682770423600015
 20
24.49999999999353
 30
0.0
 11
5.697117729900011
 21
24.88067856449351
 31
0.0
  0
LINE
  5
4698
330
1E
100
AcDbEntity
  8
0
 48
0.27
100
AcDbLine
 10
7.221063780199994
 20
22.37693267039353
 30
0.0
 11
7.072990868600012
 21
22.69447988089352
 31
0.0
  0
LINE
  5
4699
330
1E
100
AcDbEntity
  8
0
 48
0.27
100
AcDbLine
 10
8.690355397800029
 20
25.98971371689354
 30
0.0
 11
8.808893352599991
 21
26.15528021519351
 31
0.0
  0
LINE
  5
469A
330
1E
100
AcDbEntity
  8
0
 48
0.27
100
AcDbLine
 10
8.690355397800029
 20
23.01028494709353
 30
0.0
 11
8.586455997299989
 21
23.23310172659352
 31
0.0
  0
LINE
  5
469B
330
1E
100
AcDbEntity
  8
0
 48
0.27
100
AcDbLine
 10
7.072990868600012
 20
26.30552011909353
 30
0.0
 11
7.221063780199994
 21
26.62306599359351
 31
0.0
  0
LINE
  5
469C
330
1E
100
AcDbEntity
  8
0
 48
0.27
100
AcDbLine
 10
8.586455997299989
 20
25.76689693739352
 30
0.0
 11
8.690355397800029
 21
25.98971371689354
 31
0.0
  0
LINE
  5
469D
330
1E
100
AcDbEntity
  8
0
 48
0.27
100
AcDbLine
 10
7.072990868600012
 20
22.69447988089352
 30
0.0
 11
6.951470961300014
 21
23.08141092639352
 31
0.0
  0
LINE
  5
469E
330
1E
100
AcDbEntity
  8
0
 48
0.27
100
AcDbLine
 10
8.586455997299989
 20
23.23310172659352
 30
0.0
 11
8.501188455699985
 21
23.50460502569352
 31
0.0
  0
LINE
  5
469F
330
1E
100
AcDbEntity
  8
0
 48
0.27
100
AcDbLine
 10
6.951470961300014
 20
25.91858773749352
 30
0.0
 11
7.072990868600012
 21
26.30552011909353
 31
0.0
  0
LINE
  5
46A0
330
1E
100
AcDbEntity
  8
0
 48
0.27
100
AcDbLine
 10
8.501188455699985
 20
25.49539497429353
 30
0.0
 11
8.586455997299989
 21
25.76689693739352
 31
0.0
  0
LINE
  5
46A1
330
1E
100
AcDbEntity
  8
0
 48
0.27
100
AcDbLine
 10
6.951470961300014
 20
23.08141092639352
 30
0.0
 11
6.86117337890003
 21
23.52285879659351
 31
0.0
  0
LINE
  5
46A2
330
1E
100
AcDbEntity
  8
0
 48
0.27
100
AcDbLine
 10
8.501188455699985
 20
23.50460502569352
 30
0.0
 11
8.437828645600017
 21
23.81435934699351
 31
0.0
  0
LINE
  5
46A3
330
1E
100
AcDbEntity
  8
0
 48
0.27
100
AcDbLine
 10
6.86117337890003
 20
25.47713986739352
 30
0.0
 11
6.951470961300014
 21
25.91858773749352
 31
0.0
  0
LINE
  5
46A4
330
1E
100
AcDbEntity
  8
0
 48
0.27
100
AcDbLine
 10
8.437828645600017
 20
25.18563931699352
 30
0.0
 11
8.501188455699985
 21
25.49539497429353
 31
0.0
  0
LINE
  5
46A5
330
1E
100
AcDbEntity
  8
0
 48
0.27
100
AcDbLine
 10
6.86117337890003
 20
23.52285879659351
 30
0.0
 11
6.8055690501
 21
24.00185762479353
 31
0.0
  0
LINE
  5
46A6
330
1E
100
AcDbEntity
  8
0
 48
0.27
100
AcDbLine
 10
8.437828645600017
 20
23.81435934699351
 30
0.0
 11
8.398810759399989
 21
24.15046360039351
 31
0.0
  0
LINE
  5
46A7
330
1E
100
AcDbEntity
  8
0
 48
0.27
100
AcDbLine
 10
6.8055690501
 20
24.99814103919353
 30
0.0
 11
6.86117337890003
 21
25.47713986739352
 31
0.0
  0
LINE
  5
46A8
330
1E
100
AcDbEntity
  8
0
 48
0.27
100
AcDbLine
 10
8.398810759399989
 20
24.84953639959353
 30
0.0
 11
8.437828645600017
 21
25.18563931699352
 31
0.0
  0
LINE
  5
46A9
330
1E
100
AcDbEntity
  8
0
 48
0.27
100
AcDbLine
 10
6.8055690501
 20
24.00185762479353
 30
0.0
 11
6.786792903099989
 21
24.49999999999353
 31
0.0
  0
LINE
  5
46AA
330
1E
100
AcDbEntity
  8
0
 48
0.27
100
AcDbLine
 10
8.398810759399989
 20
24.15046360039351
 30
0.0
 11
8.38563646130002
 21
24.49999999999353
 31
0.0
  0
LINE
  5
46AB
330
1E
100
AcDbEntity
  8
0
 48
0.27
100
AcDbLine
 10
8.38563646130002
 20
24.49999999999353
 30
0.0
 11
8.398810759399989
 21
24.84953639959353
 31
0.0
  0
LINE
  5
46AC
330
1E
100
AcDbEntity
  8
0
 48
0.27
100
AcDbLine
 10
6.786792903099989
 20
24.49999999999353
 30
0.0
 11
6.8055690501
 21
24.99814103919353
 31
0.0
  0
LINE
  5
46AD
330
1E
100
AcDbEntity
  8
0
 48
0.27
100
AcDbLine
 10
6.283819551100005
 20
22.58619706369354
 30
0.0
 11
6.334574199200002
 21
22.55273426639353
 31
0.0
  0
LINE
  5
46AE
330
1E
100
AcDbEntity
  8
0
 48
0.27
100
AcDbLine
 10
6.071296653400008
 20
22.56391525219353
 30
0.0
 11
6.119650508999992
 21
22.56186181979355
 31
0.0
  0
LINE
  5
46AF
330
1E
100
AcDbEntity
  8
0
 48
0.27
100
AcDbLine
 10
6.283819551100005
 20
26.41380160029353
 30
0.0
 11
6.334574199200002
 21
26.44726439759351
 31
0.0
  0
LINE
  5
46B0
330
1E
100
AcDbEntity
  8
中心線
 48
0.27
100
AcDbLine
 10
0.0000000000000171
 20
17.74999999999353
 30
0.0
 11
0.0000000000000184
 21
35.56675827044136
 31
0.0
  0
LINE
  5
46B1
330
1E
100
AcDbEntity
  8
中心線
 48
0.27
100
AcDbLine
 10
11.25691643140001
 20
24.49999999999353
 30
0.0
 11
-6.749999999999978
 21
24.49999999999353
 31
0.0
  0
POINT
  5
46B2
330
1E
100
AcDbEntity
  8
0
100
AcDbPoint
 10
9.756916431400011
 20
24.49999999999353
 30
0.0
1001
pntflag
1000
endpoint
  0
LINE
  5
473D
330
1E
100
AcDbEntity
  8
中心
 48
2.0
100
AcDbLine
 10
201.6714196198106
 20
111.9758648418115
 30
0.0
 11
115.5025609859966
 21
111.9758648418115
 31
0.0
  0
LINE
  5
473E
330
1E
100
AcDbEntity
  8
0
100
AcDbLine
 10
128.5079649411722
 20
116.4758648418115
 30
0.0
 11
186.5079649411722
 21
116.4758648418115
 31
0.0
  0
LINE
  5
473F
330
1E
100
AcDbEntity
  8
0
100
AcDbLine
 10
128.5079649411722
 20
116.9758648418115
 30
0.0
 11
186.5079649411722
 21
116.9758648418115
 31
0.0
  0
LINE
  5
4740
330
1E
100
AcDbEntity
  8
0
100
AcDbLine
 10
128.5079649411722
 20
124.9758648418115
 30
0.0
 11
186.5079649411722
 21
124.9758648418115
 31
0.0
  0
LINE
  5
4741
330
1E
100
AcDbEntity
  8
0
100
AcDbLine
 10
128.5079649411722
 20
125.4758648418115
 30
0.0
 11
186.5079649411722
 21
125.4758648418115
 31
0.0
  0
LINE
  5
4742
330
1E
100
AcDbEntity
  8
0
100
AcDbLine
 10
128.5079649411722
 20
134.4758648418115
 30
0.0
 11
186.5079649411722
 21
134.4758648418115
 31
0.0
  0
LINE
  5
4743
330
1E
100
AcDbEntity
  8
0
100
AcDbLine
 10
128.5079649411722
 20
135.9758648418115
 30
0.0
 11
186.5079649411722
 21
135.9758648418115
 31
0.0
  0
INSERT
  5
4744
330
1E
100
AcDbEntity
  8
0
100
AcDbBlockReference
  2
A$C02B53278
 10
140.0079649411722
 20
129.4758648418115
 30
0.0
 50
270.0
  0
LINE
  5
4746
330
1E
100
AcDbEntity
  8
0
100
AcDbLine
 10
128.5079649411722
 20
89.47586484181156
 30
0.0
 11
186.5079649411722
 21
89.47586484181156
 31
0.0
  0
LINE
  5
4747
330
1E
100
AcDbEntity
  8
0
100
AcDbLine
 10
128.5079649411722
 20
98.47586484181157
 30
0.0
 11
186.5079649411722
 21
98.47586484181157
 31
0.0
  0
LINE
  5
4748
330
1E
100
AcDbEntity
  8
0
100
AcDbLine
 10
128.5079649411722
 20
98.97586484181156
 30
0.0
 11
186.5079649411722
 21
98.97586484181156
 31
0.0
  0
LINE
  5
4749
330
1E
100
AcDbEntity
  8
0
100
AcDbLine
 10
128.5079649411722
 20
106.9758648418115
 30
0.0
 11
186.5079649411722
 21
106.9758648418115
 31
0.0
  0
LINE
  5
474A
330
1E
100
AcDbEntity
  8
0
100
AcDbLine
 10
128.5079649411722
 20
107.4758648418115
 30
0.0
 11
186.5079649411722
 21
107.4758648418115
 31
0.0
  0
LINE
  5
474B
330
1E
100
AcDbEntity
  8
0
100
AcDbLine
 10
186.5079649411722
 20
87.97586484181156
 30
0.0
 11
128.5079649411722
 21
87.97586484181156
 31
0.0
  0
INSERT
  5
474C
330
1E
100
AcDbEntity
  8
0
100
AcDbBlockReference
  2
A$C02B53278
 10
140.0079649411722
 20
94.47586484181156
 30
0.0
 50
270.0
  0
LINE
  5
474D
330
1E
100
AcDbEntity
  8
0
100
AcDbLine
 10
128.5079649411722
 20
135.9758648418115
 30
0.0
 11
128.5079649411722
 21
87.97586484181156
 31
0.0
  0
LINE
  5
4752
330
1E
100
AcDbEntity
  8
中心
 48
2.0
100
AcDbLine
 10
157.5079649411722
 20
137.0758648418114
 30
0.0
 11
157.5079649411722
 21
86.87586484181165
 31
0.0
  0
LINE
  5
4753
330
1E
100
AcDbEntity
  8
0
100
AcDbLine
 10
186.5079649411722
 20
135.9758648418115
 30
0.0
 11
186.5079649411722
 21
87.97586484181156
 31
0.0
  0
INSERT
  5
4756
330
1E
100
AcDbEntity
  8
0
100
AcDbBlockReference
  2
A$C02B53278
 10
175.0079649411722
 20
129.4758648418115
 30
0.0
 41
-1.0
 50
89.99999999999998
  0
INSERT
  5
4758
330
1E
100
AcDbEntity
  8
0
100
AcDbBlockReference
  2
A$C02B53278
 10
175.0079649411722
 20
94.47586484181156
 30
0.0
 41
-1.0
 50
89.99999999999998
  0
LINE
  5
4778
330
1E
100
AcDbEntity
  8
0
 62
     0
 48
0.27
100
AcDbLine
 10
72.42642226876093
 20
100.4758648418119
 30
0.0
 11
72.42642226878762
 21
123.4758648418111
 31
0.0
  0
LINE
  5
477A
330
1E
100
AcDbEntity
  8
0
100
AcDbLine
 10
72.42642226876093
 20
100.4758648417955
 30
0.0
 11
106.552856928964
 21
100.4758648418079
 31
0.0
  0
LINE
  5
477B
330
1E
100
AcDbEntity
  8
0
100
AcDbLine
 10
72.42642226878762
 20
123.4758648418111
 30
0.0
 11
117.5079649411723
 21
123.4758648418111
 31
0.0
  0
LINE
  5
477D
330
1E
100
AcDbEntity
  8
0
 48
0.27
100
AcDbLine
 10
119.0079649411722
 20
-0.0000000000000284
 30
0.0
 11
119.0079649411722
 21
29.49999999999997
 31
0.0
  0
LINE
  5
477E
330
1E
100
AcDbEntity
  8
0
 48
0.27
100
AcDbLine
 10
128.5079649411723
 20
34.5
 30
0.0
 11
128.5079649411723
 21
0.0
 31
0.0
  0
LINE
  5
477F
330
1E
100
AcDbEntity
  8
0
 48
0.27
100
AcDbLine
 10
186.5079649411723
 20
34.50000000000002
 30
0.0
 11
186.5079649411723
 21
-0.0000000000000284
 31
0.0
  0
LINE
  5
4780
330
1E
100
AcDbEntity
  8
0
 48
0.27
100
AcDbLine
 10
196.0079649411723
 20
-0.0000000000000284
 30
0.0
 11
196.0079649411723
 21
29.49999999999997
 31
0.0
  0
LINE
  5
4781
330
1E
100
AcDbEntity
  8
虛線
 48
0.27
100
AcDbLine
 10
178.0079649411723
 20
33.69999999999999
 30
0.0
 11
172.0079649411722
 21
33.69999999999999
 31
0.0
  0
LINE
  5
4782
330
1E
100
AcDbEntity
  8
虛線
 48
0.27
100
AcDbLine
 10
172.0079649411722
 20
26.55000000000001
 30
0.0
 11
178.0079649411723
 21
26.55000000000001
 31
0.0
  0
LINE
  5
4783
330
1E
100
AcDbEntity
  8
虛線
 48
0.27
100
AcDbLine
 10
175.0079649411723
 20
22.10662432702594
 30
0.0
 11
177.5079649411723
 21
23.55000000000001
 31
0.0
  0
LINE
  5
4784
330
1E
100
AcDbEntity
  8
0
 48
0.27
100
AcDbLine
 10
128.5079649411723
 20
32.99999999999994
 30
0.0
 11
186.5079649411723
 21
32.99999999999994
 31
0.0
  0
LINE
  5
4785
330
1E
100
AcDbEntity
  8
0
 48
0.27
100
AcDbLine
 10
186.5079649411723
 20
34.5
 30
0.0
 11
128.5079649411723
 21
34.5
 31
0.0
  0
LINE
  5
4786
330
1E
100
AcDbEntity
  8
0
 48
0.27
100
AcDbLine
 10
119.0079649411722
 20
29.49999999999997
 30
0.0
 11
128.5079649411722
 21
29.49999999999997
 31
0.0
  0
LINE
  5
4787
330
1E
100
AcDbEntity
  8
0
 48
0.27
100
AcDbLine
 10
119.0079649411722
 20
27.99999999999997
 30
0.0
 11
128.5079649411722
 21
27.99999999999997
 31
0.0
  0
CIRCLE
  5
4788
330
1E
100
AcDbEntity
  8
0
 48
0.27
100
AcDbCircle
 10
124.3079649411722
 20
21.49999999999999
 30
0.0
 40
2.1986552691
  0
CIRCLE
  5
4789
330
1E
100
AcDbEntity
  8
0
 48
0.27
100
AcDbCircle
 10
124.3079649411722
 20
21.49999999999999
 30
0.0
 40
2.5
  0
CIRCLE
  5
478A
330
1E
100
AcDbEntity
  8
0
 48
0.27
100
AcDbCircle
 10
124.3079649411722
 20
21.49999999999999
 30
0.0
 40
2.75
  0
LINE
  5
478B
330
1E
100
AcDbEntity
  8
中心線
 48
0.27
100
AcDbLine
 10
124.3079649411722
 20
18.38629739016425
 30
0.0
 11
124.3079649411722
 21
24.61370260983574
 31
0.0
  0
LINE
  5
478C
330
1E
100
AcDbEntity
  8
中心線
 48
0.27
100
AcDbLine
 10
121.2077207436065
 20
21.49999999999999
 30
0.0
 11
127.4082091387379
 21
21.49999999999999
 31
0.0
  0
CIRCLE
  5
478D
330
1E
100
AcDbEntity
  8
0
 48
0.27
100
AcDbCircle
 10
124.3079649411722
 20
21.49999999999999
 30
0.0
 40
0.75
  0
LINE
  5
478E
330
1E
100
AcDbEntity
  8
中心線
 48
0.27
100
AcDbLine
 10
140.0079649411723
 20
35.5
 30
0.0
 11
140.0079649411723
 21
21.26228675972851
 31
0.0
  0
LINE
  5
478F
330
1E
100
AcDbEntity
  8
虛線
 48
0.27
100
AcDbLine
 10
137.5079649411723
 20
33.69999999999999
 30
0.0
 11
137.5079649411723
 21
23.55000000000001
 31
0.0
  0
LINE
  5
4790
330
1E
100
AcDbEntity
  8
虛線
 48
0.27
100
AcDbLine
 10
137.0079649411723
 20
33.69999999999999
 30
0.0
 11
137.0079649411723
 21
26.55000000000001
 31
0.0
  0
LINE
  5
4791
330
1E
100
AcDbEntity
  8
虛線
 48
0.27
100
AcDbLine
 10
143.0079649411723
 20
33.69999999999999
 30
0.0
 11
143.0079649411723
 21
26.55000000000001
 31
0.0
  0
LINE
  5
4792
330
1E
100
AcDbEntity
  8
虛線
 48
0.27
100
AcDbLine
 10
142.5079649411723
 20
33.69999999999999
 30
0.0
 11
142.5079649411723
 21
23.55000000000001
 31
0.0
  0
LINE
  5
4793
330
1E
100
AcDbEntity
  8
虛線
 48
0.27
100
AcDbLine
 10
140.0079649411723
 20
22.10662432702594
 30
0.0
 11
142.5079649411723
 21
23.55000000000001
 31
0.0
  0
LINE
  5
4794
330
1E
100
AcDbEntity
  8
虛線
 48
0.27
100
AcDbLine
 10
137.5079649411723
 20
23.55000000000001
 30
0.0
 11
140.0079649411723
 21
22.10662432702594
 31
0.0
  0
LINE
  5
4795
330
1E
100
AcDbEntity
  8
虛線
 48
0.27
100
AcDbLine
 10
137.0079649411723
 20
26.55000000000001
 30
0.0
 11
143.0079649411723
 21
26.55000000000001
 31
0.0
  0
LINE
  5
4796
330
1E
100
AcDbEntity
  8
虛線
 48
0.27
100
AcDbLine
 10
136.2079649411724
 20
34.5
 30
0.0
 11
137.0079649411723
 21
33.69999999999999
 31
0.0
  0
LINE
  5
4797
330
1E
100
AcDbEntity
  8
虛線
 48
0.27
100
AcDbLine
 10
143.8079649411721
 20
34.5
 30
0.0
 11
143.0079649411723
 21
33.69999999999999
 31
0.0
  0
LINE
  5
4798
330
1E
100
AcDbEntity
  8
虛線
 48
0.27
100
AcDbLine
 10
143.0079649411723
 20
33.69999999999999
 30
0.0
 11
137.0079649411723
 21
33.69999999999999
 31
0.0
  0
LINE
  5
4799
330
1E
100
AcDbEntity
  8
中心線
 48
0.27
100
AcDbLine
 10
175.0079649411723
 20
35.5
 30
0.0
 11
175.0079649411723
 21
21.26228675972851
 31
0.0
  0
LINE
  5
479A
330
1E
100
AcDbEntity
  8
虛線
 48
0.27
100
AcDbLine
 10
172.0079649411722
 20
33.69999999999999
 30
0.0
 11
172.0079649411722
 21
26.55000000000001
 31
0.0
  0
LINE
  5
479B
330
1E
100
AcDbEntity
  8
虛線
 48
0.27
100
AcDbLine
 10
172.5079649411723
 20
33.69999999999999
 30
0.0
 11
172.5079649411723
 21
23.55000000000001
 31
0.0
  0
LINE
  5
479C
330
1E
100
AcDbEntity
  8
虛線
 48
0.27
100
AcDbLine
 10
172.5079649411723
 20
23.55000000000001
 30
0.0
 11
175.0079649411723
 21
22.10662432702594
 31
0.0
  0
LINE
  5
479D
330
1E
100
AcDbEntity
  8
虛線
 48
0.27
100
AcDbLine
 10
171.2079649411724
 20
34.5
 30
0.0
 11
172.0079649411722
 21
33.69999999999999
 31
0.0
  0
CIRCLE
  5
479E
330
1E
100
AcDbEntity
  8
0
 48
0.27
100
AcDbCircle
 10
190.688641532799
 20
21.49999999999997
 30
0.0
 40
2.75
  0
LINE
  5
479F
330
1E
100
AcDbEntity
  8
0
 48
0.27
100
AcDbLine
 10
186.5079649411723
 20
29.49999999999997
 30
0.0
 11
196.0079649411723
 21
29.49999999999997
 31
0.0
  0
LINE
  5
47A0
330
1E
100
AcDbEntity
  8
0
 48
0.27
100
AcDbLine
 10
186.5079649411723
 20
27.99999999999997
 30
0.0
 11
196.0079649411723
 21
27.99999999999997
 31
0.0
  0
LINE
  5
47A1
330
1E
100
AcDbEntity
  8
中心線
 48
0.27
100
AcDbLine
 10
187.5883973352333
 20
21.49999999999997
 30
0.0
 11
193.7888857303647
 21
21.49999999999997
 31
0.0
  0
LINE
  5
47A2
330
1E
100
AcDbEntity
  8
虛線
 48
0.27
100
AcDbLine
 10
178.0079649411723
 20
33.69999999999999
 30
0.0
 11
178.0079649411723
 21
26.55000000000001
 31
0.0
  0
LINE
  5
47A3
330
1E
100
AcDbEntity
  8
虛線
 48
0.27
100
AcDbLine
 10
177.5079649411723
 20
33.69999999999999
 30
0.0
 11
177.5079649411723
 21
23.55000000000001
 31
0.0
  0
CIRCLE
  5
47A4
330
1E
100
AcDbEntity
  8
0
 48
0.27
100
AcDbCircle
 10
190.688641532799
 20
21.49999999999997
 30
0.0
 40
2.1986552691
  0
CIRCLE
  5
47A5
330
1E
100
AcDbEntity
  8
0
 48
0.27
100
AcDbCircle
 10
190.688641532799
 20
21.49999999999997
 30
0.0
 40
2.5
  0
LINE
  5
47A6
330
1E
100
AcDbEntity
  8
中心線
 48
0.27
100
AcDbLine
 10
190.688641532799
 20
18.38629739016423
 30
0.0
 11
190.688641532799
 21
24.61370260983571
 31
0.0
  0
CIRCLE
  5
47A7
330
1E
100
AcDbEntity
  8
0
 48
0.27
100
AcDbCircle
 10
190.688641532799
 20
21.49999999999997
 30
0.0
 40
0.75
  0
LINE
  5
47A8
330
1E
100
AcDbEntity
  8
虛線
 48
0.27
100
AcDbLine
 10
178.8079649411721
 20
34.5
 30
0.0
 11
178.0079649411723
 21
33.69999999999999
 31
0.0
  0
LINE
  5
47A9
330
1E
100
AcDbEntity
  8
0
 48
0.27
100
AcDbLine
 10
196.0079649411723
 20
1.499999999983401
 30
0.0
 11
119.0079649411722
 21
1.499999999983401
 31
0.0
  0
LINE
  5
47AA
330
1E
100
AcDbEntity
  8
0
 48
0.27
100
AcDbLine
 10
196.0079649411723
 20
-0.0000000000000284
 30
0.0
 11
119.0079649411722
 21
-0.0000000000000284
 31
0.0
  0
LINE
  5
47AB
330
1E
100
AcDbEntity
  8
0
 48
0.27
100
AcDbLine
 10
119.0079649411722
 20
88.77586484181525
 30
0.0
 11
119.0079649411723
 21
135.1758648418152
 31
0.0
  0
LINE
  5
47AC
330
1E
100
AcDbEntity
  8
0
100
AcDbLine
 10
117.5079649411723
 20
135.1758648418159
 30
0.0
 11
117.5079649411722
 21
88.77586484181593
 31
0.0
  0
LINE
  5
47B6
330
1E
100
AcDbEntity
  8
0
 48
0.27
100
AcDbLine
 10
128.5079649411722
 20
88.77586484181112
 30
0.0
 11
117.5079649411722
 21
88.77586484181593
 31
0.0
  0
LINE
  5
47B8
330
1E
100
AcDbEntity
  8
0
 48
0.27
100
AcDbLine
 10
117.5079649411723
 20
135.1758648418159
 30
0.0
 11
128.5079649411722
 21
135.175864841811
 31
0.0
  0
LINE
  5
47BA
330
1E
100
AcDbEntity
  8
0
100
AcDbLine
 10
242.5895076135568
 20
123.4758648418111
 30
0.0
 11
197.5079649411721
 21
123.4758648418111
 31
0.0
  0
LINE
  5
47BB
330
1E
100
AcDbEntity
  8
0
100
AcDbLine
 10
242.5895076135835
 20
100.4758648417955
 30
0.0
 11
197.5079649411721
 21
100.4758648418119
 31
0.0
  0
LINE
  5
47BC
330
1E
100
AcDbEntity
  8
0
 62
     0
 48
0.27
100
AcDbLine
 10
242.5895076135835
 20
100.4758648418119
 30
0.0
 11
242.5895076135568
 21
123.4758648418111
 31
0.0
  0
LINE
  5
47BD
330
1E
100
AcDbEntity
  8
0
100
AcDbLine
 10
197.5079649411721
 20
135.1758648418159
 30
0.0
 11
197.5079649411721
 21
88.77586484181593
 31
0.0
  0
LINE
  5
47BE
330
1E
100
AcDbEntity
  8
0
 48
0.27
100
AcDbLine
 10
196.0079649411721
 20
88.77586484181525
 30
0.0
 11
196.0079649411721
 21
135.1758648418152
 31
0.0
  0
LINE
  5
47BF
330
1E
100
AcDbEntity
  8
0
 48
0.27
100
AcDbLine
 10
186.5079649411722
 20
88.77586484181112
 30
0.0
 11
197.5079649411721
 21
88.77586484181593
 31
0.0
  0
LINE
  5
47C0
330
1E
100
AcDbEntity
  8
0
 48
0.27
100
AcDbLine
 10
197.5079649411721
 20
135.1758648418159
 30
0.0
 11
186.5079649411722
 21
135.175864841811
 31
0.0
  0
LINE
  5
47E5
330
1E
100
AcDbEntity
  8
0
  6
Continuous
100
AcDbLine
 10
110.1469121186871
 20
115.9758648418159
 30
0.0
 11
113.8180930291872
 21
115.9758648418159
 31
0.0
  0
LINE
  5
47E6
330
1E
100
AcDbEntity
  8
0
  6
Continuous
100
AcDbLine
 10
111.2805154193279
 20
107.9758648418159
 30
0.0
 11
113.8180930291872
 21
107.9758648418159
 31
0.0
  0
ARC
  5
47E7
330
1E
100
AcDbEntity
  8
0
  6
Continuous
100
AcDbCircle
 10
110.9984603937785
 20
106.1433101083981
 30
0.0
 40
1.854133729915247
100
AcDbArc
 50
34.63277999893714
 51
100.3672200010619
  0
LINE
  5
47E8
330
1E
100
AcDbEntity
  8
0
  6
Continuous
100
AcDbLine
 10
111.951942795777
 20
105.815821741884
 30
0.0
 11
112.5240626891428
 21
107.1970413477513
 31
0.0
  0
ARC
  5
47E9
330
1E
100
AcDbEntity
  8
0
  6
Continuous
100
AcDbCircle
 10
110.1469121186871
 20
111.9758648418159
 30
0.0
 40
4.0
100
AcDbArc
 50
90.0
 51
210.8352048940853
  0
ARC
  5
47EA
330
1E
100
AcDbEntity
  8
0
  6
Continuous
100
AcDbCircle
 10
106.4892531674126
 20
103.8624758559306
 30
0.0
 40
2.860349020536762
100
AcDbArc
 50
118.5864858262623
 51
163.5864858262621
  0
LINE
  5
47EB
330
1E
100
AcDbEntity
  8
0
  6
Continuous
100
AcDbLine
 10
110.0926773276238
 20
106.5860149954863
 30
0.0
 11
110.6647545961394
 21
107.9671316958621
 31
0.0
  0
ARC
  5
47EC
330
1E
100
AcDbEntity
  8
0
  6
Continuous
100
AcDbCircle
 10
110.7876512527791
 20
113.5227459492839
 30
0.0
 40
6.971504732179473
100
AcDbArc
 50
230.721349997913
 51
264.2786500020894
  0
ARC
  5
47ED
330
1E
100
AcDbEntity
  8
0
  6
Continuous
100
AcDbCircle
 10
103.2412448150285
 20
107.216873214826
 30
0.0
 40
2.059673609817605
100
AcDbArc
 50
335.8479011650596
 51
45.84790116506002
  0
LINE
  5
47EE
330
1E
100
AcDbEntity
  8
0
  6
Continuous
100
AcDbLine
 10
105.3308104738403
 20
108.2371410612183
 30
0.0
 11
110.908733312398
 21
105.926689771617
 31
0.0
  0
LINE
  5
47EF
330
1E
100
AcDbEntity
  8
0
  6
Continuous
100
AcDbLine
 10
103.7454709411722
 20
104.6707181551533
 30
0.0
 11
109.5078958249732
 21
102.2838436161268
 31
0.0
  0
LINE
  5
47F0
330
1E
100
AcDbEntity
  8
0
  6
Continuous
100
AcDbLine
 10
105.3053956662634
 20
106.2975997983535
 30
0.0
 11
109.5552415158153
 21
104.537256009474
 31
0.0
  0
ARC
  5
47F1
330
1E
100
AcDbEntity
  8
0
  6
Continuous
100
AcDbCircle
 10
106.9962351960772
 20
103.6524770237783
 30
0.0
 40
2.860349020536762
100
AcDbArc
 50
331.4135141737373
 51
16.41351417373787
  0
ARC
  5
47F2
330
1E
100
AcDbEntity
  8
0
  6
Continuous
100
AcDbCircle
 10
111.6182795722258
 20
107.6396859752246
 30
0.0
 40
1.854133729915247
100
AcDbArc
 50
214.6327799989371
 51
280.3672200010619
  0
ARC
  5
47F3
330
1E
100
AcDbEntity
  8
0
  6
Continuous
100
AcDbCircle
 10
111.6648410466677
 20
103.7277054117262
 30
0.0
 40
2.059673609817604
100
AcDbArc
 50
89.15209883494084
 51
159.1520988349398
  0
ARC
  5
47F4
330
1E
100
AcDbEntity
  8
0
  6
Continuous
100
AcDbCircle
 10
106.2511658746676
 20
102.5707014239401
 30
0.0
 40
6.971504732179473
100
AcDbArc
 50
50.7213499979131
 51
84.27865000208788
  0
LINE
  5
47F5
330
1E
100
AcDbEntity
  8
0
  6
Continuous
100
AcDbLine
 10
106.1300838150487
 20
110.1667576016069
 30
0.0
 11
111.7080066536064
 21
107.8563063120057
 31
0.0
  0
ARC
  5
47F6
330
1E
100
AcDbEntity
  8
0
  6
Continuous
100
AcDbCircle
 10
106.0403567336682
 20
109.9501372648258
 30
0.0
 40
1.854133729915247
100
AcDbArc
 50
214.6327799989371
 51
280.3672200010619
  0
ARC
  5
47F7
330
1E
100
AcDbEntity
  8
0
  6
Continuous
100
AcDbCircle
 10
105.4205375552209
 20
108.4537613979994
 30
0.0
 40
1.854133729915247
100
AcDbArc
 50
34.63277999893714
 51
100.3672200010619
  0
LINE
  5
47F8
330
1E
100
AcDbEntity
  8
0
  6
Continuous
100
AcDbLine
 10
104.5147548111076
 20
108.8964661516935
 30
0.0
 11
105.0868320796233
 21
110.2775828520694
 31
0.0
  0
LINE
  5
47F9
330
1E
100
AcDbEntity
  8
0
  6
Continuous
100
AcDbLine
 10
106.3740625313073
 20
108.1263156773618
 30
0.0
 11
106.946139799823
 21
109.5074323777376
 31
0.0
  0
ARC
  5
47FA
330
1E
100
AcDbEntity
  8
0
  6
Continuous
100
AcDbCircle
 10
115.8644809182182
 20
115.4258649414088
 30
0.0
 40
2.119009977045996
100
AcDbArc
 50
147.1327799989379
 51
212.867220001062
  0
LINE
  5
47FB
330
1E
100
AcDbEntity
  8
0
  6
Continuous
100
AcDbLine
 10
113.7454709411722
 20
108.525864742223
 30
0.0
 11
113.7454709411722
 21
115.4258649414088
 31
0.0
  0
ARC
  5
47FC
330
1E
100
AcDbEntity
  8
0
  6
Continuous
100
AcDbCircle
 10
115.8644809182182
 20
108.525864742223
 30
0.0
 40
2.119009977045996
100
AcDbArc
 50
147.1327799989379
 51
212.867220001062
  0
LINE
  5
47FD
330
1E
100
AcDbEntity
  8
0
  6
Continuous
100
AcDbLine
 10
114.0847234832816
 20
107.3758648418159
 30
0.0
 11
117.5079649411723
 21
107.3758648418159
 31
0.0
  0
LINE
  5
47FE
330
1E
100
AcDbEntity
  8
0
  6
Continuous
100
AcDbLine
 10
114.0847234832816
 20
114.2758646426301
 30
0.0
 11
117.5079649411723
 21
114.2758646426301
 31
0.0
  0
LINE
  5
47FF
330
1E
100
AcDbEntity
  8
0
  6
Continuous
100
AcDbLine
 10
114.0847234832816
 20
109.6758650410017
 30
0.0
 11
117.5079649411723
 21
109.6758650410017
 31
0.0
  0
ARC
  5
4800
330
1E
100
AcDbEntity
  8
0
  6
Continuous
100
AcDbCircle
 10
121.7129049208059
 20
111.9758648418159
 30
0.0
 40
7.96743397963368
100
AcDbArc
 50
163.2213499979121
 51
196.7786500020878
  0
LINE
  5
4801
330
1E
100
AcDbEntity
  8
0
  6
Continuous
100
AcDbLine
 10
114.0847234832816
 20
116.5758648418159
 30
0.0
 11
117.5079649411723
 21
116.5758648418159
 31
0.0
  0
LINE
  5
4802
330
1E
100
AcDbEntity
  8
0
  6
Continuous
100
AcDbLine
 10
107.3639509194399
 20
100.1398987105935
 30
0.0
 11
109.5078958249732
 21
102.2838436161268
 31
0.0
  0
LINE
  5
4803
330
1E
100
AcDbEntity
  8
0
  6
Continuous
100
AcDbLine
 10
103.7454709411722
 20
101.6387221927674
 30
0.0
 11
107.3639509194399
 21
100.1398987105935
 31
0.0
  0
LINE
  5
4804
330
1E
100
AcDbEntity
  8
0
  6
Continuous
100
AcDbLine
 10
103.7454709411722
 20
101.6387221927674
 30
0.0
 11
103.7454709411722
 21
104.6707181551533
 31
0.0
  0
LINE
  5
4806
330
1E
100
AcDbEntity
  8
0
100
AcDbLine
 10
107.6999170506547
 20
100.4758648418083
 30
0.0
 11
117.5079649411723
 21
100.4758648418119
 31
0.0
  0
LINE
  5
4807
330
1E
100
AcDbEntity
  8
中心線
 48
0.27
100
AcDbLine
 10
92.42642226873552
 20
118.9777492171887
 30
0.0
 11
92.42642226873554
 21
104.9739804664252
 31
0.0
  0
LINE
  5
4808
330
1E
100
AcDbEntity
  8
中心線
 48
0.27
100
AcDbLine
 10
99.30561821217567
 20
111.9758648418069
 30
0.0
 11
85.54722632529538
 21
111.975864841807
 31
0.0
  0
CIRCLE
  5
4809
330
1E
100
AcDbEntity
  8
0
100
AcDbCircle
 10
92.42642226873552
 20
111.975864841807
 30
0.0
 40
5.499999999961204
  0
CIRCLE
  5
480A
330
1E
100
AcDbEntity
  8
0
100
AcDbCircle
 10
92.42642226873552
 20
111.975864841807
 30
0.0
 40
3.499999999961232
  0
LINE
  5
480D
330
1E
100
AcDbEntity
  8
中心線
 48
0.27
100
AcDbLine
 10
212.4264222687743
 20
118.9777492171932
 30
0.0
 11
212.4264222687743
 21
104.9739804664298
 31
0.0
  0
CIRCLE
  5
480E
330
1E
100
AcDbEntity
  8
0
100
AcDbCircle
 10
212.4264222687743
 20
111.9758648418115
 30
0.0
 40
5.499999999961204
  0
LINE
  5
480F
330
1E
100
AcDbEntity
  8
中心線
 48
0.27
100
AcDbLine
 10
219.3056182122144
 20
111.9758648418115
 30
0.0
 11
205.5472263253341
 21
111.9758648418115
 31
0.0
  0
CIRCLE
  5
4810
330
1E
100
AcDbEntity
  8
0
100
AcDbCircle
 10
212.4264222687743
 20
111.9758648418115
 30
0.0
 40
3.499999999961232
  0
ARC
  5
4828
330
1E
100
AcDbEntity
  8
0
100
AcDbCircle
 10
117.8434887606664
 20
92.2441954013438
 30
0.0
 40
1.220011576012179
100
AcDbArc
 50
180.9276427879975
 51
254.0369778311712
  0
LINE
  5
4829
330
1E
100
AcDbEntity
  8
0
100
AcDbLine
 10
116.623637081814
 20
94.22444376332668
 30
0.0
 11
116.623637081814
 21
92.22444376332669
 31
0.0
  0
LINE
  5
482A
330
1E
100
AcDbEntity
  8
中心線
100
AcDbLine
 10
115.7241151448011
 20
93.22444376332668
 30
0.0
 11
121.4757521191821
 21
93.22444376332668
 31
0.0
  0
ARC
  5
482B
330
1E
100
AcDbEntity
  8
0
100
AcDbCircle
 10
117.8434887606664
 20
94.20469212530958
 30
0.0
 40
1.220011576012179
100
AcDbArc
 50
105.9630221688287
 51
179.0723572120024
  0
ARC
  5
482C
330
1E
100
AcDbEntity
  8
0
100
AcDbCircle
 10
117.8434887606665
 20
96.69419540135407
 30
0.0
 40
1.220011576012179
100
AcDbArc
 50
180.9276427879975
 51
254.0369778311712
  0
LINE
  5
482D
330
1E
100
AcDbEntity
  8
0
100
AcDbLine
 10
116.623637081814
 20
98.67444376333697
 30
0.0
 11
116.623637081814
 21
96.67444376333698
 31
0.0
  0
LINE
  5
482E
330
1E
100
AcDbEntity
  8
中心線
100
AcDbLine
 10
115.7241151448011
 20
97.67444376333697
 30
0.0
 11
121.4757521191821
 21
97.67444376333697
 31
0.0
  0
ARC
  5
482F
330
1E
100
AcDbEntity
  8
0
100
AcDbCircle
 10
117.8434887606665
 20
98.65469212531985
 30
0.0
 40
1.220011576012179
100
AcDbArc
 50
105.9630221688287
 51
179.0723572120024
  0
ARC
  5
4830
330
1E
100
AcDbEntity
  8
0
100
AcDbCircle
 10
117.8434887606665
 20
125.2941954013541
 30
0.0
 40
1.220011576012179
100
AcDbArc
 50
180.9276427879975
 51
254.0369778311712
  0
LINE
  5
4831
330
1E
100
AcDbEntity
  8
0
100
AcDbLine
 10
116.623637081814
 20
127.2744437633369
 30
0.0
 11
116.623637081814
 21
125.2744437633369
 31
0.0
  0
LINE
  5
4832
330
1E
100
AcDbEntity
  8
中心線
100
AcDbLine
 10
115.7241151448011
 20
126.2744437633369
 30
0.0
 11
121.4757521191821
 21
126.2744437633369
 31
0.0
  0
ARC
  5
4833
330
1E
100
AcDbEntity
  8
0
100
AcDbCircle
 10
117.8434887606665
 20
127.2546921253198
 30
0.0
 40
1.220011576012179
100
AcDbArc
 50
105.9630221688287
 51
179.0723572120024
  0
ARC
  5
4834
330
1E
100
AcDbEntity
  8
0
100
AcDbCircle
 10
117.8434887606665
 20
129.7470375583136
 30
0.0
 40
1.220011576012179
100
AcDbArc
 50
180.9276427879975
 51
254.0369778311712
  0
LINE
  5
4835
330
1E
100
AcDbEntity
  8
0
100
AcDbLine
 10
116.623637081814
 20
131.7272859202964
 30
0.0
 11
116.623637081814
 21
129.7272859202964
 31
0.0
  0
LINE
  5
4836
330
1E
100
AcDbEntity
  8
中心線
100
AcDbLine
 10
115.7241151448011
 20
130.7272859202964
 30
0.0
 11
121.4757521191821
 21
130.7272859202964
 31
0.0
  0
ARC
  5
4837
330
1E
100
AcDbEntity
  8
0
100
AcDbCircle
 10
117.8434887606665
 20
131.7075342822793
 30
0.0
 40
1.220011576012179
100
AcDbArc
 50
105.9630221688287
 51
179.0723572120024
  0
LINE
  5
4838
330
1E
100
AcDbEntity
  8
中心線
100
AcDbLine
 10
199.2918147375433
 20
97.67444376333697
 30
0.0
 11
193.5401777631623
 21
97.67444376333697
 31
0.0
  0
LINE
  5
4839
330
1E
100
AcDbEntity
  8
中心線
100
AcDbLine
 10
199.2918147375433
 20
93.22444376332668
 30
0.0
 11
193.5401777631623
 21
93.22444376332668
 31
0.0
  0
ARC
  5
483A
330
1E
100
AcDbEntity
  8
0
100
AcDbCircle
 10
197.1724411216779
 20
96.69419540135407
 30
0.0
 40
1.220011576012179
100
AcDbArc
 50
285.9630221688287
 51
359.0723572120024
  0
LINE
  5
483B
330
1E
100
AcDbEntity
  8
0
100
AcDbLine
 10
198.3922928005304
 20
94.22444376332668
 30
0.0
 11
198.3922928005304
 21
92.22444376332669
 31
0.0
  0
ARC
  5
483C
330
1E
100
AcDbEntity
  8
0
100
AcDbCircle
 10
197.1724411216779
 20
92.2441954013438
 30
0.0
 40
1.220011576012179
100
AcDbArc
 50
285.9630221688287
 51
359.0723572120024
  0
ARC
  5
483D
330
1E
100
AcDbEntity
  8
0
100
AcDbCircle
 10
197.1724411216779
 20
94.20469212530958
 30
0.0
 40
1.220011576012179
100
AcDbArc
 50
0.927642787997602
 51
74.03697783117128
  0
ARC
  5
483E
330
1E
100
AcDbEntity
  8
0
100
AcDbCircle
 10
197.1724411216779
 20
98.65469212531985
 30
0.0
 40
1.220011576012179
100
AcDbArc
 50
0.927642787997602
 51
74.03697783117128
  0
LINE
  5
483F
330
1E
100
AcDbEntity
  8
0
100
AcDbLine
 10
198.3922928005304
 20
98.67444376333697
 30
0.0
 11
198.3922928005304
 21
96.67444376333698
 31
0.0
  0
LINE
  5
4840
330
1E
100
AcDbEntity
  8
0
100
AcDbLine
 10
198.3922928005304
 20
131.7272859202964
 30
0.0
 11
198.3922928005304
 21
129.7272859202964
 31
0.0
  0
LINE
  5
4841
330
1E
100
AcDbEntity
  8
中心線
100
AcDbLine
 10
199.2918147375433
 20
126.2744437633369
 30
0.0
 11
193.5401777631623
 21
126.2744437633369
 31
0.0
  0
LINE
  5
4842
330
1E
100
AcDbEntity
  8
0
100
AcDbLine
 10
198.3922928005304
 20
127.2744437633369
 30
0.0
 11
198.3922928005304
 21
125.2744437633369
 31
0.0
  0
ARC
  5
4843
330
1E
100
AcDbEntity
  8
0
100
AcDbCircle
 10
197.1724411216779
 20
125.2941954013541
 30
0.0
 40
1.220011576012179
100
AcDbArc
 50
285.9630221688287
 51
359.0723572120024
  0
ARC
  5
4844
330
1E
100
AcDbEntity
  8
0
100
AcDbCircle
 10
197.1724411216779
 20
129.7470375583136
 30
0.0
 40
1.220011576012179
100
AcDbArc
 50
285.9630221688287
 51
359.0723572120024
  0
ARC
  5
4845
330
1E
100
AcDbEntity
  8
0
100
AcDbCircle
 10
197.1724411216779
 20
127.2546921253198
 30
0.0
 40
1.220011576012179
100
AcDbArc
 50
0.927642787997602
 51
74.03697783117128
  0
LINE
  5
4846
330
1E
100
AcDbEntity
  8
中心線
100
AcDbLine
 10
199.2918147375433
 20
130.7272859202964
 30
0.0
 11
193.5401777631623
 21
130.7272859202964
 31
0.0
  0
ARC
  5
4847
330
1E
100
AcDbEntity
  8
0
100
AcDbCircle
 10
197.1724411216779
 20
131.7075342822793
 30
0.0
 40
1.220011576012179
100
AcDbArc
 50
0.927642787997602
 51
74.03697783117128
  0
ENDSEC
  0
SECTION
  2
OBJECTS
  0
DICTIONARY
  5
C
330
0
100
AcDbDictionary
281
     1
  3
ACAD_COLOR
350
3D97
  3
ACAD_GROUP
350
D
  3
ACAD_LAYOUT
350
19
  3
ACAD_MATERIAL
350
3D96
  3
ACAD_MLINESTYLE
350
16
  3
ACAD_PLOTSETTINGS
350
18
  3
ACAD_PLOTSTYLENAME
350
E
  3
ACDBHEADERROUNDTRIPXREC
350
4853
  3
AcDbVariableDictionary
350
3E63
  0
DICTIONARY
  5
43C2
330
2
100
AcDbDictionary
280
     1
281
     1
  3
ACAD_LAYERSTATES
360
43C3
  0
DICTIONARY
  5
3D1E
330
1E
100
AcDbDictionary
280
     1
281
     1
  3
ACAD_LAYOUTSELFREF
360
3D92
  0
DICTIONARY
  5
3D20
330
1A
100
AcDbDictionary
280
     1
281
     1
  3
ACAD_LAYOUTSELFREF
360
3D91
  0
DICTIONARY
  5
3D97
102
{ACAD_REACTORS
330
C
102
}
330
C
100
AcDbDictionary
281
     1
  0
DICTIONARY
  5
D
102
{ACAD_REACTORS
330
C
102
}
330
C
100
AcDbDictionary
281
     1
  3
*A1
350
4143
  3
*A10
350
43BC
  3
*A11
350
43BD
  3
*A12
350
437D
  3
*A13
350
43BE
  3
*A14
350
4144
  3
*A15
350
4147
  3
*A16
350
4378
  3
*A17
350
43BF
  3
*A18
350
43C0
  3
*A19
350
43C1
  3
*A2
350
43B7
  3
*A20
350
4148
  3
*A21
350
414C
  3
*A22
350
414F
  3
*A23
350
437E
  3
*A24
350
4149
  3
*A25
350
414A
  3
*A26
350
414B
  3
*A27
350
4235
  3
*A28
350
4239
  3
*A29
350
423B
  3
*A3
350
43B8
  3
*A30
350
4236
  3
*A31
350
4237
  3
*A32
350
4238
  3
*A33
350
423C
  3
*A34
350
4240
  3
*A35
350
4373
  3
*A36
350
423D
  3
*A37
350
423E
  3
*A38
350
423F
  3
*A39
350
4374
  3
*A4
350
4377
  3
*A40
350
4379
  3
*A41
350
4375
  3
*A42
350
4145
  3
*A43
350
4376
  3
*A44
350
437A
  3
*A45
350
437F
  3
*A46
350
437B
  3
*A47
350
414D
  3
*A48
350
437C
  3
*A49
350
4146
  3
*A5
350
43B9
  3
*A50
350
43B5
  3
*A51
350
423A
  3
*A52
350
43B6
  3
*A6
350
414E
  3
*A7
350
43BA
  3
*A8
350
4241
  3
*A9
350
43BB
  0
DICTIONARY
  5
19
102
{ACAD_REACTORS
330
C
102
}
330
C
100
AcDbDictionary
281
     1
  3
Model
350
21
  3
配置1
350
1D
  0
DICTIONARY
  5
3D96
102
{ACAD_REACTORS
330
C
102
}
330
C
100
AcDbDictionary
281
     1
  0
DICTIONARY
  5
16
102
{ACAD_REACTORS
330
C
102
}
330
C
100
AcDbDictionary
281
     1
  3
Standard
350
17
  0
DICTIONARY
  5
18
102
{ACAD_REACTORS
330
C
102
}
330
C
100
AcDbDictionary
281
     1
  3
LANSRO
350
4150
  0
ACDBDICTIONARYWDFLT
  5
E
102
{ACAD_REACTORS
330
C
102
}
330
C
100
AcDbDictionary
281
     1
  3
Normal
350
F
100
AcDbDictionaryWithDefault
340
F
  0
DICTIONARY
  5
4853
102
{ACAD_REACTORS
330
C
102
}
330
C
100
AcDbDictionary
281
     1
  3
CEPSNTYPE
350
485D
  3
DIMSTYLEDATA
350
4861
  3
FINGERPRINTGUID
350
485E
  3
HYPERLINKBASE
350
4856
  3
INSUNITS
350
485C
  3
LAYOUTDICT
350
4858
  3
LWETCUNION
350
485B
  3
PLOTSETDICT
350
4859
  3
PLOTSTYLNAMDICT
350
485A
  3
PSVPSCALE
350
4860
  3
PUCSBASE
350
4864
  3
PUCSORGBACK
350
486A
  3
PUCSORGBOTTOM
350
4866
  3
PUCSORGFRONT
350
4869
  3
PUCSORGLEFT
350
4867
  3
PUCSORGRIGHT
350
4868
  3
PUCSORGTOP
350
4865
  3
PUCSORTHOREF
350
4862
  3
PUCSORTHOVIEW
350
4863
  3
STYLESHEET
350
4857
  3
TSTACKALIGN
350
4854
  3
TSTACKSIZE
350
4855
  3
UCSBASE
350
486D
  3
UCSORGBACK
350
4873
  3
UCSORGBOTTOM
350
486F
  3
UCSORGFRONT
350
4872
  3
UCSORGLEFT
350
4870
  3
UCSORGRIGHT
350
4871
  3
UCSORGTOP
350
486E
  3
UCSORTHOREF
350
486B
  3
UCSORTHOVIEW
350
486C
  3
VERSIONGUID
350
485F
  0
DICTIONARY
  5
3E63
102
{ACAD_REACTORS
330
C
102
}
330
C
100
AcDbDictionary
281
     1
  3
DIMASSOC
350
3E64
  3
PROJECTNAME
350
3E65
  0
DICTIONARY
  5
43C3
102
{ACAD_REACTORS
330
43C2
102
}
330
43C2
100
AcDbDictionary
281
     1
  0
XRECORD
  5
3D92
102
{ACAD_REACTORS
330
3D1E
102
}
330
3D1E
100
AcDbXrecord
280
     1
340
1E
  0
XRECORD
  5
3D91
102
{ACAD_REACTORS
330
3D20
102
}
330
3D20
100
AcDbXrecord
280
     1
340
1A
  0
GROUP
  5
4143
102
{ACAD_REACTORS
330
D
102
}
330
D
100
AcDbGroup
300

 70
     1
 71
     1
  0
GROUP
  5
43BC
102
{ACAD_REACTORS
330
D
102
}
330
D
100
AcDbGroup
300

 70
     1
 71
     1
  0
GROUP
  5
43BD
102
{ACAD_REACTORS
330
D
102
}
330
D
100
AcDbGroup
300

 70
     1
 71
     1
  0
GROUP
  5
437D
102
{ACAD_REACTORS
330
D
102
}
330
D
100
AcDbGroup
300

 70
     1
 71
     1
  0
GROUP
  5
43BE
102
{ACAD_REACTORS
330
D
102
}
330
D
100
AcDbGroup
300

 70
     1
 71
     1
  0
GROUP
  5
4144
102
{ACAD_REACTORS
330
D
102
}
330
D
100
AcDbGroup
300

 70
     1
 71
     1
  0
GROUP
  5
4147
102
{ACAD_REACTORS
330
D
102
}
330
D
100
AcDbGroup
300

 70
     1
 71
     1
  0
GROUP
  5
4378
102
{ACAD_REACTORS
330
D
102
}
330
D
100
AcDbGroup
300

 70
     1
 71
     1
  0
GROUP
  5
43BF
102
{ACAD_REACTORS
330
D
102
}
330
D
100
AcDbGroup
300

 70
     1
 71
     1
  0
GROUP
  5
43C0
102
{ACAD_REACTORS
330
D
102
}
330
D
100
AcDbGroup
300

 70
     1
 71
     1
  0
GROUP
  5
43C1
102
{ACAD_REACTORS
330
D
102
}
330
D
100
AcDbGroup
300

 70
     1
 71
     1
  0
GROUP
  5
43B7
102
{ACAD_REACTORS
330
D
102
}
330
D
100
AcDbGroup
300

 70
     1
 71
     1
  0
GROUP
  5
4148
102
{ACAD_REACTORS
330
D
102
}
330
D
100
AcDbGroup
300

 70
     1
 71
     1
  0
GROUP
  5
414C
102
{ACAD_REACTORS
330
D
102
}
330
D
100
AcDbGroup
300

 70
     1
 71
     1
  0
GROUP
  5
414F
102
{ACAD_REACTORS
330
D
102
}
330
D
100
AcDbGroup
300

 70
     1
 71
     1
  0
GROUP
  5
437E
102
{ACAD_REACTORS
330
D
102
}
330
D
100
AcDbGroup
300

 70
     1
 71
     1
  0
GROUP
  5
4149
102
{ACAD_REACTORS
330
D
102
}
330
D
100
AcDbGroup
300

 70
     1
 71
     1
  0
GROUP
  5
414A
102
{ACAD_REACTORS
330
D
102
}
330
D
100
AcDbGroup
300

 70
     1
 71
     1
  0
GROUP
  5
414B
102
{ACAD_REACTORS
330
D
102
}
330
D
100
AcDbGroup
300

 70
     1
 71
     1
  0
GROUP
  5
4235
102
{ACAD_REACTORS
330
D
102
}
330
D
100
AcDbGroup
300

 70
     1
 71
     1
  0
GROUP
  5
4239
102
{ACAD_REACTORS
330
D
102
}
330
D
100
AcDbGroup
300

 70
     1
 71
     1
  0
GROUP
  5
423B
102
{ACAD_REACTORS
330
D
102
}
330
D
100
AcDbGroup
300

 70
     1
 71
     1
  0
GROUP
  5
43B8
102
{ACAD_REACTORS
330
D
102
}
330
D
100
AcDbGroup
300

 70
     1
 71
     1
  0
GROUP
  5
4236
102
{ACAD_REACTORS
330
D
102
}
330
D
100
AcDbGroup
300

 70
     1
 71
     1
  0
GROUP
  5
4237
102
{ACAD_REACTORS
330
D
102
}
330
D
100
AcDbGroup
300

 70
     1
 71
     1
  0
GROUP
  5
4238
102
{ACAD_REACTORS
330
D
102
}
330
D
100
AcDbGroup
300

 70
     1
 71
     1
  0
GROUP
  5
423C
102
{ACAD_REACTORS
330
D
102
}
330
D
100
AcDbGroup
300

 70
     1
 71
     1
  0
GROUP
  5
4240
102
{ACAD_REACTORS
330
D
102
}
330
D
100
AcDbGroup
300

 70
     1
 71
     1
  0
GROUP
  5
4373
102
{ACAD_REACTORS
330
D
102
}
330
D
100
AcDbGroup
300

 70
     1
 71
     1
  0
GROUP
  5
423D
102
{ACAD_REACTORS
330
D
102
}
330
D
100
AcDbGroup
300

 70
     1
 71
     1
  0
GROUP
  5
423E
102
{ACAD_REACTORS
330
D
102
}
330
D
100
AcDbGroup
300

 70
     1
 71
     1
  0
GROUP
  5
423F
102
{ACAD_REACTORS
330
D
102
}
330
D
100
AcDbGroup
300

 70
     1
 71
     1
  0
GROUP
  5
4374
102
{ACAD_REACTORS
330
D
102
}
330
D
100
AcDbGroup
300

 70
     1
 71
     1
  0
GROUP
  5
4377
102
{ACAD_REACTORS
330
D
102
}
330
D
100
AcDbGroup
300

 70
     1
 71
     1
  0
GROUP
  5
4379
102
{ACAD_REACTORS
330
D
102
}
330
D
100
AcDbGroup
300

 70
     1
 71
     1
  0
GROUP
  5
4375
102
{ACAD_REACTORS
330
D
102
}
330
D
100
AcDbGroup
300

 70
     1
 71
     1
  0
GROUP
  5
4145
102
{ACAD_REACTORS
330
D
102
}
330
D
100
AcDbGroup
300

 70
     1
 71
     1
  0
GROUP
  5
4376
102
{ACAD_REACTORS
330
D
102
}
330
D
100
AcDbGroup
300

 70
     1
 71
     1
  0
GROUP
  5
437A
102
{ACAD_REACTORS
330
D
102
}
330
D
100
AcDbGroup
300

 70
     1
 71
     1
  0
GROUP
  5
437F
102
{ACAD_REACTORS
330
D
102
}
330
D
100
AcDbGroup
300

 70
     1
 71
     1
  0
GROUP
  5
437B
102
{ACAD_REACTORS
330
D
102
}
330
D
100
AcDbGroup
300

 70
     1
 71
     1
  0
GROUP
  5
414D
102
{ACAD_REACTORS
330
D
102
}
330
D
100
AcDbGroup
300

 70
     1
 71
     1
  0
GROUP
  5
437C
102
{ACAD_REACTORS
330
D
102
}
330
D
100
AcDbGroup
300

 70
     1
 71
     1
  0
GROUP
  5
4146
102
{ACAD_REACTORS
330
D
102
}
330
D
100
AcDbGroup
300

 70
     1
 71
     1
  0
GROUP
  5
43B9
102
{ACAD_REACTORS
330
D
102
}
330
D
100
AcDbGroup
300

 70
     1
 71
     1
  0
GROUP
  5
43B5
102
{ACAD_REACTORS
330
D
102
}
330
D
100
AcDbGroup
300

 70
     1
 71
     1
  0
GROUP
  5
423A
102
{ACAD_REACTORS
330
D
102
}
330
D
100
AcDbGroup
300

 70
     1
 71
     1
  0
GROUP
  5
43B6
102
{ACAD_REACTORS
330
D
102
}
330
D
100
AcDbGroup
300

 70
     1
 71
     1
  0
GROUP
  5
414E
102
{ACAD_REACTORS
330
D
102
}
330
D
100
AcDbGroup
300

 70
     1
 71
     1
  0
GROUP
  5
43BA
102
{ACAD_REACTORS
330
D
102
}
330
D
100
AcDbGroup
300

 70
     1
 71
     1
  0
GROUP
  5
4241
102
{ACAD_REACTORS
330
D
102
}
330
D
100
AcDbGroup
300

 70
     1
 71
     1
  0
GROUP
  5
43BB
102
{ACAD_REACTORS
330
D
102
}
330
D
100
AcDbGroup
300

 70
     1
 71
     1
  0
LAYOUT
  5
21
102
{ACAD_XDICTIONARY
360
3E61
102
}
102
{ACAD_REACTORS
330
19
102
}
330
19
100
AcDbPlotSettings
  1

  2
HP 2200
  4

  6

 40
0.0
 41
0.0
 42
0.0
 43
0.0
 44
0.0
 45
0.0
 46
0.0
 47
0.0
 48
0.0
 49
0.0
140
0.0
141
0.0
142
1.0
143
1.0
 70
  1712
 72
     0
 73
     0
 74
     0
  7
AAA.ctb
 75
     0
147
1.0
148
0.0
149
0.0
100
AcDbLayout
  1
Model
 70
     1
 71
     0
 10
0.0
 20
0.0
 11
12.0
 21
9.0
 12
0.0
 22
0.0
 32
0.0
 14
0.0
 24
0.0
 34
0.0
 15
0.0
 25
0.0
 35
0.0
146
0.0
 13
0.0
 23
0.0
 33
0.0
 16
1.0
 26
0.0
 36
0.0
 17
0.0
 27
1.0
 37
0.0
 76
     0
330
1E
  0
LAYOUT
  5
1D
102
{ACAD_XDICTIONARY
360
3E5F
102
}
102
{ACAD_REACTORS
330
19
102
}
330
19
100
AcDbPlotSettings
  1

  2
HP 2200
  4

  6

 40
0.0
 41
0.0
 42
0.0
 43
0.0
 44
0.0
 45
0.0
 46
0.0
 47
0.0
 48
0.0
 49
0.0
140
0.0
141
0.0
142
1.0
143
1.0
 70
   688
 72
     0
 73
     0
 74
     5
  7
AAA.ctb
 75
    16
147
1.0
148
0.0
149
0.0
100
AcDbLayout
  1
配置1
 70
     0
 71
     1
 10
0.0
 20
0.0
 11
12.0
 21
9.0
 12
0.0
 22
0.0
 32
0.0
 14
1.000000000000000E+20
 24
1.000000000000000E+20
 34
1.000000000000000E+20
 15
-1.000000000000000E+20
 25
-1.000000000000000E+20
 35
-1.000000000000000E+20
146
0.0
 13
0.0
 23
0.0
 33
0.0
 16
1.0
 26
0.0
 36
0.0
 17
0.0
 27
1.0
 37
0.0
 76
     0
330
1A
  0
MLINESTYLE
  5
17
102
{ACAD_REACTORS
330
16
102
}
330
16
100
AcDbMlineStyle
  2
STANDARD
 70
     0
  3

 62
   256
 51
90.0
 52
90.0
 71
     2
 49
0.5
 62
   256
  6
BYLAYER
 49
-0.5
 62
   256
  6
BYLAYER
  0
PLOTSETTINGS
  5
4150
102
{ACAD_XDICTIONARY
360
4151
102
}
102
{ACAD_REACTORS
330
18
102
}
330
18
100
AcDbPlotSettings
  1
LANSRO
  2
\\1260\HP2200
  4
A4
  6

 40
6.043083190917968
 41
6.762742042541503
 42
7.736419677734375
 43
5.027069091796875
 44
209.9733276367187
 45
296.9683227539062
 46
5.15
 47
0.0
 48
0.0
 49
0.0
140
0.0
141
0.0
142
1.0
143
0.8829829263240881
 70
  1716
 72
     1
 73
     1
 74
     0
  7
AAA.ctb
 75
     0
147
1.132524729739748
148
-132.297014905803
149
-71.78507365635891
  0
ACDBPLACEHOLDER
  5
F
102
{ACAD_REACTORS
330
E
102
}
330
E
  0
XRECORD
  5
485D
102
{ACAD_REACTORS
330
4853
102
}
330
4853
100
AcDbXrecord
280
     1
 90
        0
  0
XRECORD
  5
4861
102
{ACAD_REACTORS
330
4853
102
}
330
4853
100
AcDbXrecord
280
     1
1000
DSTYLE
1002
{
1070
   279
 70
     2
1002
}
  0
XRECORD
  5
485E
102
{ACAD_REACTORS
330
4853
102
}
330
4853
100
AcDbXrecord
280
     1
  1
{77095E5F-9CE7-11D7-970D-0040F4541FA8}
  0
XRECORD
  5
4856
102
{ACAD_REACTORS
330
4853
102
}
330
4853
100
AcDbXrecord
280
     1
  1

  0
XRECORD
  5
485C
102
{ACAD_REACTORS
330
4853
102
}
330
4853
100
AcDbXrecord
280
     1
 90
        0
  0
XRECORD
  5
4858
102
{ACAD_REACTORS
330
4853
102
}
330
4853
100
AcDbXrecord
280
     1
340
19
  0
XRECORD
  5
485B
102
{ACAD_REACTORS
330
4853
102
}
330
4853
100
AcDbXrecord
280
     1
 90
    14877
  0
XRECORD
  5
4859
102
{ACAD_REACTORS
330
4853
102
}
330
4853
100
AcDbXrecord
280
     1
340
18
  0
XRECORD
  5
485A
102
{ACAD_REACTORS
330
4853
102
}
330
4853
100
AcDbXrecord
280
     1
340
E
  0
XRECORD
  5
4860
102
{ACAD_REACTORS
330
4853
102
}
330
4853
100
AcDbXrecord
280
     1
 40
0.0
  0
XRECORD
  5
4864
102
{ACAD_REACTORS
330
4853
102
}
330
4853
100
AcDbXrecord
280
     1
340
0
  0
XRECORD
  5
486A
102
{ACAD_REACTORS
330
4853
102
}
330
4853
100
AcDbXrecord
280
     1
 10
0.0
 20
0.0
 30
0.0
  0
XRECORD
  5
4866
102
{ACAD_REACTORS
330
4853
102
}
330
4853
100
AcDbXrecord
280
     1
 10
0.0
 20
0.0
 30
0.0
  0
XRECORD
  5
4869
102
{ACAD_REACTORS
330
4853
102
}
330
4853
100
AcDbXrecord
280
     1
 10
0.0
 20
0.0
 30
0.0
  0
XRECORD
  5
4867
102
{ACAD_REACTORS
330
4853
102
}
330
4853
100
AcDbXrecord
280
     1
 10
0.0
 20
0.0
 30
0.0
  0
XRECORD
  5
4868
102
{ACAD_REACTORS
330
4853
102
}
330
4853
100
AcDbXrecord
280
     1
 10
0.0
 20
0.0
 30
0.0
  0
XRECORD
  5
4865
102
{ACAD_REACTORS
330
4853
102
}
330
4853
100
AcDbXrecord
280
     1
 10
0.0
 20
0.0
 30
0.0
  0
XRECORD
  5
4862
102
{ACAD_REACTORS
330
4853
102
}
330
4853
100
AcDbXrecord
280
     1
340
0
  0
XRECORD
  5
4863
102
{ACAD_REACTORS
330
4853
102
}
330
4853
100
AcDbXrecord
280
     1
 70
     0
  0
XRECORD
  5
4857
102
{ACAD_REACTORS
330
4853
102
}
330
4853
100
AcDbXrecord
280
     1
  1

  0
XRECORD
  5
4854
102
{ACAD_REACTORS
330
4853
102
}
330
4853
100
AcDbXrecord
280
     1
 90
        1
  0
XRECORD
  5
4855
102
{ACAD_REACTORS
330
4853
102
}
330
4853
100
AcDbXrecord
280
     1
 90
       70
  0
XRECORD
  5
486D
102
{ACAD_REACTORS
330
4853
102
}
330
4853
100
AcDbXrecord
280
     1
340
0
  0
XRECORD
  5
4873
102
{ACAD_REACTORS
330
4853
102
}
330
4853
100
AcDbXrecord
280
     1
 10
0.0
 20
0.0
 30
0.0
  0
XRECORD
  5
486F
102
{ACAD_REACTORS
330
4853
102
}
330
4853
100
AcDbXrecord
280
     1
 10
0.0
 20
0.0
 30
0.0
  0
XRECORD
  5
4872
102
{ACAD_REACTORS
330
4853
102
}
330
4853
100
AcDbXrecord
280
     1
 10
0.0
 20
0.0
 30
0.0
  0
XRECORD
  5
4870
102
{ACAD_REACTORS
330
4853
102
}
330
4853
100
AcDbXrecord
280
     1
 10
0.0
 20
0.0
 30
0.0
  0
XRECORD
  5
4871
102
{ACAD_REACTORS
330
4853
102
}
330
4853
100
AcDbXrecord
280
     1
 10
0.0
 20
0.0
 30
0.0
  0
XRECORD
  5
486E
102
{ACAD_REACTORS
330
4853
102
}
330
4853
100
AcDbXrecord
280
     1
 10
0.0
 20
0.0
 30
0.0
  0
XRECORD
  5
486B
102
{ACAD_REACTORS
330
4853
102
}
330
4853
100
AcDbXrecord
280
     1
340
0
  0
XRECORD
  5
486C
102
{ACAD_REACTORS
330
4853
102
}
330
4853
100
AcDbXrecord
280
     1
 70
     0
  0
XRECORD
  5
485F
102
{ACAD_REACTORS
330
4853
102
}
330
4853
100
AcDbXrecord
280
     1
  1
{A38B9E37-56EA-499D-99A0-836BBD417BC0}
  0
DICTIONARYVAR
  5
3E64
102
{ACAD_REACTORS
330
3E63
102
}
330
3E63
100
DictionaryVariables
280
     0
  1
1
  0
DICTIONARYVAR
  5
3E65
102
{ACAD_REACTORS
330
3E63
102
}
330
3E63
100
DictionaryVariables
280
     0
  1

  0
DICTIONARY
  5
3E61
330
21
100
AcDbDictionary
280
     1
281
     1
  3
ACAD_XREC_ROUNDTRIP
360
3E62
  0
DICTIONARY
  5
3E5F
330
1D
100
AcDbDictionary
280
     1
281
     1
  3
ACAD_XREC_ROUNDTRIP
360
3E60
  0
DICTIONARY
  5
4151
330
4150
100
AcDbDictionary
280
     1
281
     1
  3
ACAD_XREC_ROUNDTRIP
360
4152
  0
XRECORD
  5
3E62
102
{ACAD_REACTORS
330
3E61
102
}
330
3E61
100
AcDbXrecord
280
     1
102
SHADEPLOT
 70
     0
102
SHADEPLOTRESLEVEL
 70
     2
102
SHADEPLOTCUSTOMDPI
 70
   300
  0
XRECORD
  5
3E60
102
{ACAD_REACTORS
330
3E5F
102
}
330
3E5F
100
AcDbXrecord
280
     1
102
SHADEPLOT
 70
     0
102
SHADEPLOTRESLEVEL
 70
     2
102
SHADEPLOTCUSTOMDPI
 70
   300
  0
XRECORD
  5
4152
102
{ACAD_REACTORS
330
4151
102
}
330
4151
100
AcDbXrecord
280
     1
102
SHADEPLOT
 70
     0
102
SHADEPLOTRESLEVEL
 70
     2
102
SHADEPLOTCUSTOMDPI
 70
   300
  0
ENDSEC
  0
EOF
