  0
SECTION
  2
HEADER
  9
$ACADVER
  1
AC1009
  9
$INSBASE
 10
0.0
 20
0.0
 30
0.0
  9
$EXTMIN
 10
-369.65131233744302
 20
-54.305800805245639
 30
0.0
  9
$EXTMAX
 10
-70.494592695025858
 20
159.92119678837821
 30
0.0
  9
$LIMMIN
 10
-10.0
 20
-15.0
  9
$LIMMAX
 10
120.0
 20
90.0
  9
$ORTHOMODE
 70
     1
  9
$REGENMODE
 70
     0
  9
$FILLMODE
 70
     1
  9
$QTEXTMODE
 70
     0
  9
$MIRRTEXT
 70
     0
  9
$DRAGMODE
 70
     2
  9
$LTSCALE
 40
2.0
  9
$OSMODE
 70
  3071
  9
$ATTMODE
 70
     1
  9
$TEXTSIZE
 40
3.0
  9
$TRACEWID
 40
1.0
  9
$TEXTSTYLE
  7
STANDARD
  9
$CLAYER
  8
0
  9
$CELTYPE
  6
ByLayer
  9
$CECOLOR
 62
   256
  9
$DIMSCALE
 40
1.0
  9
$DIMASZ
 40
3.0
  9
$DIMEXO
 40
1.0
  9
$DIMDLI
 40
6.0
  9
$DIMRND
 40
0.0
  9
$DIMDLE
 40
0.0
  9
$DIMEXE
 40
1.0
  9
$DIMTP
 40
0.0
  9
$DIMTM
 40
0.0
  9
$DIMTXT
 40
3.0
  9
$DIMCEN
 40
1.5
  9
$DIMTSZ
 40
0.0
  9
$DIMTOL
 70
     0
  9
$DIMLIM
 70
     0
  9
$DIMTIH
 70
     1
  9
$DIMTOH
 70
     1
  9
$DIMSE1
 70
     0
  9
$DIMSE2
 70
     0
  9
$DIMTAD
 70
     0
  9
$DIMZIN
 70
     0
  9
$DIMBLK
  1

  9
$DIMASO
 70
     1
  9
$DIMSHO
 70
     0
  9
$DIMPOST
  1

  9
$DIMAPOST
  1

  9
$DIMALT
 70
     0
  9
$DIMALTD
 70
     2
  9
$DIMALTF
 40
25.399999999999999
  9
$DIMLFAC
 40
1.0
  9
$DIMTOFL
 70
     1
  9
$DIMTVP
 40
0.0
  9
$DIMTIX
 70
     0
  9
$DIMSOXD
 70
     0
  9
$DIMSAH
 70
     0
  9
$DIMBLK1
  1

  9
$DIMBLK2
  1

  9
$DIMSTYLE
  2
STANDARD
  9
$DIMCLRD
 70
     0
  9
$DIMCLRE
 70
     0
  9
$DIMCLRT
 70
     0
  9
$DIMTFAC
 40
1.0
  9
$DIMGAP
 40
0.09
  9
$LUNITS
 70
     2
  9
$LUPREC
 70
     4
  9
$SKETCHINC
 40
0.5
  9
$FILLETRAD
 40
0.0
  9
$AUNITS
 70
     0
  9
$AUPREC
 70
     0
  9
$MENU
  1
ACAD
  9
$ELEVATION
 40
0.0
  9
$PELEVATION
 40
0.0
  9
$THICKNESS
 40
0.0
  9
$LIMCHECK
 70
     0
  9
$BLIPMODE
 70
     0
  9
$CHAMFERA
 40
0.0
  9
$CHAMFERB
 40
0.0
  9
$SKPOLY
 70
     0
  9
$TDCREATE
 40
2444975.333333334
  9
$TDUPDATE
 40
2453689.3972808109
  9
$TDINDWG
 40
0.1251090509
  9
$TDUSRTIMER
 40
0.0
  9
$USRTIMER
 70
     0
  9
$ANGBASE
 50
0.0
  9
$ANGDIR
 70
     0
  9
$PDMODE
 70
   171
  9
$PDSIZE
 40
0.001
  9
$PLINEWID
 40
0.0
  9
$COORDS
 70
     2
  9
$SPLFRAME
 70
     0
  9
$SPLINETYPE
 70
     6
  9
$SPLINESEGS
 70
     8
  9
$ATTDIA
 70
     0
  9
$ATTREQ
 70
     1
  9
$HANDLING
 70
     1
  9
$HANDSEED
  5
5815
  9
$SURFTAB1
 70
     6
  9
$SURFTAB2
 70
     6
  9
$SURFTYPE
 70
     6
  9
$SURFU
 70
     6
  9
$SURFV
 70
     6
  9
$UCSNAME
  2

  9
$UCSORG
 10
0.0
 20
0.0
 30
0.0
  9
$UCSXDIR
 10
1.0
 20
0.0
 30
0.0
  9
$UCSYDIR
 10
0.0
 20
1.0
 30
0.0
  9
$PUCSNAME
  2

  9
$PUCSORG
 10
0.0
 20
0.0
 30
0.0
  9
$PUCSXDIR
 10
1.0
 20
0.0
 30
0.0
  9
$PUCSYDIR
 10
0.0
 20
1.0
 30
0.0
  9
$USERI1
 70
     0
  9
$USERI2
 70
     0
  9
$USERI3
 70
     0
  9
$USERI4
 70
     0
  9
$USERI5
 70
     0
  9
$USERR1
 40
0.0
  9
$USERR2
 40
0.0
  9
$USERR3
 40
0.0
  9
$USERR4
 40
0.0
  9
$USERR5
 40
0.0
  9
$WORLDVIEW
 70
     1
  9
$SHADEDGE
 70
     3
  9
$SHADEDIF
 70
    70
  9
$TILEMODE
 70
     1
  9
$MAXACTVP
 70
    48
  9
$PLIMCHECK
 70
     0
  9
$PEXTMIN
 10
1.0000000000000000E+020
 20
1.0000000000000000E+020
 30
1.0000000000000000E+020
  9
$PEXTMAX
 10
-1.0000000000000000E+020
 20
-1.0000000000000000E+020
 30
-1.0000000000000000E+020
  9
$PLIMMIN
 10
0.0
 20
0.0
  9
$PLIMMAX
 10
12.0
 20
9.0
  9
$UNITMODE
 70
     0
  9
$VISRETAIN
 70
     1
  9
$PLINEGEN
 70
     0
  9
$PSLTSCALE
 70
     0
  0
ENDSEC
  0
SECTION
  2
TABLES
  0
TABLE
  2
VPORT
 70
     2
  0
VPORT
  2
*ACTIVE
 70
     0
 10
0.0
 20
0.0
 11
1.0
 21
1.0
 12
-216.5553100628326
 22
53.165734348680651
 13
457.99999999999972
 23
1082.0
 14
10.0
 24
10.0
 15
10.0
 25
10.0
 16
0.0
 26
0.0
 36
1.0
 17
0.0
 27
0.0
 37
0.0
 40
277.55991437075937
 41
1.7038081805359659
 42
1.0
 43
0.0
 44
0.0
 50
0.0
 51
0.0
 71
     0
 72
   100
 73
     1
 74
     1
 75
     0
 76
     0
 77
     0
 78
     0
  0
ENDTAB
  0
TABLE
  2
LTYPE
 70
     5
  0
LTYPE
  2
ByBlock
 70
     0
  3

 72
    65
 73
     0
 40
0.0
  0
LTYPE
  2
ByLayer
 70
     0
  3

 72
    65
 73
     0
 40
0.0
  0
LTYPE
  2
CONTINUOUS
 70
     0
  3
łsÄň˝u ________________________
 72
    65
 73
     2
 40
200000.0
 49
200000.0
 49
0.0
  0
LTYPE
  2
CENTER2
 70
     0
  3
Center (.5x) ___ _ ___ _ ___ _ ___ _ ___ _ ___
 72
    65
 73
     4
 40
28.574999999999999
 49
19.050000000000001
 49
-3.1749999999999989
 49
3.1749999999999989
 49
-3.1749999999999989
  0
LTYPE
  2
DASHED2
 70
     0
  3
Dashed (.5x) _ _ _ _ _ _ _ _ _ _ _ _ _ _ _ _ _
 72
    65
 73
     2
 40
9.5249999999999986
 49
6.3499999999999988
 49
-3.1749999999999989
  0
ENDTAB
  0
TABLE
  2
LAYER
 70
    10
  0
LAYER
  2
0
 70
     0
 62
     7
  6
CONTINUOUS
  0
LAYER
  2
«ü˝u
 70
     0
 62
     3
  6
CONTINUOUS
  0
LAYER
  2
¤¤¤ß˝u
 70
     0
 62
     4
  6
CENTER2
  0
LAYER
  2
µę˝u
 70
     0
 62
     6
  6
DASHED2
  0
LAYER
  2
«Řşc˝u
 70
     0
 62
     1
  6
CONTINUOUS
  0
LAYER
  2
AM5
 70
     0
 62
     3
  6
CONTINUOUS
  0
LAYER
  2
AM7
 70
     0
 62
     4
  6
CENTER2
  0
LAYER
  2
DEFPOINTS
 70
     0
 62
     7
  6
CONTINUOUS
  0
LAYER
  2
AM3
 70
     0
 62
     6
  6
DASHED2
  0
LAYER
  2
¤¤¤ß
 70
     0
 62
     4
  6
CENTER2
  0
ENDTAB
  0
TABLE
  2
STYLE
 70
     2
  0
STYLE
  2
STANDARD
 70
     0
 40
0.0
 41
1.0
 50
0.0
 71
     0
 42
3.0
  3
txt
  4

  0
STYLE
  2
«¬¦ˇ2
 70
     0
 40
0.0
 41
1.0
 50
0.0
 71
     0
 42
10.0
  3
txt
  4

  0
ENDTAB
  0
TABLE
  2
VIEW
 70
     0
  0
ENDTAB
  0
TABLE
  2
UCS
 70
     0
  0
ENDTAB
  0
TABLE
  2
APPID
 70
     4
  0
APPID
  2
ACAD
 70
     0
  0
APPID
  2
TCAD
 70
     0
  0
APPID
  2
CONTENTBLOCKICON
 70
     0
  0
APPID
  2
PNTFLAG
 70
     0
  0
ENDTAB
  0
TABLE
  2
DIMSTYLE
 70
     2
  0
DIMSTYLE
  2
STANDARD
 70
     0
  3

  4

  5

  6

  7

 40
1.0
 41
0.18
 42
0.0625
 43
0.38
 44
0.18
 45
0.0
 46
0.0
 47
0.0
 48
0.0
140
0.18
141
0.09
142
0.0
143
25.399999999999999
144
1.0
145
0.0
146
1.0
147
0.09
 71
     0
 72
     0
 73
     1
 74
     1
 75
     0
 76
     0
 77
     0
 78
     0
170
     0
171
     2
172
     0
173
     0
174
     0
175
     0
176
     0
177
     0
178
     0
  0
DIMSTYLE
  2
ISO-25
 70
     0
  3

  4

  5

  6

  7

 40
1.0
 41
1.1999999999999991
 42
0.7
 43
3.75
 44
0.3
 45
0.0
 46
0.0
 47
0.0
 48
0.0
140
1.5
141
2.5
142
0.0
143
0.03937007874016
144
1.0
145
0.0
146
1.0
147
0.5
 71
     0
 72
     0
 73
     0
 74
     0
 75
     0
 76
     0
 77
     1
 78
     8
170
     0
171
     3
172
     1
173
     0
174
     0
175
     0
176
     3
177
     3
178
     2
  0
ENDTAB
  0
ENDSEC
  0
SECTION
  2
BLOCKS
  0
BLOCK
  8
0
  2
$MODEL_SPACE
 70
     0
 10
0.0
 20
0.0
 30
0.0
  3
$MODEL_SPACE
  1

  0
ENDBLK
  5
255
  8
0
  0
BLOCK
 67
     1
  8
0
  2
$PAPER_SPACE
 70
     0
 10
0.0
 20
0.0
 30
0.0
  3
$PAPER_SPACE
  1

  0
ENDBLK
  5
253
 67
     1
  8
0
  0
BLOCK
  8
0
  2
A$C48B84AC6
 70
     0
 10
0.0
 20
0.0
 30
0.0
  3
A$C48B84AC6
  1

  0
LINE
  5
4ECE
  8
AM3
 10
1.25
 20
8.5
 30
0.0
 11
-1.250000000000056
 21
8.4999999999999716
 31
0.0
  0
LINE
  5
4ECF
  8
AM3
 10
0.0000000000000568
 20
9.2216878364871206
 30
0.0
 11
-1.250000000000056
 21
8.4999999999999716
 31
0.0
  0
LINE
  5
4ED0
  8
AM3
 10
1.5
 20
7.0
 30
0.0
 11
-1.5
 21
6.9999999999999707
 31
0.0
  0
LINE
  5
4ED1
  8
AM3
 10
1.25
 20
0.5
 30
0.0
 11
-1.25
 21
0.5
 31
0.0
  0
LINE
  5
4ED2
  8
AM3
 10
-1.5
 20
7.0000000000000853
 30
0.0
 11
-1.5
 21
0.25
 31
0.0
  0
LINE
  5
4ED3
  8
AM3
 10
-1.25
 20
8.5000000000000284
 30
0.0
 11
-1.25
 21
0.5
 31
0.0
  0
LINE
  5
4ED4
  8
AM3
 10
-1.25
 20
0.5
 30
0.0
 11
-1.75
 21
0.0
 31
0.0
  0
LINE
  5
4ED5
  8
AM3
 10
-0.0000000000000568
 20
9.2216878364871206
 30
0.0
 11
1.25
 21
8.4999999999999716
 31
0.0
  0
LINE
  5
4ED6
  8
AM3
 10
1.5
 20
7.0
 30
0.0
 11
1.5
 21
0.25
 31
0.0
  0
LINE
  5
4ED7
  8
AM3
 10
1.25
 20
8.5000000000000284
 30
0.0
 11
1.25
 21
0.5
 31
0.0
  0
LINE
  5
4ED8
  8
AM3
 10
1.25
 20
0.5
 30
0.0
 11
1.7499999999998861
 21
0.0
 31
0.0
  0
ENDBLK
  5
4EDA
  8
0
  0
BLOCK
  8
0
  2
A$C51271F55
 70
     0
 10
0.0
 20
0.0
 30
0.0
  3
A$C51271F55
  1

  0
CIRCLE
  5
5041
  8
«ü˝u
 10
50.340086857598948
 20
30.48978962761942
 30
0.0
 40
2.7397896464000162
  0
CIRCLE
  5
5042
  8
«ü˝u
 10
50.340007933986527
 20
2.7397896275172959
 30
0.0
 40
2.7397896464000162
  0
CIRCLE
  5
5043
  8
«ü˝u
 10
2.740086858691313
 20
30.490112096628309
 30
0.0
 40
2.7397896464000162
  0
CIRCLE
  5
5044
  8
«ü˝u
 10
2.7397897942785221
 20
2.7401120980040332
 30
0.0
 40
2.7397896464000162
  0
ENDBLK
  5
5046
  8
0
  0
BLOCK
  8
0
  2
A$C28E15934
 70
     0
 10
0.0
 20
0.0
 30
0.0
  3
A$C28E15934
  1

  0
LINE
  5
50CE
  8
AM7
 10
0.0
 20
-4.1920555043677723
 30
0.0
 11
0.0
 21
4.1920555043677723
 31
0.0
  0
ARC
  5
50CF
  8
AM5
 10
0.0000000000000142
 20
0.0
 30
0.0
 40
4.0
 50
257.54375510030042
 51
166.3373422884878
  0
LINE
  5
50D0
  8
AM7
 10
4.4173866332876202
 20
0.0
 30
0.0
 11
-4.4173866332875908
 21
0.0
 31
0.0
  0
CIRCLE
  5
50D1
  8
0
 10
0.0000000000000142
 20
0.0
 30
0.0
 40
3.3999999999999768
  0
ENDBLK
  5
50D4
  8
0
  0
BLOCK
  8
0
  2
*U3
 70
     1
 10
0.0
 20
0.0
 30
0.0
  3
*U3
  1

  0
TEXT
  5
57DB
  8
0
 10
-368.71319267703979
 20
-23.711960753645801
 30
0.0
 40
7.8000001593418631
  1
HGH30CA
  0
TEXT
  5
57DC
  8
0
 10
-368.9325149598186
 20
-36.81037486405225
 30
0.0
 40
7.8000001593418631
  1
C : 3950 kgf
  0
TEXT
  5
57DD
  8
0
 10
-368.9325149598186
 20
-50.008402343472753
 30
0.0
 40
7.8000001593418631
  1
C
  0
TEXT
  5
57DE
  8
0
 10
-361.2506114142808
 20
-45.198402245211931
 30
0.0
 40
5.4600001115393031
  1

  0
TEXT
  5
57DF
  8
0
 10
-362.0792293173871
 20
-52.471004019796119
 30
0.0
 40
5.4600001115393031
  1
0
  0
TEXT
  5
57E0
  8
0
 10
-357.64020483646078
 20
-50.009572343496643
 30
0.0
 40
7.8023401593896651
  1
: 8470 kgf
  0
ENDBLK
  5
57E2
  8
0
  0
ENDSEC
  0
SECTION
  2
ENTITIES
  0
TEXT
  5
4CBB
  8
0
 10
-10.651989752863271
 20
-43.468790589311993
 30
0.0
 40
5.4600001115393031
  1

  0
INSERT
  5
4EC6
  8
0
  2
*U3
 10
0.0
 20
0.0
 30
0.0
  0
LINE
  5
5472
  8
AM7
 10
-193.75899923580431
 20
144.62914128401059
 30
0.0
 11
-193.75899923580431
 21
153.01325229274599
 31
0.0
  0
LINE
  5
5473
  8
AM7
 10
-198.176385869092
 20
148.8211967883783
 30
0.0
 11
-189.3416126025167
 21
148.8211967883783
 31
0.0
  0
ARC
  5
5474
  8
AM5
 10
-193.75899923580431
 20
148.8211967883783
 30
0.0
 40
4.0
 50
193.78456357938259
 51
102.5781507675698
  0
CIRCLE
  5
5475
  8
0
 10
-193.75899923580431
 20
148.8211967883783
 30
0.0
 40
3.399999999999975
  0
ARC
  5
5476
  8
AM5
 10
-193.71627067393081
 20
108.8211967883783
 30
0.0
 40
4.0
 50
257.54375510029962
 51
166.33734228848789
  0
CIRCLE
  5
5477
  8
0
 10
-193.71627067393081
 20
108.8211967883783
 30
0.0
 40
3.399999999999975
  0
LINE
  5
5478
  8
AM7
 10
-198.1336573072185
 20
108.8211967883783
 30
0.0
 11
-189.2988840406432
 21
108.8211967883783
 31
0.0
  0
LINE
  5
5479
  8
AM7
 10
-193.71627067393081
 20
104.6291412840106
 30
0.0
 11
-193.71627067393081
 21
113.013252292746
 31
0.0
  0
LINE
  5
547A
  8
AM7
 10
-153.71627067393089
 20
104.6291412840106
 30
0.0
 11
-153.71627067393089
 21
113.013252292746
 31
0.0
  0
LINE
  5
547B
  8
AM7
 10
-149.2988840406432
 20
108.8211967883783
 30
0.0
 11
-158.1336573072185
 21
108.8211967883783
 31
0.0
  0
LINE
  5
547C
  8
AM7
 10
-235.23934690095521
 20
128.8211967883783
 30
0.0
 11
-119.5195242529811
 21
128.8211967883783
 31
0.0
  0
LINE
  5
547D
  8
0
 10
-368.15131233744302
 20
50.48307180113617
 30
0.0
 11
-353.65131233744302
 21
50.48307180113617
 31
0.0
  0
LINE
  5
547E
  8
0
 10
-369.65131233744302
 20
32.483071801136177
 30
0.0
 11
-369.65131233744302
 21
48.98307180113629
 31
0.0
  0
LINE
  5
547F
  8
0
 10
-369.15131233744302
 20
13.98307180113617
 30
0.0
 11
-369.15131233744302
 21
31.98307180113618
 31
0.0
  0
LINE
  5
5480
  8
0
 10
-369.65131233744302
 20
32.483071801136177
 30
0.0
 11
-369.15131233744302
 21
31.98307180113618
 31
0.0
  0
LINE
  5
5481
  8
0
 10
-368.15131233744302
 20
50.48307180113617
 30
0.0
 11
-369.65131233744302
 21
48.98307180113629
 31
0.0
  0
LINE
  5
5482
  8
µę˝u
 10
-363.65131233744302
 20
49.633071801136147
 30
0.0
 11
-363.65131233744302
 21
40.48307180113617
 31
0.0
  0
LINE
  5
5483
  8
µę˝u
 10
-363.05131233744288
 20
49.633071801136147
 30
0.0
 11
-363.05131233744288
 21
36.733071801136177
 31
0.0
  0
LINE
  5
5484
  8
µę˝u
 10
-356.25131233744298
 20
36.733071801136177
 30
0.0
 11
-356.25131233744298
 21
49.633071801136147
 31
0.0
  0
LINE
  5
5485
  8
µę˝u
 10
-355.65131233744302
 20
40.48307180113617
 30
0.0
 11
-355.65131233744302
 21
49.633071801136147
 31
0.0
  0
LINE
  5
5486
  8
µę˝u
 10
-363.65131233744302
 20
40.48307180113617
 30
0.0
 11
-355.65131233744302
 21
40.48307180113617
 31
0.0
  0
LINE
  5
5487
  8
µę˝u
 10
-363.05131233744288
 20
36.733071801136177
 30
0.0
 11
-359.65131233744302
 21
35.441592525580113
 31
0.0
  0
LINE
  5
5488
  8
µę˝u
 10
-362.69131233744292
 20
36.733071801136177
 30
0.0
 11
-356.611312337443
 21
36.733071801136177
 31
0.0
  0
LINE
  5
5489
  8
µę˝u
 10
-359.65131233744302
 20
35.441592525580113
 30
0.0
 11
-356.25131233744298
 21
36.733071801136177
 31
0.0
  0
LINE
  5
548A
  8
0
 10
-345.15131233744302
 20
49.98307180113617
 30
0.0
 11
-353.15131233744302
 21
49.98307180113617
 31
0.0
  0
LINE
  5
548B
  8
0
 10
-353.65131233744302
 20
50.48307180113617
 30
0.0
 11
-353.15131233744302
 21
49.98307180113617
 31
0.0
  0
LINE
  5
548C
  8
µę˝u
 10
-363.65131233744302
 20
49.633071801136147
 30
0.0
 11
-355.65131233744302
 21
49.633071801136147
 31
0.0
  0
LINE
  5
548D
  8
µę˝u
 10
-354.84853455966532
 20
50.48307180113617
 30
0.0
 11
-355.65131233744302
 21
49.633071801136147
 31
0.0
  0
LINE
  5
548E
  8
µę˝u
 10
-364.45409011522071
 20
50.48307180113617
 30
0.0
 11
-363.65131233744302
 21
49.633071801136147
 31
0.0
  0
LINE
  5
548F
  8
0
 10
-309.65131233744307
 20
41.983071801136177
 30
0.0
 11
-309.65131233744307
 21
48.983071801136113
 31
0.0
  0
LINE
  5
5490
  8
µę˝u
 10
-323.05131233744288
 20
36.733071801136177
 30
0.0
 11
-323.05131233744288
 21
49.633071801136147
 31
0.0
  0
LINE
  5
5491
  8
µę˝u
 10
-316.25131233744298
 20
49.633071801136147
 30
0.0
 11
-316.25131233744298
 21
36.733071801136177
 31
0.0
  0
LINE
  5
5492
  8
µę˝u
 10
-323.65131233744302
 20
40.48307180113617
 30
0.0
 11
-323.65131233744302
 21
49.633071801136147
 31
0.0
  0
LINE
  5
5493
  8
µę˝u
 10
-315.65131233744302
 20
49.633071801136147
 30
0.0
 11
-315.65131233744302
 21
40.48307180113617
 31
0.0
  0
LINE
  5
5494
  8
0
 10
-310.15131233744307
 20
13.98307180113601
 30
0.0
 11
-310.15131233744307
 21
41.483071801136177
 31
0.0
  0
LINE
  5
5495
  8
µę˝u
 10
-316.611312337443
 20
36.733071801136177
 30
0.0
 11
-322.69131233744292
 21
36.733071801136177
 31
0.0
  0
LINE
  5
5496
  8
µę˝u
 10
-315.65131233744302
 20
40.48307180113617
 30
0.0
 11
-323.65131233744302
 21
40.48307180113617
 31
0.0
  0
LINE
  5
5497
  8
µę˝u
 10
-319.65131233744302
 20
35.441592525580113
 30
0.0
 11
-323.05131233744288
 21
36.733071801136177
 31
0.0
  0
LINE
  5
5498
  8
0
 10
-309.65131233744307
 20
41.983071801136177
 30
0.0
 11
-310.15131233744307
 21
41.483071801136177
 31
0.0
  0
LINE
  5
5499
  8
µę˝u
 10
-316.25131233744298
 20
36.733071801136177
 30
0.0
 11
-319.65131233744302
 21
35.441592525580113
 31
0.0
  0
LINE
  5
549A
  8
µę˝u
 10
-315.65131233744302
 20
49.633071801136147
 30
0.0
 11
-323.65131233744302
 21
49.633071801136147
 31
0.0
  0
LINE
  5
549B
  8
0
 10
-325.65131233744307
 20
50.48307180113617
 30
0.0
 11
-311.15131233744307
 21
50.48307180113617
 31
0.0
  0
LINE
  5
549C
  8
µę˝u
 10
-324.45409011522059
 20
50.48307180113617
 30
0.0
 11
-323.65131233744302
 21
49.633071801136147
 31
0.0
  0
LINE
  5
549D
  8
0
 10
-326.15131233744307
 20
49.98307180113617
 30
0.0
 11
-334.15131233744302
 21
49.98307180113617
 31
0.0
  0
LINE
  5
549E
  8
0
 10
-325.65131233744307
 20
50.48307180113617
 30
0.0
 11
-326.15131233744307
 21
49.98307180113617
 31
0.0
  0
LINE
  5
549F
  8
0
 10
-311.15131233744307
 20
50.48307180113617
 30
0.0
 11
-309.65131233744307
 21
48.983071801136113
 31
0.0
  0
LINE
  5
54A0
  8
µę˝u
 10
-314.84853455966532
 20
50.48307180113617
 30
0.0
 11
-315.65131233744302
 21
49.633071801136147
 31
0.0
  0
LINE
  5
54A1
  8
0
 10
-344.65131233744302
 20
50.48307180113617
 30
0.0
 11
-334.65131233744302
 21
50.48307180113617
 31
0.0
  0
LINE
  5
54A2
  8
0
 10
-334.65131233744302
 20
50.48307180113617
 30
0.0
 11
-334.15131233744302
 21
49.98307180113617
 31
0.0
  0
LINE
  5
54A3
  8
0
 10
-344.65131233744302
 20
50.48307180113617
 30
0.0
 11
-345.15131233744302
 21
49.98307180113617
 31
0.0
  0
LINE
  5
54A4
  8
0
 10
-345.15131233744302
 20
49.98307180113617
 30
0.0
 11
-344.65131233744302
 21
50.48307180113617
 31
0.0
  0
LINE
  5
54A5
  8
0
 10
-344.65131233744302
 20
50.48307180113617
 30
0.0
 11
-345.15131233744302
 21
49.98307180113617
 31
0.0
  0
LINE
  5
54A6
  8
¤¤¤ß˝u
 10
-359.65131233744302
 20
32.988243353986419
 30
0.0
 11
-359.65131233744302
 21
53.333335685362648
 31
0.0
  0
LINE
  5
54A7
  8
¤¤¤ß˝u
 10
-319.65131233744302
 20
32.988243353986448
 30
0.0
 11
-319.65131233744302
 21
53.333335685362677
 31
0.0
  0
LINE
  5
54A8
  8
0
 10
-312.6513123374429
 20
11.483071801136161
 30
0.0
 11
-326.35163405233931
 21
11.483071801136161
 31
0.0
  0
LINE
  5
54A9
  8
0
 10
-366.6513123374429
 20
11.483071801136161
 30
0.0
 11
-352.95099062254661
 21
11.483071801136161
 31
0.0
  0
LINE
  5
54AA
  8
0
 10
-312.65131233744302
 20
46.483071801136113
 30
0.0
 11
-366.6513123374429
 21
46.483071801136113
 31
0.0
  0
POLYLINE
  5
54AB
  8
0
 66
     1
 10
0.0
 20
0.0
 30
0.0
  0
VERTEX
  5
57E3
  8
0
 10
-330.69962461014302
 20
40.983071801273852
 30
0.0
  0
VERTEX
  5
57E4
  8
0
 10
-330.6660763087429
 20
40.766034558773853
 30
0.0
  0
VERTEX
  5
57E5
  8
0
 10
-330.63318531954292
 20
40.703130324773873
 30
0.0
  0
VERTEX
  5
57E6
  8
0
 10
-330.59661498574297
 20
40.673588688073842
 30
0.0
  0
VERTEX
  5
57E7
  8
0
 10
-330.56263782834287
 20
40.673895968073857
 30
0.0
  0
VERTEX
  5
57E8
  8
0
 10
-330.52614498254292
 20
40.704100260873858
 30
0.0
  0
VERTEX
  5
57E9
  8
0
 10
-330.4948010815429
 20
40.76387023837384
 30
0.0
  0
VERTEX
  5
57EA
  8
0
 10
-330.46541442084288
 20
40.89394321907384
 30
0.0
  0
VERTEX
  5
57EB
  8
0
 10
-330.4604471720429
 20
40.983071801273852
 30
0.0
  0
VERTEX
  5
57EC
  8
0
 10
-330.493994137443
 20
41.200107707773832
 30
0.0
  0
VERTEX
  5
57ED
  8
0
 10
-330.52688646264289
 20
41.263011941773847
 30
0.0
  0
VERTEX
  5
57EE
  8
0
 10
-330.56345679644301
 20
41.292553578473857
 30
0.0
  0
VERTEX
  5
57EF
  8
0
 10
-330.59743261784291
 20
41.292246298373847
 30
0.0
  0
VERTEX
  5
57F0
  8
0
 10
-330.63392679964289
 20
41.262042005573839
 30
0.0
  0
VERTEX
  5
57F1
  8
0
 10
-330.66526936464288
 20
41.202272028073843
 30
0.0
  0
VERTEX
  5
57F2
  8
0
 10
-330.69465736134299
 20
41.072199047473838
 30
0.0
  0
VERTEX
  5
57F3
  8
0
 10
-330.69962461014302
 20
40.983071801273852
 30
0.0
  0
SEQEND
  5
57F4
  8
0
  0
ARC
  5
54AC
  8
0
 10
-339.6513123374429
 20
40.983071801273859
 30
0.0
 40
3.999999331999998
 50
48.590377998899349
 51
311.40962200319922
  0
LINE
  5
54AD
  8
0
 10
-336.76456056644292
 20
43.983070966273843
 30
0.0
 11
-337.34191172224291
 21
44.983071133273839
 31
0.0
  0
LINE
  5
54AE
  8
0
 10
-341.96071295264289
 20
44.983071133273839
 30
0.0
 11
-337.34191172224291
 21
44.983071133273839
 31
0.0
  0
LINE
  5
54AF
  8
0
 10
-341.96071295264289
 20
44.983071133273839
 30
0.0
 11
-344.27011356784288
 21
40.983071801273859
 31
0.0
  0
LINE
  5
54B0
  8
0
 10
-344.27011356784288
 20
40.983071801273859
 30
0.0
 11
-341.96071295264289
 21
36.983071133273853
 31
0.0
  0
LINE
  5
54B1
  8
0
 10
-337.34191038624289
 20
36.983071133273853
 30
0.0
 11
-341.96071295264289
 21
36.983071133273853
 31
0.0
  0
LINE
  5
54B2
  8
0
 10
-336.76456056644292
 20
37.983071300273849
 30
0.0
 11
-337.34191038624289
 21
36.983071133273853
 31
0.0
  0
LINE
  5
54B3
  8
0
 10
-338.34980631444301
 20
37.983071300273849
 30
0.0
 11
-335.335737731243
 21
37.983071300273849
 31
0.0
  0
LINE
  5
54B4
  8
0
 10
-335.2728388412429
 20
43.698384016973847
 30
0.0
 11
-335.335737731243
 21
43.983070966273843
 31
0.0
  0
LINE
  5
54B5
  8
0
 10
-335.335737731243
 20
37.983071300273849
 30
0.0
 11
-335.2728388412429
 21
38.267758249573852
 31
0.0
  0
LINE
  5
54B6
  8
0
 10
-338.34980631444301
 20
43.983070966273843
 30
0.0
 11
-335.335737731243
 21
43.983070966273843
 31
0.0
  0
LINE
  5
54B7
  8
0
 10
-335.77459108904287
 20
38.040715701473871
 30
0.0
 11
-333.77278448274302
 21
38.946530525473847
 31
0.0
  0
LINE
  5
54B8
  8
0
 10
-329.90757020414298
 20
40.633535401673832
 30
0.0
 11
-329.89439590604297
 21
40.983071801273859
 31
0.0
  0
LINE
  5
54B9
  8
0
 10
-329.94658675434289
 20
40.297431148273837
 30
0.0
 11
-329.90757020414298
 21
40.633535401673832
 31
0.0
  0
LINE
  5
54BA
  8
0
 10
-329.89439590604297
 20
40.983071801273859
 30
0.0
 11
-329.90757020414298
 21
41.33260820087385
 31
0.0
  0
LINE
  5
54BB
  8
0
 10
-335.99856484464289
 20
37.983071300273849
 30
0.0
 11
-335.77459108904287
 21
38.040715701473871
 31
0.0
  0
LINE
  5
54BC
  8
0
 10
-335.99856484464289
 20
43.983070966273843
 30
0.0
 11
-335.77459108904287
 21
43.925426565073849
 31
0.0
  0
LINE
  5
54BD
  8
0
 10
-335.77459108904287
 20
43.925426565073849
 30
0.0
 11
-333.77278448274302
 21
43.019611741073838
 31
0.0
  0
LINE
  5
54BE
  8
0
 10
-330.009946564443
 20
39.987676826973839
 30
0.0
 11
-329.94658675434289
 21
40.297431148273837
 31
0.0
  0
LINE
  5
54BF
  8
0
 10
-329.90757020414298
 20
41.33260820087385
 30
0.0
 11
-329.94658675434289
 21
41.668711118273848
 31
0.0
  0
LINE
  5
54C0
  8
0
 10
-330.0952154420429
 20
39.716173527873849
 30
0.0
 11
-330.009946564443
 21
39.987676826973839
 31
0.0
  0
LINE
  5
54C1
  8
0
 10
-330.854569906743
 20
39.344762796773871
 30
0.0
 11
-330.85267145044293
 21
39.345691316873861
 31
0.0
  0
LINE
  5
54C2
  8
0
 10
-329.94658675434289
 20
41.668711118273848
 30
0.0
 11
-330.009946564443
 21
41.97846677557385
 31
0.0
  0
LINE
  5
54C3
  8
0
 10
-336.22253860024301
 20
38.040715701473871
 30
0.0
 11
-335.99856484464289
 21
37.983071300273849
 31
0.0
  0
LINE
  5
54C4
  8
0
 10
-336.22253860024301
 20
43.925426565073849
 30
0.0
 11
-335.99856484464289
 21
43.983070966273843
 31
0.0
  0
LINE
  5
54C5
  8
0
 10
-330.19911484254288
 20
39.49335674837387
 30
0.0
 11
-330.0952154420429
 21
39.716173527873849
 31
0.0
  0
LINE
  5
54C6
  8
0
 10
-330.009946564443
 20
41.97846677557385
 30
0.0
 11
-330.0952154420429
 21
42.249968738673843
 31
0.0
  0
LINE
  5
54C7
  8
0
 10
-333.77278448274302
 20
38.946530525473847
 30
0.0
 11
-333.53166182844302
 21
39.044933621073866
 31
0.0
  0
LINE
  5
54C8
  8
0
 10
-333.77278448274302
 20
43.019611741073838
 30
0.0
 11
-333.53166182844302
 21
42.921209981473837
 31
0.0
  0
LINE
  5
54C9
  8
0
 10
-330.31765279734287
 20
39.327790250073839
 30
0.0
 11
-330.19911484254288
 21
39.49335674837387
 31
0.0
  0
LINE
  5
54CA
  8
0
 10
-330.0952154420429
 20
42.249968738673843
 30
0.0
 11
-330.19911484254288
 21
42.472785518173872
 31
0.0
  0
LINE
  5
54CB
  8
0
 10
-336.43790450654302
 20
38.211432480573848
 30
0.0
 11
-336.22253860024301
 21
38.040715701473871
 31
0.0
  0
LINE
  5
54CC
  8
0
 10
-336.43790450654302
 20
43.754709785973837
 30
0.0
 11
-336.22253860024301
 21
43.925426565073849
 31
0.0
  0
LINE
  5
54CD
  8
0
 10
-333.53166182844302
 20
39.044933621073866
 30
0.0
 11
-333.31673813824301
 21
39.035806067673839
 31
0.0
  0
LINE
  5
54CE
  8
0
 10
-333.53166182844302
 20
42.921209981473837
 30
0.0
 11
-333.31673813824301
 21
42.930336198873839
 31
0.0
  0
LINE
  5
54CF
  8
0
 10
-331.696748368643
 20
38.47874341107385
 30
0.0
 11
-330.44627354584293
 21
39.225833393873863
 31
0.0
  0
LINE
  5
54D0
  8
0
 10
-330.44627354584293
 20
39.225833393873863
 30
0.0
 11
-330.31765279734287
 21
39.327790250073839
 31
0.0
  0
LINE
  5
54D1
  8
0
 10
-330.19911484254288
 20
42.472785518173872
 30
0.0
 11
-330.31765279734287
 21
42.638352016473839
 31
0.0
  0
LINE
  5
54D2
  8
0
 10
-339.01263342784301
 20
40.983071801273859
 30
0.0
 11
-338.34980631444301
 21
43.983070966273843
 31
0.0
  0
LINE
  5
54D3
  8
0
 10
-339.01263342784301
 20
40.983071801273859
 30
0.0
 11
-337.32421907144288
 21
40.983071801273859
 31
0.0
  0
LINE
  5
54D4
  8
0
 10
-338.34980631444301
 20
37.983071300273849
 30
0.0
 11
-339.01263342784301
 21
40.983071801273859
 31
0.0
  0
LINE
  5
54D5
  8
0
 10
-336.43790450654302
 20
38.211432480573848
 30
0.0
 11
-336.63638737804303
 21
38.488661876673852
 31
0.0
  0
LINE
  5
54D6
  8
0
 10
-336.63638737804303
 20
43.477480389873833
 30
0.0
 11
-336.43790450654302
 21
43.754709785973837
 31
0.0
  0
LINE
  5
54D7
  8
0
 10
-331.887378230943
 20
38.429680139273842
 30
0.0
 11
-331.696748368643
 21
38.47874341107385
 31
0.0
  0
LINE
  5
54D8
  8
0
 10
-332.24821051234289
 20
38.457563799673849
 30
0.0
 11
-331.887378230943
 21
38.429680139273842
 31
0.0
  0
LINE
  5
54D9
  8
0
 10
-333.31673813824301
 20
39.035806067673839
 30
0.0
 11
-332.76279103414288
 21
38.670589033573847
 31
0.0
  0
LINE
  5
54DA
  8
0
 10
-330.58003522314289
 20
39.191407340373843
 30
0.0
 11
-330.44627354584293
 21
39.225833393873863
 31
0.0
  0
LINE
  5
54DB
  8
0
 10
-331.696748368643
 20
43.487400191473839
 30
0.0
 11
-330.44627354584293
 21
42.74030887267385
 31
0.0
  0
LINE
  5
54DC
  8
0
 10
-330.44627354584293
 20
42.74030887267385
 30
0.0
 11
-330.31765279734287
 21
42.638352016473839
 31
0.0
  0
LINE
  5
54DD
  8
0
 10
-331.887378230943
 20
43.53646212727385
 30
0.0
 11
-331.696748368643
 21
43.487400191473839
 31
0.0
  0
LINE
  5
54DE
  8
0
 10
-332.24821051234289
 20
43.508579802773838
 30
0.0
 11
-331.887378230943
 21
43.53646212727385
 31
0.0
  0
LINE
  5
54DF
  8
0
 10
-333.50757374454292
 20
39.180309186673853
 30
0.0
 11
-333.36749278634289
 21
39.069268864973857
 31
0.0
  0
LINE
  5
54E0
  8
0
 10
-332.76279103414288
 20
38.670589033573847
 30
0.0
 11
-332.436758886343
 21
38.506089999473851
 31
0.0
  0
LINE
  5
54E1
  8
0
 10
-332.436758886343
 20
38.506089999473851
 30
0.0
 11
-332.24821051234289
 21
38.457563799673849
 31
0.0
  0
LINE
  5
54E2
  8
0
 10
-333.31673813824301
 20
42.930336198873839
 30
0.0
 11
-332.76279103414288
 21
43.295553232973838
 31
0.0
  0
LINE
  5
54E3
  8
0
 10
-333.50757374454292
 20
42.785833079873854
 30
0.0
 11
-333.36749278634289
 21
42.896873401573849
 31
0.0
  0
LINE
  5
54E4
  8
0
 10
-336.63638737804303
 20
38.488661876673852
 30
0.0
 11
-336.81035865374292
 21
38.861750623973847
 31
0.0
  0
LINE
  5
54E5
  8
0
 10
-336.81035865374292
 20
43.104391642573837
 30
0.0
 11
-336.63638737804303
 21
43.477480389873833
 31
0.0
  0
LINE
  5
54E6
  8
0
 10
-332.07800942924302
 20
38.47874341107385
 30
0.0
 11
-331.887378230943
 21
38.429680139273842
 31
0.0
  0
LINE
  5
54E7
  8
0
 10
-332.436758886343
 20
43.460052267073863
 30
0.0
 11
-332.24821051234289
 21
43.508579802773838
 31
0.0
  0
LINE
  5
54E8
  8
0
 10
-332.76279103414288
 20
43.295553232973838
 30
0.0
 11
-332.436758886343
 21
43.460052267073863
 31
0.0
  0
LINE
  5
54E9
  8
0
 10
-336.661391958043
 20
37.983071300273849
 30
0.0
 11
-337.32421907144288
 21
40.983071801273859
 31
0.0
  0
LINE
  5
54EA
  8
0
 10
-337.32421907144288
 20
40.983071801273859
 30
0.0
 11
-336.661391958043
 21
43.983070966273843
 31
0.0
  0
LINE
  5
54EB
  8
0
 10
-333.50757374454292
 20
39.180309186673853
 30
0.0
 11
-333.63667411714289
 21
39.360627799273857
 31
0.0
  0
LINE
  5
54EC
  8
0
 10
-330.71379690034303
 20
39.225833393873863
 30
0.0
 11
-330.58003522314289
 21
39.191407340373843
 31
0.0
  0
LINE
  5
54ED
  8
0
 10
-330.58003522314289
 20
42.774734926173842
 30
0.0
 11
-330.44627354584293
 21
42.74030887267385
 31
0.0
  0
LINE
  5
54EE
  8
0
 10
-332.07800942924302
 20
43.487400191473839
 30
0.0
 11
-331.887378230943
 21
43.53646212727385
 31
0.0
  0
LINE
  5
54EF
  8
0
 10
-332.93205424504288
 20
43.161381403573827
 30
0.0
 11
-332.76279103414288
 21
43.295553232973838
 31
0.0
  0
LINE
  5
54F0
  8
0
 10
-333.63667411714289
 20
42.605514467273863
 30
0.0
 11
-333.50757374454292
 21
42.785833079873854
 31
0.0
  0
LINE
  5
54F1
  8
0
 10
-336.81035865374292
 20
38.861750623973847
 30
0.0
 11
-336.953134324443
 21
39.316360768273839
 31
0.0
  0
LINE
  5
54F2
  8
0
 10
-336.953134324443
 20
42.649781498273839
 30
0.0
 11
-336.81035865374292
 21
43.104391642573837
 31
0.0
  0
LINE
  5
54F3
  8
0
 10
-333.63667411714289
 20
39.360627799273857
 30
0.0
 11
-333.74983066304299
 21
39.60329620587386
 31
0.0
  0
LINE
  5
54F4
  8
0
 10
-332.26131400244287
 20
38.62404545817386
 30
0.0
 11
-332.07800942924302
 21
38.47874341107385
 31
0.0
  0
LINE
  5
54F5
  8
0
 10
-333.74983066304299
 20
42.362846060673853
 30
0.0
 11
-333.63667411714289
 21
42.605514467273863
 31
0.0
  0
LINE
  5
54F6
  8
0
 10
-330.84241898484299
 20
39.327790250073839
 30
0.0
 11
-330.71379690034303
 21
39.225833393873863
 31
0.0
  0
LINE
  5
54F7
  8
0
 10
-332.26131400244287
 20
43.342096808373853
 30
0.0
 11
-332.07800942924302
 21
43.487400191473839
 31
0.0
  0
LINE
  5
54F8
  8
0
 10
-330.71379690034303
 20
42.74030887267385
 30
0.0
 11
-330.58003522314289
 21
42.774734926173842
 31
0.0
  0
LINE
  5
54F9
  8
0
 10
-333.74983066304299
 20
39.60329620587386
 30
0.0
 11
-333.84269603784293
 21
39.898989124873872
 31
0.0
  0
LINE
  5
54FA
  8
0
 10
-336.953134324443
 20
39.316360768273839
 30
0.0
 11
-337.0592247652429
 21
39.83502143477385
 31
0.0
  0
LINE
  5
54FB
  8
0
 10
-337.0592247652429
 20
42.131122167773817
 30
0.0
 11
-336.953134324443
 21
42.649781498273839
 31
0.0
  0
LINE
  5
54FC
  8
0
 10
-333.84269603784293
 20
42.06715314167382
 30
0.0
 11
-333.74983066304299
 21
42.362846060673853
 31
0.0
  0
LINE
  5
54FD
  8
0
 10
-332.26131400244287
 20
38.62404545817386
 30
0.0
 11
-332.43024855724298
 21
38.860004471673847
 31
0.0
  0
LINE
  5
54FE
  8
0
 10
-333.84269603784293
 20
39.898989124873872
 30
0.0
 11
-333.91170044884291
 21
40.236342538573872
 31
0.0
  0
LINE
  5
54FF
  8
0
 10
-337.0592247652429
 20
39.83502143477385
 30
0.0
 11
-337.12455517564302
 21
40.397800836173857
 31
0.0
  0
LINE
  5
5500
  8
0
 10
-337.12455517564302
 20
41.568342766273851
 30
0.0
 11
-337.0592247652429
 21
42.131122167773817
 31
0.0
  0
LINE
  5
5501
  8
0
 10
-330.84241898484299
 20
42.638352016473839
 30
0.0
 11
-330.71379690034303
 21
42.74030887267385
 31
0.0
  0
LINE
  5
5502
  8
0
 10
-330.84241898484299
 20
39.327790250073839
 30
0.0
 11
-330.96095693964293
 21
39.49335674837387
 31
0.0
  0
LINE
  5
5503
  8
0
 10
-332.43024855724298
 20
43.106137794873831
 30
0.0
 11
-332.26131400244287
 21
43.342096808373853
 31
0.0
  0
LINE
  5
5504
  8
0
 10
-333.91170044884291
 20
41.729799727973848
 30
0.0
 11
-333.84269603784293
 21
42.06715314167382
 31
0.0
  0
LINE
  5
5505
  8
0
 10
-333.91170044884291
 20
40.236342538573872
 30
0.0
 11
-333.954194607543
 21
40.602391900773839
 31
0.0
  0
LINE
  5
5506
  8
0
 10
-337.12455517564302
 20
40.397800836173857
 30
0.0
 11
-337.14661521114289
 21
40.983071801273859
 31
0.0
  0
LINE
  5
5507
  8
0
 10
-337.14661521114289
 20
40.983071801273859
 30
0.0
 11
-337.12455517564302
 21
41.568342766273851
 31
0.0
  0
LINE
  5
5508
  8
0
 10
-333.954194607543
 20
41.363750365773832
 30
0.0
 11
-333.91170044884291
 21
41.729799727973848
 31
0.0
  0
LINE
  5
5509
  8
0
 10
-333.954194607543
 20
40.602391900773839
 30
0.0
 11
-333.9685419138429
 21
40.983071801273859
 31
0.0
  0
LINE
  5
550A
  8
0
 10
-333.9685419138429
 20
40.983071801273859
 30
0.0
 11
-333.954194607543
 21
41.363750365773832
 31
0.0
  0
LINE
  5
550B
  8
0
 10
-332.43024855724298
 20
38.860004471673847
 30
0.0
 11
-332.578321468843
 21
39.177551682173863
 31
0.0
  0
LINE
  5
550C
  8
0
 10
-330.96095693964293
 20
42.472785518173872
 30
0.0
 11
-330.84241898484299
 21
42.638352016473839
 31
0.0
  0
LINE
  5
550D
  8
0
 10
-330.96095693964293
 20
39.49335674837387
 30
0.0
 11
-331.06485634014291
 21
39.716173527873849
 31
0.0
  0
LINE
  5
550E
  8
0
 10
-332.578321468843
 20
42.788591920373861
 30
0.0
 11
-332.43024855724298
 21
43.106137794873831
 31
0.0
  0
LINE
  5
550F
  8
0
 10
-331.06485634014291
 20
42.249968738673843
 30
0.0
 11
-330.96095693964293
 21
42.472785518173872
 31
0.0
  0
LINE
  5
5510
  8
0
 10
-332.578321468843
 20
39.177551682173863
 30
0.0
 11
-332.6998413761429
 21
39.564482727673848
 31
0.0
  0
LINE
  5
5511
  8
0
 10
-331.06485634014291
 20
39.716173527873849
 30
0.0
 11
-331.15012388174301
 21
39.987676826973839
 31
0.0
  0
LINE
  5
5512
  8
0
 10
-332.6998413761429
 20
42.401659538773842
 30
0.0
 11
-332.578321468843
 21
42.788591920373861
 31
0.0
  0
LINE
  5
5513
  8
0
 10
-331.15012388174301
 20
41.97846677557385
 30
0.0
 11
-331.06485634014291
 21
42.249968738673843
 31
0.0
  0
LINE
  5
5514
  8
0
 10
-332.6998413761429
 20
39.564482727673848
 30
0.0
 11
-332.79013895854291
 21
40.005930597873842
 31
0.0
  0
LINE
  5
5515
  8
0
 10
-331.15012388174301
 20
39.987676826973839
 30
0.0
 11
-331.21348369184301
 21
40.297431148273837
 31
0.0
  0
LINE
  5
5516
  8
0
 10
-332.79013895854291
 20
41.960211668673843
 30
0.0
 11
-332.6998413761429
 21
42.401659538773842
 31
0.0
  0
LINE
  5
5517
  8
0
 10
-331.21348369184301
 20
41.668711118273848
 30
0.0
 11
-331.15012388174301
 21
41.97846677557385
 31
0.0
  0
LINE
  5
5518
  8
0
 10
-332.79013895854291
 20
40.005930597873842
 30
0.0
 11
-332.84574328734288
 21
40.48492942607384
 31
0.0
  0
LINE
  5
5519
  8
0
 10
-331.21348369184301
 20
40.297431148273837
 30
0.0
 11
-331.25250157804288
 21
40.633535401673832
 31
0.0
  0
LINE
  5
551A
  8
0
 10
-332.84574328734288
 20
41.481212840473873
 30
0.0
 11
-332.79013895854291
 21
41.960211668673843
 31
0.0
  0
LINE
  5
551B
  8
0
 10
-331.25250157804288
 20
41.33260820087385
 30
0.0
 11
-331.21348369184301
 21
41.668711118273848
 31
0.0
  0
LINE
  5
551C
  8
0
 10
-332.84574328734288
 20
40.48492942607384
 30
0.0
 11
-332.86451943434292
 21
40.983071801273859
 31
0.0
  0
LINE
  5
551D
  8
0
 10
-331.25250157804288
 20
40.633535401673832
 30
0.0
 11
-331.26567587614301
 21
40.983071801273859
 31
0.0
  0
LINE
  5
551E
  8
0
 10
-331.26567587614301
 20
40.983071801273859
 30
0.0
 11
-331.25250157804288
 21
41.33260820087385
 31
0.0
  0
LINE
  5
551F
  8
0
 10
-332.86451943434292
 20
40.983071801273859
 30
0.0
 11
-332.84574328734288
 21
41.481212840473873
 31
0.0
  0
LINE
  5
5520
  8
0
 10
-333.36749278634289
 20
39.069268864973857
 30
0.0
 11
-333.31673813824301
 21
39.035806067673839
 31
0.0
  0
LINE
  5
5521
  8
0
 10
-333.58001568404291
 20
39.04698705347387
 30
0.0
 11
-333.53166182844302
 21
39.044933621073866
 31
0.0
  0
LINE
  5
5522
  8
0
 10
-333.36749278634289
 20
42.896873401573849
 30
0.0
 11
-333.31673813824301
 21
42.930336198873839
 31
0.0
  0
POINT
  5
5523
  8
0
 10
-329.89439590604297
 20
40.983071801273859
 30
0.0
1001
PNTFLAG
1000
endpoint
  0
LINE
  5
5524
  8
¤¤¤ß˝u
 10
-339.6513123374429
 20
2.9365972692916542
 30
0.0
 11
-339.6513123374429
 21
56.135679016159358
 31
0.0
  0
LINE
  5
5525
  8
0
 10
-341.96071295264289
 20
44.983071133273839
 30
0.0
 11
-337.34191172224291
 21
44.983071133273839
 31
0.0
  0
LINE
  5
5526
  8
0
 10
-310.65131233744302
 20
13.48307180113612
 30
0.0
 11
-310.65131233744302
 21
44.483071801136127
 31
0.0
  0
LINE
  5
5527
  8
0
 10
-310.15131233744307
 20
13.98307180113601
 30
0.0
 11
-312.6513123374429
 21
11.483071801136161
 31
0.0
  0
LINE
  5
5528
  8
0
 10
-312.65131233744302
 20
46.483071801136113
 30
0.0
 11
-310.65131233744302
 21
44.483071801136127
 31
0.0
  0
LINE
  5
5529
  8
«ü˝u
 10
-315.3012394231252
 20
42.431173852360203
 30
0.0
 11
-313.16695892550217
 21
42.431542022787397
 31
0.0
  0
LINE
  5
552A
  8
«ü˝u
 10
-315.30107732820318
 20
41.33525587410282
 30
0.0
 11
-313.16679683058021
 21
41.335624044530029
 31
0.0
  0
LINE
  5
552B
  8
«ü˝u
 10
-316.39715520219568
 20
42.431011653000724
 30
0.0
 11
-318.53582784539788
 21
42.430747411099802
 31
0.0
  0
LINE
  5
552C
  8
«ü˝u
 10
-316.396993107274
 20
41.33509367474359
 30
0.0
 11
-318.53566575047608
 21
41.334829432842419
 31
0.0
  0
LINE
  5
552D
  8
«ü˝u
 10
-315.30107732820318
 20
41.33525587410282
 30
0.0
 11
-315.30092913863558
 21
40.333352795239882
 31
0.0
  0
LINE
  5
552E
  8
«ü˝u
 10
-316.396993107274
 20
41.33509367474359
 30
0.0
 11
-316.39684468838482
 21
40.331638680607981
 31
0.0
  0
LINE
  5
552F
  8
«ü˝u
 10
-315.30138762792598
 20
43.433181404675658
 30
0.0
 11
-315.3012394231252
 21
42.431173852360203
 31
0.0
  0
LINE
  5
5530
  8
«ü˝u
 10
-316.39730363678763
 20
43.434571329998093
 30
0.0
 11
-316.39715520219568
 21
42.431011653000724
 31
0.0
  0
CIRCLE
  5
5531
  8
«ü˝u
 10
-315.85131233798921
 20
41.883185727814933
 30
0.0
 40
2.739789646400014
  0
ARC
  5
5532
  8
«ü˝u
 10
-315.85131233798921
 20
41.883185727814933
 30
0.0
 40
1.644659169866167
 50
109.38889961061901
 51
160.54791732962431
  0
ARC
  5
5533
  8
«ü˝u
 10
-315.85131233798921
 20
41.883185727814933
 30
0.0
 40
1.644659169866167
 50
19.469040519251958
 51
83.221091041674285
  0
ARC
  5
5534
  8
«ü˝u
 10
-315.85131233798921
 20
41.883185727814933
 30
0.0
 40
1.644659169866167
 50
289.55118240030379
 51
340.5458668438668
  0
ARC
  5
5535
  8
«ü˝u
 10
-315.85131233798921
 20
41.883185727814933
 30
0.0
 40
1.644659169866167
 50
199.4710910050953
 51
250.62804939167731
  0
ARC
  5
5536
  8
«ü˝u
 10
-315.85131233798921
 20
14.133185689603449
 30
0.0
 40
1.644659169866167
 50
199.4710910050953
 51
250.62804939167731
  0
ARC
  5
5537
  8
«ü˝u
 10
-315.85131233798921
 20
14.133185689603449
 30
0.0
 40
1.644659169866167
 50
289.55118240030379
 51
340.5458668438668
  0
ARC
  5
5538
  8
«ü˝u
 10
-315.85131233798921
 20
14.133185689603449
 30
0.0
 40
1.644659169866167
 50
19.469040519251958
 51
83.221091041674285
  0
ARC
  5
5539
  8
«ü˝u
 10
-315.85131233798921
 20
14.133185689603449
 30
0.0
 40
1.644659169866167
 50
109.38889961061901
 51
160.54791732962431
  0
CIRCLE
  5
553A
  8
«ü˝u
 10
-315.85131233798921
 20
14.133185689603449
 30
0.0
 40
2.739789646400014
  0
LINE
  5
553B
  8
«ü˝u
 10
-316.39730363678763
 20
15.684571291786609
 30
0.0
 11
-316.39715520219568
 21
14.68101161478924
 31
0.0
  0
LINE
  5
553C
  8
«ü˝u
 10
-315.30138762792598
 20
15.683181366464179
 30
0.0
 11
-315.3012394231252
 21
14.681173814148719
 31
0.0
  0
LINE
  5
553D
  8
«ü˝u
 10
-316.396993107274
 20
13.585093636532109
 30
0.0
 11
-316.39684468838482
 21
12.5816386423965
 31
0.0
  0
LINE
  5
553E
  8
«ü˝u
 10
-315.30107732820318
 20
13.58525583589136
 30
0.0
 11
-315.30092913863558
 21
12.58335275702839
 31
0.0
  0
LINE
  5
553F
  8
«ü˝u
 10
-316.396993107274
 20
13.585093636532109
 30
0.0
 11
-318.53566575047608
 21
13.58482939463094
 31
0.0
  0
LINE
  5
5540
  8
«ü˝u
 10
-316.39715520219568
 20
14.68101161478924
 30
0.0
 11
-318.53582784539788
 21
14.68074737288832
 31
0.0
  0
LINE
  5
5541
  8
«ü˝u
 10
-315.30107732820318
 20
13.58525583589136
 30
0.0
 11
-313.16679683058021
 21
13.58562400631855
 31
0.0
  0
LINE
  5
5542
  8
«ü˝u
 10
-315.3012394231252
 20
14.681173814148719
 30
0.0
 11
-313.16695892550217
 21
14.681541984575929
 31
0.0
  0
LINE
  5
5543
  8
0
 10
-368.6513123374429
 20
44.483071801136127
 30
0.0
 11
-368.6513123374429
 21
13.48307180113612
 31
0.0
  0
LINE
  5
5544
  8
0
 10
-366.6513123374429
 20
11.483071801136161
 30
0.0
 11
-369.15131233744302
 21
13.98307180113617
 31
0.0
  0
LINE
  5
5545
  8
0
 10
-368.6513123374429
 20
44.483071801136127
 30
0.0
 11
-366.6513123374429
 21
46.483071801136113
 31
0.0
  0
ARC
  5
5546
  8
«ü˝u
 10
-363.45131233689682
 20
41.883508196823833
 30
0.0
 40
1.644659169866167
 50
199.4710910050953
 51
250.62804939167731
  0
ARC
  5
5547
  8
«ü˝u
 10
-363.45131233689682
 20
41.883508196823833
 30
0.0
 40
1.644659169866167
 50
289.55118240030379
 51
340.5458668438668
  0
LINE
  5
5548
  8
«ü˝u
 10
-363.99699310618149
 20
41.335416143752482
 30
0.0
 11
-363.99684468729242
 21
40.331961149616873
 31
0.0
  0
CIRCLE
  5
5549
  8
«ü˝u
 10
-363.45131233689682
 20
41.883508196823833
 30
0.0
 40
2.739789646400014
  0
LINE
  5
554A
  8
«ü˝u
 10
-362.9010773271109
 20
41.335578343111713
 30
0.0
 11
-362.9009291375433
 21
40.333675264248747
 31
0.0
  0
ARC
  5
554B
  8
«ü˝u
 10
-363.45131233689682
 20
41.883508196823833
 30
0.0
 40
1.644659169866167
 50
109.38889961061901
 51
160.54791732962431
  0
LINE
  5
554C
  8
«ü˝u
 10
-363.99730363569529
 20
43.434893799006971
 30
0.0
 11
-363.99715520110328
 21
42.431334122009609
 31
0.0
  0
LINE
  5
554D
  8
«ü˝u
 10
-363.99699310618149
 20
41.335416143752482
 30
0.0
 11
-366.1356657493838
 21
41.335151901851312
 31
0.0
  0
LINE
  5
554E
  8
«ü˝u
 10
-363.99715520110328
 20
42.431334122009609
 30
0.0
 11
-366.1358278443056
 21
42.431069880108687
 31
0.0
  0
ARC
  5
554F
  8
«ü˝u
 10
-363.45131233689682
 20
41.883508196823833
 30
0.0
 40
1.644659169866167
 50
19.469040519251958
 51
83.221091041674285
  0
LINE
  5
5550
  8
«ü˝u
 10
-362.9013876268337
 20
43.43350387368455
 30
0.0
 11
-362.90123942203292
 21
42.43149632136911
 31
0.0
  0
LINE
  5
5551
  8
«ü˝u
 10
-362.9010773271109
 20
41.335578343111713
 30
0.0
 11
-360.76679682948782
 21
41.335946513538929
 31
0.0
  0
LINE
  5
5552
  8
«ü˝u
 10
-362.90123942203292
 20
42.43149632136911
 30
0.0
 11
-360.76695892440978
 21
42.431864491796297
 31
0.0
  0
LINE
  5
5553
  8
«ü˝u
 10
-362.90123942203292
 20
14.68149628315763
 30
0.0
 11
-360.76695892440978
 21
14.68186445358482
 31
0.0
  0
LINE
  5
5554
  8
«ü˝u
 10
-362.9010773271109
 20
13.58557830490024
 30
0.0
 11
-360.76679682948782
 21
13.585946475327461
 31
0.0
  0
LINE
  5
5555
  8
«ü˝u
 10
-362.9013876268337
 20
15.683503835473079
 30
0.0
 11
-362.90123942203292
 21
14.68149628315763
 31
0.0
  0
ARC
  5
5556
  8
«ü˝u
 10
-363.45131233689682
 20
14.13350815861236
 30
0.0
 40
1.644659169866167
 50
19.469040519251958
 51
83.221091041674285
  0
LINE
  5
5557
  8
«ü˝u
 10
-363.99715520110328
 20
14.681334083798131
 30
0.0
 11
-366.1358278443056
 21
14.681069841897211
 31
0.0
  0
LINE
  5
5558
  8
«ü˝u
 10
-363.99699310618149
 20
13.585416105541
 30
0.0
 11
-366.1356657493838
 21
13.585151863639849
 31
0.0
  0
LINE
  5
5559
  8
«ü˝u
 10
-363.99730363569529
 20
15.684893760795489
 30
0.0
 11
-363.99715520110328
 21
14.681334083798131
 31
0.0
  0
ARC
  5
555A
  8
«ü˝u
 10
-363.45131233689682
 20
14.13350815861236
 30
0.0
 40
1.644659169866167
 50
109.38889961061901
 51
160.54791732962431
  0
LINE
  5
555B
  8
«ü˝u
 10
-362.9010773271109
 20
13.58557830490024
 30
0.0
 11
-362.9009291375433
 21
12.58367522603727
 31
0.0
  0
CIRCLE
  5
555C
  8
«ü˝u
 10
-363.45131233689682
 20
14.13350815861236
 30
0.0
 40
2.739789646400014
  0
LINE
  5
555D
  8
«ü˝u
 10
-363.99699310618149
 20
13.585416105541
 30
0.0
 11
-363.99684468729242
 21
12.58196111140539
 31
0.0
  0
ARC
  5
555E
  8
«ü˝u
 10
-363.45131233689682
 20
14.13350815861236
 30
0.0
 40
1.644659169866167
 50
289.55118240030379
 51
340.5458668438668
  0
ARC
  5
555F
  8
«ü˝u
 10
-363.45131233689682
 20
14.13350815861236
 30
0.0
 40
1.644659169866167
 50
199.4710910050953
 51
250.62804939167731
  0
LINE
  5
5560
  8
0
 10
-330.53690633744282
 20
31.48307180113618
 30
0.0
 11
-329.4211040117537
 21
33.623073598719223
 31
0.0
  0
LINE
  5
5561
  8
0
 10
-327.05722721293392
 20
28.003393033902132
 30
0.0
 11
-326.59490259711993
 21
29.479482803688398
 31
0.0
  0
LINE
  5
5562
  8
0
 10
-329.8725913565026
 20
32.757073598719131
 30
0.0
 11
-328.44557577547653
 21
31.330058017692998
 31
0.0
  0
LINE
  5
5563
  8
0
 10
-329.4211040117537
 20
33.623073598719223
 30
0.0
 11
-327.67922017130348
 21
31.788486334661151
 31
0.0
  0
LINE
  5
5564
  8
0
 10
-329.87260405021817
 20
32.757139847123739
 30
0.0
 11
-328.44557880182361
 21
31.330133933531581
 31
0.0
  0
LINE
  5
5565
  8
0
 10
-328.44557577547653
 20
31.330058017692998
 30
0.0
 11
-327.67921403983871
 21
31.788405227070228
 31
0.0
  0
LINE
  5
5566
  8
0
 10
-328.44557880182361
 20
31.330133933531581
 30
0.0
 11
-327.67922017130348
 21
31.788486334661151
 31
0.0
  0
ARC
  5
5567
  8
0
 10
-328.03276743043187
 20
31.434851836476948
 30
0.0
 40
0.5
 50
338.59144850073852
 51
44.999999999999979
  0
ARC
  5
5568
  8
0
 10
-328.03277116672041
 20
31.434930548907658
 30
0.0
 40
0.5
 50
338.59183665437553
 51
45.000388153637722
  0
LINE
  5
5569
  8
0
 10
-329.92166408813421
 20
30.86782955182748
 30
0.0
 11
-328.44557880182327
 21
31.330133933531361
 31
0.0
  0
LINE
  5
556A
  8
0
 10
-326.59491210816088
 20
29.479394350377479
 30
0.0
 11
-326.67262616039989
 21
30.357703368906328
 31
0.0
  0
LINE
  5
556B
  8
0
 10
-326.5949121081606
 20
29.479394350377142
 30
0.0
 11
-326.13656489878338
 21
30.24575608601501
 31
0.0
  0
ARC
  5
556C
  8
0
 10
-326.49011828937671
 20
29.89220269542173
 30
0.0
 40
0.5
 50
44.999999999999979
 51
111.4085514992617
  0
LINE
  5
556D
  8
0
 10
-326.59490259712032
 20
29.47948280368874
 30
0.0
 11
-326.67262259951372
 21
30.357791295719011
 31
0.0
  0
LINE
  5
556E
  8
0
 10
-326.59490259711993
 20
29.479482803688398
 30
0.0
 11
-326.13656057951607
 21
30.24584764440894
 31
0.0
  0
ARC
  5
556F
  8
0
 10
-326.49011157493288
 20
29.892291858655451
 30
0.0
 40
0.5
 50
45.000388153637722
 51
111.40893965290179
  0
ARC
  5
5570
  8
0
 10
-326.92459652713461
 20
31.000373598719111
 30
0.0
 40
0.6903000000000003
 50
158.5914485007354
 51
291.40855149926489
  0
ARC
  5
5571
  8
0
 10
-326.92459652713461
 20
31.000373598719111
 30
0.0
 40
1.5563
 50
167.76987908363071
 51
282.2301209163727
  0
ARC
  5
5572
  8
0
 10
-326.92459732005
 20
31.000459818528981
 30
0.0
 40
0.6903000000000003
 50
158.5918366543755
 51
291.4089396529053
  0
LINE
  5
5573
  8
0
 10
-328.44557577547619
 20
31.330058017692721
 30
0.0
 11
-327.56726675694739
 21
31.252343965453779
 31
0.0
  0
LINE
  5
5574
  8
0
 10
-326.13656057951607
 20
30.245847644409
 30
0.0
 11
-323.57321241355697
 21
27.682534209321489
 31
0.0
  0
LINE
  5
5575
  8
0
 10
-326.5949121081606
 20
29.479394350377142
 30
0.0
 11
-324.37789652713462
 21
27.262378769351098
 31
0.0
  0
LINE
  5
5576
  8
0
 10
-326.59490259711993
 20
29.479482803688398
 30
0.0
 11
-324.37787199684192
 21
27.26248224201618
 31
0.0
  0
LINE
  5
5577
  8
0
 10
-325.65131233744279
 20
26.597481114460649
 30
0.0
 11
-323.57321241355697
 21
27.682534209321489
 31
0.0
  0
LINE
  5
5578
  8
0
 10
-325.65131233744279
 20
24.36281246180469
 30
0.0
 11
-323.57466726481027
 21
23.27294610163759
 31
0.0
  0
LINE
  5
5579
  8
0
 10
-324.37789652713462
 20
23.69436842806806
 30
0.0
 11
-324.37789652713462
 21
27.262378769351098
 31
0.0
  0
LINE
  5
557A
  8
0
 10
-324.3778478251453
 20
23.694471900815021
 30
0.0
 11
-324.37787199684192
 21
27.26248224201618
 31
0.0
  0
LINE
  5
557B
  8
0
 10
-323.57321241355697
 20
27.682534209321489
 30
0.0
 11
-323.57466726481027
 21
23.27294610163759
 31
0.0
  0
LINE
  5
557C
  8
0
 10
-323.57466726481027
 20
23.27294610163759
 30
0.0
 11
-326.13004641830628
 21
20.71753232493435
 31
0.0
  0
LINE
  5
557D
  8
0
 10
-324.37789652713462
 20
23.69436842806806
 30
0.0
 11
-326.58753083108911
 21
21.484734124252931
 31
0.0
  0
LINE
  5
557E
  8
0
 10
-324.3778478251453
 20
23.694471900815021
 30
0.0
 11
-326.5874671597511
 21
21.484822627752578
 31
0.0
  0
LINE
  5
557F
  8
0
 10
-326.5875308310894
 20
21.484734124252672
 30
0.0
 11
-326.66888578693698
 21
20.606564761593091
 31
0.0
  0
LINE
  5
5580
  8
0
 10
-326.13011528770818
 20
20.71744072262851
 30
0.0
 11
-326.587530831089
 21
21.484734124252579
 31
0.0
  0
LINE
  5
5581
  8
0
 10
-326.13004641830628
 20
20.71753232493435
 30
0.0
 11
-326.58746715975099
 21
21.484822627752241
 31
0.0
  0
LINE
  5
5582
  8
0
 10
-326.58746715975138
 20
21.484822627752319
 30
0.0
 11
-326.66881616638688
 21
20.60665271396897
 31
0.0
  0
ARC
  5
5583
  8
0
 10
-326.48366867829031
 20
21.070994113232899
 30
0.0
 40
0.5
 50
248.25760092478581
 51
314.99999999819391
  0
ARC
  5
5584
  8
0
 10
-326.48360220404862
 20
21.07108332036233
 30
0.0
 40
0.5
 50
248.25798907842861
 51
315.00038815183183
  0
LINE
  5
5585
  8
0
 10
-327.051350024062
 20
22.96277775238012
 30
0.0
 11
-326.5874671597511
 21
21.484822627752578
 31
0.0
  0
LINE
  5
5586
  8
0
 10
-329.92184052413069
 20
20.092286624436088
 30
0.0
 11
-328.443880804797
 21
19.628383829648499
 31
0.0
  0
LINE
  5
5587
  8
0
 10
-330.35131233744278
 20
19.662814836395839
 30
0.0
 11
-328.21181290549708
 21
18.539931798573349
 31
0.0
  0
ARC
  5
5588
  8
0
 10
-326.92459652713461
 20
19.965373598719111
 30
0.0
 40
1.5563
 50
77.49167649828378
 51
192.5083235054293
  0
ARC
  5
5589
  8
0
 10
-326.92452256279131
 20
19.96545981878219
 30
0.0
 40
1.5563
 50
77.492064651926242
 51
192.50871165906801
  0
LINE
  5
558A
  8
0
 10
-328.44395705264662
 20
19.628307902575209
 30
0.0
 11
-327.67666365101798
 21
19.170892359188709
 31
0.0
  0
LINE
  5
558B
  8
0
 10
-328.44395705264662
 20
19.628307902575209
 30
0.0
 11
-329.0778965271345
 21
18.994368428087171
 31
0.0
  0
LINE
  5
558C
  8
0
 10
-327.67658430439752
 20
19.170973484346909
 30
0.0
 11
-328.21181290549708
 21
18.539931798573349
 31
0.0
  0
LINE
  5
558D
  8
0
 10
-328.21181290549708
 20
18.539931798573349
 30
0.0
 11
-328.21179981649487
 21
16.607849988745329
 31
0.0
  0
LINE
  5
558E
  8
0
 10
-328.443880804797
 20
19.628383829648499
 30
0.0
 11
-329.07781598461003
 21
18.99444006051462
 31
0.0
  0
ARC
  5
558F
  8
0
 10
-326.92459652713461
 20
19.965373598719111
 30
0.0
 40
0.6903000000000003
 50
68.257600924789074
 51
201.7423990800248
  0
ARC
  5
5590
  8
0
 10
-326.92452256279131
 20
19.96545981878219
 30
0.0
 40
0.6903000000000003
 50
68.257989078428807
 51
201.7427872336651
  0
ARC
  5
5591
  8
0
 10
-328.03021704161131
 20
19.524445749781989
 30
0.0
 40
0.5
 50
315.00000000000398
 51
21.74239908002475
  0
LINE
  5
5592
  8
0
 10
-328.44395705264662
 20
19.628307902575209
 30
0.0
 11
-327.56578768998702
 21
19.709662858467649
 31
0.0
  0
LINE
  5
5593
  8
0
 10
-328.443880804797
 20
19.628383829648499
 30
0.0
 11
-327.56571199330148
 21
19.709744734749219
 31
0.0
  0
ARC
  5
5594
  8
0
 10
-328.03014009015089
 20
19.52452447976378
 30
0.0
 40
0.5
 50
315.00038815364189
 51
21.74278723366514
  0
LINE
  5
5595
  8
0
 10
-329.0778965271345
 20
18.994368428087171
 30
0.0
 11
-329.0778965271345
 21
16.152378769351031
 31
0.0
  0
LINE
  5
5596
  8
0
 10
-329.07781598461003
 20
18.99444006051462
 30
0.0
 11
-329.07779673138339
 21
16.15245040184368
 31
0.0
  0
LINE
  5
5597
  8
0
 10
-330.35131233744278
 20
15.48275000113618
 30
0.0
 11
-328.21179981649487
 21
16.607849988745329
 31
0.0
  0
LINE
  5
5598
  8
0
 10
-329.07779673138339
 20
16.15245040184368
 30
0.0
 11
-324.40875993040748
 21
11.48347686176993
 31
0.0
  0
LINE
  5
5599
  8
0
 10
-329.0778965271345
 20
16.152378769351031
 30
0.0
 11
-324.40889135650252
 21
11.48337359871908
 31
0.0
  0
LINE
  5
559A
  8
0
 10
-328.21179981649487
 20
16.607849988745329
 30
0.0
 11
-323.12068704195548
 21
11.516806193826479
 31
0.0
  0
LINE
  5
559B
  8
0
 10
-355.72941226132872
 20
27.682534209321489
 30
0.0
 11
-355.72795741007542
 21
23.27294610163759
 31
0.0
  0
LINE
  5
559C
  8
0
 10
-351.09082485839087
 20
16.607849988745329
 30
0.0
 11
-356.18193763293033
 21
11.516806193826479
 31
0.0
  0
LINE
  5
559D
  8
0
 10
-350.22472814775119
 20
16.152378769351031
 30
0.0
 11
-354.89373331838323
 21
11.48337359871908
 31
0.0
  0
LINE
  5
559E
  8
0
 10
-350.22482794350242
 20
16.15245040184368
 30
0.0
 11
-354.89386474447832
 21
11.48347686176993
 31
0.0
  0
LINE
  5
559F
  8
0
 10
-348.95131233744291
 20
15.48275000113618
 30
0.0
 11
-351.09082485839087
 21
16.607849988745329
 31
0.0
  0
LINE
  5
55A0
  8
0
 10
-352.25127465082369
 20
22.96277775238012
 30
0.0
 11
-352.71515751513459
 21
21.484822627752578
 31
0.0
  0
ARC
  5
55A1
  8
0
 10
-352.81902247083713
 20
21.07108332036233
 30
0.0
 40
0.5
 50
224.9996118481682
 51
291.74201092157142
  0
ARC
  5
55A2
  8
0
 10
-352.81895599659538
 20
21.070994113232899
 30
0.0
 40
0.5
 50
225.00000000180609
 51
291.74239907521411
  0
LINE
  5
55A3
  8
0
 10
-352.71515751513442
 20
21.484822627752319
 30
0.0
 11
-352.6338085084987
 21
20.60665271396897
 31
0.0
  0
LINE
  5
55A4
  8
0
 10
-353.17257825657941
 20
20.71753232493435
 30
0.0
 11
-352.71515751513482
 21
21.484822627752241
 31
0.0
  0
LINE
  5
55A5
  8
0
 10
-353.17250938717751
 20
20.71744072262851
 30
0.0
 11
-352.71509384379681
 21
21.484734124252579
 31
0.0
  0
LINE
  5
55A6
  8
0
 10
-352.71509384379641
 20
21.484734124252672
 30
0.0
 11
-352.63373888794871
 21
20.606564761593091
 31
0.0
  0
LINE
  5
55A7
  8
0
 10
-350.22480869027572
 20
18.99444006051462
 30
0.0
 11
-350.22482794350242
 21
16.15245040184368
 31
0.0
  0
LINE
  5
55A8
  8
0
 10
-350.22472814775119
 20
18.994368428087171
 30
0.0
 11
-350.22472814775119
 21
16.152378769351031
 31
0.0
  0
ARC
  5
55A9
  8
0
 10
-351.2724845847348
 20
19.52452447976378
 30
0.0
 40
0.5
 50
158.25721276633479
 51
224.99961184635811
  0
LINE
  5
55AA
  8
0
 10
-350.85874387008869
 20
19.628383829648499
 30
0.0
 11
-351.73691268158422
 21
19.709744734749219
 31
0.0
  0
LINE
  5
55AB
  8
0
 10
-350.85866762223918
 20
19.628307902575209
 30
0.0
 11
-351.73683698489867
 21
19.709662858467649
 31
0.0
  0
ARC
  5
55AC
  8
0
 10
-351.2724076332745
 20
19.524445749781989
 30
0.0
 40
0.5
 50
158.2576009199752
 51
224.99999999999599
  0
ARC
  5
55AD
  8
0
 10
-352.3781021120945
 20
19.96545981878219
 30
0.0
 40
0.6903000000000003
 50
338.25721276633487
 51
111.74201092157119
  0
ARC
  5
55AE
  8
0
 10
-352.37802814775119
 20
19.965373598719111
 30
0.0
 40
0.6903000000000003
 50
338.25760091997518
 51
111.7423990752109
  0
LINE
  5
55AF
  8
0
 10
-350.85874387008869
 20
19.628383829648499
 30
0.0
 11
-350.22480869027572
 21
18.99444006051462
 31
0.0
  0
LINE
  5
55B0
  8
0
 10
-351.09081176938872
 20
18.539931798573349
 30
0.0
 11
-351.09082485839087
 21
16.607849988745329
 31
0.0
  0
LINE
  5
55B1
  8
0
 10
-351.6260403704884
 20
19.170973484346909
 30
0.0
 11
-351.09081176938872
 21
18.539931798573349
 31
0.0
  0
LINE
  5
55B2
  8
0
 10
-350.85866762223918
 20
19.628307902575209
 30
0.0
 11
-350.22472814775119
 21
18.994368428087171
 31
0.0
  0
LINE
  5
55B3
  8
0
 10
-350.85866762223918
 20
19.628307902575209
 30
0.0
 11
-351.62596102386777
 21
19.170892359188709
 31
0.0
  0
ARC
  5
55B4
  8
0
 10
-352.3781021120945
 20
19.96545981878219
 30
0.0
 40
1.5563
 50
347.49128834093199
 51
102.5079353480737
  0
ARC
  5
55B5
  8
0
 10
-352.37802814775119
 20
19.965373598719111
 30
0.0
 40
1.5563
 50
347.49167649457081
 51
102.50832350171621
  0
LINE
  5
55B6
  8
0
 10
-348.95131233744291
 20
19.662814836395839
 30
0.0
 11
-351.09081176938872
 21
18.539931798573349
 31
0.0
  0
LINE
  5
55B7
  8
0
 10
-349.38078415075512
 20
20.092286624436088
 30
0.0
 11
-350.85874387008869
 21
19.628383829648499
 31
0.0
  0
LINE
  5
55B8
  8
0
 10
-352.24539746195188
 20
28.003393033902132
 30
0.0
 11
-352.70772207776588
 21
29.479482803688398
 31
0.0
  0
LINE
  5
55B9
  8
0
 10
-354.9247768497404
 20
23.694471900815021
 30
0.0
 11
-354.92475267804377
 21
27.26248224201618
 31
0.0
  0
LINE
  5
55BA
  8
0
 10
-354.92472814775113
 20
23.69436842806806
 30
0.0
 11
-354.92472814775113
 21
27.262378769351098
 31
0.0
  0
LINE
  5
55BB
  8
0
 10
-354.9247768497404
 20
23.694471900815021
 30
0.0
 11
-352.71515751513459
 21
21.484822627752578
 31
0.0
  0
LINE
  5
55BC
  8
0
 10
-354.92472814775113
 20
23.69436842806806
 30
0.0
 11
-352.71509384379658
 21
21.484734124252931
 31
0.0
  0
LINE
  5
55BD
  8
0
 10
-353.6513123374429
 20
24.36281246180469
 30
0.0
 11
-355.72795741007542
 21
23.27294610163759
 31
0.0
  0
LINE
  5
55BE
  8
0
 10
-353.6513123374429
 20
26.597481114460649
 30
0.0
 11
-355.72941226132872
 21
27.682534209321489
 31
0.0
  0
LINE
  5
55BF
  8
0
 10
-352.70772207776588
 20
29.479482803688398
 30
0.0
 11
-354.92475267804377
 21
27.26248224201618
 31
0.0
  0
LINE
  5
55C0
  8
0
 10
-352.70771256672509
 20
29.479394350377142
 30
0.0
 11
-354.92472814775113
 21
27.262378769351098
 31
0.0
  0
LINE
  5
55C1
  8
0
 10
-355.72795741007542
 20
23.27294610163759
 30
0.0
 11
-353.17257825657941
 21
20.71753232493435
 31
0.0
  0
LINE
  5
55C2
  8
0
 10
-350.85704889940951
 20
31.330058017692721
 30
0.0
 11
-351.73535791793842
 21
31.252343965453779
 31
0.0
  0
ARC
  5
55C3
  8
0
 10
-352.37802735483581
 20
31.000459818528981
 30
0.0
 40
0.6903000000000003
 50
248.5910603470947
 51
21.408163345624441
  0
ARC
  5
55C4
  8
0
 10
-352.37802814775119
 20
31.000373598719111
 30
0.0
 40
1.5563
 50
257.76987908362412
 51
12.230120916369231
  0
ARC
  5
55C5
  8
0
 10
-352.37802814775119
 20
31.000373598719111
 30
0.0
 40
0.6903000000000003
 50
248.59144850073511
 51
21.408551499264561
  0
ARC
  5
55C6
  8
0
 10
-352.81251309995281
 20
29.892291858655451
 30
0.0
 40
0.5
 50
68.591060347098164
 51
134.99961184636231
  0
LINE
  5
55C7
  8
0
 10
-352.70772207776588
 20
29.479482803688398
 30
0.0
 11
-353.16606409536968
 21
30.24584764440894
 31
0.0
  0
LINE
  5
55C8
  8
0
 10
-352.70772207776548
 20
29.47948280368874
 30
0.0
 11
-352.63000207537198
 21
30.357791295719011
 31
0.0
  0
ARC
  5
55C9
  8
0
 10
-352.81250638550898
 20
29.89220269542173
 30
0.0
 40
0.5
 50
68.591448500735197
 51
135.0
  0
LINE
  5
55CA
  8
0
 10
-352.70771256672509
 20
29.479394350377142
 30
0.0
 11
-353.16605977610232
 21
30.24575608601501
 31
0.0
  0
LINE
  5
55CB
  8
0
 10
-352.70771256672481
 20
29.479394350377479
 30
0.0
 11
-352.62999851448581
 21
30.357703368906328
 31
0.0
  0
LINE
  5
55CC
  8
0
 10
-353.16606409536968
 20
30.245847644409
 30
0.0
 11
-355.72941226132872
 21
27.682534209321489
 31
0.0
  0
LINE
  5
55CD
  8
0
 10
-349.38096058675148
 20
30.86782955182748
 30
0.0
 11
-350.85704587306242
 21
31.330133933531361
 31
0.0
  0
LINE
  5
55CE
  8
0
 10
-348.76571833744288
 20
31.48307180113618
 30
0.0
 11
-349.88152066313199
 21
33.623073598719223
 31
0.0
  0
ARC
  5
55CF
  8
0
 10
-351.26985350816528
 20
31.434930548907658
 30
0.0
 40
0.5
 50
134.99961184636231
 51
201.4081633456245
  0
ARC
  5
55D0
  8
0
 10
-351.26985724445382
 20
31.434851836476948
 30
0.0
 40
0.5
 50
135.0
 51
201.40855149926151
  0
LINE
  5
55D1
  8
0
 10
-350.85704587306208
 20
31.330133933531581
 30
0.0
 11
-351.62340450358221
 21
31.788486334661151
 31
0.0
  0
LINE
  5
55D2
  8
0
 10
-350.85704889940922
 20
31.330058017692998
 30
0.0
 11
-351.62341063504709
 21
31.788405227070228
 31
0.0
  0
LINE
  5
55D3
  8
0
 10
-349.43002062466752
 20
32.757139847123739
 30
0.0
 11
-350.85704587306208
 21
31.330133933531581
 31
0.0
  0
LINE
  5
55D4
  8
0
 10
-349.88152066313199
 20
33.623073598719223
 30
0.0
 11
-351.62340450358221
 21
31.788486334661151
 31
0.0
  0
LINE
  5
55D5
  8
0
 10
-349.43003331838321
 20
32.757073598719131
 30
0.0
 11
-350.85704889940922
 21
31.330058017692998
 31
0.0
  0
LINE
  5
55D6
  8
0
 10
-349.88152066313199
 20
33.623073598719223
 30
0.0
 11
-329.51331403210418
 21
33.623073598719117
 31
0.0
  0
LINE
  5
55D7
  8
0
 10
-349.43003331838298
 20
32.757073598719188
 30
0.0
 11
-329.87202297711917
 21
32.757073598719131
 31
0.0
  0
LINE
  5
55D8
  8
0
 10
-348.76571833744288
 20
31.48307180113618
 30
0.0
 11
-330.53690633744282
 21
31.48307180113618
 31
0.0
  0
LINE
  5
55D9
  8
0
 10
-332.40131233744279
 20
5.9830718011361776
 30
0.0
 11
-331.90131233744279
 21
5.4830718011361776
 31
0.0
  0
LINE
  5
55DA
  8
0
 10
-353.6513123374429
 20
10.782750101140991
 30
0.0
 11
-353.6513123374429
 21
6.9830718011361776
 31
0.0
  0
LINE
  5
55DB
  8
µę˝u
 10
-344.15131233744279
 20
6.3830718011361549
 30
0.0
 11
-344.15131233744279
 21
19.183071801136158
 31
0.0
  0
LINE
  5
55DC
  8
µę˝u
 10
-335.1513123374429
 20
6.3830718011361549
 30
0.0
 11
-335.1513123374429
 21
19.183071801136158
 31
0.0
  0
LINE
  5
55DD
  8
0
 10
-346.90131233744279
 20
5.9830718011361776
 30
0.0
 11
-347.4013123374429
 21
5.4830718011361776
 31
0.0
  0
LINE
  5
55DE
  8
0
 10
-353.6513123374429
 20
6.9830718011361776
 30
0.0
 11
-352.1513123374429
 21
5.4830718011361776
 31
0.0
  0
LINE
  5
55DF
  8
0
 10
-347.4013123374429
 20
5.4830718011361776
 30
0.0
 11
-352.1513123374429
 21
5.4830718011361776
 31
0.0
  0
LINE
  5
55E0
  8
µę˝u
 10
-335.1513123374429
 20
6.3830718011361549
 30
0.0
 11
-344.15131233744279
 21
6.3830718011361549
 31
0.0
  0
LINE
  5
55E1
  8
0
 10
-335.90131233744279
 20
5.9830718011361776
 30
0.0
 11
-336.40131233744279
 21
5.4830718011361776
 31
0.0
  0
LINE
  5
55E2
  8
0
 10
-346.90131233744279
 20
5.9830718011361776
 30
0.0
 11
-343.4013123374429
 21
5.9830718011361776
 31
0.0
  0
LINE
  5
55E3
  8
0
 10
-343.4013123374429
 20
5.9830718011361776
 30
0.0
 11
-342.90131233744279
 21
5.4830718011361776
 31
0.0
  0
LINE
  5
55E4
  8
0
 10
-342.90131233744279
 20
5.4830718011361776
 30
0.0
 11
-336.40131233744279
 21
5.4830718011361776
 31
0.0
  0
LINE
  5
55E5
  8
0
 10
-332.40131233744279
 20
5.9830718011361776
 30
0.0
 11
-335.90131233744279
 21
5.9830718011361776
 31
0.0
  0
LINE
  5
55E6
  8
µę˝u
 10
-344.55131233744282
 20
5.9830718011361776
 30
0.0
 11
-344.15131233744279
 21
6.3830718011361549
 31
0.0
  0
LINE
  5
55E7
  8
µę˝u
 10
-334.75131233744293
 20
5.9830718011361776
 30
0.0
 11
-335.1513123374429
 21
6.3830718011361549
 31
0.0
  0
LINE
  5
55E8
  8
µę˝u
 10
-346.65131233744279
 20
19.48307180113618
 30
0.0
 11
-346.65131233744279
 21
31.083071801136199
 31
0.0
  0
LINE
  5
55E9
  8
µę˝u
 10
-332.6513123374429
 20
19.48307180113618
 30
0.0
 11
-332.6513123374429
 21
31.083071801136199
 31
0.0
  0
LINE
  5
55EA
  8
0
 10
-348.95131233744291
 20
19.662814836395839
 30
0.0
 11
-348.95131233744291
 21
15.48275000113618
 31
0.0
  0
LINE
  5
55EB
  8
0
 10
-353.6513123374429
 20
10.782750101140991
 30
0.0
 11
-348.95131233744291
 21
15.48275000113618
 31
0.0
  0
LINE
  5
55EC
  8
0
 10
-353.6513123374429
 20
26.597481114460649
 30
0.0
 11
-352.24539746195188
 21
28.003393033902132
 31
0.0
  0
LINE
  5
55ED
  8
0
 10
-353.6513123374429
 20
24.36281246180469
 30
0.0
 11
-352.25127465082369
 21
22.96277775238012
 31
0.0
  0
LINE
  5
55EE
  8
0
 10
-353.6513123374429
 20
26.597481114460649
 30
0.0
 11
-353.6513123374429
 21
24.36281246180469
 31
0.0
  0
LINE
  5
55EF
  8
0
 10
-349.38078415075512
 20
20.092286624436088
 30
0.0
 11
-348.95131233744291
 21
19.662814836395839
 31
0.0
  0
LINE
  5
55F0
  8
µę˝u
 10
-334.85131233744289
 20
19.48307180113618
 30
0.0
 11
-335.1513123374429
 21
19.183071801136158
 31
0.0
  0
LINE
  5
55F1
  8
µę˝u
 10
-344.4513123374428
 20
19.48307180113618
 30
0.0
 11
-344.15131233744279
 21
19.183071801136158
 31
0.0
  0
LINE
  5
55F2
  8
µę˝u
 10
-335.1513123374429
 20
19.183071801136158
 30
0.0
 11
-344.15131233744279
 21
19.183071801136158
 31
0.0
  0
LINE
  5
55F3
  8
µę˝u
 10
-332.6513123374429
 20
19.48307180113618
 30
0.0
 11
-346.65131233744279
 21
19.48307180113618
 31
0.0
  0
LINE
  5
55F4
  8
0
 10
-349.38096058675148
 20
30.86782955182748
 30
0.0
 11
-348.76571833744288
 21
31.48307180113618
 31
0.0
  0
LINE
  5
55F5
  8
µę˝u
 10
-332.42037222976711
 20
31.48307180113618
 30
0.0
 11
-332.6513123374429
 21
31.083071801136199
 31
0.0
  0
LINE
  5
55F6
  8
µę˝u
 10
-346.65131233744279
 20
31.083071801136199
 30
0.0
 11
-346.88225244511858
 21
31.48307180113618
 31
0.0
  0
LINE
  5
55F7
  8
µę˝u
 10
-332.6513123374429
 20
31.083071801136199
 30
0.0
 11
-346.65131233744279
 21
31.083071801136199
 31
0.0
  0
LINE
  5
55F8
  8
0
 10
-325.65131233744279
 20
10.782750101140991
 30
0.0
 11
-325.65131233744279
 21
6.9830718011361776
 31
0.0
  0
LINE
  5
55F9
  8
0
 10
-331.90131233744279
 20
5.4830718011361776
 30
0.0
 11
-327.1513123374429
 21
5.4830718011361776
 31
0.0
  0
LINE
  5
55FA
  8
0
 10
-325.65131233744279
 20
6.9830718011361776
 30
0.0
 11
-327.1513123374429
 21
5.4830718011361776
 31
0.0
  0
LINE
  5
55FB
  8
0
 10
-330.35131233744278
 20
19.662814836395839
 30
0.0
 11
-330.35131233744278
 21
15.48275000113618
 31
0.0
  0
LINE
  5
55FC
  8
0
 10
-325.65131233744279
 20
10.782750101140991
 30
0.0
 11
-330.35131233744278
 21
15.48275000113618
 31
0.0
  0
LINE
  5
55FD
  8
0
 10
-325.65131233744279
 20
26.597481114460649
 30
0.0
 11
-327.05707320953633
 21
28.00323903082834
 31
0.0
  0
LINE
  5
55FE
  8
0
 10
-325.65131233744279
 20
24.36281246180469
 30
0.0
 11
-327.05154872679009
 21
22.962579050074659
 31
0.0
  0
LINE
  5
55FF
  8
0
 10
-329.92139381149912
 20
20.092733337041398
 30
0.0
 11
-330.35131233744278
 21
19.662814836395839
 31
0.0
  0
LINE
  5
5600
  8
0
 10
-325.65131233744279
 20
26.597481114460649
 30
0.0
 11
-325.65131233744279
 21
24.36281246180469
 31
0.0
  0
LINE
  5
5601
  8
0
 10
-329.92107568688323
 20
30.867241150576461
 30
0.0
 11
-330.53690633744282
 21
31.48307180113618
 31
0.0
  0
ARC
  5
5602
  8
0
 10
-326.9240273554197
 20
31.000287378903892
 30
0.0
 40
3.0
 50
182.5418294689097
 51
267.45817768503082
  0
ARC
  5
5603
  8
0
 10
-326.9241021126785
 20
19.965287379157122
 30
0.0
 40
3.0
 50
92.434783766460129
 51
177.56522877788541
  0
ARC
  5
5604
  8
0
 10
-352.37802735483569
 20
31.000459818528999
 30
0.0
 40
3.0
 50
272.53387024114153
 51
357.46612261247992
  0
ARC
  5
5605
  8
0
 10
-352.3781021120945
 20
19.9654598187822
 30
0.0
 40
3.0
 50
2.4229356526406538
 51
87.577051814795183
  0
CIRCLE
  5
5606
  8
0
 10
-90.494592695026327
 20
128.90669488140159
 30
0.0
 40
4.5000000000003668
  0
LINE
  5
5607
  8
¤¤¤ß˝u
 10
-79.842929379580539
 20
128.90669488140159
 30
0.0
 11
-101.24709830394831
 21
128.90669488140159
 31
0.0
  0
CIRCLE
  5
5608
  8
0
 10
-90.494592695026327
 20
128.90669488140159
 30
0.0
 40
7.000000000000381
  0
LINE
  5
5609
  8
¤¤¤ß˝u
 10
-90.494592695026327
 20
117.06023858616641
 30
0.0
 11
-90.494592695026327
 21
140.92182759566001
 31
0.0
  0
CIRCLE
  5
560A
  8
0
 10
-250.49459269502589
 20
128.90669488140111
 30
0.0
 40
7.000000000000381
  0
CIRCLE
  5
560B
  8
0
 10
-250.49459269502589
 20
128.90669488140111
 30
0.0
 40
4.5000000000003668
  0
LINE
  5
560C
  8
¤¤¤ß˝u
 10
-239.84292937957991
 20
128.90669488140111
 30
0.0
 11
-261.24709830394778
 21
128.90669488140111
 31
0.0
  0
LINE
  5
560D
  8
¤¤¤ß˝u
 10
-250.49459269502589
 20
117.06023858616589
 30
0.0
 11
-250.49459269502589
 21
140.92182759565949
 31
0.0
  0
LINE
  5
560E
  8
0
 10
-70.49459269502654
 20
142.90669488140179
 30
0.0
 11
-126.5162706739308
 21
142.90669488140151
 31
0.0
  0
LINE
  5
560F
  8
0
 10
-70.49459269502654
 20
114.90669488140161
 30
0.0
 11
-126.51627067393071
 21
114.90669488140141
 31
0.0
  0
LINE
  5
5610
  8
0
 10
-70.49459269502654
 20
142.90669488140179
 30
0.0
 11
-70.49459269502654
 21
114.90669488140161
 31
0.0
  0
LINE
  5
5611
  8
0
 10
-270.49459269502631
 20
142.90669488140119
 30
0.0
 11
-220.91627067393091
 21
142.90669488140099
 31
0.0
  0
LINE
  5
5612
  8
0
 10
-270.49459269502631
 20
114.90669488140119
 30
0.0
 11
-220.916270673931
 21
114.90669488140099
 31
0.0
  0
ARC
  5
5613
  8
0
 10
-126.8517944934249
 20
153.686943242838
 30
0.0
 40
1.220011576012179
 50
0.9276427879975832
 51
74.036977831171271
  0
ARC
  5
5614
  8
0
 10
-126.8517944934249
 20
151.72644651887211
 30
0.0
 40
1.220011576012179
 50
285.96302216882867
 51
359.07235721200237
  0
ARC
  5
5615
  8
0
 10
-126.85179449342471
 20
151.72644651887211
 30
0.0
 40
1.220011576012179
 50
285.96302216882867
 51
359.07235721200237
  0
LINE
  5
5616
  8
0
 10
-125.6319428145724
 20
153.706694880855
 30
0.0
 11
-125.6319428145724
 21
151.706694880855
 31
0.0
  0
LINE
  5
5617
  8
0
 10
-125.6319428145723
 20
153.7066948808548
 30
0.0
 11
-125.6319428145723
 21
151.70669488085491
 31
0.0
  0
LINE
  5
5618
  8
0
 10
-126.516270673931
 20
157.90654073831041
 30
0.0
 11
-138.71627067393081
 21
157.9064580886905
 31
0.0
  0
ARC
  5
5619
  8
0
 10
-126.8517944934249
 20
106.08694324393031
 30
0.0
 40
1.220011576012179
 50
0.9276427879975832
 51
74.036977831171271
  0
ARC
  5
561A
  8
0
 10
-126.8517944934249
 20
104.1264465199646
 30
0.0
 40
1.220011576012179
 50
285.96302216882867
 51
359.07235721200237
  0
ARC
  5
561B
  8
0
 10
-126.85179449342471
 20
104.1264465199644
 30
0.0
 40
1.220011576012179
 50
285.96302216882867
 51
359.07235721200237
  0
LINE
  5
561C
  8
0
 10
-125.6319428145724
 20
106.1066948819475
 30
0.0
 11
-125.6319428145724
 21
104.1066948819475
 31
0.0
  0
LINE
  5
561D
  8
0
 10
-125.6319428145723
 20
106.1066948819474
 30
0.0
 11
-125.6319428145723
 21
104.1066948819474
 31
0.0
  0
LINE
  5
561E
  8
0
 10
-126.516270673931
 20
157.90654073831041
 30
0.0
 11
-126.51627067393071
 21
99.906540736979551
 31
0.0
  0
LINE
  5
561F
  8
0
 10
-128.21627067393081
 20
157.90652922155999
 30
0.0
 11
-128.21627067393081
 21
99.906529220229203
 31
0.0
  0
LINE
  5
5620
  8
0
 10
-138.71627067393081
 20
99.906458087359567
 30
0.0
 11
-126.51627067393071
 21
99.906540736979551
 31
0.0
  0
ARC
  5
5621
  8
0
 10
-220.58074685443691
 20
153.686943242838
 30
0.0
 40
1.220011576012179
 50
105.9630221688287
 51
179.0723572120024
  0
ARC
  5
5622
  8
0
 10
-220.58074685443711
 20
151.72644651887211
 30
0.0
 40
1.220011576012179
 50
180.9276427879974
 51
254.03697783117121
  0
ARC
  5
5623
  8
0
 10
-220.58074685443691
 20
151.72644651887211
 30
0.0
 40
1.220011576012179
 50
180.9276427879974
 51
254.03697783117121
  0
LINE
  5
5624
  8
0
 10
-221.8005985332895
 20
153.7066948808548
 30
0.0
 11
-221.8005985332895
 21
151.70669488085491
 31
0.0
  0
LINE
  5
5625
  8
0
 10
-221.80059853328939
 20
153.706694880855
 30
0.0
 11
-221.80059853328939
 21
151.706694880855
 31
0.0
  0
ARC
  5
5626
  8
0
 10
-220.58074685443691
 20
106.08694324393031
 30
0.0
 40
1.220011576012179
 50
105.9630221688287
 51
179.0723572120024
  0
ARC
  5
5627
  8
0
 10
-220.58074685443711
 20
104.1264465199644
 30
0.0
 40
1.220011576012179
 50
180.9276427879974
 51
254.03697783117121
  0
ARC
  5
5628
  8
0
 10
-220.58074685443691
 20
104.1264465199646
 30
0.0
 40
1.220011576012179
 50
180.9276427879974
 51
254.03697783117121
  0
LINE
  5
5629
  8
0
 10
-221.8005985332895
 20
106.1066948819474
 30
0.0
 11
-221.8005985332895
 21
104.1066948819474
 31
0.0
  0
LINE
  5
562A
  8
0
 10
-221.80059853328939
 20
106.1066948819475
 30
0.0
 11
-221.80059853328939
 21
104.1066948819475
 31
0.0
  0
LINE
  5
562B
  8
0
  6
CONTINUOUS
 10
-233.90948080399559
 20
125.8271420475226
 30
0.0
 11
-233.33740353547989
 21
127.2082587478984
 31
0.0
  0
ARC
  5
562C
  8
0
  6
CONTINUOUS
 10
-235.18299080007461
 20
124.14754911065501
 30
0.0
 40
2.0596736098176041
 50
335.84790116505968
 51
45.847901165061117
  0
LINE
  5
562D
  8
0
  6
CONTINUOUS
 10
-231.06028469566331
 20
117.0705746064226
 30
0.0
 11
-228.91633979013
 21
119.2145195119558
 31
0.0
  0
LINE
  5
562E
  8
0
  6
CONTINUOUS
 10
-234.67876467393091
 20
118.5693980885964
 30
0.0
 11
-234.67876467393091
 21
121.60139405098229
 31
0.0
  0
LINE
  5
562F
  8
0
  6
CONTINUOUS
 10
-234.67876467393091
 20
121.60139405098229
 30
0.0
 11
-228.91633979013
 21
119.2145195119558
 31
0.0
  0
LINE
  5
5630
  8
0
  6
CONTINUOUS
 10
-234.67876467393091
 20
118.5693980885964
 30
0.0
 11
-231.06028469566331
 21
117.0705746064226
 31
0.0
  0
ARC
  5
5631
  8
0
  6
CONTINUOUS
 10
-231.9349824476906
 20
120.79315175175959
 30
0.0
 40
2.860349020536761
 50
118.5864858262624
 51
163.5864858262623
  0
ARC
  5
5632
  8
0
  6
CONTINUOUS
 10
-222.55975469688499
 20
132.35654083723779
 30
0.0
 40
2.119009977045994
 50
147.13277999893791
 51
212.86722000106201
  0
LINE
  5
5633
  8
0
  6
CONTINUOUS
 10
-224.33951213182161
 20
131.20654053845911
 30
0.0
 11
-220.916270673931
 21
131.20654053845911
 31
0.0
  0
LINE
  5
5634
  8
0
  6
CONTINUOUS
 10
-224.33951213182161
 20
133.50654073764491
 30
0.0
 11
-220.916270673931
 21
133.50654073764491
 31
0.0
  0
LINE
  5
5635
  8
0
  6
CONTINUOUS
 10
-224.33951213182161
 20
126.6065409368307
 30
0.0
 11
-220.916270673931
 21
126.6065409368307
 31
0.0
  0
LINE
  5
5636
  8
0
  6
CONTINUOUS
 10
-224.33951213182161
 20
124.30654073764489
 30
0.0
 11
-220.916270673931
 21
124.30654073764489
 31
0.0
  0
ARC
  5
5637
  8
0
  6
CONTINUOUS
 10
-222.55975469688499
 20
125.45654063805191
 30
0.0
 40
2.119009977045994
 50
147.13277999893791
 51
212.86722000106201
  0
LINE
  5
5638
  8
0
  6
CONTINUOUS
 10
-224.67876467393091
 20
125.45654063805191
 30
0.0
 11
-224.67876467393091
 21
132.35654083723779
 31
0.0
  0
ARC
  5
5639
  8
0
  6
CONTINUOUS
 10
-216.7113306942974
 20
128.90654073764489
 30
0.0
 40
7.9674339796336771
 50
163.2213499979124
 51
196.7786500020876
  0
LINE
  5
563A
  8
0
  6
CONTINUOUS
 10
-228.3315582874794
 20
123.51669089131531
 30
0.0
 11
-227.75948101896381
 21
124.89780759169111
 31
0.0
  0
ARC
  5
563B
  8
0
  6
CONTINUOUS
 10
-226.80595604287731
 20
124.57036187105371
 30
0.0
 40
1.8541337299152461
 50
214.63277999893671
 51
280.36722000106039
  0
ARC
  5
563C
  8
0
  6
CONTINUOUS
 10
-232.17306974043549
 20
119.50137731976911
 30
0.0
 40
6.9715047321794721
 50
50.721349997912533
 51
84.278650002089464
  0
ARC
  5
563D
  8
0
  6
CONTINUOUS
 10
-232.38387888143501
 20
126.8808131606548
 30
0.0
 40
1.8541337299152461
 50
214.63277999893671
 51
280.36722000106039
  0
ARC
  5
563E
  8
0
  6
CONTINUOUS
 10
-227.6365843623241
 20
130.4534218451129
 30
0.0
 40
6.9715047321794721
 50
230.7213499979124
 51
264.27865000208948
  0
LINE
  5
563F
  8
0
  6
CONTINUOUS
 10
-233.0934251412628
 20
125.16781695704729
 30
0.0
 11
-227.51550230270519
 21
122.8573656674461
 31
0.0
  0
LINE
  5
5640
  8
0
  6
CONTINUOUS
 10
-232.29415180005441
 20
127.0974334974359
 30
0.0
 11
-226.7162289614968
 21
124.7869822078348
 31
0.0
  0
ARC
  5
5641
  8
0
  6
CONTINUOUS
 10
-233.00369805988231
 20
125.3844372938284
 30
0.0
 40
1.8541337299152461
 50
34.632779998936741
 51
100.3672200010603
  0
LINE
  5
5642
  8
0
  6
CONTINUOUS
 10
-232.0501730837959
 20
125.0569915731908
 30
0.0
 11
-231.4780958152802
 21
126.4381082735666
 31
0.0
  0
ARC
  5
5643
  8
0
  6
CONTINUOUS
 10
-228.2773234964161
 20
128.90654073764489
 30
0.0
 40
4.0
 50
90.0
 51
210.83520489408539
  0
ARC
  5
5644
  8
0
  6
CONTINUOUS
 10
-231.42800041902601
 20
120.5831529196073
 30
0.0
 40
2.860349020536761
 50
331.41351417373693
 51
16.413514173737632
  0
LINE
  5
5645
  8
0
  6
CONTINUOUS
 10
-233.11883994883979
 20
123.2282756941825
 30
0.0
 11
-228.86899409928779
 21
121.4679319053031
 31
0.0
  0
ARC
  5
5646
  8
0
  6
CONTINUOUS
 10
-226.75939456843551
 20
120.6583813075551
 30
0.0
 40
2.0596736098176041
 50
89.152098834939196
 51
159.15209883493969
  0
LINE
  5
5647
  8
0
  6
CONTINUOUS
 10
-228.2773234964161
 20
132.90654073764489
 30
0.0
 11
-224.6061425859159
 21
132.90654073764489
 31
0.0
  0
LINE
  5
5648
  8
0
  6
CONTINUOUS
 10
-227.1437201957753
 20
124.9065407376449
 30
0.0
 11
-224.6061425859159
 21
124.9065407376449
 31
0.0
  0
ARC
  5
5649
  8
0
  6
CONTINUOUS
 10
-227.42577522132461
 20
123.07398600422719
 30
0.0
 40
1.8541337299152461
 50
34.632779998936741
 51
100.3672200010603
  0
LINE
  5
564A
  8
0
  6
CONTINUOUS
 10
-226.47229281932621
 20
122.74649763771311
 30
0.0
 11
-225.90017292596039
 21
124.12771724358031
 31
0.0
  0
LINE
  5
564B
  8
0
 10
-220.91627067393091
 20
157.90654073831041
 30
0.0
 11
-208.71627067393089
 21
157.9064580886905
 31
0.0
  0
LINE
  5
564C
  8
0
 10
-208.71627067393089
 20
99.906458087359567
 30
0.0
 11
-220.916270673931
 21
99.906540736979551
 31
0.0
  0
LINE
  5
564D
  8
0
 10
-270.49459269502631
 20
142.90669488140119
 30
0.0
 11
-270.49459269502631
 21
114.90669488140119
 31
0.0
  0
LINE
  5
564E
  8
0
 10
-220.91627067393091
 20
157.90654073831041
 30
0.0
 11
-220.916270673931
 21
99.906540736979551
 31
0.0
  0
LINE
  5
564F
  8
0
 10
-219.21627067393089
 20
157.90652922155999
 30
0.0
 11
-219.21627067393089
 21
99.906529220229203
 31
0.0
  0
LINE
  5
5650
  8
¤¤¤ß˝u
 10
-222.7001204703021
 20
40.983544344773399
 30
0.0
 11
-216.94848349592141
 21
40.983544344773399
 31
0.0
  0
LINE
  5
5651
  8
0
 10
-208.71627067393089
 20
98.821196788378316
 30
0.0
 11
-138.71627067393081
 21
98.821196788378316
 31
0.0
  0
LINE
  5
5652
  8
0
 10
-208.71627067393089
 20
100.3723517559978
 30
0.0
 11
-138.71627067393081
 21
100.3723517559978
 31
0.0
  0
CIRCLE
  5
5653
  8
0
 10
-153.71627067393089
 20
108.8211967883783
 30
0.0
 40
3.399999999999975
  0
ARC
  5
5654
  8
AM5
 10
-153.71627067393089
 20
108.8211967883783
 30
0.0
 40
4.0
 50
13.66265771151202
 51
282.45624489970038
  0
CIRCLE
  5
5655
  8
0
 10
-153.67354211205731
 20
148.8211967883783
 30
0.0
 40
3.399999999999975
  0
ARC
  5
5656
  8
AM5
 10
-153.67354211205731
 20
148.8211967883783
 30
0.0
 40
4.0
 50
77.421849232430205
 51
346.21543642061732
  0
LINE
  5
5657
  8
AM7
 10
-149.2561554787697
 20
148.8211967883783
 30
0.0
 11
-158.090928745345
 21
148.8211967883783
 31
0.0
  0
LINE
  5
5658
  8
AM7
 10
-153.67354211205731
 20
144.62914128401059
 30
0.0
 11
-153.67354211205731
 21
153.01325229274599
 31
0.0
  0
LINE
  5
5659
  8
0
 10
-208.71627067393089
 20
158.82119678837819
 30
0.0
 11
-138.71627067393081
 21
158.82119678837819
 31
0.0
  0
LINE
  5
565A
  8
0
 10
-208.71627067393089
 20
157.37235175599761
 30
0.0
 11
-138.71627067393081
 21
157.3723517559975
 31
0.0
  0
LINE
  5
565B
  8
0
 10
-208.71627067393089
 20
142.87235175599761
 30
0.0
 11
-138.71627067393081
 21
142.8723517559975
 31
0.0
  0
LINE
  5
565C
  8
0
 10
-208.71627067393089
 20
142.37235175599761
 30
0.0
 11
-138.71627067393081
 21
142.3723517559975
 31
0.0
  0
LINE
  5
565D
  8
0
 10
-208.71627067393089
 20
133.87235175599761
 30
0.0
 11
-138.71627067393081
 21
133.87235175599761
 31
0.0
  0
LINE
  5
565E
  8
0
 10
-208.71627067393089
 20
134.37235175599761
 30
0.0
 11
-138.71627067393081
 21
134.37235175599761
 31
0.0
  0
LINE
  5
565F
  8
0
 10
-208.71627067393089
 20
123.3723517559976
 30
0.0
 11
-138.71627067393081
 21
123.3723517559976
 31
0.0
  0
LINE
  5
5660
  8
0
 10
-208.71627067393089
 20
123.8723517559976
 30
0.0
 11
-138.71627067393081
 21
123.8723517559976
 31
0.0
  0
LINE
  5
5661
  8
0
 10
-208.71627067393089
 20
114.8723517559977
 30
0.0
 11
-138.71627067393081
 21
114.8723517559977
 31
0.0
  0
LINE
  5
5662
  8
0
 10
-208.71627067393089
 20
115.3723517559977
 30
0.0
 11
-138.71627067393081
 21
115.3723517559977
 31
0.0
  0
LINE
  5
5663
  8
0
 10
-208.71627067393089
 20
158.82119678837819
 30
0.0
 11
-208.71627067393089
 21
98.821196788378202
 31
0.0
  0
LINE
  5
5664
  8
AM7
 10
-173.71627067393081
 20
97.721196788378393
 30
0.0
 11
-173.71627067393081
 21
159.92119678837821
 31
0.0
  0
LINE
  5
5665
  8
0
 10
-138.71627067393081
 20
158.82119678837819
 30
0.0
 11
-138.71627067393081
 21
98.821196788378316
 31
0.0
  0
POINT
  5
5666
  8
0
 10
-234.4162706739308
 20
40.983565369443802
 30
0.0
1001
PNTFLAG
1000
endpoint
  0
LINE
  5
5667
  8
0
 10
-230.9434826739309
 20
40.983565369443802
 30
0.0
 11
-230.97528867393089
 21
40.634029369443788
 31
0.0
  0
LINE
  5
5668
  8
0
 10
-230.97528867393089
 20
40.634029369443788
 30
0.0
 11
-231.0694836739309
 21
40.297925369443789
 31
0.0
  0
LINE
  5
5669
  8
0
 10
-230.97528867393089
 20
41.333101369443803
 30
0.0
 11
-230.9434826739309
 21
40.983565369443802
 31
0.0
  0
LINE
  5
566A
  8
0
 10
-231.0694836739309
 20
40.297925369443789
 30
0.0
 11
-231.2224476739309
 21
39.988170369443822
 31
0.0
  0
LINE
  5
566B
  8
0
 10
-231.0694836739309
 20
41.669205369443802
 30
0.0
 11
-230.97528867393089
 21
41.333101369443803
 31
0.0
  0
LINE
  5
566C
  8
0
 10
-231.2224476739309
 20
39.988170369443822
 30
0.0
 11
-231.42830367393091
 21
39.716667369443847
 31
0.0
  0
LINE
  5
566D
  8
0
 10
-231.2224476739309
 20
41.978960369443769
 30
0.0
 11
-231.0694836739309
 21
41.669205369443802
 31
0.0
  0
LINE
  5
566E
  8
0
 10
-231.67913867393091
 20
39.493851369443831
 30
0.0
 11
-231.42830367393091
 21
39.716667369443847
 31
0.0
  0
LINE
  5
566F
  8
0
 10
-231.42830367393091
 20
42.250462369443802
 30
0.0
 11
-231.2224476739309
 21
41.978960369443769
 31
0.0
  0
LINE
  5
5670
  8
0
 10
-229.69821867393091
 20
40.983565369443802
 30
0.0
 11
-229.74354667393089
 21
40.485423369443787
 31
0.0
  0
LINE
  5
5671
  8
0
 10
-229.74354667393089
 20
40.485423369443787
 30
0.0
 11
-229.87778967393089
 21
40.006424369443771
 31
0.0
  0
LINE
  5
5672
  8
0
 10
-229.74354667393089
 20
41.481707369443789
 30
0.0
 11
-229.69821867393091
 21
40.983565369443802
 31
0.0
  0
LINE
  5
5673
  8
0
 10
-231.96531567393089
 20
39.328283369443817
 30
0.0
 11
-231.67913867393091
 21
39.493851369443831
 31
0.0
  0
LINE
  5
5674
  8
0
 10
-231.67913867393091
 20
42.473279369443752
 30
0.0
 11
-231.42830367393091
 21
42.250462369443802
 31
0.0
  0
LINE
  5
5675
  8
0
 10
-229.87778967393089
 20
40.006424369443771
 30
0.0
 11
-230.09578667393089
 21
39.564977369443803
 31
0.0
  0
LINE
  5
5676
  8
0
 10
-229.87778967393089
 20
41.960705369443779
 30
0.0
 11
-229.74354667393089
 21
41.481707369443789
 31
0.0
  0
LINE
  5
5677
  8
0
 10
-230.09578667393089
 20
39.564977369443803
 30
0.0
 11
-230.38916167393089
 21
39.178045369443772
 31
0.0
  0
LINE
  5
5678
  8
0
 10
-230.09578667393089
 20
42.402153369443802
 30
0.0
 11
-229.87778967393089
 21
41.960705369443779
 31
0.0
  0
LINE
  5
5679
  8
0
 10
-232.2758346739308
 20
39.226327369443787
 30
0.0
 11
-231.96531567393089
 21
39.328283369443817
 31
0.0
  0
LINE
  5
567A
  8
0
 10
-231.96531567393089
 20
42.638846369443741
 30
0.0
 11
-231.67913867393091
 21
42.473279369443752
 31
0.0
  0
LINE
  5
567B
  8
0
 10
-230.7466406739309
 20
38.860498369443803
 30
0.0
 11
-230.38916167393089
 21
39.178045369443772
 31
0.0
  0
LINE
  5
567C
  8
0
 10
-230.38916167393089
 20
42.789085369443839
 30
0.0
 11
-230.09578667393089
 21
42.402153369443802
 31
0.0
  0
LINE
  5
567D
  8
0
 10
-229.5745186739309
 20
40.983565369443802
 30
0.0
 11
-229.61935167393091
 21
40.490863369443787
 31
0.0
  0
LINE
  5
567E
  8
0
 10
-232.5987636739309
 20
39.191901369443819
 30
0.0
 11
-232.2758346739308
 21
39.226327369443787
 31
0.0
  0
LINE
  5
567F
  8
0
 10
-232.2758346739308
 20
42.740802369443777
 30
0.0
 11
-231.96531567393089
 21
42.638846369443741
 31
0.0
  0
LINE
  5
5680
  8
0
 10
-229.61935167393091
 20
40.490863369443787
 30
0.0
 11
-229.7521276739308
 21
40.017095369443808
 31
0.0
  0
LINE
  5
5681
  8
0
 10
-229.61935167393091
 20
41.476267369443789
 30
0.0
 11
-229.5745186739309
 21
40.983565369443802
 31
0.0
  0
LINE
  5
5682
  8
0
 10
-231.15448467393091
 20
38.624539369443802
 30
0.0
 11
-230.7466406739309
 21
38.860498369443803
 31
0.0
  0
LINE
  5
5683
  8
0
 10
-230.7466406739309
 20
43.10663236944378
 30
0.0
 11
-230.38916167393089
 21
42.789085369443839
 31
0.0
  0
LINE
  5
5684
  8
0
 10
-229.7521276739308
 20
40.017095369443808
 30
0.0
 11
-229.96774467393089
 21
39.580468369443821
 31
0.0
  0
LINE
  5
5685
  8
0
 10
-229.7521276739308
 20
41.950035369443782
 30
0.0
 11
-229.61935167393091
 21
41.476267369443789
 31
0.0
  0
LINE
  5
5686
  8
0
 10
-229.96774467393089
 20
39.580468369443821
 30
0.0
 11
-230.25791567393091
 21
39.197761369443782
 31
0.0
  0
LINE
  5
5687
  8
0
 10
-229.96774467393089
 20
42.386662369443769
 30
0.0
 11
-229.7521276739308
 21
41.950035369443782
 31
0.0
  0
LINE
  5
5688
  8
0
 10
-231.5970216739309
 20
38.479236369443782
 30
0.0
 11
-231.15448467393091
 21
38.624539369443802
 31
0.0
  0
LINE
  5
5689
  8
0
 10
-231.15448467393091
 20
43.342591369443767
 30
0.0
 11
-230.7466406739309
 21
43.10663236944378
 31
0.0
  0
LINE
  5
568A
  8
0
 10
-232.92169367393089
 20
39.226327369443787
 30
0.0
 11
-232.5987636739309
 21
39.191901369443819
 31
0.0
  0
LINE
  5
568B
  8
0
 10
-232.5987636739309
 20
42.775228369443788
 30
0.0
 11
-232.2758346739308
 21
42.740802369443777
 31
0.0
  0
LINE
  5
568C
  8
0
 10
-230.61149067393089
 20
38.883682369443818
 30
0.0
 11
-230.25791567393091
 21
39.197761369443782
 31
0.0
  0
LINE
  5
568D
  8
0
 10
-230.25791567393091
 20
42.76936936944378
 30
0.0
 11
-229.96774467393089
 21
42.386662369443769
 31
0.0
  0
LINE
  5
568E
  8
0
 10
-232.05724467393091
 20
38.430174369443819
 30
0.0
 11
-231.5970216739309
 21
38.479236369443782
 31
0.0
  0
LINE
  5
568F
  8
0
 10
-231.5970216739309
 20
38.479236369443782
 30
0.0
 11
-231.45258567393091
 21
38.506584369443843
 31
0.0
  0
LINE
  5
5690
  8
0
 10
-231.5970216739309
 20
43.487893369443711
 30
0.0
 11
-231.15448467393091
 21
43.342591369443767
 31
0.0
  0
LINE
  5
5691
  8
0
 10
-233.23221267393089
 20
39.328283369443817
 30
0.0
 11
-232.92169367393089
 21
39.226327369443787
 31
0.0
  0
LINE
  5
5692
  8
0
 10
-232.92169367393089
 20
42.740802369443777
 30
0.0
 11
-232.5987636739309
 21
42.775228369443788
 31
0.0
  0
LINE
  5
5693
  8
0
 10
-231.0148816739308
 20
38.650300369443841
 30
0.0
 11
-230.61149067393089
 21
38.883682369443818
 31
0.0
  0
LINE
  5
5694
  8
0
 10
-230.61149067393089
 20
43.083448369443772
 30
0.0
 11
-230.25791567393091
 21
42.76936936944378
 31
0.0
  0
LINE
  5
5695
  8
0
 10
-231.45258567393091
 20
38.506584369443843
 30
0.0
 11
-231.0148816739308
 21
38.650300369443841
 31
0.0
  0
LINE
  5
5696
  8
0
 10
-231.0148816739308
 20
43.31683036944375
 30
0.0
 11
-230.61149067393089
 21
43.083448369443772
 31
0.0
  0
LINE
  5
5697
  8
0
 10
-232.51746767393081
 20
38.479236369443782
 30
0.0
 11
-232.05724467393091
 21
38.430174369443819
 31
0.0
  0
LINE
  5
5698
  8
0
 10
-232.05724467393091
 20
43.536956369443772
 30
0.0
 11
-231.5970216739309
 21
43.487893369443711
 31
0.0
  0
LINE
  5
5699
  8
0
 10
-231.5970216739309
 20
43.487893369443711
 30
0.0
 11
-231.45258567393091
 21
43.460546369443747
 31
0.0
  0
LINE
  5
569A
  8
0
 10
-233.51838967393081
 20
39.493851369443831
 30
0.0
 11
-233.23221267393089
 21
39.328283369443817
 31
0.0
  0
LINE
  5
569B
  8
0
 10
-233.23221267393089
 20
42.638846369443741
 30
0.0
 11
-232.92169367393089
 21
42.740802369443777
 31
0.0
  0
LINE
  5
569C
  8
0
 10
-231.45258567393091
 20
43.460546369443747
 30
0.0
 11
-231.0148816739308
 21
43.31683036944375
 31
0.0
  0
LINE
  5
569D
  8
0
 10
-233.76922467393081
 20
39.716667369443847
 30
0.0
 11
-233.51838967393081
 21
39.493851369443831
 31
0.0
  0
LINE
  5
569E
  8
0
 10
-233.51838967393081
 20
42.473279369443752
 30
0.0
 11
-233.23221267393089
 21
42.638846369443741
 31
0.0
  0
LINE
  5
569F
  8
0
 10
-232.96000467393091
 20
38.624539369443802
 30
0.0
 11
-232.51746767393081
 21
38.479236369443782
 31
0.0
  0
LINE
  5
56A0
  8
0
 10
-232.51746767393081
 20
43.487893369443711
 30
0.0
 11
-232.05724467393091
 21
43.536956369443772
 31
0.0
  0
LINE
  5
56A1
  8
0
 10
-233.97508067393079
 20
39.988170369443822
 30
0.0
 11
-233.76922467393081
 21
39.716667369443847
 31
0.0
  0
LINE
  5
56A2
  8
0
 10
-233.76922467393081
 20
42.250462369443802
 30
0.0
 11
-233.51838967393081
 21
42.473279369443752
 31
0.0
  0
LINE
  5
56A3
  8
0
 10
-233.36784967393081
 20
38.860498369443803
 30
0.0
 11
-232.96000467393091
 21
38.624539369443802
 31
0.0
  0
LINE
  5
56A4
  8
0
 10
-232.96000467393091
 20
43.342591369443767
 30
0.0
 11
-232.51746767393081
 21
43.487893369443711
 31
0.0
  0
LINE
  5
56A5
  8
0
 10
-234.1280446739309
 20
40.297925369443789
 30
0.0
 11
-233.97508067393079
 21
39.988170369443822
 31
0.0
  0
LINE
  5
56A6
  8
0
 10
-233.76922467393081
 20
42.250462369443802
 30
0.0
 11
-233.97508067393079
 21
41.978960369443769
 31
0.0
  0
LINE
  5
56A7
  8
0
 10
-233.72532767393091
 20
39.178045369443772
 30
0.0
 11
-233.36784967393081
 21
38.860498369443803
 31
0.0
  0
LINE
  5
56A8
  8
0
 10
-233.36784967393081
 20
43.10663236944378
 30
0.0
 11
-232.96000467393091
 21
43.342591369443767
 31
0.0
  0
LINE
  5
56A9
  8
0
 10
-234.22223967393089
 20
40.634029369443788
 30
0.0
 11
-234.1280446739309
 21
40.297925369443789
 31
0.0
  0
LINE
  5
56AA
  8
0
 10
-233.97508067393079
 20
41.978960369443769
 30
0.0
 11
-234.1280446739309
 21
41.669205369443802
 31
0.0
  0
LINE
  5
56AB
  8
0
 10
-234.25404567393079
 20
40.983565369443802
 30
0.0
 11
-234.22223967393089
 21
40.634029369443788
 31
0.0
  0
LINE
  5
56AC
  8
0
 10
-234.1280446739309
 20
41.669205369443802
 30
0.0
 11
-234.22223967393089
 21
41.333101369443803
 31
0.0
  0
LINE
  5
56AD
  8
0
 10
-234.22223967393089
 20
41.333101369443803
 30
0.0
 11
-234.25404567393079
 21
40.983565369443802
 31
0.0
  0
LINE
  5
56AE
  8
0
 10
-234.01870367393079
 20
39.564977369443803
 30
0.0
 11
-233.72532767393091
 21
39.178045369443772
 31
0.0
  0
LINE
  5
56AF
  8
0
 10
-233.72532767393091
 20
42.789085369443839
 30
0.0
 11
-233.36784967393081
 21
43.10663236944378
 31
0.0
  0
LINE
  5
56B0
  8
0
 10
-234.2367006739309
 20
40.006424369443771
 30
0.0
 11
-234.01870367393079
 21
39.564977369443803
 31
0.0
  0
LINE
  5
56B1
  8
0
 10
-233.72532767393091
 20
42.789085369443839
 30
0.0
 11
-234.01870367393079
 21
42.402153369443802
 31
0.0
  0
LINE
  5
56B2
  8
0
 10
-234.37094267393081
 20
40.485423369443787
 30
0.0
 11
-234.2367006739309
 21
40.006424369443771
 31
0.0
  0
LINE
  5
56B3
  8
0
 10
-234.01870367393079
 20
42.402153369443802
 30
0.0
 11
-234.2367006739309
 21
41.960705369443779
 31
0.0
  0
LINE
  5
56B4
  8
0
 10
-234.4162706739308
 20
40.983565369443802
 30
0.0
 11
-234.37094267393081
 21
40.485423369443787
 31
0.0
  0
LINE
  5
56B5
  8
0
 10
-234.2367006739309
 20
41.960705369443779
 30
0.0
 11
-234.37094267393081
 21
41.481707369443789
 31
0.0
  0
LINE
  5
56B6
  8
0
 10
-234.37094267393081
 20
41.481707369443789
 30
0.0
 11
-234.4162706739308
 21
40.983565369443802
 31
0.0
  0
LINE
  5
56B7
  8
0
 10
-233.25823267393079
 20
39.343337369443809
 30
0.0
 11
-233.25526167393079
 21
39.3449533694438
 31
0.0
  0
LINE
  5
56B8
  8
0
 10
-233.25823267393079
 20
42.623792369443748
 30
0.0
 11
-233.25526167393079
 21
42.622177369443783
 31
0.0
  0
LINE
  5
56B9
  8
0
 10
-227.58269767393091
 20
40.983565369443802
 30
0.0
 11
-227.63595367393091
 21
40.398294369443747
 31
0.0
  0
LINE
  5
56BA
  8
0
 10
-227.63595367393091
 20
41.568836369443829
 30
0.0
 11
-227.58269767393091
 21
40.983565369443802
 31
0.0
  0
LINE
  5
56BB
  8
0
 10
-227.63595367393091
 20
40.398294369443747
 30
0.0
 11
-227.79367567393081
 21
39.835514369443842
 31
0.0
  0
LINE
  5
56BC
  8
0
 10
-227.79367567393081
 20
42.131615369443779
 30
0.0
 11
-227.63595367393091
 21
41.568836369443829
 31
0.0
  0
LINE
  5
56BD
  8
0
 10
-227.79367567393081
 20
39.835514369443842
 30
0.0
 11
-228.04980267393091
 21
39.316854369443767
 31
0.0
  0
LINE
  5
56BE
  8
0
 10
-228.04980267393091
 20
42.65027536944379
 30
0.0
 11
-227.79367567393081
 21
42.131615369443779
 31
0.0
  0
LINE
  5
56BF
  8
0
 10
-228.04980267393091
 20
39.316854369443767
 30
0.0
 11
-228.3944916739309
 21
38.862244369443772
 31
0.0
  0
LINE
  5
56C0
  8
0
 10
-228.3944916739309
 20
43.104885369443792
 30
0.0
 11
-228.04980267393091
 21
42.65027536944379
 31
0.0
  0
LINE
  5
56C1
  8
0
 10
-227.1539236739309
 20
40.983565369443802
 30
0.0
 11
-228.75412967393081
 21
37.983565369443816
 31
0.0
  0
LINE
  5
56C2
  8
0
 10
-228.75412967393081
 20
43.983565369443781
 30
0.0
 11
-227.1539236739309
 21
40.983565369443802
 31
0.0
  0
LINE
  5
56C3
  8
0
 10
-228.81449567393091
 20
38.489156369443812
 30
0.0
 11
-228.3944916739309
 21
38.862244369443772
 31
0.0
  0
LINE
  5
56C4
  8
0
 10
-228.81449567393091
 20
43.477974369443778
 30
0.0
 11
-228.3944916739309
 21
43.104885369443792
 31
0.0
  0
LINE
  5
56C5
  8
0
 10
-229.29367567393089
 20
38.211926369443802
 30
0.0
 11
-228.81449567393091
 21
38.489156369443812
 31
0.0
  0
LINE
  5
56C6
  8
0
 10
-229.29367567393089
 20
43.755203369443763
 30
0.0
 11
-228.81449567393091
 21
43.477974369443778
 31
0.0
  0
LINE
  5
56C7
  8
0
 10
-229.81361567393091
 20
38.041209369443862
 30
0.0
 11
-229.29367567393089
 21
38.211926369443802
 31
0.0
  0
LINE
  5
56C8
  8
0
 10
-229.81361567393091
 20
43.925921369443721
 30
0.0
 11
-229.29367567393089
 21
43.755203369443763
 31
0.0
  0
LINE
  5
56C9
  8
0
 10
-230.3543356739309
 20
37.983565369443816
 30
0.0
 11
-229.81361567393091
 21
38.041209369443862
 31
0.0
  0
LINE
  5
56CA
  8
0
 10
-230.3543356739309
 20
43.983565369443781
 30
0.0
 11
-229.81361567393091
 21
43.925921369443721
 31
0.0
  0
LINE
  5
56CB
  8
0
 10
-230.8950556739309
 20
38.041209369443862
 30
0.0
 11
-230.3543356739309
 21
37.983565369443816
 31
0.0
  0
LINE
  5
56CC
  8
0
 10
-230.8950556739309
 20
43.925921369443721
 30
0.0
 11
-230.3543356739309
 21
43.983565369443781
 31
0.0
  0
LINE
  5
56CD
  8
0
 10
-231.41499567393089
 20
38.211926369443802
 30
0.0
 11
-230.8950556739309
 21
38.041209369443862
 31
0.0
  0
LINE
  5
56CE
  8
0
 10
-231.41499567393089
 20
43.755203369443763
 30
0.0
 11
-230.8950556739309
 21
43.925921369443721
 31
0.0
  0
LINE
  5
56CF
  8
0
 10
-231.83346267393091
 20
38.454030369443842
 30
0.0
 11
-231.41499567393089
 21
38.211926369443802
 31
0.0
  0
LINE
  5
56D0
  8
0
 10
-231.83346267393091
 20
43.513099369443772
 30
0.0
 11
-231.41499567393089
 21
43.755203369443763
 31
0.0
  0
LINE
  5
56D1
  8
0
 10
-226.4545596739309
 20
40.983565369443802
 30
0.0
 11
-228.05476567393089
 21
37.983565369443816
 31
0.0
  0
LINE
  5
56D2
  8
0
 10
-228.05476567393089
 20
37.983565369443816
 30
0.0
 11
-231.95454167393089
 21
37.983565369443816
 31
0.0
  0
LINE
  5
56D3
  8
0
 10
-228.05476567393089
 20
43.983565369443781
 30
0.0
 11
-226.4545596739309
 21
40.983565369443802
 31
0.0
  0
LINE
  5
56D4
  8
0
 10
-227.1539236739309
 20
40.983565369443802
 30
0.0
 11
-226.4545596739309
 21
40.983565369443802
 31
0.0
  0
LINE
  5
56D5
  8
0
 10
-231.95454167393089
 20
43.983565369443781
 30
0.0
 11
-232.2009346739309
 21
43.521638369443792
 31
0.0
  0
LINE
  5
56D6
  8
0
 10
-232.2009346739309
 20
38.445492369443798
 30
0.0
 11
-231.95454167393089
 21
37.983565369443816
 31
0.0
  0
LINE
  5
56D7
  8
0
 10
-231.95454167393089
 20
43.983565369443781
 30
0.0
 11
-228.05476567393089
 21
43.983565369443781
 31
0.0
  0
LINE
  5
56D8
  8
0
 10
-224.67876467393091
 20
44.983565369443781
 30
0.0
 11
-224.67876467393091
 21
36.983565369443802
 31
0.0
  0
LINE
  5
56D9
  8
0
 10
-228.4271046739309
 20
36.983565369443802
 30
0.0
 11
-220.91627067393091
 21
36.983565369443802
 31
0.0
  0
LINE
  5
56DA
  8
0
 10
-220.91627067393091
 20
44.983565369443781
 30
0.0
 11
-228.4271046739309
 21
44.983565369443781
 31
0.0
  0
ARC
  5
56DB
  8
0
 10
-228.4271046739309
 20
40.983565369443802
 30
0.0
 40
3.999999999999968
 50
228.59037799730069
 51
270.0
  0
ARC
  5
56DC
  8
0
 10
-228.4271046739309
 20
40.983565369443802
 30
0.0
 40
3.999999999999968
 50
90.0
 51
131.40962199959921
  0
POLYLINE
  5
56DD
  8
0
 66
     1
 10
0.0
 20
0.0
 30
0.0
  0
VERTEX
  5
57F5
  8
0
 10
-232.00748167393081
 20
40.983565369443767
 30
0.0
  0
VERTEX
  5
57F6
  8
0
 10
-232.04029967393089
 20
41.193820369443777
 30
0.0
  0
VERTEX
  5
57F7
  8
0
 10
-232.0844466739309
 20
41.299307369443753
 30
0.0
  0
VERTEX
  5
57F8
  8
0
 10
-232.14747967393089
 20
41.397086369443763
 30
0.0
  0
VERTEX
  5
57F9
  8
0
 10
-232.22695567393089
 20
41.481199369443772
 30
0.0
  0
VERTEX
  5
57FA
  8
0
 10
-232.31844667393091
 20
41.547072369443782
 30
0.0
  0
VERTEX
  5
57FB
  8
0
 10
-232.4163666739309
 20
41.592353369443721
 30
0.0
  0
VERTEX
  5
57FC
  8
0
 10
-232.54900267393089
 20
41.621294369443753
 30
0.0
  0
VERTEX
  5
57FD
  8
0
 10
-232.67201167393091
 20
41.618635369443751
 30
0.0
  0
VERTEX
  5
57FE
  8
0
 10
-232.7789356739309
 20
41.59312936944373
 30
0.0
  0
VERTEX
  5
57FF
  8
0
 10
-232.89514067393091
 20
41.537361369443737
 30
0.0
  0
VERTEX
  5
5800
  8
0
 10
-233.00571067393091
 20
41.447872369443779
 30
0.0
  0
VERTEX
  5
5801
  8
0
 10
-233.09394067393089
 20
41.333322369443778
 30
0.0
  0
VERTEX
  5
5802
  8
0
 10
-233.15057467393089
 20
41.213483369443807
 30
0.0
  0
VERTEX
  5
5803
  8
0
 10
-233.1784256739308
 20
41.109827369443742
 30
0.0
  0
VERTEX
  5
5804
  8
0
 10
-233.19004667393091
 20
40.983565369443767
 30
0.0
  0
VERTEX
  5
5805
  8
0
 10
-233.15722867393089
 20
40.773310369443799
 30
0.0
  0
VERTEX
  5
5806
  8
0
 10
-233.11308067393091
 20
40.667822369443762
 30
0.0
  0
VERTEX
  5
5807
  8
0
 10
-233.05004867393089
 20
40.570044369443771
 30
0.0
  0
VERTEX
  5
5808
  8
0
 10
-232.9705726739308
 20
40.485931369443762
 30
0.0
  0
VERTEX
  5
5809
  8
0
 10
-232.8790816739309
 20
40.420058369443758
 30
0.0
  0
VERTEX
  5
580A
  8
0
 10
-232.78116167393091
 20
40.37477736944377
 30
0.0
  0
VERTEX
  5
580B
  8
0
 10
-232.64852567393081
 20
40.345835369443733
 30
0.0
  0
VERTEX
  5
580C
  8
0
 10
-232.52551667393081
 20
40.348495369443782
 30
0.0
  0
VERTEX
  5
580D
  8
0
 10
-232.4185926739309
 20
40.374000369443777
 30
0.0
  0
VERTEX
  5
580E
  8
0
 10
-232.30238767393089
 20
40.429768369443792
 30
0.0
  0
VERTEX
  5
580F
  8
0
 10
-232.1918176739309
 20
40.519258369443747
 30
0.0
  0
VERTEX
  5
5810
  8
0
 10
-232.10358767393089
 20
40.633807369443758
 30
0.0
  0
VERTEX
  5
5811
  8
0
 10
-232.04695367393089
 20
40.753646369443771
 30
0.0
  0
VERTEX
  5
5812
  8
0
 10
-232.01910167393089
 20
40.857303369443827
 30
0.0
  0
VERTEX
  5
5813
  8
0
 10
-232.00748167393081
 20
40.983565369443767
 30
0.0
  0
SEQEND
  5
5814
  8
0
  0
ARC
  5
56DE
  8
0
 10
-221.72465267393099
 20
42.983565369443738
 30
0.0
 40
2.954111999999975
 50
137.38859800219939
 51
222.61140199989811
  0
ARC
  5
56DF
  8
0
 10
-221.72465367393099
 20
38.983565369443852
 30
0.0
 40
2.9541109999999762
 50
137.38859300450031
 51
222.61140699760111
  0
LINE
  5
56E0
  8
µę˝u
 10
-148.9134928961532
 20
50.483546038344322
 30
0.0
 11
-149.71627067393089
 21
49.633546038344292
 31
0.0
  0
LINE
  5
56E1
  8
µę˝u
 10
-148.913492896153
 20
50.483546038344201
 30
0.0
 11
-149.71627067393069
 21
49.633546038344193
 31
0.0
  0
LINE
  5
56E2
  8
µę˝u
 10
-158.5190484517087
 20
50.483546038344322
 30
0.0
 11
-157.71627067393101
 21
49.633546038344292
 31
0.0
  0
LINE
  5
56E3
  8
µę˝u
 10
-158.5190484517085
 20
50.483546038344201
 30
0.0
 11
-157.71627067393069
 21
49.633546038344193
 31
0.0
  0
LINE
  5
56E4
  8
µę˝u
 10
-157.71627067393101
 20
49.633546038344292
 30
0.0
 11
-149.71627067393089
 21
49.633546038344292
 31
0.0
  0
LINE
  5
56E5
  8
µę˝u
 10
-157.71627067393069
 20
49.633546038344193
 30
0.0
 11
-149.71627067393069
 21
49.633546038344193
 31
0.0
  0
CIRCLE
  5
56E6
  8
0
 10
-132.71627067393089
 20
36.683546038343898
 30
0.0
 40
2.486916010899999
  0
CIRCLE
  5
56E7
  8
0
 10
-132.71627067393089
 20
36.683546038343522
 30
0.0
 40
2.486916010899999
  0
CIRCLE
  5
56E8
  8
0
 10
-132.71627067393089
 20
36.683546038343898
 30
0.0
 40
2.185553324299998
  0
CIRCLE
  5
56E9
  8
0
 10
-132.71627067393089
 20
36.683546038343522
 30
0.0
 40
2.185553324299998
  0
CIRCLE
  5
56EA
  8
0
 10
-132.71627067393089
 20
36.683546038343898
 30
0.0
 40
0.7185553324000003
  0
CIRCLE
  5
56EB
  8
0
 10
-132.71627067393089
 20
36.683546038343522
 30
0.0
 40
0.7185553324000003
  0
CIRCLE
  5
56EC
  8
0
 10
-132.71627067393089
 20
36.683546038343898
 30
0.0
 40
2.75
  0
CIRCLE
  5
56ED
  8
0
 10
-132.71627067393089
 20
36.683546038343522
 30
0.0
 40
2.75
  0
LINE
  5
56EE
  8
¤¤¤ß˝u
 10
-132.71627067393089
 20
31.842108806799981
 30
0.0
 11
-132.71627067393089
 21
41.524983269887031
 31
0.0
  0
LINE
  5
56EF
  8
¤¤¤ß˝u
 10
-132.71627067393089
 20
31.842108806799981
 30
0.0
 11
-132.71627067393089
 21
41.524983269887031
 31
0.0
  0
LINE
  5
56F0
  8
µę˝u
 10
-153.71627067393101
 20
35.442066762788237
 30
0.0
 11
-150.316270673931
 21
36.733546038344322
 31
0.0
  0
LINE
  5
56F1
  8
µę˝u
 10
-153.71627067393069
 20
35.44206676278813
 30
0.0
 11
-150.3162706739306
 21
36.733546038344201
 31
0.0
  0
LINE
  5
56F2
  8
µę˝u
 10
-157.11627067393101
 20
36.733546038344322
 30
0.0
 11
-150.31627067393089
 21
36.733546038344322
 31
0.0
  0
LINE
  5
56F3
  8
µę˝u
 10
-157.71627067393101
 20
40.483546038344322
 30
0.0
 11
-149.71627067393089
 21
40.483546038344322
 31
0.0
  0
LINE
  5
56F4
  8
µę˝u
 10
-157.1162706739307
 20
36.733546038344201
 30
0.0
 11
-150.3162706739306
 21
36.733546038344201
 31
0.0
  0
LINE
  5
56F5
  8
µę˝u
 10
-157.71627067393069
 20
40.483546038344201
 30
0.0
 11
-149.71627067393069
 21
40.483546038344201
 31
0.0
  0
LINE
  5
56F6
  8
µę˝u
 10
-157.11627067393101
 20
36.733546038344322
 30
0.0
 11
-153.71627067393101
 21
35.442066762788237
 31
0.0
  0
LINE
  5
56F7
  8
µę˝u
 10
-157.1162706739307
 20
36.733546038344201
 30
0.0
 11
-153.71627067393069
 21
35.44206676278813
 31
0.0
  0
LINE
  5
56F8
  8
¤¤¤ß˝u
 10
-153.71627067393101
 20
32.987206721252619
 30
0.0
 11
-153.71627067393101
 21
51.512352934393881
 31
0.0
  0
LINE
  5
56F9
  8
¤¤¤ß˝u
 10
-153.71627067393069
 20
35.35680052445295
 30
0.0
 11
-153.71627067393069
 21
51.512352934393881
 31
0.0
  0
LINE
  5
56FA
  8
µę˝u
 10
-150.316270673931
 20
36.733546038344322
 30
0.0
 11
-150.316270673931
 21
49.633546038344292
 31
0.0
  0
LINE
  5
56FB
  8
µę˝u
 10
-149.71627067393089
 20
40.483546038344322
 30
0.0
 11
-149.71627067393089
 21
49.633546038344292
 31
0.0
  0
LINE
  5
56FC
  8
µę˝u
 10
-157.11627067393101
 20
49.633546038344292
 30
0.0
 11
-157.11627067393101
 21
36.733546038344322
 31
0.0
  0
LINE
  5
56FD
  8
µę˝u
 10
-157.71627067393101
 20
49.633546038344292
 30
0.0
 11
-157.71627067393101
 21
40.483546038344322
 31
0.0
  0
LINE
  5
56FE
  8
µę˝u
 10
-150.3162706739306
 20
36.733546038344201
 30
0.0
 11
-150.3162706739306
 21
49.633546038344193
 31
0.0
  0
LINE
  5
56FF
  8
µę˝u
 10
-149.71627067393069
 20
40.483546038344201
 30
0.0
 11
-149.71627067393069
 21
49.633546038344193
 31
0.0
  0
LINE
  5
5700
  8
µę˝u
 10
-157.1162706739307
 20
49.633546038344193
 30
0.0
 11
-157.1162706739307
 21
36.733546038344201
 31
0.0
  0
LINE
  5
5701
  8
µę˝u
 10
-157.71627067393069
 20
49.633546038344193
 30
0.0
 11
-157.71627067393069
 21
40.483546038344201
 31
0.0
  0
LINE
  5
5702
  8
0
 10
-128.21627067393081
 20
44.483546038343512
 30
0.0
 11
-138.71627067393081
 21
44.483546038343512
 31
0.0
  0
LINE
  5
5703
  8
0
 10
-128.21627067393081
 20
46.483546038343931
 30
0.0
 11
-138.71627067393081
 21
46.483546038343931
 31
0.0
  0
LINE
  5
5704
  8
0
 10
-128.21627067393081
 20
46.48354603834354
 30
0.0
 11
-138.71627067393081
 21
46.48354603834354
 31
0.0
  0
LINE
  5
5705
  8
¤¤¤ß˝u
 10
-127.8748334423874
 20
36.683546038343522
 30
0.0
 11
-137.5577079054745
 21
36.683546038343522
 31
0.0
  0
LINE
  5
5706
  8
¤¤¤ß˝u
 10
-127.8748334423873
 20
36.683546038343522
 30
0.0
 11
-137.55770790547439
 21
36.683546038343522
 31
0.0
  0
LINE
  5
5707
  8
0
 10
-128.21627067393081
 20
13.48354603834391
 30
0.0
 11
-138.71627067393081
 21
13.48354603834391
 31
0.0
  0
LINE
  5
5708
  8
0
 10
-128.21627067393081
 20
11.48354603834391
 30
0.0
 11
-138.71627067393081
 21
11.48354603834391
 31
0.0
  0
LINE
  5
5709
  8
0
 10
-128.21627067393081
 20
11.483546038343491
 30
0.0
 11
-138.71627067393081
 21
11.483546038343491
 31
0.0
  0
LINE
  5
570A
  8
0
 10
-128.21627067393081
 20
13.483546038343491
 30
0.0
 11
-138.71627067393081
 21
13.483546038343491
 31
0.0
  0
LINE
  5
570B
  8
0
 10
-138.71627067393081
 20
50.483546038344322
 30
0.0
 11
-138.71627067393081
 21
11.48354603834391
 31
0.0
  0
LINE
  5
570C
  8
0
 10
-138.71627067393081
 20
11.48354603834391
 30
0.0
 11
-138.71627067393081
 21
46.483546038343931
 31
0.0
  0
LINE
  5
570D
  8
0
 10
-128.21627067393081
 20
11.48354603834391
 30
0.0
 11
-128.21627067393081
 21
46.483546038343931
 31
0.0
  0
LINE
  5
570E
  8
0
 10
-128.21627067393081
 20
46.48354603834386
 30
0.0
 11
-128.21627067393081
 21
11.48354603834391
 31
0.0
  0
LINE
  5
570F
  8
0
 10
-128.21627067393081
 20
46.48354603834354
 30
0.0
 11
-128.21627067393081
 21
11.483546038343491
 31
0.0
  0
LINE
  5
5710
  8
0
 10
-138.71627067393081
 20
11.483546038343491
 30
0.0
 11
-138.71627067393081
 21
46.48354603834354
 31
0.0
  0
LINE
  5
5711
  8
0
 10
-138.71627067393069
 20
50.483546038344322
 30
0.0
 11
-138.71627067393069
 21
11.483546038343491
 31
0.0
  0
LINE
  5
5712
  8
µę˝u
 10
-189.71627067393101
 20
49.633546038344193
 30
0.0
 11
-197.71627067393101
 21
49.633546038344193
 31
0.0
  0
LINE
  5
5713
  8
µę˝u
 10
-189.71627067393081
 20
49.633546038344292
 30
0.0
 11
-197.71627067393081
 21
49.633546038344292
 31
0.0
  0
LINE
  5
5714
  8
µę˝u
 10
-188.91349289615329
 20
50.483546038344201
 30
0.0
 11
-189.71627067393101
 21
49.633546038344193
 31
0.0
  0
LINE
  5
5715
  8
µę˝u
 10
-188.9134928961532
 20
50.483546038344322
 30
0.0
 11
-189.71627067393081
 21
49.633546038344292
 31
0.0
  0
LINE
  5
5716
  8
µę˝u
 10
-189.71627067393101
 20
40.483546038344201
 30
0.0
 11
-197.71627067393101
 21
40.483546038344201
 31
0.0
  0
LINE
  5
5717
  8
µę˝u
 10
-189.71627067393081
 20
40.483546038344322
 30
0.0
 11
-197.71627067393081
 21
40.483546038344322
 31
0.0
  0
LINE
  5
5718
  8
µę˝u
 10
-193.71627067393089
 20
35.44206676278813
 30
0.0
 11
-197.11627067393101
 21
36.733546038344201
 31
0.0
  0
LINE
  5
5719
  8
µę˝u
 10
-193.71627067393081
 20
35.442066762788237
 30
0.0
 11
-197.11627067393081
 21
36.733546038344322
 31
0.0
  0
LINE
  5
571A
  8
µę˝u
 10
-190.316270673931
 20
36.733546038344201
 30
0.0
 11
-193.71627067393089
 21
35.44206676278813
 31
0.0
  0
LINE
  5
571B
  8
µę˝u
 10
-190.316270673931
 20
36.733546038344201
 30
0.0
 11
-197.1162706739311
 21
36.733546038344201
 31
0.0
  0
LINE
  5
571C
  8
µę˝u
 10
-190.3162706739308
 20
36.733546038344322
 30
0.0
 11
-193.71627067393081
 21
35.442066762788237
 31
0.0
  0
LINE
  5
571D
  8
µę˝u
 10
-190.3162706739308
 20
36.733546038344322
 30
0.0
 11
-197.1162706739309
 21
36.733546038344322
 31
0.0
  0
LINE
  5
571E
  8
¤¤¤ß˝u
 10
-193.71627067393089
 20
32.485969933739277
 30
0.0
 11
-193.71627067393089
 21
51.512352934393881
 31
0.0
  0
LINE
  5
571F
  8
¤¤¤ß˝u
 10
-193.71627067393081
 20
35.356800524453057
 30
0.0
 11
-193.71627067393081
 21
51.512352934393881
 31
0.0
  0
LINE
  5
5720
  8
µę˝u
 10
-189.71627067393101
 20
49.633546038344193
 30
0.0
 11
-189.71627067393101
 21
40.483546038344201
 31
0.0
  0
LINE
  5
5721
  8
µę˝u
 10
-190.316270673931
 20
49.633546038344193
 30
0.0
 11
-190.316270673931
 21
36.733546038344201
 31
0.0
  0
LINE
  5
5722
  8
µę˝u
 10
-197.71627067393101
 20
40.483546038344201
 30
0.0
 11
-197.71627067393101
 21
49.633546038344193
 31
0.0
  0
LINE
  5
5723
  8
µę˝u
 10
-197.11627067393101
 20
36.733546038344201
 30
0.0
 11
-197.11627067393101
 21
49.633546038344193
 31
0.0
  0
LINE
  5
5724
  8
µę˝u
 10
-189.71627067393081
 20
49.633546038344292
 30
0.0
 11
-189.71627067393081
 21
40.483546038344322
 31
0.0
  0
LINE
  5
5725
  8
µę˝u
 10
-190.3162706739308
 20
49.633546038344292
 30
0.0
 11
-190.3162706739308
 21
36.733546038344322
 31
0.0
  0
LINE
  5
5726
  8
µę˝u
 10
-197.71627067393081
 20
40.483546038344322
 30
0.0
 11
-197.71627067393081
 21
49.633546038344292
 31
0.0
  0
LINE
  5
5727
  8
µę˝u
 10
-197.11627067393081
 20
36.733546038344322
 30
0.0
 11
-197.11627067393081
 21
49.633546038344292
 31
0.0
  0
LINE
  5
5728
  8
0
 10
-219.21627067393089
 20
46.48354603834354
 30
0.0
 11
-208.71627067393089
 21
46.48354603834354
 31
0.0
  0
LINE
  5
5729
  8
0
 10
-219.21627067393089
 20
46.483546038343931
 30
0.0
 11
-208.71627067393089
 21
46.483546038343931
 31
0.0
  0
LINE
  5
572A
  8
0
 10
-208.71627067393089
 20
44.486953529443923
 30
0.0
 11
-210.71627067393089
 21
44.486953529443923
 31
0.0
  0
LINE
  5
572B
  8
¤¤¤ß˝u
 10
-214.71627067393089
 20
31.842108806799981
 30
0.0
 11
-214.71627067393089
 21
41.524983269887031
 31
0.0
  0
LINE
  5
572C
  8
¤¤¤ß˝u
 10
-214.71627067393081
 20
31.842108806799981
 30
0.0
 11
-214.71627067393081
 21
41.524983269887031
 31
0.0
  0
LINE
  5
572D
  8
0
 10
-219.21627067393089
 20
44.483546038343512
 30
0.0
 11
-208.71627067393089
 21
44.483546038343512
 31
0.0
  0
LINE
  5
572E
  8
0
 10
-219.21627067393089
 20
44.483546038343931
 30
0.0
 11
-208.71627067393089
 21
44.483546038343931
 31
0.0
  0
CIRCLE
  5
572F
  8
0
 10
-214.71627067393089
 20
36.683546038343522
 30
0.0
 40
2.75
  0
CIRCLE
  5
5730
  8
0
 10
-214.71627067393089
 20
36.683546038343522
 30
0.0
 40
2.486916010899999
  0
CIRCLE
  5
5731
  8
0
 10
-214.71627067393089
 20
36.683546038343898
 30
0.0
 40
2.486916010899999
  0
CIRCLE
  5
5732
  8
0
 10
-214.71627067393089
 20
36.683546038343898
 30
0.0
 40
2.75
  0
CIRCLE
  5
5733
  8
0
 10
-214.71627067393089
 20
36.683546038343522
 30
0.0
 40
2.185553324299998
  0
CIRCLE
  5
5734
  8
0
 10
-214.71627067393089
 20
36.683546038343898
 30
0.0
 40
2.185553324299998
  0
CIRCLE
  5
5735
  8
0
 10
-214.71627067393089
 20
36.683546038343522
 30
0.0
 40
0.7185553324000003
  0
CIRCLE
  5
5736
  8
0
 10
-214.71627067393089
 20
36.683546038343898
 30
0.0
 40
0.7185553324000003
  0
LINE
  5
5737
  8
¤¤¤ß˝u
 10
-219.55770790547439
 20
36.683546038343522
 30
0.0
 11
-209.8748334423874
 21
36.683546038343522
 31
0.0
  0
LINE
  5
5738
  8
¤¤¤ß˝u
 10
-219.5577079054743
 20
36.683546038343522
 30
0.0
 11
-209.87483344238731
 21
36.683546038343522
 31
0.0
  0
LINE
  5
5739
  8
µę˝u
 10
-198.51904845170861
 20
50.483546038344201
 30
0.0
 11
-197.71627067393101
 21
49.633546038344193
 31
0.0
  0
LINE
  5
573A
  8
µę˝u
 10
-198.5190484517085
 20
50.483546038344322
 30
0.0
 11
-197.71627067393081
 21
49.633546038344292
 31
0.0
  0
LINE
  5
573B
  8
0
 10
-219.21627067393089
 20
13.483546038343491
 30
0.0
 11
-208.71627067393089
 21
13.483546038343491
 31
0.0
  0
LINE
  5
573C
  8
0
 10
-219.21627067393089
 20
11.483546038343491
 30
0.0
 11
-208.71627067393089
 21
11.483546038343491
 31
0.0
  0
LINE
  5
573D
  8
0
 10
-219.21627067393089
 20
11.48354603834391
 30
0.0
 11
-208.71627067393089
 21
11.48354603834391
 31
0.0
  0
LINE
  5
573E
  8
0
 10
-219.21627067393089
 20
13.48354603834391
 30
0.0
 11
-208.71627067393089
 21
13.48354603834391
 31
0.0
  0
LINE
  5
573F
  8
0
 10
-219.21627067393089
 20
46.48354603834354
 30
0.0
 11
-219.21627067393089
 21
11.483546038343491
 31
0.0
  0
LINE
  5
5740
  8
0
 10
-219.21627067393089
 20
46.48354603834386
 30
0.0
 11
-219.21627067393089
 21
11.48354603834391
 31
0.0
  0
LINE
  5
5741
  8
0
 10
-219.21627067393089
 20
11.48354603834391
 30
0.0
 11
-219.21627067393089
 21
46.483546038343931
 31
0.0
  0
LINE
  5
5742
  8
0
 10
-208.71627067393101
 20
50.483546038344322
 30
0.0
 11
-208.71627067393101
 21
11.483546038343491
 31
0.0
  0
LINE
  5
5743
  8
0
 10
-208.71627067393089
 20
11.483546038343491
 30
0.0
 11
-208.71627067393089
 21
46.48354603834354
 31
0.0
  0
LINE
  5
5744
  8
0
 10
-208.71627067393089
 20
11.48354603834391
 30
0.0
 11
-208.71627067393089
 21
46.483546038343931
 31
0.0
  0
LINE
  5
5745
  8
0
 10
-208.71627067393089
 20
50.483546038344322
 30
0.0
 11
-208.71627067393089
 21
11.48354603834391
 31
0.0
  0
LINE
  5
5746
  8
0
 10
-138.71627067393081
 20
50.483546038344322
 30
0.0
 11
-208.71627067393101
 21
50.483546038344322
 31
0.0
  0
LINE
  5
5747
  8
0
 10
-208.71627067393089
 20
11.483546038343491
 30
0.0
 11
-138.71627067393081
 21
11.48354603834391
 31
0.0
  0
LINE
  5
5748
  8
0
 10
-138.71627067393069
 20
13.983546038344279
 30
0.0
 11
-208.71627067393089
 21
13.983546038344279
 31
0.0
  0
LINE
  5
5749
  8
0
 10
-208.71627067393101
 20
13.983546038344279
 30
0.0
 11
-138.71627067393081
 21
13.983546038344279
 31
0.0
  0
LINE
  5
574A
  8
0
 10
-138.71627067393081
 20
11.483546038343491
 30
0.0
 11
-208.71627067393089
 21
11.48354603834391
 31
0.0
  0
LINE
  5
574B
  8
0
 10
-208.71627067393089
 20
50.483546038344322
 30
0.0
 11
-138.71627067393069
 21
50.483546038344322
 31
0.0
  0
LINE
  5
574C
  8
0
 10
-208.71627067393089
 20
48.983546038344443
 30
0.0
 11
-138.71627067393069
 21
48.983546038344443
 31
0.0
  0
LINE
  5
574D
  8
0
 10
-219.21627067393089
 20
46.483546038344294
 30
0.0
 11
-220.91627067393091
 21
46.483546038344294
 31
0.0
  0
LINE
  5
574E
  8
0
 10
-219.21627067393109
 20
46.483546038344173
 30
0.0
 11
-220.916270673931
 21
46.483546038344173
 31
0.0
  0
LINE
  5
574F
  8
0
 10
-221.80059853328939
 20
41.983544344773399
 30
0.0
 11
-221.80059853328939
 21
39.983544344773406
 31
0.0
  0
LINE
  5
5750
  8
0
 10
-221.8005985332895
 20
41.983544344773229
 30
0.0
 11
-221.8005985332895
 21
39.983544344773243
 31
0.0
  0
ARC
  5
5751
  8
0
 10
-220.58074685443691
 20
40.003295982790462
 30
0.0
 40
1.220011576012179
 50
180.9276427879974
 51
254.03697783117121
  0
ARC
  5
5752
  8
0
 10
-220.58074685443711
 20
40.003295982790327
 30
0.0
 40
1.220011576012179
 50
180.9276427879974
 51
254.03697783117121
  0
ARC
  5
5753
  8
0
 10
-220.58074685443691
 20
41.963792706756223
 30
0.0
 40
1.220011576012179
 50
105.9630221688287
 51
179.0723572120024
  0
ARC
  5
5754
  8
0
 10
-220.58074685443711
 20
41.963792706756109
 30
0.0
 40
1.220011576012179
 50
105.9630221688287
 51
179.0723572120024
  0
LINE
  5
5755
  8
0
 10
-220.916270673931
 20
33.623310151856053
 30
0.0
 11
-222.416270673931
 21
32.75728474807164
 31
0.0
  0
LINE
  5
5756
  8
0
 10
-220.916270673931
 20
33.623310151855947
 30
0.0
 11
-222.41627067393111
 21
32.757284748071527
 31
0.0
  0
LINE
  5
5757
  8
0
 10
-220.91627067393091
 20
46.483546038344294
 30
0.0
 11
-220.916270673931
 21
33.623310151856053
 31
0.0
  0
LINE
  5
5758
  8
0
 10
-220.916270673931
 20
46.483546038344173
 30
0.0
 11
-220.916270673931
 21
33.623310151855947
 31
0.0
  0
ARC
  5
5759
  8
0
 10
-220.58074685443691
 20
15.113794400327579
 30
0.0
 40
1.220011576012179
 50
105.9630221688287
 51
179.0723572120024
  0
ARC
  5
575A
  8
0
 10
-220.58074685443691
 20
15.113794400327579
 30
0.0
 40
1.220011576012179
 50
105.9630221688287
 51
179.0723572120024
  0
LINE
  5
575B
  8
0
 10
-219.21627067393089
 20
11.48354603834434
 30
0.0
 11
-222.416270673931
 21
11.48354603834434
 31
0.0
  0
LINE
  5
575C
  8
0
 10
-219.21627067393101
 20
11.483546038344199
 30
0.0
 11
-222.416270673931
 21
11.483546038344199
 31
0.0
  0
ARC
  5
575D
  8
0
 10
-220.58074685443691
 20
13.153297676361801
 30
0.0
 40
1.220011576012179
 50
180.9276427879974
 51
254.03697783117121
  0
ARC
  5
575E
  8
0
 10
-220.58074685443691
 20
13.153297676361801
 30
0.0
 40
1.220011576012179
 50
180.9276427879974
 51
254.03697783117121
  0
LINE
  5
575F
  8
0
 10
-221.80059853328939
 20
15.13354603834469
 30
0.0
 11
-221.80059853328939
 21
13.13354603834469
 31
0.0
  0
LINE
  5
5760
  8
0
 10
-221.80059853328939
 20
15.13354603834469
 30
0.0
 11
-221.80059853328939
 21
13.13354603834469
 31
0.0
  0
LINE
  5
5761
  8
¤¤¤ß˝u
 10
-222.70012047030229
 20
14.13354603834469
 30
0.0
 11
-216.94848349592141
 21
14.13354603834469
 31
0.0
  0
LINE
  5
5762
  8
¤¤¤ß˝u
 10
-222.70012047030229
 20
14.13354603834469
 30
0.0
 11
-216.94848349592141
 21
14.13354603834469
 31
0.0
  0
LINE
  5
5763
  8
0
 10
-220.916270673931
 20
33.623310151856053
 30
0.0
 11
-220.916270673931
 21
11.48354603834434
 31
0.0
  0
LINE
  5
5764
  8
0
 10
-222.416270673931
 20
32.75728474807164
 30
0.0
 11
-222.416270673931
 21
11.48354603834434
 31
0.0
  0
LINE
  5
5765
  8
0
 10
-220.916270673931
 20
33.623310151855947
 30
0.0
 11
-220.916270673931
 21
11.483546038344199
 31
0.0
  0
LINE
  5
5766
  8
0
 10
-222.41627067393111
 20
32.757284748071527
 30
0.0
 11
-222.416270673931
 21
11.483546038344199
 31
0.0
  0
LINE
  5
5767
  8
0
 10
-128.21627067393081
 20
46.483546038344294
 30
0.0
 11
-126.516270673931
 21
46.483546038344294
 31
0.0
  0
LINE
  5
5768
  8
0
 10
-128.21627067393069
 20
46.483546038344151
 30
0.0
 11
-126.51627067393071
 21
46.483546038344151
 31
0.0
  0
LINE
  5
5769
  8
0
 10
-125.6319428145724
 20
41.983544344773392
 30
0.0
 11
-125.6319428145724
 21
39.983544344773406
 31
0.0
  0
LINE
  5
576A
  8
0
 10
-125.6319428145723
 20
41.983544344773229
 30
0.0
 11
-125.6319428145723
 21
39.983544344773222
 31
0.0
  0
ARC
  5
576B
  8
0
 10
-126.8517944934249
 20
40.003295982790462
 30
0.0
 40
1.220011576012179
 50
285.96302216882867
 51
359.07235721200232
  0
ARC
  5
576C
  8
0
 10
-126.85179449342471
 20
40.003295982790327
 30
0.0
 40
1.220011576012179
 50
285.96302216882867
 51
359.07235721200232
  0
LINE
  5
576D
  8
¤¤¤ß˝u
 10
-125.516270673931
 20
40.983544344773399
 30
0.0
 11
-129.21627067393089
 21
40.983544344773399
 31
0.0
  0
LINE
  5
576E
  8
¤¤¤ß˝u
 10
-125.51627067393071
 20
40.983544344773222
 30
0.0
 11
-129.21627067393069
 21
40.983544344773222
 31
0.0
  0
ARC
  5
576F
  8
0
 10
-126.8517944934249
 20
41.963792706756223
 30
0.0
 40
1.220011576012179
 50
0.9276427879975832
 51
74.036977831171271
  0
ARC
  5
5770
  8
0
 10
-126.85179449342471
 20
41.963792706756109
 30
0.0
 40
1.220011576012179
 50
0.9276427879975832
 51
74.036977831171271
  0
LINE
  5
5771
  8
0
 10
-126.5162706739308
 20
33.623310151856053
 30
0.0
 11
-125.0162706739309
 21
32.757284748071633
 31
0.0
  0
LINE
  5
5772
  8
0
 10
-126.51627067393071
 20
33.623310151855947
 30
0.0
 11
-125.01627067393061
 21
32.757284748071527
 31
0.0
  0
LINE
  5
5773
  8
¤¤¤ß˝u
 10
-124.7324208775596
 20
40.983544344773399
 30
0.0
 11
-130.48405785194049
 21
40.983544344773399
 31
0.0
  0
LINE
  5
5774
  8
¤¤¤ß˝u
 10
-124.73242087755941
 20
40.983544344773222
 30
0.0
 11
-130.48405785194041
 21
40.983544344773222
 31
0.0
  0
LINE
  5
5775
  8
0
 10
-126.516270673931
 20
46.483546038344294
 30
0.0
 11
-126.5162706739308
 21
33.623310151856053
 31
0.0
  0
LINE
  5
5776
  8
0
 10
-126.51627067393071
 20
46.483546038344151
 30
0.0
 11
-126.51627067393071
 21
33.623310151855947
 31
0.0
  0
ARC
  5
5777
  8
0
 10
-126.8517944934249
 20
15.113794400327579
 30
0.0
 40
1.220011576012179
 50
0.9276427879975832
 51
74.036977831171271
  0
ARC
  5
5778
  8
0
 10
-126.8517944934249
 20
15.113794400327579
 30
0.0
 40
1.220011576012179
 50
0.9276427879975832
 51
74.036977831171271
  0
LINE
  5
5779
  8
0
 10
-128.21627067393081
 20
11.48354603834434
 30
0.0
 11
-125.0162706739309
 21
11.48354603834434
 31
0.0
  0
LINE
  5
577A
  8
0
 10
-128.21627067393081
 20
11.483546038344199
 30
0.0
 11
-125.0162706739309
 21
11.483546038344199
 31
0.0
  0
ARC
  5
577B
  8
0
 10
-126.8517944934249
 20
13.153297676361801
 30
0.0
 40
1.220011576012179
 50
285.96302216882867
 51
359.07235721200232
  0
ARC
  5
577C
  8
0
 10
-126.8517944934249
 20
13.153297676361801
 30
0.0
 40
1.220011576012179
 50
285.96302216882867
 51
359.07235721200232
  0
LINE
  5
577D
  8
0
 10
-125.6319428145724
 20
15.13354603834467
 30
0.0
 11
-125.6319428145724
 21
13.13354603834469
 31
0.0
  0
LINE
  5
577E
  8
0
 10
-125.6319428145724
 20
15.13354603834467
 30
0.0
 11
-125.6319428145724
 21
13.13354603834469
 31
0.0
  0
LINE
  5
577F
  8
¤¤¤ß˝u
 10
-124.7324208775596
 20
14.13354603834469
 30
0.0
 11
-130.48405785194049
 21
14.13354603834469
 31
0.0
  0
LINE
  5
5780
  8
¤¤¤ß˝u
 10
-124.7324208775596
 20
14.13354603834469
 30
0.0
 11
-130.48405785194049
 21
14.13354603834469
 31
0.0
  0
LINE
  5
5781
  8
0
 10
-126.5162706739308
 20
33.623310151856053
 30
0.0
 11
-126.5162706739308
 21
11.48354603834434
 31
0.0
  0
LINE
  5
5782
  8
0
 10
-125.0162706739309
 20
32.757284748071633
 30
0.0
 11
-125.0162706739309
 21
11.48354603834434
 31
0.0
  0
LINE
  5
5783
  8
0
 10
-126.51627067393071
 20
33.623310151855947
 30
0.0
 11
-126.5162706739308
 21
11.483546038344199
 31
0.0
  0
LINE
  5
5784
  8
0
 10
-125.01627067393061
 20
32.757284748071527
 30
0.0
 11
-125.0162706739309
 21
11.483546038344199
 31
0.0
  0
LINE
  5
5785
  8
0
 10
-222.4162706739306
 20
15.48322423834369
 30
0.0
 11
-233.7943366827277
 21
15.48322423834369
 31
0.0
  0
LINE
  5
5786
  8
0
 10
-222.4162706739306
 20
19.663289073603341
 30
0.0
 11
-232.57060840923151
 21
19.663289073603341
 31
0.0
  0
LINE
  5
5787
  8
0
 10
-222.4162706739308
 20
20.277173263397248
 30
0.0
 11
-232.74702858688229
 21
20.277173263397248
 31
0.0
  0
LINE
  5
5788
  8
0
 10
-222.4162706739308
 20
22.77874368413201
 30
0.0
 11
-232.54203103462879
 21
22.77874368413201
 31
0.0
  0
LINE
  5
5789
  8
0
 10
-222.4162706739308
 20
24.36328669901215
 30
0.0
 11
-232.25423996264581
 21
24.36328669901215
 31
0.0
  0
LINE
  5
578A
  8
0
 10
-222.4162706739308
 20
26.59795535166813
 30
0.0
 11
-232.0451909495047
 21
26.59795535166813
 31
0.0
  0
LINE
  5
578B
  8
0
 10
-222.4162706739308
 20
28.188808861906399
 30
0.0
 11
-231.5978972696378
 21
28.188808861906399
 31
0.0
  0
LINE
  5
578C
  8
0
 10
-222.4162706739308
 20
31.48354603834369
 30
0.0
 11
-270.49459269502591
 21
31.48354603834369
 31
0.0
  0
LINE
  5
578D
  8
0
 10
-222.4162706739308
 20
30.683362218801239
 30
0.0
 11
-232.56348851166479
 21
30.683362218801239
 31
0.0
  0
LINE
  5
578E
  8
¤¤¤ß˝u
 10
-90.494592695025958
 20
2.883546038343801
 30
0.0
 11
-90.494592695025958
 21
32.483546038343803
 31
0.0
  0
LINE
  5
578F
  8
µę˝u
 10
-83.26365258735018
 20
30.9835460383438
 30
0.0
 11
-83.494592695025972
 21
30.583546038343808
 31
0.0
  0
LINE
  5
5790
  8
µę˝u
 10
-85.69459269502596
 20
18.983546038343771
 30
0.0
 11
-85.994592695025972
 21
18.683546038343749
 31
0.0
  0
LINE
  5
5791
  8
µę˝u
 10
-85.594592695025938
 20
5.4835460383437669
 30
0.0
 11
-85.994592695025972
 21
5.883546038343745
 31
0.0
  0
LINE
  5
5792
  8
µę˝u
 10
-85.994592695025972
 20
5.883546038343745
 30
0.0
 11
-85.994592695025972
 21
18.683546038343749
 31
0.0
  0
LINE
  5
5793
  8
0
 10
-70.494592695025858
 20
5.4835460383437393
 30
0.0
 11
-70.494592695025972
 21
31.48354603834369
 31
0.0
  0
LINE
  5
5794
  8
µę˝u
 10
-83.494592695025972
 20
18.983546038343771
 30
0.0
 11
-83.494592695025972
 21
30.583546038343808
 31
0.0
  0
LINE
  5
5795
  8
µę˝u
 10
-97.494592695025872
 20
30.583546038343808
 30
0.0
 11
-97.725532802701665
 21
30.9835460383438
 31
0.0
  0
LINE
  5
5796
  8
µę˝u
 10
-95.294592695025926
 20
18.983546038343771
 30
0.0
 11
-94.994592695025844
 21
18.683546038343749
 31
0.0
  0
LINE
  5
5797
  8
µę˝u
 10
-95.394592695025949
 20
5.4835460383437669
 30
0.0
 11
-94.994592695025844
 21
5.883546038343745
 31
0.0
  0
LINE
  5
5798
  8
µę˝u
 10
-94.994592695025844
 20
5.883546038343745
 30
0.0
 11
-94.994592695025844
 21
18.683546038343749
 31
0.0
  0
LINE
  5
5799
  8
µę˝u
 10
-97.494592695025872
 20
18.983546038343771
 30
0.0
 11
-97.494592695025872
 21
30.583546038343808
 31
0.0
  0
LINE
  5
579A
  8
µę˝u
 10
-165.59459269502599
 20
5.4835460383437669
 30
0.0
 11
-165.99459269502589
 21
5.883546038343745
 31
0.0
  0
LINE
  5
579B
  8
µę˝u
 10
-175.39459269502589
 20
5.4835460383437669
 30
0.0
 11
-174.99459269502589
 21
5.883546038343745
 31
0.0
  0
LINE
  5
579C
  8
µę˝u
 10
-165.99459269502589
 20
5.883546038343745
 30
0.0
 11
-174.99459269502589
 21
5.883546038343745
 31
0.0
  0
LINE
  5
579D
  8
µę˝u
 10
-165.99459269502589
 20
5.883546038343745
 30
0.0
 11
-165.99459269502589
 21
11.484020275551121
 31
0.0
  0
LINE
  5
579E
  8
µę˝u
 10
-174.99459269502589
 20
5.883546038343745
 30
0.0
 11
-174.99459269502589
 21
11.484020275551179
 31
0.0
  0
LINE
  5
579F
  8
¤¤¤ß˝u
 10
-170.494592695026
 20
2.883546038343801
 30
0.0
 11
-170.494592695026
 21
12.65853580359046
 31
0.0
  0
LINE
  5
57A0
  8
«Řşc˝u
 10
-232.79012264585879
 20
29.503091373164722
 30
0.0
 11
-231.21714857162459
 21
27.76908003800791
 31
0.0
  0
LINE
  5
57A1
  8
«Řşc˝u
 10
-232.82294425279011
 20
25.497955982442591
 30
0.0
 11
-232.0036360976861
 21
23.86328606105916
 31
0.0
  0
LINE
  5
57A2
  8
«Řşc˝u
 10
-231.21714857162459
 20
27.76908003800791
 30
0.0
 11
-232.82294425279011
 21
25.497955982442591
 31
0.0
  0
LINE
  5
57A3
  8
«Řşc˝u
 10
-232.0036360976861
 20
23.86328606105916
 30
0.0
 11
-233.12718816966321
 21
21.60000356872526
 31
0.0
  0
LINE
  5
57A4
  8
«Řşc˝u
 10
-232.40983821367729
 20
31.48354603834369
 30
0.0
 11
-232.79012264585879
 21
29.503091373164722
 31
0.0
  0
LINE
  5
57A5
  8
0
 10
-242.9749774527555
 20
31.48354603834369
 30
0.0
 11
-243.494592695026
 21
30.583546038343808
 31
0.0
  0
LINE
  5
57A6
  8
0
 10
-243.494592695026
 20
30.583546038343808
 30
0.0
 11
-257.49459269502591
 21
30.583546038343808
 31
0.0
  0
LINE
  5
57A7
  8
«Řşc˝u
 10
-232.3407016214903
 20
18.863289073603472
 30
0.0
 11
-234.1383857189646
 21
14.68322423834382
 31
0.0
  0
LINE
  5
57A8
  8
«Řşc˝u
 10
-231.89128059712181
 20
6.4835460383437393
 30
0.0
 11
-232.90247814642311
 21
5.4835460383436816
 31
0.0
  0
LINE
  5
57A9
  8
«Řşc˝u
 10
-234.1383857189646
 20
14.68322423834382
 30
0.0
 11
-231.89128059712181
 21
6.4835460383437669
 31
0.0
  0
LINE
  5
57AA
  8
0
 10
-245.69459269502599
 20
18.983546038343771
 30
0.0
 11
-245.994592695026
 21
18.683546038343749
 31
0.0
  0
LINE
  5
57AB
  8
0
 10
-255.2945926950259
 20
18.983546038343771
 30
0.0
 11
-254.99459269502589
 21
18.683546038343749
 31
0.0
  0
LINE
  5
57AC
  8
0
 10
-243.494592695026
 20
18.983546038343771
 30
0.0
 11
-257.49459269502591
 21
18.983546038343771
 31
0.0
  0
LINE
  5
57AD
  8
0
 10
-245.994592695026
 20
18.683546038343749
 30
0.0
 11
-254.99459269502589
 21
18.683546038343749
 31
0.0
  0
LINE
  5
57AE
  8
0
 10
-245.59459269502591
 20
5.4835460383437669
 30
0.0
 11
-245.994592695026
 21
5.883546038343745
 31
0.0
  0
LINE
  5
57AF
  8
0
 10
-255.39459269502589
 20
5.4835460383437669
 30
0.0
 11
-254.99459269502589
 21
5.883546038343745
 31
0.0
  0
LINE
  5
57B0
  8
0
 10
-245.994592695026
 20
5.883546038343745
 30
0.0
 11
-254.99459269502589
 21
5.883546038343745
 31
0.0
  0
LINE
  5
57B1
  8
0
 10
-245.994592695026
 20
5.883546038343745
 30
0.0
 11
-245.994592695026
 21
18.683546038343749
 31
0.0
  0
LINE
  5
57B2
  8
0
 10
-254.99459269502589
 20
5.883546038343745
 30
0.0
 11
-254.99459269502589
 21
18.683546038343749
 31
0.0
  0
LINE
  5
57B3
  8
¤¤¤ß˝u
 10
-250.494592695026
 20
2.883546038343801
 30
0.0
 11
-250.494592695026
 21
32.483546038343803
 31
0.0
  0
LINE
  5
57B4
  8
0
 10
-243.494592695026
 20
18.983546038343771
 30
0.0
 11
-243.494592695026
 21
30.583546038343808
 31
0.0
  0
LINE
  5
57B5
  8
0
 10
-257.49459269502591
 20
18.983546038343771
 30
0.0
 11
-257.49459269502591
 21
30.583546038343808
 31
0.0
  0
LINE
  5
57B6
  8
«Řşc˝u
 10
-233.12718816966321
 20
21.60000356872526
 30
0.0
 11
-232.3407016214903
 21
18.863289073603472
 31
0.0
  0
LINE
  5
57B7
  8
¤¤¤ß˝u
 10
-250.494592695026
 20
2.883546038343801
 30
0.0
 11
-250.494592695026
 21
32.483546038343803
 31
0.0
  0
LINE
  5
57B8
  8
0
 10
-70.494592695025972
 20
30.683362218801239
 30
0.0
 11
-125.01627067393029
 21
30.683362218801239
 31
0.0
  0
LINE
  5
57B9
  8
0
 10
-70.494592695025972
 20
28.188808861906399
 30
0.0
 11
-125.01627067393029
 21
28.188808861906399
 31
0.0
  0
LINE
  5
57BA
  8
0
 10
-70.494592695025972
 20
26.59795535166813
 30
0.0
 11
-125.01627067393029
 21
26.59795535166813
 31
0.0
  0
LINE
  5
57BB
  8
0
 10
-70.494592695025972
 20
24.36328669901215
 30
0.0
 11
-125.01627067393029
 21
24.36328669901215
 31
0.0
  0
LINE
  5
57BC
  8
0
 10
-70.494592695025972
 20
22.77874368413201
 30
0.0
 11
-125.01627067393029
 21
22.77874368413201
 31
0.0
  0
LINE
  5
57BD
  8
0
 10
-70.494592695025972
 20
20.277173263397248
 30
0.0
 11
-125.01627067393029
 21
20.277173263397248
 31
0.0
  0
LINE
  5
57BE
  8
0
 10
-70.494592695025972
 20
19.663289073603341
 30
0.0
 11
-125.01627067393029
 21
19.663289073603341
 31
0.0
  0
LINE
  5
57BF
  8
0
 10
-70.494592695025972
 20
15.48322423834369
 30
0.0
 11
-125.01627067393061
 21
15.48322423834369
 31
0.0
  0
LINE
  5
57C0
  8
0
 10
-70.494592695025972
 20
10.78322433834847
 30
0.0
 11
-233.0695986840702
 21
10.78322433834847
 31
0.0
  0
LINE
  5
57C1
  8
0
 10
-70.494592695025858
 20
6.9835460383436816
 30
0.0
 11
-232.028304579468
 21
6.9835460383436816
 31
0.0
  0
LINE
  5
57C2
  8
µę˝u
 10
-83.494592695025972
 20
18.983546038343771
 30
0.0
 11
-97.494592695025872
 21
18.983546038343771
 31
0.0
  0
LINE
  5
57C3
  8
µę˝u
 10
-85.994592695025972
 20
18.683546038343749
 30
0.0
 11
-94.994592695025844
 21
18.683546038343749
 31
0.0
  0
LINE
  5
57C4
  8
µę˝u
 10
-85.994592695025972
 20
5.883546038343745
 30
0.0
 11
-94.994592695025844
 21
5.883546038343745
 31
0.0
  0
LINE
  5
57C5
  8
µę˝u
 10
-83.494592695025972
 20
30.583546038343808
 30
0.0
 11
-97.494592695025872
 21
30.583546038343808
 31
0.0
  0
LINE
  5
57C6
  8
0
 10
-270.49459269502591
 20
5.4835460383436816
 30
0.0
 11
-270.49459269502591
 21
31.48354603834369
 31
0.0
  0
LINE
  5
57C7
  8
0
 10
-257.49459269502591
 20
30.583546038343808
 30
0.0
 11
-258.01420793729642
 21
31.48354603834369
 31
0.0
  0
LINE
  5
57C8
  8
0
 10
-70.494592695025858
 20
5.4835460383436816
 30
0.0
 11
-270.49459269502591
 21
5.4835460383436816
 31
0.0
  0
LINE
  5
57C9
  8
0
 10
-70.494592695025972
 20
31.48354603834369
 30
0.0
 11
-125.01627067393019
 21
31.48354603834369
 31
0.0
  0
ENDSEC
  0
EOF
