  0
SECTION
  2
HEADER
  9
$ACADVER
  1
AC1015
  9
$ACADMAINTVER
 70
    11
  9
$DWGCODEPAGE
  3
ANSI_950
  9
$INSBASE
 10
0.0
 20
0.0
 30
0.0
  9
$EXTMIN
 10
-34.99999999774597
 20
-59.85979103990312
 30
-17.75
  9
$EXTMAX
 10
314.3657830636691
 20
161.8231089279951
 30
12.5
  9
$LIMMIN
 10
-10.0
 20
-15.0
  9
$LIMMAX
 10
120.0
 20
90.0
  9
$ORTHOMODE
 70
     1
  9
$REGENMODE
 70
     0
  9
$FILLMODE
 70
     1
  9
$QTEXTMODE
 70
     0
  9
$MIRRTEXT
 70
     0
  9
$LTSCALE
 40
2.0
  9
$ATTMODE
 70
     1
  9
$TEXTSIZE
 40
3.0
  9
$TRACEWID
 40
1.0
  9
$TEXTSTYLE
  7
STANDARD
  9
$CLAYER
  8
0
  9
$CELTYPE
  6
ByLayer
  9
$CECOLOR
 62
   256
  9
$CELTSCALE
 40
1.0
  9
$DISPSILH
 70
     0
  9
$DIMSCALE
 40
1.0
  9
$DIMASZ
 40
3.0
  9
$DIMEXO
 40
1.0
  9
$DIMDLI
 40
6.0
  9
$DIMRND
 40
0.0
  9
$DIMDLE
 40
0.0
  9
$DIMEXE
 40
1.0
  9
$DIMTP
 40
0.0
  9
$DIMTM
 40
0.0
  9
$DIMTXT
 40
3.0
  9
$DIMCEN
 40
1.5
  9
$DIMTSZ
 40
0.0
  9
$DIMTOL
 70
     0
  9
$DIMLIM
 70
     0
  9
$DIMTIH
 70
     1
  9
$DIMTOH
 70
     1
  9
$DIMSE1
 70
     0
  9
$DIMSE2
 70
     0
  9
$DIMTAD
 70
     0
  9
$DIMZIN
 70
     0
  9
$DIMBLK
  1

  9
$DIMASO
 70
     1
  9
$DIMSHO
 70
     0
  9
$DIMPOST
  1

  9
$DIMAPOST
  1

  9
$DIMALT
 70
     0
  9
$DIMALTD
 70
     2
  9
$DIMALTF
 40
25.4
  9
$DIMLFAC
 40
1.0
  9
$DIMTOFL
 70
     1
  9
$DIMTVP
 40
0.0
  9
$DIMTIX
 70
     0
  9
$DIMSOXD
 70
     0
  9
$DIMSAH
 70
     0
  9
$DIMBLK1
  1

  9
$DIMBLK2
  1

  9
$DIMSTYLE
  2
Standard
  9
$DIMCLRD
 70
     0
  9
$DIMCLRE
 70
     0
  9
$DIMCLRT
 70
     0
  9
$DIMTFAC
 40
1.0
  9
$DIMGAP
 40
0.09
  9
$DIMJUST
 70
     0
  9
$DIMSD1
 70
     0
  9
$DIMSD2
 70
     0
  9
$DIMTOLJ
 70
     1
  9
$DIMTZIN
 70
     0
  9
$DIMALTZ
 70
     0
  9
$DIMALTTZ
 70
     0
  9
$DIMUPT
 70
     0
  9
$DIMDEC
 70
     4
  9
$DIMTDEC
 70
     8
  9
$DIMALTU
 70
     2
  9
$DIMALTTD
 70
     2
  9
$DIMTXSTY
  7
STANDARD
  9
$DIMAUNIT
 70
     0
  9
$DIMADEC
 70
     0
  9
$DIMALTRND
 40
0.0
  9
$DIMAZIN
 70
     0
  9
$DIMDSEP
 70
    46
  9
$DIMATFIT
 70
     3
  9
$DIMFRAC
 70
     0
  9
$DIMLDRBLK
  1

  9
$DIMLUNIT
 70
     2
  9
$DIMLWD
 70
    -2
  9
$DIMLWE
 70
    -2
  9
$DIMTMOVE
 70
     2
  9
$LUNITS
 70
     2
  9
$LUPREC
 70
     4
  9
$SKETCHINC
 40
0.5
  9
$FILLETRAD
 40
0.0
  9
$AUNITS
 70
     0
  9
$AUPREC
 70
     0
  9
$MENU
  1
ACAD
  9
$ELEVATION
 40
0.0
  9
$PELEVATION
 40
0.0
  9
$THICKNESS
 40
0.0
  9
$LIMCHECK
 70
     0
  9
$CHAMFERA
 40
0.0
  9
$CHAMFERB
 40
0.0
  9
$CHAMFERC
 40
0.0
  9
$CHAMFERD
 40
0.0
  9
$SKPOLY
 70
     0
  9
$TDCREATE
 40
2444975.333333333
  9
$TDUCREATE
 40
2444974.999999999
  9
$TDUPDATE
 40
2453022.590567662
  9
$TDUUPDATE
 40
2453022.257234329
  9
$TDINDWG
 40
0.0407367593
  9
$TDUSRTIMER
 40
0.0000000000
  9
$USRTIMER
 70
     0
  9
$ANGBASE
 50
0.0
  9
$ANGDIR
 70
     0
  9
$PDMODE
 70
   171
  9
$PDSIZE
 40
0.001
  9
$PLINEWID
 40
0.0
  9
$SPLFRAME
 70
     0
  9
$SPLINETYPE
 70
     6
  9
$SPLINESEGS
 70
     8
  9
$HANDSEED
  5
5765
  9
$SURFTAB1
 70
     6
  9
$SURFTAB2
 70
     6
  9
$SURFTYPE
 70
     6
  9
$SURFU
 70
     6
  9
$SURFV
 70
     6
  9
$UCSBASE
  2

  9
$UCSNAME
  2

  9
$UCSORG
 10
0.0
 20
0.0
 30
0.0
  9
$UCSXDIR
 10
1.0
 20
0.0
 30
0.0
  9
$UCSYDIR
 10
0.0
 20
1.0
 30
0.0
  9
$UCSORTHOREF
  2

  9
$UCSORTHOVIEW
 70
     0
  9
$UCSORGTOP
 10
0.0
 20
0.0
 30
0.0
  9
$UCSORGBOTTOM
 10
0.0
 20
0.0
 30
0.0
  9
$UCSORGLEFT
 10
0.0
 20
0.0
 30
0.0
  9
$UCSORGRIGHT
 10
0.0
 20
0.0
 30
0.0
  9
$UCSORGFRONT
 10
0.0
 20
0.0
 30
0.0
  9
$UCSORGBACK
 10
0.0
 20
0.0
 30
0.0
  9
$PUCSBASE
  2

  9
$PUCSNAME
  2

  9
$PUCSORG
 10
0.0
 20
0.0
 30
0.0
  9
$PUCSXDIR
 10
1.0
 20
0.0
 30
0.0
  9
$PUCSYDIR
 10
0.0
 20
1.0
 30
0.0
  9
$PUCSORTHOREF
  2

  9
$PUCSORTHOVIEW
 70
     0
  9
$PUCSORGTOP
 10
0.0
 20
0.0
 30
0.0
  9
$PUCSORGBOTTOM
 10
0.0
 20
0.0
 30
0.0
  9
$PUCSORGLEFT
 10
0.0
 20
0.0
 30
0.0
  9
$PUCSORGRIGHT
 10
0.0
 20
0.0
 30
0.0
  9
$PUCSORGFRONT
 10
0.0
 20
0.0
 30
0.0
  9
$PUCSORGBACK
 10
0.0
 20
0.0
 30
0.0
  9
$USERI1
 70
     0
  9
$USERI2
 70
     0
  9
$USERI3
 70
     0
  9
$USERI4
 70
     0
  9
$USERI5
 70
     0
  9
$USERR1
 40
0.0
  9
$USERR2
 40
0.0
  9
$USERR3
 40
0.0
  9
$USERR4
 40
0.0
  9
$USERR5
 40
0.0
  9
$WORLDVIEW
 70
     1
  9
$SHADEDGE
 70
     3
  9
$SHADEDIF
 70
    70
  9
$TILEMODE
 70
     1
  9
$MAXACTVP
 70
    48
  9
$PINSBASE
 10
0.0
 20
0.0
 30
0.0
  9
$PLIMCHECK
 70
     0
  9
$PEXTMIN
 10
1.000000000000000E+20
 20
1.000000000000000E+20
 30
1.000000000000000E+20
  9
$PEXTMAX
 10
-1.000000000000000E+20
 20
-1.000000000000000E+20
 30
-1.000000000000000E+20
  9
$PLIMMIN
 10
0.0
 20
0.0
  9
$PLIMMAX
 10
12.0
 20
9.0
  9
$UNITMODE
 70
     0
  9
$VISRETAIN
 70
     1
  9
$PLINEGEN
 70
     0
  9
$PSLTSCALE
 70
     0
  9
$TREEDEPTH
 70
  3020
  9
$CMLSTYLE
  2
Standard
  9
$CMLJUST
 70
     0
  9
$CMLSCALE
 40
1.0
  9
$PROXYGRAPHICS
 70
     1
  9
$MEASUREMENT
 70
     0
  9
$CELWEIGHT
370
    -1
  9
$ENDCAPS
280
     0
  9
$JOINSTYLE
280
     0
  9
$LWDISPLAY
290
     0
  9
$INSUNITS
 70
     0
  9
$HYPERLINKBASE
  1

  9
$STYLESHEET
  1

  9
$XEDIT
290
     1
  9
$CEPSNTYPE
380
     0
  9
$PSTYLEMODE
290
     1
  9
$FINGERPRINTGUID
  2
{77095E5F-9CE7-11D7-970D-0040F4541FA8}
  9
$VERSIONGUID
  2
{BD83E1AD-AC68-4120-A1BB-8FB7636D2D13}
  9
$EXTNAMES
290
     1
  9
$PSVPSCALE
 40
0.0
  9
$OLESTARTUP
290
     0
  0
ENDSEC
  0
SECTION
  2
CLASSES
  0
CLASS
  1
ACDBDICTIONARYWDFLT
  2
AcDbDictionaryWithDefault
  3
AutoCAD 2000
 90
        0
280
     0
281
     0
  0
CLASS
  1
ACDBPLACEHOLDER
  2
AcDbPlaceHolder
  3
AutoCAD 2000
 90
        0
280
     0
281
     0
  0
CLASS
  1
LAYOUT
  2
AcDbLayout
  3
AutoCAD 2000
 90
        0
280
     0
281
     0
  0
CLASS
  1
LONG_TRANSACTION
  2
AcDbLongTransaction
  3
AutoCAD 2000
 90
    32768
280
     0
281
     0
  0
CLASS
  1
LWPOLYLINE
  2
AcDbPolyline
  3
AutoCAD 2000
 90
    32768
280
     0
281
     1
  0
CLASS
  1
HATCH
  2
AcDbHatch
  3
AutoCAD 2000
 90
    32768
280
     0
281
     1
  0
CLASS
  1
XRECORD
  2
AcDbXrecord
  3
AutoCAD 2000
 90
    32768
280
     0
281
     0
  0
CLASS
  1
LONG_TRANSACTION
  2
AcDbLongTransaction
  3
AutoCAD 2000
 90
    32768
280
     0
281
     0
  0
CLASS
  1
LWPOLYLINE
  2
AcDbPolyline
  3
AutoCAD 2000
 90
    32768
280
     0
281
     1
  0
CLASS
  1
HATCH
  2
AcDbHatch
  3
AutoCAD 2000
 90
    32768
280
     0
281
     1
  0
CLASS
  1
XRECORD
  2
AcDbXrecord
  3
AutoCAD 2000
 90
    32768
280
     0
281
     0
  0
CLASS
  1
DICTIONARYVAR
  2
AcDbDictionaryVar
  3
AutoCAD 2000
 90
        0
280
     0
281
     0
  0
CLASS
  1
PLOTSETTINGS
  2
AcDbPlotSettings
  3
AutoCAD 2000
 90
        0
280
     0
281
     0
  0
ENDSEC
  0
SECTION
  2
TABLES
  0
TABLE
  2
VPORT
  5
8
330
0
100
AcDbSymbolTable
 70
     2
  0
VPORT
  5
5743
330
8
100
AcDbSymbolTableRecord
100
AcDbViewportTableRecord
  2
*Active
 70
     0
 10
0.0
 20
0.0
 11
1.0
 21
1.0
 12
139.6828923463923
 22
50.98239763020038
 13
457.9999999999997
 23
1082.0
 14
10.0
 24
10.0
 15
10.0
 25
10.0
 16
0.0
 26
0.0
 36
1.0
 17
0.0
 27
0.0
 37
0.0
 40
224.4821211362301
 41
1.936974789915966
 42
1.0
 43
0.0
 44
0.0
 50
0.0
 51
0.0
 71
     0
 72
   100
 73
     1
 74
     1
 75
     0
 76
     0
 77
     0
 78
     0
281
     0
 65
     1
110
0.0
120
0.0
130
0.0
111
1.0
121
0.0
131
0.0
112
0.0
122
1.0
132
0.0
 79
     0
146
0.0
  0
ENDTAB
  0
TABLE
  2
LTYPE
  5
5
330
0
100
AcDbSymbolTable
 70
     5
  0
LTYPE
  5
13
330
5
100
AcDbSymbolTableRecord
100
AcDbLinetypeTableRecord
  2
ByBlock
 70
     0
  3

 72
    65
 73
     0
 40
0.0
  0
LTYPE
  5
14
330
5
100
AcDbSymbolTableRecord
100
AcDbLinetypeTableRecord
  2
ByLayer
 70
     0
  3

 72
    65
 73
     0
 40
0.0
  0
LTYPE
  5
15
330
5
100
AcDbSymbolTableRecord
100
AcDbLinetypeTableRecord
  2
CONTINUOUS
 70
     0
  3
連續線 ________________________
 72
    65
 73
     2
 40
200000.0
 49
200000.0
 74
     0
 49
0.0
 74
     0
  0
LTYPE
  5
225
330
5
100
AcDbSymbolTableRecord
100
AcDbLinetypeTableRecord
  2
BYBLOCK
 70
     0
  3
Solid line
 72
    65
 73
     0
 40
0.0
  0
LTYPE
  5
226
330
5
100
AcDbSymbolTableRecord
100
AcDbLinetypeTableRecord
  2
BYLAYER
 70
     0
  3
Solid line
 72
    65
 73
     0
 40
0.0
  0
LTYPE
  5
413C
330
5
100
AcDbSymbolTableRecord
100
AcDbLinetypeTableRecord
  2
CENTER2
 70
     0
  3
Center (.5x) ___ _ ___ _ ___ _ ___ _ ___ _ ___
 72
    65
 73
     4
 40
28.57499999999999
 49
19.05
 74
     0
 49
-3.174999999999999
 74
     0
 49
3.174999999999999
 74
     0
 49
-3.174999999999999
 74
     0
  0
LTYPE
  5
413D
330
5
100
AcDbSymbolTableRecord
100
AcDbLinetypeTableRecord
  2
DASHED2
 70
     0
  3
Dashed (.5x) _ _ _ _ _ _ _ _ _ _ _ _ _ _ _ _ _
 72
    65
 73
     2
 40
9.524999999999998
 49
6.349999999999999
 74
     0
 49
-3.174999999999999
 74
     0
  0
ENDTAB
  0
TABLE
  2
LAYER
  5
2
102
{ACAD_XDICTIONARY
360
43C2
102
}
330
0
100
AcDbSymbolTable
 70
    10
  0
LAYER
  5
10
330
2
100
AcDbSymbolTableRecord
100
AcDbLayerTableRecord
  2
0
 70
     0
 62
     7
  6
CONTINUOUS
370
    -3
390
F
  0
LAYER
  5
413E
330
2
100
AcDbSymbolTableRecord
100
AcDbLayerTableRecord
  2
指線
 70
     0
 62
     3
  6
CONTINUOUS
370
    15
390
F
  0
LAYER
  5
413F
330
2
100
AcDbSymbolTableRecord
100
AcDbLayerTableRecord
  2
中心線
 70
     0
 62
     4
  6
CENTER2
370
    20
390
F
  0
LAYER
  5
4140
330
2
100
AcDbSymbolTableRecord
100
AcDbLayerTableRecord
  2
虛線
 70
     0
 62
     6
  6
DASHED2
290
     0
370
    -3
390
F
  0
LAYER
  5
43B4
330
2
100
AcDbSymbolTableRecord
100
AcDbLayerTableRecord
  2
建構線
 70
     0
 62
     1
  6
CONTINUOUS
370
    -3
390
F
  0
LAYER
  5
5523
330
2
100
AcDbSymbolTableRecord
100
AcDbLayerTableRecord
  2
DASH
 70
     0
 62
     6
  6
DASHED2
370
    20
390
F
  0
LAYER
  5
5524
330
2
100
AcDbSymbolTableRecord
100
AcDbLayerTableRecord
  2
0.15
 70
     0
 62
     3
  6
CONTINUOUS
370
    15
390
F
  0
LAYER
  5
5525
330
2
100
AcDbSymbolTableRecord
100
AcDbLayerTableRecord
  2
MID
 70
     0
 62
     3
  6
CONTINUOUS
370
    15
390
F
  0
LAYER
  5
5526
330
2
100
AcDbSymbolTableRecord
100
AcDbLayerTableRecord
  2
CENTER
 70
     0
 62
     4
  6
CENTER2
370
    20
390
F
  0
LAYER
  5
5527
330
2
100
AcDbSymbolTableRecord
100
AcDbLayerTableRecord
  2
Defpoints
 70
     0
 62
     7
  6
CONTINUOUS
290
     0
370
    -3
390
F
  0
ENDTAB
  0
TABLE
  2
STYLE
  5
3
330
0
100
AcDbSymbolTable
 70
     2
  0
STYLE
  5
11
330
3
100
AcDbSymbolTableRecord
100
AcDbTextStyleTableRecord
  2
STANDARD
 70
     0
 40
0.0
 41
1.0
 50
0.0
 71
     0
 42
3.0
  3

  4

  0
STYLE
  5
5528
330
3
100
AcDbSymbolTableRecord
100
AcDbTextStyleTableRecord
  2
型式2
 70
     0
 40
0.0
 41
1.0
 50
0.0
 71
     0
 42
2.5
  3
KAIU.TTF
  4

1001
ACAD
1000
DFKai-SB
1071
    34881
  0
ENDTAB
  0
TABLE
  2
VIEW
  5
6
330
0
100
AcDbSymbolTable
 70
     0
  0
ENDTAB
  0
TABLE
  2
UCS
  5
7
330
0
100
AcDbSymbolTable
 70
     0
  0
ENDTAB
  0
TABLE
  2
APPID
  5
9
330
0
100
AcDbSymbolTable
 70
     4
  0
APPID
  5
12
330
9
100
AcDbSymbolTableRecord
100
AcDbRegAppTableRecord
  2
ACAD
 70
     0
  0
APPID
  5
230
330
9
100
AcDbSymbolTableRecord
100
AcDbRegAppTableRecord
  2
TCAD
 70
     0
  0
APPID
  5
4142
330
9
100
AcDbSymbolTableRecord
100
AcDbRegAppTableRecord
  2
CONTENTBLOCKICON
 70
     0
  0
APPID
  5
530C
330
9
100
AcDbSymbolTableRecord
100
AcDbRegAppTableRecord
  2
pntflag
 70
     0
  0
ENDTAB
  0
TABLE
  2
DIMSTYLE
  5
A
330
0
100
AcDbSymbolTable
 70
     3
100
AcDbDimStyleTable
 71
     0
  0
DIMSTYLE
105
3C9D
330
A
100
AcDbSymbolTableRecord
100
AcDbDimStyleTableRecord
  2
Standard
 70
     0
340
11
  0
DIMSTYLE
105
5529
330
A
100
AcDbSymbolTableRecord
100
AcDbDimStyleTableRecord
  2
ISO-25
 70
     0
 41
1.199999999999999
 42
0.7
 43
3.75
 44
0.3
 73
     0
 74
     0
 77
     1
 78
     8
140
2.5
141
2.5
143
0.03937007874016
147
0.5
171
     3
172
     1
176
     3
177
     3
178
     2
271
     2
272
     2
274
     3
283
     0
284
     8
340
11
  0
DIMSTYLE
105
552A
330
A
100
AcDbSymbolTableRecord
100
AcDbDimStyleTableRecord
  2
ISO-25$0
 70
     0
 41
1.199999999999999
 42
0.7
 43
3.75
 44
0.3
 73
     0
 74
     0
 77
     1
 78
     8
140
2.5
141
2.5
143
0.03937007874016
147
0.5
171
     3
172
     1
176
     3
177
     3
178
     2
271
     2
272
     2
274
     3
283
     0
284
     8
340
11
  0
ENDTAB
  0
TABLE
  2
BLOCK_RECORD
  5
1
330
0
100
AcDbSymbolTable
 70
     2
  0
BLOCK_RECORD
  5
1E
102
{ACAD_XDICTIONARY
360
3D1E
102
}
330
1
100
AcDbSymbolTableRecord
100
AcDbBlockTableRecord
  2
*Model_Space
340
21
  0
BLOCK_RECORD
  5
1A
102
{ACAD_XDICTIONARY
360
3D20
102
}
330
1
100
AcDbSymbolTableRecord
100
AcDbBlockTableRecord
  2
*Paper_Space
340
1D
  0
ENDTAB
  0
ENDSEC
  0
SECTION
  2
BLOCKS
  0
BLOCK
  5
254
330
1E
100
AcDbEntity
  8
0
100
AcDbBlockBegin
  2
*Model_Space
 70
     0
 10
0.0
 20
0.0
 30
0.0
  3
*Model_Space
  1

  0
ENDBLK
  5
255
330
1E
100
AcDbEntity
  8
0
100
AcDbBlockEnd
  0
BLOCK
  5
252
330
1A
100
AcDbEntity
 67
     1
  8
0
100
AcDbBlockBegin
  2
*Paper_Space
 70
     0
 10
0.0
 20
0.0
 30
0.0
  3
*Paper_Space
  1

  0
ENDBLK
  5
253
330
1A
100
AcDbEntity
 67
     1
  8
0
100
AcDbBlockEnd
  0
ENDSEC
  0
SECTION
  2
ENTITIES
  0
MTEXT
  5
413A
330
1E
100
AcDbEntity
  8
0
100
AcDbMText
 10
-32.90233812526025
 20
-21.46595082896141
 30
0.0
 40
7.800000159341863
 41
100.6094999999999
 71
     1
 72
     5
  1
\A1;{\fTimes New Roman|b0|i0|c0|p18;HGH35HA\PC : 6140 kgf\PC\fProxy 1|b0|i0|c0|p0;\H0.7x;\S^ 0;\fTimes New Roman|b0|i0|c0|p18;\H1.429x;: 13900 kgf}
 73
     1
 44
1.0
  0
LINE
  5
4F08
330
1E
100
AcDbEntity
  8
0
 48
0.27
100
AcDbLine
 10
122.281877383038
 20
19.07854763781719
 30
-12.5
 11
125.7228020850347
 21
19.07854763781719
 31
-12.5
  0
LINE
  5
4F09
330
1E
100
AcDbEntity
  8
0
 48
0.27
100
AcDbLine
 10
123.4699250121859
 20
17.61000001573282
 30
-12.5
 11
125.7228020850347
 21
17.61000001573282
 31
-12.5
  0
LINE
  5
4F0A
330
1E
100
AcDbEntity
  8
0
 48
0.27
100
AcDbLine
 10
122.3667383697933
 20
15.38000001573271
 30
-12.5
 11
125.7228020850347
 21
15.38000001573271
 31
-12.5
  0
LINE
  5
4F0B
330
1E
100
AcDbEntity
  8
0
 48
0.27
100
AcDbLine
 10
123.7245069415477
 20
13.92245239364817
 30
-12.5
 11
125.7228020850347
 21
13.92245239364817
 31
-12.5
  0
LINE
  5
4F0C
330
1E
100
AcDbEntity
  8
0
 48
0.27
100
AcDbLine
 10
121.263550696496
 20
10.18000001573275
 30
-12.5
 11
125.7228020850347
 21
10.18000001573275
 31
-12.5
  0
LINE
  5
4F0D
330
1E
100
AcDbEntity
  8
0
 48
0.27
100
AcDbLine
 10
124.3185307561217
 20
4.700000015732797
 30
-12.5
 11
125.7228020850347
 21
4.700000015732797
 31
-12.5
  0
LINE
  5
4F0E
330
1E
100
AcDbEntity
  8
0
 48
0.27
100
AcDbLine
 10
122.451598325644
 20
-0.5000199842673112
 30
-12.5
 11
314.3657830636691
 21
-0.5000199842673112
 31
-12.5
  0
LINE
  5
4F0F
330
1E
100
AcDbEntity
  8
0
 48
0.27
100
AcDbLine
 10
123.8942278841539
 20
-5.999999984267248
 30
-12.5
 11
314.3657830636691
 21
-5.999999984267248
 31
-12.5
  0
LINE
  5
4F10
330
1E
100
AcDbEntity
  8
0
 48
0.27
100
AcDbLine
 10
88.56578306366907
 20
-7.499999984267191
 30
-12.5
 11
314.3657830636691
 21
-7.499999984267617
 31
-12.5
  0
LINE
  5
4F11
330
1E
100
AcDbEntity
  8
0
 48
0.27
100
AcDbLine
 10
88.56578306366907
 20
21.50000001573269
 30
-12.5
 11
125.7228020850347
 21
21.50000001573269
 31
-12.5
  0
LINE
  5
4F12
330
1E
100
AcDbEntity
  8
建構線
 48
0.27
100
AcDbLine
 10
122.451598325644
 20
-0.5000199842673397
 30
-12.5
 11
123.8942278841539
 21
-5.999999984267276
 31
-12.5
  0
LINE
  5
4F13
330
1E
100
AcDbEntity
  8
中心線
 48
0.27
100
AcDbLine
 10
108.5657830636691
 20
-9.799999984267259
 30
-12.5
 11
108.5657830636691
 21
23.80000001573279
 31
-12.5
  0
LINE
  5
4F14
330
1E
100
AcDbEntity
  8
0
 48
0.27
100
AcDbLine
 10
88.56578306366913
 20
-7.499999984267219
 30
-12.5
 11
88.56578306366913
 21
21.50000001573272
 31
-12.5
  0
LINE
  5
4F15
330
1E
100
AcDbEntity
  8
中心線
 48
0.27
100
AcDbLine
 10
108.5657830636691
 20
-9.799999984267259
 30
-12.5
 11
108.5657830636691
 21
23.80000001573279
 31
-12.5
  0
LINE
  5
4F16
330
1E
100
AcDbEntity
  8
建構線
 48
0.27
100
AcDbLine
 10
123.8942278841539
 20
-5.999999984267276
 30
-12.5
 11
123.3850650563352
 21
-7.499999984267265
 31
-12.5
  0
LINE
  5
4F17
330
1E
100
AcDbEntity
  8
建構線
 48
0.27
100
AcDbLine
 10
124.9125556016006
 20
21.50000001573269
 30
-12.5
 11
122.2818773830379
 21
19.07854763781713
 31
-12.5
  0
LINE
  5
4F18
330
1E
100
AcDbEntity
  8
建構線
 48
0.27
100
AcDbLine
 10
121.2635506964959
 20
10.18000001573278
 30
-12.5
 11
124.3185307561216
 21
4.700000015732769
 31
-12.5
  0
LINE
  5
4F19
330
1E
100
AcDbEntity
  8
建構線
 48
0.27
100
AcDbLine
 10
124.3185307561216
 20
4.700000015732769
 30
-12.5
 11
122.451598325644
 21
-0.5000199842673397
 31
-12.5
  0
LINE
  5
4F1A
330
1E
100
AcDbEntity
  8
建構線
 48
0.27
100
AcDbLine
 10
123.7245069415476
 20
13.9224523936482
 30
-12.5
 11
121.2635506964959
 21
10.18000001573278
 31
-12.5
  0
LINE
  5
4F1B
330
1E
100
AcDbEntity
  8
建構線
 48
0.27
100
AcDbLine
 10
122.2818773830379
 20
19.07854763781713
 30
-12.5
 11
123.469925012186
 21
17.61000001573279
 31
-12.5
  0
LINE
  5
4F1C
330
1E
100
AcDbEntity
  8
建構線
 48
0.27
100
AcDbLine
 10
122.3667383697932
 20
15.38000001573274
 30
-12.5
 11
123.7245069415476
 21
13.9224523936482
 31
-12.5
  0
LINE
  5
4F1D
330
1E
100
AcDbEntity
  8
建構線
 48
0.27
100
AcDbLine
 10
123.469925012186
 20
17.61000001573279
 30
-12.5
 11
122.3667383697932
 21
15.38000001573274
 31
-12.5
  0
LINE
  5
4F1E
330
1E
100
AcDbEntity
  8
中心線
 48
0.27
100
AcDbLine
 10
188.5657830636691
 20
-9.799999984267259
 30
-12.5
 11
188.5657830636691
 21
1.304732311519387
 31
-12.5
  0
LINE
  5
4F20
330
1E
100
AcDbEntity
  8
0
 48
0.27
100
AcDbLine
 10
314.3657830636691
 20
-7.499999984267361
 30
-12.5
 11
314.3657830636691
 21
21.50000001573272
 31
-12.5
  0
LINE
  5
4F26
330
1E
100
AcDbEntity
  8
虛線
 48
0.27
100
AcDbLine
 10
298.8657830636201
 20
9.200000015732797
 30
-12.5
 11
298.8657830636201
 21
-6.299999984267202
 31
-12.5
  0
LINE
  5
4F27
330
1E
100
AcDbEntity
  8
虛線
 48
0.27
100
AcDbLine
 10
298.8657830637181
 20
9.200000015732797
 30
-12.5
 11
298.8657830637181
 21
-6.299999984267202
 31
-12.5
  0
LINE
  5
4F28
330
1E
100
AcDbEntity
  8
虛線
 48
0.27
100
AcDbLine
 10
301.3657830637181
 20
21.10000001573274
 30
-12.5
 11
301.3657830637181
 21
9.500000015732751
 31
-12.5
  0
LINE
  5
4F29
330
1E
100
AcDbEntity
  8
虛線
 48
0.27
100
AcDbLine
 10
301.3657830636201
 20
21.10000001573274
 30
-12.5
 11
301.3657830636201
 21
9.500000015732751
 31
-12.5
  0
LINE
  5
4F2A
330
1E
100
AcDbEntity
  8
虛線
 48
0.27
100
AcDbLine
 10
287.3657830637181
 20
9.500000015732751
 30
-12.5
 11
301.3657830637181
 21
9.500000015732751
 31
-12.5
  0
LINE
  5
4F2B
330
1E
100
AcDbEntity
  8
虛線
 48
0.27
100
AcDbLine
 10
301.3657830636201
 20
9.500000015732751
 30
-12.5
 11
287.3657830636201
 21
9.500000015732751
 31
-12.5
  0
LINE
  5
4F2C
330
1E
100
AcDbEntity
  8
虛線
 48
0.27
100
AcDbLine
 10
289.8657830637181
 20
9.200000015732797
 30
-12.5
 11
298.8657830637181
 21
9.200000015732797
 31
-12.5
  0
LINE
  5
4F2D
330
1E
100
AcDbEntity
  8
虛線
 48
0.27
100
AcDbLine
 10
298.8657830636201
 20
9.200000015732797
 30
-12.5
 11
289.8657830636201
 21
9.200000015732797
 31
-12.5
  0
LINE
  5
4F2E
330
1E
100
AcDbEntity
  8
虛線
 48
0.27
100
AcDbLine
 10
299.1657830637182
 20
9.500000015732751
 30
-12.5
 11
298.8657830637181
 21
9.200000015732797
 31
-12.5
  0
LINE
  5
4F2F
330
1E
100
AcDbEntity
  8
虛線
 48
0.27
100
AcDbLine
 10
299.1657830636201
 20
9.500000015732751
 30
-12.5
 11
298.8657830636201
 21
9.200000015732797
 31
-12.5
  0
LINE
  5
4F30
330
1E
100
AcDbEntity
  8
虛線
 48
0.27
100
AcDbLine
 10
287.3657830637181
 20
21.10000001573274
 30
-12.5
 11
287.3657830637181
 21
9.500000015732751
 31
-12.5
  0
LINE
  5
4F31
330
1E
100
AcDbEntity
  8
虛線
 48
0.27
100
AcDbLine
 10
287.3657830636201
 20
21.10000001573274
 30
-12.5
 11
287.3657830636201
 21
9.500000015732751
 31
-12.5
  0
LINE
  5
4F32
330
1E
100
AcDbEntity
  8
虛線
 48
0.27
100
AcDbLine
 10
289.565783063718
 20
9.500000015732751
 30
-12.5
 11
289.8657830637181
 21
9.200000015732797
 31
-12.5
  0
LINE
  5
4F33
330
1E
100
AcDbEntity
  8
虛線
 48
0.27
100
AcDbLine
 10
289.56578306362
 20
9.500000015732751
 30
-12.5
 11
289.8657830636201
 21
9.200000015732797
 31
-12.5
  0
LINE
  5
4F34
330
1E
100
AcDbEntity
  8
虛線
 48
0.27
100
AcDbLine
 10
289.8657830636201
 20
9.200000015732797
 30
-12.5
 11
289.8657830636201
 21
-6.299999984267202
 31
-12.5
  0
LINE
  5
4F35
330
1E
100
AcDbEntity
  8
虛線
 48
0.27
100
AcDbLine
 10
289.8657830637181
 20
9.200000015732797
 30
-12.5
 11
289.8657830637181
 21
-6.299999984267202
 31
-12.5
  0
LINE
  5
4F36
330
1E
100
AcDbEntity
  8
虛線
 48
0.27
100
AcDbLine
 10
301.3657830637181
 20
21.10000001573274
 30
-12.5
 11
287.3657830637181
 21
21.10000001573274
 31
-12.5
  0
LINE
  5
4F37
330
1E
100
AcDbEntity
  8
虛線
 48
0.27
100
AcDbLine
 10
287.3657830636201
 20
21.10000001573274
 30
-12.5
 11
301.3657830636201
 21
21.10000001573274
 31
-12.5
  0
LINE
  5
4F38
330
1E
100
AcDbEntity
  8
虛線
 48
0.27
100
AcDbLine
 10
301.3657830637181
 20
21.10000001573274
 30
-12.5
 11
301.596723171394
 21
21.50000001573272
 31
-12.5
  0
LINE
  5
4F39
330
1E
100
AcDbEntity
  8
虛線
 48
0.27
100
AcDbLine
 10
301.3657830636201
 20
21.10000001573274
 30
-12.5
 11
301.596723171296
 21
21.50000001573272
 31
-12.5
  0
LINE
  5
4F3A
330
1E
100
AcDbEntity
  8
虛線
 48
0.27
100
AcDbLine
 10
287.3657830637181
 20
21.10000001573274
 30
-12.5
 11
287.1348429560422
 21
21.50000001573272
 31
-12.5
  0
LINE
  5
4F3B
330
1E
100
AcDbEntity
  8
虛線
 48
0.27
100
AcDbLine
 10
287.3657830636201
 20
21.10000001573274
 30
-12.5
 11
287.1348429559442
 21
21.50000001573272
 31
-12.5
  0
LINE
  5
4F3C
330
1E
100
AcDbEntity
  8
虛線
 48
0.27
100
AcDbLine
 10
289.8657830637181
 20
-6.299999984267202
 30
-12.5
 11
298.8657830637181
 21
-6.299999984267202
 31
-12.5
  0
LINE
  5
4F3D
330
1E
100
AcDbEntity
  8
虛線
 48
0.27
100
AcDbLine
 10
298.8657830636201
 20
-6.299999984267202
 30
-12.5
 11
289.8657830636201
 21
-6.299999984267202
 31
-12.5
  0
LINE
  5
4F3E
330
1E
100
AcDbEntity
  8
虛線
 48
0.27
100
AcDbLine
 10
298.8657830637181
 20
-6.299999984267202
 30
-12.5
 11
300.0657847780064
 21
-7.49999998426734
 31
-12.5
  0
LINE
  5
4F3F
330
1E
100
AcDbEntity
  8
虛線
 48
0.27
100
AcDbLine
 10
288.6657813494299
 20
-7.499999984267326
 30
-12.5
 11
289.8657830637181
 21
-6.299999984267202
 31
-12.5
  0
LINE
  5
4F40
330
1E
100
AcDbEntity
  8
虛線
 48
0.27
100
AcDbLine
 10
193.0657830636201
 20
-0.0000000000000178
 30
-12.5
 11
193.0657830636201
 21
-6.29999998426723
 31
-12.5
  0
LINE
  5
4F4A
330
1E
100
AcDbEntity
  8
虛線
 48
0.27
100
AcDbLine
 10
184.0657830636201
 20
-0.0000000000000142
 30
-12.5
 11
184.0657830636201
 21
-6.29999998426723
 31
-12.5
  0
LINE
  5
4F50
330
1E
100
AcDbEntity
  8
虛線
 48
0.27
100
AcDbLine
 10
184.0657830637181
 20
-6.29999998426723
 30
-12.5
 11
193.0657830637181
 21
-6.29999998426723
 31
-12.5
  0
LINE
  5
4F52
330
1E
100
AcDbEntity
  8
虛線
 48
0.27
100
AcDbLine
 10
193.0657830637181
 20
-6.29999998426723
 30
-12.5
 11
194.2657847780064
 21
-7.499999984267418
 31
-12.5
  0
LINE
  5
4F53
330
1E
100
AcDbEntity
  8
虛線
 48
0.27
100
AcDbLine
 10
182.8657813494297
 20
-7.499999984267391
 30
-12.5
 11
184.0657830637181
 21
-6.29999998426723
 31
-12.5
  0
LINE
  5
4F5A
330
1E
100
AcDbEntity
  8
0
 48
0.27
100
AcDbLine
 10
113.0657830636201
 20
9.200000015732769
 30
-12.5
 11
113.0657830636201
 21
-6.29999998426723
 31
-12.5
  0
LINE
  5
4F5B
330
1E
100
AcDbEntity
  8
0
 48
0.27
100
AcDbLine
 10
113.0657830637181
 20
9.200000015732769
 30
-12.5
 11
113.0657830637181
 21
-6.29999998426723
 31
-12.5
  0
LINE
  5
4F5C
330
1E
100
AcDbEntity
  8
0
 48
0.27
100
AcDbLine
 10
115.5657830637181
 20
21.10000001573272
 30
-12.5
 11
115.5657830637181
 21
9.500000015732723
 31
-12.5
  0
LINE
  5
4F5D
330
1E
100
AcDbEntity
  8
0
 48
0.27
100
AcDbLine
 10
115.5657830636201
 20
21.10000001573272
 30
-12.5
 11
115.5657830636201
 21
9.500000015732723
 31
-12.5
  0
LINE
  5
4F5E
330
1E
100
AcDbEntity
  8
0
 48
0.27
100
AcDbLine
 10
101.5657830637181
 20
9.500000015732723
 30
-12.5
 11
115.5657830637181
 21
9.500000015732723
 31
-12.5
  0
LINE
  5
4F5F
330
1E
100
AcDbEntity
  8
0
 48
0.27
100
AcDbLine
 10
115.5657830636201
 20
9.500000015732723
 30
-12.5
 11
101.5657830636201
 21
9.500000015732723
 31
-12.5
  0
LINE
  5
4F60
330
1E
100
AcDbEntity
  8
0
 48
0.27
100
AcDbLine
 10
104.0657830637181
 20
9.200000015732769
 30
-12.5
 11
113.0657830637181
 21
9.200000015732769
 31
-12.5
  0
LINE
  5
4F61
330
1E
100
AcDbEntity
  8
0
 48
0.27
100
AcDbLine
 10
113.0657830636201
 20
9.200000015732769
 30
-12.5
 11
104.0657830636201
 21
9.200000015732769
 31
-12.5
  0
LINE
  5
4F62
330
1E
100
AcDbEntity
  8
0
 48
0.27
100
AcDbLine
 10
113.3657830637182
 20
9.500000015732723
 30
-12.5
 11
113.0657830637181
 21
9.200000015732769
 31
-12.5
  0
LINE
  5
4F63
330
1E
100
AcDbEntity
  8
0
 48
0.27
100
AcDbLine
 10
113.3657830636201
 20
9.500000015732723
 30
-12.5
 11
113.0657830636201
 21
9.200000015732769
 31
-12.5
  0
LINE
  5
4F64
330
1E
100
AcDbEntity
  8
0
 48
0.27
100
AcDbLine
 10
104.0657830636201
 20
9.200000015732769
 30
-12.5
 11
104.0657830636201
 21
-6.29999998426723
 31
-12.5
  0
LINE
  5
4F65
330
1E
100
AcDbEntity
  8
0
 48
0.27
100
AcDbLine
 10
104.0657830637181
 20
9.200000015732769
 30
-12.5
 11
104.0657830637181
 21
-6.29999998426723
 31
-12.5
  0
LINE
  5
4F66
330
1E
100
AcDbEntity
  8
0
 48
0.27
100
AcDbLine
 10
101.5657830637181
 20
21.10000001573272
 30
-12.5
 11
101.5657830637181
 21
9.500000015732723
 31
-12.5
  0
LINE
  5
4F67
330
1E
100
AcDbEntity
  8
0
 48
0.27
100
AcDbLine
 10
101.5657830636201
 20
21.10000001573272
 30
-12.5
 11
101.5657830636201
 21
9.500000015732723
 31
-12.5
  0
LINE
  5
4F68
330
1E
100
AcDbEntity
  8
0
 48
0.27
100
AcDbLine
 10
103.765783063718
 20
9.500000015732723
 30
-12.5
 11
104.0657830637181
 21
9.200000015732769
 31
-12.5
  0
LINE
  5
4F69
330
1E
100
AcDbEntity
  8
0
 48
0.27
100
AcDbLine
 10
103.76578306362
 20
9.500000015732723
 30
-12.5
 11
104.0657830636201
 21
9.200000015732769
 31
-12.5
  0
LINE
  5
4F6A
330
1E
100
AcDbEntity
  8
0
 48
0.27
100
AcDbLine
 10
104.0657830637181
 20
-6.29999998426723
 30
-12.5
 11
113.0657830637181
 21
-6.29999998426723
 31
-12.5
  0
LINE
  5
4F6B
330
1E
100
AcDbEntity
  8
0
 48
0.27
100
AcDbLine
 10
113.0657830636201
 20
-6.29999998426723
 30
-12.5
 11
104.0657830636201
 21
-6.29999998426723
 31
-12.5
  0
LINE
  5
4F6C
330
1E
100
AcDbEntity
  8
0
 48
0.27
100
AcDbLine
 10
113.0657830637181
 20
-6.29999998426723
 30
-12.5
 11
114.2657847780062
 21
-7.499999984267248
 31
-12.5
  0
LINE
  5
4F6D
330
1E
100
AcDbEntity
  8
0
 48
0.27
100
AcDbLine
 10
102.8657813494299
 20
-7.499999984267219
 30
-12.5
 11
104.0657830637181
 21
-6.29999998426723
 31
-12.5
  0
LINE
  5
4F6E
330
1E
100
AcDbEntity
  8
0
 48
0.27
100
AcDbLine
 10
115.5657830637181
 20
21.10000001573272
 30
-12.5
 11
101.5657830637181
 21
21.10000001573272
 31
-12.5
  0
LINE
  5
4F6F
330
1E
100
AcDbEntity
  8
0
 48
0.27
100
AcDbLine
 10
101.5657830636201
 20
21.10000001573272
 30
-12.5
 11
115.5657830636201
 21
21.10000001573272
 31
-12.5
  0
LINE
  5
4F70
330
1E
100
AcDbEntity
  8
0
 48
0.27
100
AcDbLine
 10
115.5657830637181
 20
21.10000001573272
 30
-12.5
 11
115.796723171394
 21
21.50000001573269
 31
-12.5
  0
LINE
  5
4F71
330
1E
100
AcDbEntity
  8
0
 48
0.27
100
AcDbLine
 10
115.5657830636201
 20
21.10000001573272
 30
-12.5
 11
115.796723171296
 21
21.50000001573269
 31
-12.5
  0
LINE
  5
4F72
330
1E
100
AcDbEntity
  8
0
 48
0.27
100
AcDbLine
 10
101.5657830637181
 20
21.10000001573272
 30
-12.5
 11
101.3348429560422
 21
21.50000001573269
 31
-12.5
  0
LINE
  5
4F73
330
1E
100
AcDbEntity
  8
0
 48
0.27
100
AcDbLine
 10
101.5657830636201
 20
21.10000001573272
 30
-12.5
 11
101.3348429559442
 21
21.50000001573269
 31
-12.5
  0
LINE
  5
4F75
330
1E
100
AcDbEntity
  8
中心線
 48
0.27
100
AcDbLine
 10
294.3657830636691
 20
-9.799999984267259
 30
-12.5
 11
294.3657830636691
 21
23.80000001573279
 31
-12.5
  0
LINE
  5
4F76
330
1E
100
AcDbEntity
  8
0
 48
0.27
100
AcDbLine
 10
263.9228020850348
 20
21.50000001573269
 30
-12.5
 11
314.3657830636691
 21
21.50000001573269
 31
-12.5
  0
LINE
  5
4F77
330
1E
100
AcDbEntity
  8
0
 48
0.27
100
AcDbLine
 10
263.9228020850348
 20
19.07854763781704
 30
-12.5
 11
314.3657830636691
 21
19.07854763781698
 31
-12.5
  0
LINE
  5
4F78
330
1E
100
AcDbEntity
  8
0
 48
0.27
100
AcDbLine
 10
263.9228020850348
 20
15.38000001573271
 30
-12.5
 11
314.3657830636691
 21
15.38000001573271
 31
-12.5
  0
LINE
  5
4F79
330
1E
100
AcDbEntity
  8
0
 48
0.27
100
AcDbLine
 10
263.9228020850348
 20
13.92245239364817
 30
-12.5
 11
314.3657830636691
 21
13.92245239364817
 31
-12.5
  0
LINE
  5
4F7A
330
1E
100
AcDbEntity
  8
0
 48
0.27
100
AcDbLine
 10
263.9228020850348
 20
17.6100000157327
 30
-12.5
 11
314.3657830636691
 21
17.61000001573266
 31
-12.5
  0
LINE
  5
4F7B
330
1E
100
AcDbEntity
  8
0
 48
0.27
100
AcDbLine
 10
263.9228020850348
 20
10.18000001573275
 30
-12.5
 11
314.3657830636691
 21
10.18000001573275
 31
-12.5
  0
LINE
  5
4F7C
330
1E
100
AcDbEntity
  8
0
 48
0.27
100
AcDbLine
 10
263.9228020850348
 20
4.700000015732719
 30
-12.5
 11
314.3657830636691
 21
4.700000015732687
 31
-12.5
  0
LINE
  5
5148
330
1E
100
AcDbEntity
  8
中心線
100
AcDbLine
 10
264.2537186596732
 20
3.749999999932793
 30
-12.5
 11
258.5020816852923
 21
3.749999999932793
 31
-12.5
  0
LINE
  5
5149
330
1E
100
AcDbEntity
  8
0
100
AcDbLine
 10
263.3541967226603
 20
4.749999999932793
 30
-12.5
 11
263.3541967226603
 21
2.749999999932793
 31
-12.5
  0
ARC
  5
514A
330
1E
100
AcDbEntity
  8
0
100
AcDbCircle
 10
262.1343450438079
 20
2.769751637949905
 30
-12.5
 40
1.220011576012179
100
AcDbArc
 50
285.9630221688287
 51
359.0723572120023
  0
ARC
  5
514B
330
1E
100
AcDbEntity
  8
0
100
AcDbCircle
 10
262.1343450438079
 20
4.73024836191568
 30
-12.5
 40
1.220011576012179
100
AcDbArc
 50
0.9276427879976095
 51
74.03697783117127
  0
LINE
  5
514C
330
1E
100
AcDbEntity
  8
0
100
AcDbLine
 10
262.4228020850348
 20
38.99999999999998
 30
-6.25
 11
262.4228020850348
 21
-0.0000000000000178
 31
-6.25
  0
LINE
  5
514D
330
1E
100
AcDbEntity
  8
0
100
AcDbLine
 10
263.9228020850348
 20
22.87370001579999
 30
-6.25
 11
263.9228020850348
 21
-0.0000000000000178
 31
-6.25
  0
LINE
  5
514E
330
1E
100
AcDbEntity
  8
0
100
AcDbLine
 10
260.7228020850348
 20
-0.0000000000000178
 30
-6.25
 11
263.9228020850348
 21
-0.0000000000000178
 31
-6.25
  0
ARC
  5
514F
330
1E
100
AcDbEntity
  8
0
100
AcDbCircle
 10
262.0872782655406
 20
33.26532826805264
 30
-6.25
 40
1.220011576012179
100
AcDbArc
 50
285.9630221688287
 51
359.0723572120023
  0
LINE
  5
5150
330
1E
100
AcDbEntity
  8
0
100
AcDbLine
 10
263.9228020850348
 20
22.87370001579999
 30
-6.25
 11
262.4228020850348
 21
23.73970001579997
 31
-6.25
  0
LINE
  5
5151
330
1E
100
AcDbEntity
  8
中心線
100
AcDbLine
 10
264.2066518814059
 20
34.24557663003553
 30
-6.25
 11
258.455014907025
 21
34.24557663003553
 31
-6.25
  0
ARC
  5
5152
330
1E
100
AcDbEntity
  8
0
100
AcDbCircle
 10
262.0872782655406
 20
35.22582499201841
 30
-6.25
 40
1.220011576012179
100
AcDbArc
 50
0.9276427879976095
 51
74.03697783117127
  0
LINE
  5
5153
330
1E
100
AcDbEntity
  8
0
100
AcDbLine
 10
263.3071299443931
 20
35.24557663003553
 30
-6.25
 11
263.3071299443931
 21
33.24557663003552
 31
-6.25
  0
LINE
  5
5154
330
1E
100
AcDbEntity
  8
0
100
AcDbLine
 10
260.7228020850348
 20
38.99999999999998
 30
-6.25
 11
262.4228020850348
 21
38.99999999999998
 31
-6.25
  0
LINE
  5
5155
330
1E
100
AcDbEntity
  8
中心線
100
AcDbLine
 10
125.3918855103963
 20
3.749999999932811
 30
-12.5
 11
131.1435224847772
 21
3.749999999932811
 31
-12.5
  0
LINE
  5
5156
330
1E
100
AcDbEntity
  8
0
100
AcDbLine
 10
126.2914074474092
 20
4.749999999932811
 30
-12.5
 11
126.2914074474092
 21
2.749999999932811
 31
-12.5
  0
ARC
  5
5157
330
1E
100
AcDbEntity
  8
0
100
AcDbCircle
 10
127.5112591262616
 20
2.769751637949923
 30
-12.5
 40
1.220011576012179
100
AcDbArc
 50
180.9276427879975
 51
254.0369778311712
  0
ARC
  5
5158
330
1E
100
AcDbEntity
  8
0
100
AcDbCircle
 10
127.5112591262616
 20
4.730248361915698
 30
-12.5
 40
1.220011576012179
100
AcDbArc
 50
105.9630221688287
 51
179.0723572120024
  0
LINE
  5
5159
330
1E
100
AcDbEntity
  8
0
100
AcDbLine
 10
127.2228020850347
 20
39.0
 30
-6.25
 11
127.2228020850347
 21
0.0
 31
-6.25
  0
LINE
  5
515A
330
1E
100
AcDbEntity
  8
0
100
AcDbLine
 10
125.7228020850347
 20
22.87370001580001
 30
-6.25
 11
125.7228020850347
 21
0.0
 31
-6.25
  0
LINE
  5
515B
330
1E
100
AcDbEntity
  8
0
100
AcDbLine
 10
128.9228020850347
 20
0.0
 30
-6.25
 11
125.7228020850347
 21
0.0
 31
-6.25
  0
ARC
  5
515C
330
1E
100
AcDbEntity
  8
0
100
AcDbCircle
 10
127.5583259045289
 20
33.26532826805265
 30
-6.25
 40
1.220011576012179
100
AcDbArc
 50
180.9276427879975
 51
254.0369778311712
  0
LINE
  5
515D
330
1E
100
AcDbEntity
  8
0
100
AcDbLine
 10
125.7228020850347
 20
22.87370001580001
 30
-6.25
 11
127.2228020850347
 21
23.73970001579999
 31
-6.25
  0
LINE
  5
515E
330
1E
100
AcDbEntity
  8
中心線
100
AcDbLine
 10
125.4389522886635
 20
34.24557663003554
 30
-6.25
 11
131.1905892630445
 21
34.24557663003554
 31
-6.25
  0
ARC
  5
515F
330
1E
100
AcDbEntity
  8
0
100
AcDbCircle
 10
127.5583259045289
 20
35.22582499201843
 30
-6.25
 40
1.220011576012179
100
AcDbArc
 50
105.9630221688287
 51
179.0723572120024
  0
LINE
  5
5160
330
1E
100
AcDbEntity
  8
0
100
AcDbLine
 10
126.3384742256764
 20
35.24557663003554
 30
-6.25
 11
126.3384742256764
 21
33.24557663003554
 31
-6.25
  0
LINE
  5
5161
330
1E
100
AcDbEntity
  8
0
100
AcDbLine
 10
128.9228020850347
 20
39.0
 30
-6.25
 11
127.2228020850347
 21
39.0
 31
-6.25
  0
LINE
  5
5162
330
1E
100
AcDbEntity
  8
0
 48
0.27
100
AcDbLine
 10
141.9228020850347
 20
2.0
 30
-6.25
 11
141.9228020850347
 21
37.0
 31
-6.25
  0
LINE
  5
5163
330
1E
100
AcDbEntity
  8
0
 48
0.27
100
AcDbLine
 10
141.9228020850347
 20
47.5
 30
-6.25
 11
141.9228020850347
 21
0.0
 31
-6.25
  0
LINE
  5
5164
330
1E
100
AcDbEntity
  8
0
 48
0.27
100
AcDbLine
 10
128.9228020850347
 20
2.0
 30
-6.25
 11
128.9228020850347
 21
37.0
 31
-6.25
  0
LINE
  5
5165
330
1E
100
AcDbEntity
  8
0
 48
0.27
100
AcDbLine
 10
128.9228020850347
 20
2.0
 30
-6.25
 11
141.9228020850347
 21
2.0
 31
-6.25
  0
LINE
  5
5166
330
1E
100
AcDbEntity
  8
0
 48
0.27
100
AcDbLine
 10
128.9228020850347
 20
0.0
 30
-6.25
 11
141.9228020850347
 21
0.0
 31
-6.25
  0
LINE
  5
5167
330
1E
100
AcDbEntity
  8
0
 48
0.27
100
AcDbLine
 10
128.9228020850347
 20
2.0
 30
-6.25
 11
128.9228020850347
 21
0.0
 31
-6.25
  0
LINE
  5
5168
330
1E
100
AcDbEntity
  8
0
 48
0.27
100
AcDbLine
 10
141.9228020850347
 20
2.0
 30
-6.25
 11
141.9228020850347
 21
0.0
 31
-6.25
  0
LINE
  5
5169
330
1E
100
AcDbEntity
  8
中心線
 48
0.27
100
AcDbLine
 10
134.9228020850347
 20
24.87361166440001
 30
-6.25
 11
134.9228020850347
 21
30.87361166440001
 31
-6.25
  0
CIRCLE
  5
516A
330
1E
100
AcDbEntity
  8
0
 48
0.27
100
AcDbCircle
 10
-134.9228020850347
 20
27.87361166440001
 30
6.25
 40
2.5
210
0.0
220
0.0
230
-1.0
  0
CIRCLE
  5
516B
330
1E
100
AcDbEntity
  8
0
 48
0.27
100
AcDbCircle
 10
-134.9228020850347
 20
27.87361166440001
 30
6.25
 40
2.75
210
0.0
220
0.0
230
-1.0
  0
CIRCLE
  5
516C
330
1E
100
AcDbEntity
  8
0
 48
0.27
100
AcDbCircle
 10
134.9228020850347
 20
27.87361166440001
 30
-6.25
 40
2.2
  0
LINE
  5
516D
330
1E
100
AcDbEntity
  8
中心線
 48
0.27
100
AcDbLine
 10
131.9228020850347
 20
27.87361166440001
 30
-6.25
 11
137.9228020850347
 21
27.87361166440001
 31
-6.25
  0
CIRCLE
  5
516E
330
1E
100
AcDbEntity
  8
0
 48
0.27
100
AcDbCircle
 10
-134.9228020850347
 20
27.87361166440001
 30
6.25
 40
0.75
210
0.0
220
0.0
230
-1.0
  0
LINE
  5
516F
330
1E
100
AcDbEntity
  8
0
 48
0.27
100
AcDbLine
 10
128.9228020850347
 20
39.0
 30
-6.25
 11
141.9228020850347
 21
39.0
 31
-6.25
  0
LINE
  5
5170
330
1E
100
AcDbEntity
  8
0
 48
0.27
100
AcDbLine
 10
128.9228020850347
 20
37.0
 30
-6.25
 11
141.9228020850347
 21
37.0
 31
-6.25
  0
LINE
  5
5171
330
1E
100
AcDbEntity
  8
0
 48
0.27
100
AcDbLine
 10
128.9228020850347
 20
39.0
 30
-6.25
 11
128.9228020850347
 21
37.0
 31
-6.25
  0
LINE
  5
5172
330
1E
100
AcDbEntity
  8
0
 48
0.27
100
AcDbLine
 10
141.9228020850347
 20
39.0
 30
-6.25
 11
141.9228020850347
 21
37.0
 31
-6.25
  0
LINE
  5
5173
330
1E
100
AcDbEntity
  8
中心線
 48
0.27
100
AcDbLine
 10
158.8228020850348
 20
48.99999999999995
 30
-6.25
 11
158.8228020850348
 21
27.73493649053893
 31
-6.25
  0
LINE
  5
5174
330
1E
100
AcDbEntity
  8
虛線
 48
0.27
100
AcDbLine
 10
162.8228020850347
 20
46.69999999999999
 30
-6.25
 11
162.8228020850347
 21
35.49999999999994
 31
-6.25
  0
LINE
  5
5175
330
1E
100
AcDbEntity
  8
虛線
 48
0.27
100
AcDbLine
 10
154.8228020850348
 20
46.69999999999999
 30
-6.25
 11
154.8228020850348
 21
35.49999999999994
 31
-6.25
  0
LINE
  5
5176
330
1E
100
AcDbEntity
  8
虛線
 48
0.27
100
AcDbLine
 10
162.2228020850346
 20
46.69999999999999
 30
-6.25
 11
162.2228020850346
 21
31.69999999999999
 31
-6.25
  0
LINE
  5
5177
330
1E
100
AcDbEntity
  8
虛線
 48
0.27
100
AcDbLine
 10
155.4228020850347
 20
46.69999999999999
 30
-6.25
 11
155.4228020850347
 21
31.69999999999999
 31
-6.25
  0
LINE
  5
5178
330
1E
100
AcDbEntity
  8
虛線
 48
0.27
100
AcDbLine
 10
154.8228020850348
 20
35.49999999999994
 30
-6.25
 11
162.8228020850347
 21
35.49999999999994
 31
-6.25
  0
LINE
  5
5179
330
1E
100
AcDbEntity
  8
虛線
 48
0.27
100
AcDbLine
 10
162.2228020850346
 20
31.69999999999999
 30
-6.25
 11
158.8228020850348
 21
29.73700908475524
 31
-6.25
  0
LINE
  5
517A
330
1E
100
AcDbEntity
  8
虛線
 48
0.27
100
AcDbLine
 10
162.2228020850346
 20
31.69999999999999
 30
-6.25
 11
155.4228020850347
 21
31.69999999999999
 31
-6.25
  0
LINE
  5
517B
330
1E
100
AcDbEntity
  8
虛線
 48
0.27
100
AcDbLine
 10
158.8228020850348
 20
29.73700908475524
 30
-6.25
 11
155.4228020850347
 21
31.69999999999999
 31
-6.25
  0
LINE
  5
517C
330
1E
100
AcDbEntity
  8
虛線
 48
0.27
100
AcDbLine
 10
163.6228020850347
 20
47.49999999999994
 30
-6.25
 11
162.8228020850347
 21
46.69999999999999
 31
-6.25
  0
LINE
  5
517D
330
1E
100
AcDbEntity
  8
虛線
 48
0.27
100
AcDbLine
 10
162.8228020850347
 20
46.69999999999999
 30
-6.25
 11
154.8228020850348
 21
46.69999999999999
 31
-6.25
  0
LINE
  5
517E
330
1E
100
AcDbEntity
  8
虛線
 48
0.27
100
AcDbLine
 10
154.0228020850346
 20
47.49999999999994
 30
-6.25
 11
154.8228020850348
 21
46.69999999999999
 31
-6.25
  0
LINE
  5
517F
330
1E
100
AcDbEntity
  8
中心線
 48
0.27
100
AcDbLine
 10
230.8228020850347
 20
48.99999999999995
 30
-6.25
 11
230.8228020850347
 21
27.73493649053893
 31
-6.25
  0
LINE
  5
5180
330
1E
100
AcDbEntity
  8
虛線
 48
0.27
100
AcDbLine
 10
226.8228020850347
 20
46.69999999999999
 30
-6.25
 11
226.8228020850347
 21
35.49999999999994
 31
-6.25
  0
LINE
  5
5181
330
1E
100
AcDbEntity
  8
虛線
 48
0.27
100
AcDbLine
 10
234.8228020850347
 20
46.69999999999999
 30
-6.25
 11
234.8228020850347
 21
35.49999999999994
 31
-6.25
  0
LINE
  5
5182
330
1E
100
AcDbEntity
  8
虛線
 48
0.27
100
AcDbLine
 10
227.4228020850347
 20
46.69999999999999
 30
-6.25
 11
227.4228020850347
 21
31.69999999999999
 31
-6.25
  0
LINE
  5
5183
330
1E
100
AcDbEntity
  8
虛線
 48
0.27
100
AcDbLine
 10
234.2228020850346
 20
46.69999999999999
 30
-6.25
 11
234.2228020850346
 21
31.69999999999999
 31
-6.25
  0
LINE
  5
5184
330
1E
100
AcDbEntity
  8
虛線
 48
0.27
100
AcDbLine
 10
226.8228020850347
 20
35.49999999999994
 30
-6.25
 11
234.8228020850347
 21
35.49999999999994
 31
-6.25
  0
LINE
  5
5185
330
1E
100
AcDbEntity
  8
虛線
 48
0.27
100
AcDbLine
 10
234.2228020850346
 20
31.69999999999999
 30
-6.25
 11
227.4228020850347
 21
31.69999999999999
 31
-6.25
  0
LINE
  5
5186
330
1E
100
AcDbEntity
  8
虛線
 48
0.27
100
AcDbLine
 10
230.8228020850347
 20
29.73700908475524
 30
-6.25
 11
227.4228020850347
 21
31.69999999999999
 31
-6.25
  0
LINE
  5
5187
330
1E
100
AcDbEntity
  8
虛線
 48
0.27
100
AcDbLine
 10
234.2228020850346
 20
31.69999999999999
 30
-6.25
 11
230.8228020850347
 21
29.73700908475524
 31
-6.25
  0
LINE
  5
5188
330
1E
100
AcDbEntity
  8
虛線
 48
0.27
100
AcDbLine
 10
234.8228020850347
 20
46.69999999999999
 30
-6.25
 11
226.8228020850347
 21
46.69999999999999
 31
-6.25
  0
LINE
  5
5189
330
1E
100
AcDbEntity
  8
虛線
 48
0.27
100
AcDbLine
 10
226.0228020850346
 20
47.49999999999994
 30
-6.25
 11
226.8228020850347
 21
46.69999999999999
 31
-6.25
  0
LINE
  5
518A
330
1E
100
AcDbEntity
  8
虛線
 48
0.27
100
AcDbLine
 10
235.6228020850347
 20
47.49999999999994
 30
-6.25
 11
234.8228020850347
 21
46.69999999999999
 31
-6.25
  0
LINE
  5
518B
330
1E
100
AcDbEntity
  8
0
 48
0.27
100
AcDbLine
 10
260.7228020850347
 20
2.0
 30
-6.25
 11
260.7228020850347
 21
37.0
 31
-6.25
  0
LINE
  5
518C
330
1E
100
AcDbEntity
  8
0
 48
0.27
100
AcDbLine
 10
260.7228020850347
 20
0.0
 30
-6.25
 11
247.7228020850347
 21
0.0
 31
-6.25
  0
LINE
  5
518D
330
1E
100
AcDbEntity
  8
0
 48
0.27
100
AcDbLine
 10
260.7228020850347
 20
2.0
 30
-6.25
 11
247.7228020850347
 21
2.0
 31
-6.25
  0
LINE
  5
518E
330
1E
100
AcDbEntity
  8
0
 48
0.27
100
AcDbLine
 10
260.7228020850347
 20
2.0
 30
-6.25
 11
260.7228020850347
 21
0.0
 31
-6.25
  0
LINE
  5
518F
330
1E
100
AcDbEntity
  8
中心線
 48
0.27
100
AcDbLine
 10
251.7228020850347
 20
27.87361166440001
 30
-6.25
 11
257.7228020850347
 21
27.87361166440001
 31
-6.25
  0
LINE
  5
5190
330
1E
100
AcDbEntity
  8
0
 48
0.27
100
AcDbLine
 10
260.7228020850347
 20
39.0
 30
-6.25
 11
247.7228020850347
 21
39.0
 31
-6.25
  0
LINE
  5
5191
330
1E
100
AcDbEntity
  8
0
 48
0.27
100
AcDbLine
 10
260.7228020850347
 20
37.0
 30
-6.25
 11
247.7228020850347
 21
37.0
 31
-6.25
  0
CIRCLE
  5
5192
330
1E
100
AcDbEntity
  8
0
 48
0.27
100
AcDbCircle
 10
-254.7228020850347
 20
27.87361166440001
 30
6.25
 40
2.5
210
0.0
220
0.0
230
-1.0
  0
CIRCLE
  5
5193
330
1E
100
AcDbEntity
  8
0
 48
0.27
100
AcDbCircle
 10
-254.7228020850347
 20
27.87361166440001
 30
6.25
 40
2.75
210
0.0
220
0.0
230
-1.0
  0
CIRCLE
  5
5194
330
1E
100
AcDbEntity
  8
0
 48
0.27
100
AcDbCircle
 10
254.7228020850347
 20
27.87361166440001
 30
-6.25
 40
2.2
  0
LINE
  5
5195
330
1E
100
AcDbEntity
  8
中心線
 48
0.27
100
AcDbLine
 10
254.7228020850347
 20
24.87361166440001
 30
-6.25
 11
254.7228020850347
 21
30.87361166440001
 31
-6.25
  0
CIRCLE
  5
5196
330
1E
100
AcDbEntity
  8
0
 48
0.27
100
AcDbCircle
 10
-254.7228020850347
 20
27.87361166440001
 30
6.25
 40
0.75
210
0.0
220
0.0
230
-1.0
  0
LINE
  5
5197
330
1E
100
AcDbEntity
  8
0
 48
0.27
100
AcDbLine
 10
260.7228020850347
 20
39.0
 30
-6.25
 11
260.7228020850347
 21
37.0
 31
-6.25
  0
LINE
  5
5198
330
1E
100
AcDbEntity
  8
0
 48
0.27
100
AcDbLine
 10
141.9228020850347
 20
47.5
 30
0.0
 11
247.7228020850347
 21
47.5
 31
0.0
  0
LINE
  5
5199
330
1E
100
AcDbEntity
  8
0
 48
0.27
100
AcDbLine
 10
141.9228020850347
 20
0.0
 30
0.0
 11
247.7228020850347
 21
-0.0000000000000284
 31
0.0
  0
LINE
  5
519A
330
1E
100
AcDbEntity
  8
0
 48
0.27
100
AcDbLine
 10
141.9228020850347
 20
46.0
 30
0.0
 11
247.7228020850347
 21
45.99999999999988
 31
0.0
  0
LINE
  5
519B
330
1E
100
AcDbEntity
  8
0
 48
0.27
100
AcDbLine
 10
141.9228020850347
 20
2.5
 30
0.0
 11
247.7228020850347
 21
2.5
 31
0.0
  0
LINE
  5
519C
330
1E
100
AcDbEntity
  8
0
 48
0.27
100
AcDbLine
 10
247.7228020850347
 20
47.5
 30
0.0
 11
247.7228020850347
 21
0.0
 31
0.0
  0
LINE
  5
519D
330
1E
100
AcDbEntity
  8
中心線
 48
0.27
100
AcDbLine
 10
-0.0000000000248246
 20
23.50000001573293
 30
-12.5
 11
-0.0000000000248246
 21
-12.84411183511001
 31
-12.5
  0
LINE
  5
519E
330
1E
100
AcDbEntity
  8
虛線
 48
0.27
100
AcDbLine
 10
7.000000000024174
 20
21.10000001573296
 30
-12.5
 11
7.000000000024174
 21
9.500000015732965
 31
-12.5
  0
LINE
  5
519F
330
1E
100
AcDbEntity
  8
虛線
 48
0.27
100
AcDbLine
 10
6.999999999926176
 20
21.10000001573296
 30
-12.5
 11
6.999999999926176
 21
9.500000015732965
 31
-12.5
  0
LINE
  5
51A0
330
1E
100
AcDbEntity
  8
虛線
 48
0.27
100
AcDbLine
 10
-6.999999999975825
 20
21.10000001573296
 30
-12.5
 11
-6.999999999975825
 21
9.500000015732965
 31
-12.5
  0
LINE
  5
51A1
330
1E
100
AcDbEntity
  8
虛線
 48
0.27
100
AcDbLine
 10
-7.000000000073823
 20
21.10000001573296
 30
-12.5
 11
-7.000000000073823
 21
9.500000015732965
 31
-12.5
  0
LINE
  5
51A2
330
1E
100
AcDbEntity
  8
0
 48
0.27
100
AcDbLine
 10
-13.6524925793024
 20
12.03249259505953
 30
-12.5
 11
-11.79999999997589
 21
10.18000001573302
 31
-12.5
  0
LINE
  5
51A3
330
1E
100
AcDbEntity
  8
0
 48
0.27
100
AcDbLine
 10
-13.65249259507582
 20
12.03249259513295
 30
-12.5
 11
-11.80000001577586
 21
10.18000001573297
 31
-12.5
  0
LINE
  5
51A4
330
1E
100
AcDbEntity
  8
0
 48
0.27
100
AcDbLine
 10
-13.65249259517382
 20
12.03249259513295
 30
-12.5
 11
-11.80000001587386
 21
10.18000001573297
 31
-12.5
  0
LINE
  5
51A5
330
1E
100
AcDbEntity
  8
0
 48
0.27
100
AcDbLine
 10
-13.6524925794004
 20
12.03249259505948
 30
-12.5
 11
-11.80000000007389
 21
10.18000001573302
 31
-12.5
  0
LINE
  5
51A6
330
1E
100
AcDbEntity
  8
0
 48
0.27
100
AcDbLine
 10
13.65249257935075
 20
12.03249259505948
 30
-12.5
 11
11.80000000002424
 21
10.18000001573302
 31
-12.5
  0
LINE
  5
51A7
330
1E
100
AcDbEntity
  8
0
 48
0.27
100
AcDbLine
 10
13.65249259512417
 20
12.03249259513295
 30
-12.5
 11
11.80000001582421
 21
10.18000001573297
 31
-12.5
  0
LINE
  5
51A8
330
1E
100
AcDbEntity
  8
0
 48
0.27
100
AcDbLine
 10
13.65249259502617
 20
12.03249259513295
 30
-12.5
 11
11.80000001572621
 21
10.18000001573297
 31
-12.5
  0
LINE
  5
51A9
330
1E
100
AcDbEntity
  8
0
 48
0.27
100
AcDbLine
 10
13.65249257925275
 20
12.03249259505953
 30
-12.5
 11
11.79999999992624
 21
10.18000001573302
 31
-12.5
  0
LINE
  5
51AA
330
1E
100
AcDbEntity
  8
0
 48
0.27
100
AcDbLine
 10
-8.749999999975825
 20
-7.499999984267034
 30
-12.5
 11
-15.49999999997582
 21
-7.499999984267034
 31
-12.5
  0
LINE
  5
51AB
330
1E
100
AcDbEntity
  8
0
 48
0.27
100
AcDbLine
 10
-8.750000000073823
 20
-7.499999984267034
 30
-12.5
 11
-15.50000000007382
 21
-7.499999984267034
 31
-12.5
  0
LINE
  5
51AC
330
1E
100
AcDbEntity
  8
0
 48
0.27
100
AcDbLine
 10
-17.00000000007382
 20
-0.5000199842670412
 30
-12.5
 11
-11.80000000007389
 21
4.70000001573301
 31
-12.5
  0
LINE
  5
51AD
330
1E
100
AcDbEntity
  8
0
 48
0.27
100
AcDbLine
 10
-16.99999999997582
 20
-5.999999984267034
 30
-12.5
 11
-15.49999999997582
 21
-7.499999984267034
 31
-12.5
  0
LINE
  5
51AE
330
1E
100
AcDbEntity
  8
0
 48
0.27
100
AcDbLine
 10
-17.00000000007382
 20
-5.999999984266978
 30
-12.5
 11
-15.50000000007382
 21
-7.499999984267034
 31
-12.5
  0
LINE
  5
51AF
330
1E
100
AcDbEntity
  8
0
 48
0.27
100
AcDbLine
 10
-16.99999999997582
 20
-0.5000199842669844
 30
-12.5
 11
-16.99999999997582
 21
-5.999999984267034
 31
-12.5
  0
LINE
  5
51B0
330
1E
100
AcDbEntity
  8
0
 48
0.27
100
AcDbLine
 10
-17.00000000007382
 20
-0.5000199842670412
 30
-12.5
 11
-17.00000000007382
 21
-5.999999984266978
 31
-12.5
  0
LINE
  5
51B1
330
1E
100
AcDbEntity
  8
0
 48
0.27
100
AcDbLine
 10
-11.80000001577586
 20
10.18000001573297
 30
-12.5
 11
-11.80000001577586
 21
4.700000015732982
 31
-12.5
  0
LINE
  5
51B2
330
1E
100
AcDbEntity
  8
0
 48
0.27
100
AcDbLine
 10
-11.80000001587386
 20
10.18000001573297
 30
-12.5
 11
-11.80000001587386
 21
4.700000015732982
 31
-12.5
  0
LINE
  5
51B3
330
1E
100
AcDbEntity
  8
0
 48
0.27
100
AcDbLine
 10
-11.80000000007389
 20
10.18000001573302
 30
-12.5
 11
-11.80000000007389
 21
4.70000001573301
 31
-12.5
  0
LINE
  5
51B4
330
1E
100
AcDbEntity
  8
0
 48
0.27
100
AcDbLine
 10
-11.79999999997589
 20
10.18000001573302
 30
-12.5
 11
-11.79999999997589
 21
4.70000001573301
 31
-12.5
  0
LINE
  5
51B5
330
1E
100
AcDbEntity
  8
虛線
 48
0.27
100
AcDbLine
 10
-6.999999999975825
 20
9.500000015732965
 30
-12.5
 11
7.000000000024174
 21
9.500000015732965
 31
-12.5
  0
LINE
  5
51B6
330
1E
100
AcDbEntity
  8
虛線
 48
0.27
100
AcDbLine
 10
6.999999999926176
 20
9.500000015732965
 30
-12.5
 11
-7.000000000073823
 21
9.500000015732965
 31
-12.5
  0
LINE
  5
51B7
330
1E
100
AcDbEntity
  8
0
 48
0.27
100
AcDbLine
 10
8.250000000024174
 20
-6.999999984267034
 30
-12.5
 11
3.750000000024174
 21
-6.999999984267034
 31
-12.5
  0
LINE
  5
51B8
330
1E
100
AcDbEntity
  8
0
 48
0.27
100
AcDbLine
 10
8.249999999926176
 20
-6.999999984267034
 30
-12.5
 11
3.749999999926176
 21
-6.999999984267034
 31
-12.5
  0
LINE
  5
51B9
330
1E
100
AcDbEntity
  8
虛線
 48
0.27
100
AcDbLine
 10
-4.500000000073823
 20
9.20000001573301
 30
-12.5
 11
-4.500000000073823
 21
-6.299999984266989
 31
-12.5
  0
LINE
  5
51BA
330
1E
100
AcDbEntity
  8
虛線
 48
0.27
100
AcDbLine
 10
4.499999999926176
 20
9.20000001573301
 30
-12.5
 11
4.499999999926176
 21
-6.299999984266989
 31
-12.5
  0
LINE
  5
51BB
330
1E
100
AcDbEntity
  8
虛線
 48
0.27
100
AcDbLine
 10
-4.499999999975825
 20
9.20000001573301
 30
-12.5
 11
-4.499999999975825
 21
-6.299999984266989
 31
-12.5
  0
LINE
  5
51BC
330
1E
100
AcDbEntity
  8
虛線
 48
0.27
100
AcDbLine
 10
4.500000000024174
 20
9.20000001573301
 30
-12.5
 11
4.500000000024174
 21
-6.299999984266989
 31
-12.5
  0
LINE
  5
51BD
330
1E
100
AcDbEntity
  8
虛線
 48
0.27
100
AcDbLine
 10
-4.499999999975825
 20
-6.299999984266989
 30
-12.5
 11
4.500000000024174
 21
-6.299999984266989
 31
-12.5
  0
LINE
  5
51BE
330
1E
100
AcDbEntity
  8
虛線
 48
0.27
100
AcDbLine
 10
4.499999999926176
 20
-6.299999984266989
 30
-12.5
 11
-4.500000000073823
 21
-6.299999984266989
 31
-12.5
  0
LINE
  5
51BF
330
1E
100
AcDbEntity
  8
0
 48
0.27
100
AcDbLine
 10
-3.249999999975825
 20
-7.499999984267034
 30
-12.5
 11
3.250000000024174
 21
-7.499999984267034
 31
-12.5
  0
LINE
  5
51C0
330
1E
100
AcDbEntity
  8
0
 48
0.27
100
AcDbLine
 10
3.249999999926176
 20
-7.499999984267034
 30
-12.5
 11
-3.250000000073823
 21
-7.499999984267034
 31
-12.5
  0
LINE
  5
51C1
330
1E
100
AcDbEntity
  8
0
 48
0.27
100
AcDbLine
 10
-8.249999999975825
 20
-6.999999984267034
 30
-12.5
 11
-3.749999999975825
 21
-6.999999984267034
 31
-12.5
  0
LINE
  5
51C2
330
1E
100
AcDbEntity
  8
0
 48
0.27
100
AcDbLine
 10
-8.250000000073823
 20
-6.999999984267034
 30
-12.5
 11
-3.750000000073823
 21
-6.999999984267034
 31
-12.5
  0
LINE
  5
51C3
330
1E
100
AcDbEntity
  8
0
 48
0.27
100
AcDbLine
 10
-8.749999999975825
 20
-7.499999984267034
 30
-12.5
 11
-8.249999999975825
 21
-6.999999984267034
 31
-12.5
  0
LINE
  5
51C4
330
1E
100
AcDbEntity
  8
0
 48
0.27
100
AcDbLine
 10
-8.750000000073823
 20
-7.499999984267034
 30
-12.5
 11
-8.250000000073823
 21
-6.999999984267034
 31
-12.5
  0
LINE
  5
51C5
330
1E
100
AcDbEntity
  8
虛線
 48
0.27
100
AcDbLine
 10
-5.199999999975871
 20
-6.999998984267037
 30
-12.5
 11
-4.499999999975825
 21
-6.299999984266989
 31
-12.5
  0
LINE
  5
51C6
330
1E
100
AcDbEntity
  8
虛線
 48
0.27
100
AcDbLine
 10
-4.500000000073823
 20
-6.299999984266989
 30
-12.5
 11
-5.200000000073869
 21
-6.999998984267037
 31
-12.5
  0
LINE
  5
51C7
330
1E
100
AcDbEntity
  8
0
 48
0.27
100
AcDbLine
 10
-3.749999999975825
 20
-6.999999984267034
 30
-12.5
 11
-3.249999999975825
 21
-7.499999984267034
 31
-12.5
  0
LINE
  5
51C8
330
1E
100
AcDbEntity
  8
0
 48
0.27
100
AcDbLine
 10
-3.750000000073823
 20
-6.999999984267034
 30
-12.5
 11
-3.250000000073823
 21
-7.499999984267034
 31
-12.5
  0
LINE
  5
51C9
330
1E
100
AcDbEntity
  8
虛線
 48
0.27
100
AcDbLine
 10
4.500000000024174
 20
-6.299999984266989
 30
-12.5
 11
5.200000000024219
 21
-6.999998984267037
 31
-12.5
  0
LINE
  5
51CA
330
1E
100
AcDbEntity
  8
虛線
 48
0.27
100
AcDbLine
 10
5.199999999926221
 20
-6.999998984267037
 30
-12.5
 11
4.499999999926176
 21
-6.299999984266989
 31
-12.5
  0
LINE
  5
51CB
330
1E
100
AcDbEntity
  8
0
 48
0.27
100
AcDbLine
 10
3.750000000024174
 20
-6.999999984267034
 30
-12.5
 11
3.250000000024174
 21
-7.499999984267034
 31
-12.5
  0
LINE
  5
51CC
330
1E
100
AcDbEntity
  8
0
 48
0.27
100
AcDbLine
 10
3.749999999926176
 20
-6.999999984267034
 30
-12.5
 11
3.249999999926176
 21
-7.499999984267034
 31
-12.5
  0
LINE
  5
51CD
330
1E
100
AcDbEntity
  8
虛線
 48
0.27
100
AcDbLine
 10
-4.499999999975825
 20
9.20000001573301
 30
-12.5
 11
4.500000000024174
 21
9.20000001573301
 31
-12.5
  0
LINE
  5
51CE
330
1E
100
AcDbEntity
  8
虛線
 48
0.27
100
AcDbLine
 10
4.499999999926176
 20
9.20000001573301
 30
-12.5
 11
-4.500000000073823
 21
9.20000001573301
 31
-12.5
  0
LINE
  5
51CF
330
1E
100
AcDbEntity
  8
虛線
 48
0.27
100
AcDbLine
 10
-4.799999999975893
 20
9.500000015732965
 30
-12.5
 11
-4.499999999975825
 21
9.20000001573301
 31
-12.5
  0
LINE
  5
51D0
330
1E
100
AcDbEntity
  8
虛線
 48
0.27
100
AcDbLine
 10
-4.800000000073891
 20
9.500000015732965
 30
-12.5
 11
-4.500000000073823
 21
9.20000001573301
 31
-12.5
  0
LINE
  5
51D1
330
1E
100
AcDbEntity
  8
虛線
 48
0.27
100
AcDbLine
 10
4.800000000024242
 20
9.500000015732965
 30
-12.5
 11
4.500000000024174
 21
9.20000001573301
 31
-12.5
  0
LINE
  5
51D2
330
1E
100
AcDbEntity
  8
虛線
 48
0.27
100
AcDbLine
 10
4.799999999926244
 20
9.500000015732965
 30
-12.5
 11
4.499999999926176
 21
9.20000001573301
 31
-12.5
  0
LINE
  5
51D3
330
1E
100
AcDbEntity
  8
0
 48
0.27
100
AcDbLine
 10
16.99999999992617
 20
-0.5000199842669844
 30
-12.5
 11
11.79999999992624
 21
4.70000001573301
 31
-12.5
  0
LINE
  5
51D4
330
1E
100
AcDbEntity
  8
0
 48
0.27
100
AcDbLine
 10
8.750000000024174
 20
-7.499999984267034
 30
-12.5
 11
15.50000000002417
 21
-7.499999984267034
 31
-12.5
  0
LINE
  5
51D5
330
1E
100
AcDbEntity
  8
0
 48
0.27
100
AcDbLine
 10
8.749999999926176
 20
-7.499999984267034
 30
-12.5
 11
15.49999999992617
 21
-7.499999984267034
 31
-12.5
  0
LINE
  5
51D6
330
1E
100
AcDbEntity
  8
0
 48
0.27
100
AcDbLine
 10
8.750000000024174
 20
-7.499999984267034
 30
-12.5
 11
8.250000000024174
 21
-6.999999984267034
 31
-12.5
  0
LINE
  5
51D7
330
1E
100
AcDbEntity
  8
0
 48
0.27
100
AcDbLine
 10
8.749999999926176
 20
-7.499999984267034
 30
-12.5
 11
8.249999999926176
 21
-6.999999984267034
 31
-12.5
  0
LINE
  5
51D8
330
1E
100
AcDbEntity
  8
0
 48
0.27
100
AcDbLine
 10
17.00000000002417
 20
-5.999999984266978
 30
-12.5
 11
15.50000000002417
 21
-7.499999984267034
 31
-12.5
  0
LINE
  5
51D9
330
1E
100
AcDbEntity
  8
0
 48
0.27
100
AcDbLine
 10
16.99999999992617
 20
-5.999999984267034
 30
-12.5
 11
15.49999999992617
 21
-7.499999984267034
 31
-12.5
  0
LINE
  5
51DA
330
1E
100
AcDbEntity
  8
0
 48
0.27
100
AcDbLine
 10
17.00000000002417
 20
-0.5000199842670412
 30
-12.5
 11
17.00000000002417
 21
-5.999999984266978
 31
-12.5
  0
LINE
  5
51DB
330
1E
100
AcDbEntity
  8
0
 48
0.27
100
AcDbLine
 10
16.99999999992617
 20
-0.5000199842669844
 30
-12.5
 11
16.99999999992617
 21
-5.999999984267034
 31
-12.5
  0
LINE
  5
51DC
330
1E
100
AcDbEntity
  8
0
 48
0.27
100
AcDbLine
 10
11.80000001582421
 20
10.18000001573297
 30
-12.5
 11
11.80000001582421
 21
4.700000015732982
 31
-12.5
  0
LINE
  5
51DD
330
1E
100
AcDbEntity
  8
0
 48
0.27
100
AcDbLine
 10
11.80000001572621
 20
10.18000001573297
 30
-12.5
 11
11.80000001572621
 21
4.700000015732982
 31
-12.5
  0
LINE
  5
51DE
330
1E
100
AcDbEntity
  8
0
 48
0.27
100
AcDbLine
 10
11.79999999992624
 20
10.18000001573302
 30
-12.5
 11
11.79999999992624
 21
4.70000001573301
 31
-12.5
  0
LINE
  5
51DF
330
1E
100
AcDbEntity
  8
0
 48
0.27
100
AcDbLine
 10
11.80000000002424
 20
10.18000001573302
 30
-12.5
 11
11.80000000002424
 21
4.70000001573301
 31
-12.5
  0
LINE
  5
51E0
330
1E
100
AcDbEntity
  8
0
 48
0.27
100
AcDbLine
 10
-13.10999999997584
 20
21.50000001573293
 30
-12.5
 11
13.11000000002418
 21
21.50000001573293
 31
-12.5
  0
LINE
  5
51E1
330
1E
100
AcDbEntity
  8
0
 48
0.27
100
AcDbLine
 10
13.11000001582415
 20
21.50000001573293
 30
-12.5
 11
-13.11000001577586
 21
21.50000001573293
 31
-12.5
  0
LINE
  5
51E2
330
1E
100
AcDbEntity
  8
0
 48
0.27
100
AcDbLine
 10
-13.11000001587383
 20
21.50000001573293
 30
-12.5
 11
13.11000001572621
 21
21.50000001573293
 31
-12.5
  0
LINE
  5
51E3
330
1E
100
AcDbEntity
  8
0
 48
0.27
100
AcDbLine
 10
13.10999999992619
 20
21.50000001573293
 30
-12.5
 11
-13.11000000007383
 21
21.50000001573293
 31
-12.5
  0
LINE
  5
51E4
330
1E
100
AcDbEntity
  8
0
 48
0.27
100
AcDbLine
 10
-16.99999999997582
 20
17.61000001573298
 30
-12.5
 11
-16.45391100511362
 21
18.15608901059518
 31
-12.5
  0
LINE
  5
51E5
330
1E
100
AcDbEntity
  8
0
 48
0.27
100
AcDbLine
 10
-17.00000001577585
 20
17.61000001573295
 30
-12.5
 11
-16.45391102087585
 21
18.15608901063295
 31
-12.5
  0
LINE
  5
51E6
330
1E
100
AcDbEntity
  8
0
 48
0.27
100
AcDbLine
 10
-17.00000001587385
 20
17.61000001573295
 30
-12.5
 11
-16.45391102097384
 21
18.15608901063295
 31
-12.5
  0
LINE
  5
51E7
330
1E
100
AcDbEntity
  8
0
 48
0.27
100
AcDbLine
 10
-17.00000000007382
 20
17.61000001573298
 30
-12.5
 11
-16.45391100521162
 21
18.15608901059518
 31
-12.5
  0
ARC
  5
51E8
330
1E
100
AcDbEntity
  8
0
 48
0.27
100
AcDbCircle
 10
-16.86757359310461
 20
21.36957360886178
 30
-12.5
 40
3.24
100
AcDbArc
 50
277.3351813687925
 51
352.6648186312073
  0
ARC
  5
51E9
330
1E
100
AcDbEntity
  8
0
 48
0.27
100
AcDbCircle
 10
-16.86757360887587
 20
21.36957360893295
 30
-12.5
 40
3.24
100
AcDbArc
 50
277.335181368799
 51
352.664818631201
  0
ARC
  5
51EA
330
1E
100
AcDbEntity
  8
0
 48
0.27
100
AcDbCircle
 10
-16.86757360897387
 20
21.36957360893295
 30
-12.5
 40
3.24
100
AcDbArc
 50
277.335181368799
 51
352.664818631201
  0
ARC
  5
51EB
330
1E
100
AcDbEntity
  8
0
 48
0.27
100
AcDbCircle
 10
-16.8675735932026
 20
21.36957360886178
 30
-12.5
 40
3.24
100
AcDbArc
 50
277.3351813687925
 51
352.6648186312073
  0
ARC
  5
51EC
330
1E
100
AcDbEntity
  8
0
 48
0.27
100
AcDbCircle
 10
-16.86757359310461
 20
11.63142642260414
 30
-12.5
 40
3.24
100
AcDbArc
 50
7.110645891652419
 51
82.88935410834389
  0
ARC
  5
51ED
330
1E
100
AcDbEntity
  8
0
 48
0.27
100
AcDbCircle
 10
-16.86757360887587
 20
11.63142642263294
 30
-12.5
 40
3.24
100
AcDbArc
 50
7.110645891698572
 51
82.88935410830147
  0
ARC
  5
51EE
330
1E
100
AcDbEntity
  8
0
 48
0.27
100
AcDbCircle
 10
-16.86757360897387
 20
11.63142642263294
 30
-12.5
 40
3.24
100
AcDbArc
 50
7.110645891698572
 51
82.88935410830147
  0
ARC
  5
51EF
330
1E
100
AcDbEntity
  8
0
 48
0.27
100
AcDbCircle
 10
-16.86757359320272
 20
11.63142642260414
 30
-12.5
 40
3.24
100
AcDbArc
 50
7.110645891652419
 51
82.88935410834389
  0
LINE
  5
51F0
330
1E
100
AcDbEntity
  8
0
 48
0.27
100
AcDbLine
 10
-16.99999999997582
 20
17.61000001573298
 30
-12.5
 11
-16.99999999997582
 21
15.38000001573296
 31
-12.5
  0
LINE
  5
51F1
330
1E
100
AcDbEntity
  8
0
 48
0.27
100
AcDbLine
 10
-17.00000001577585
 20
17.61000001573295
 30
-12.5
 11
-17.00000001577585
 21
15.38000001573296
 31
-12.5
  0
LINE
  5
51F2
330
1E
100
AcDbEntity
  8
0
 48
0.27
100
AcDbLine
 10
-17.00000001587385
 20
17.61000001573295
 30
-12.5
 11
-17.00000001587385
 21
15.38000001573296
 31
-12.5
  0
LINE
  5
51F3
330
1E
100
AcDbEntity
  8
0
 48
0.27
100
AcDbLine
 10
-17.00000000007382
 20
17.61000001573298
 30
-12.5
 11
-17.00000000007382
 21
15.38000001573296
 31
-12.5
  0
LINE
  5
51F4
330
1E
100
AcDbEntity
  8
0
 48
0.27
100
AcDbLine
 10
-16.99999999997582
 20
15.38000001573296
 30
-12.5
 11
-16.46650742064927
 21
14.84650743640641
 31
-12.5
  0
LINE
  5
51F5
330
1E
100
AcDbEntity
  8
0
 48
0.27
100
AcDbLine
 10
-17.00000001577585
 20
15.38000001573296
 30
-12.5
 11
-16.46650743647585
 21
14.84650743643295
 31
-12.5
  0
LINE
  5
51F6
330
1E
100
AcDbEntity
  8
0
 48
0.27
100
AcDbLine
 10
-17.00000001587385
 20
15.38000001573296
 30
-12.5
 11
-16.46650743657384
 21
14.84650743643295
 31
-12.5
  0
LINE
  5
51F7
330
1E
100
AcDbEntity
  8
0
 48
0.27
100
AcDbLine
 10
-17.00000000007382
 20
15.38000001573296
 30
-12.5
 11
-16.46650742074727
 21
14.84650743640641
 31
-12.5
  0
LINE
  5
51F8
330
1E
100
AcDbEntity
  8
0
 48
0.27
100
AcDbLine
 10
-13.65408899483808
 20
20.9559110208708
 30
-12.5
 11
-13.10999999997584
 21
21.50000001573293
 31
-12.5
  0
LINE
  5
51F9
330
1E
100
AcDbEntity
  8
0
 48
0.27
100
AcDbLine
 10
-13.65408901067586
 20
20.95591102093293
 30
-12.5
 11
-13.11000001577586
 21
21.50000001573293
 31
-12.5
  0
LINE
  5
51FA
330
1E
100
AcDbEntity
  8
0
 48
0.27
100
AcDbLine
 10
-13.65408901077385
 20
20.95591102093293
 30
-12.5
 11
-13.11000001587386
 21
21.50000001573293
 31
-12.5
  0
LINE
  5
51FB
330
1E
100
AcDbEntity
  8
0
 48
0.27
100
AcDbLine
 10
-13.65408899493597
 20
20.9559110208708
 30
-12.5
 11
-13.11000000007383
 21
21.50000001573293
 31
-12.5
  0
LINE
  5
51FC
330
1E
100
AcDbEntity
  8
虛線
 48
0.27
100
AcDbLine
 10
7.000000000024174
 20
21.10000001573296
 30
-12.5
 11
-6.999999999975825
 21
21.10000001573296
 31
-12.5
  0
LINE
  5
51FD
330
1E
100
AcDbEntity
  8
虛線
 48
0.27
100
AcDbLine
 10
-7.000000000073823
 20
21.10000001573296
 30
-12.5
 11
6.999999999926176
 21
21.10000001573296
 31
-12.5
  0
LINE
  5
51FE
330
1E
100
AcDbEntity
  8
虛線
 48
0.27
100
AcDbLine
 10
-6.999999999975825
 20
21.10000001573296
 30
-12.5
 11
-7.230940107651731
 21
21.50000001573293
 31
-12.5
  0
LINE
  5
51FF
330
1E
100
AcDbEntity
  8
虛線
 48
0.27
100
AcDbLine
 10
-7.000000000073823
 20
21.10000001573296
 30
-12.5
 11
-7.230940107749729
 21
21.50000001573293
 31
-12.5
  0
ARC
  5
5200
330
1E
100
AcDbEntity
  8
0
 48
0.27
100
AcDbCircle
 10
16.86757359315306
 20
11.63142642260414
 30
-12.5
 40
3.24
100
AcDbArc
 50
97.11064589165609
 51
172.8893541083476
  0
ARC
  5
5201
330
1E
100
AcDbEntity
  8
0
 48
0.27
100
AcDbCircle
 10
16.86757360892421
 20
11.63142642263294
 30
-12.5
 40
3.24
100
AcDbArc
 50
97.11064589169852
 51
172.8893541083014
  0
ARC
  5
5202
330
1E
100
AcDbEntity
  8
0
 48
0.27
100
AcDbCircle
 10
16.86757360882622
 20
11.63142642263294
 30
-12.5
 40
3.24
100
AcDbArc
 50
97.11064589169852
 51
172.8893541083014
  0
ARC
  5
5203
330
1E
100
AcDbEntity
  8
0
 48
0.27
100
AcDbCircle
 10
16.86757359305495
 20
11.63142642260414
 30
-12.5
 40
3.24
100
AcDbArc
 50
97.11064589165609
 51
172.8893541083476
  0
ARC
  5
5204
330
1E
100
AcDbEntity
  8
0
 48
0.27
100
AcDbCircle
 10
16.86757359315295
 20
21.36957360886178
 30
-12.5
 40
3.24
100
AcDbArc
 50
187.3351813687926
 51
262.6648186312074
  0
ARC
  5
5205
330
1E
100
AcDbEntity
  8
0
 48
0.27
100
AcDbCircle
 10
16.86757360892421
 20
21.36957360893295
 30
-12.5
 40
3.24
100
AcDbArc
 50
187.335181368799
 51
262.6648186312009
  0
ARC
  5
5206
330
1E
100
AcDbEntity
  8
0
 48
0.27
100
AcDbCircle
 10
16.86757360882622
 20
21.36957360893295
 30
-12.5
 40
3.24
100
AcDbArc
 50
187.335181368799
 51
262.6648186312009
  0
ARC
  5
5207
330
1E
100
AcDbEntity
  8
0
 48
0.27
100
AcDbCircle
 10
16.86757359305495
 20
21.36957360886178
 30
-12.5
 40
3.24
100
AcDbArc
 50
187.3351813687926
 51
262.6648186312074
  0
LINE
  5
5208
330
1E
100
AcDbEntity
  8
虛線
 48
0.27
100
AcDbLine
 10
7.000000000024174
 20
21.10000001573296
 30
-12.5
 11
7.23094010770008
 21
21.50000001573293
 31
-12.5
  0
LINE
  5
5209
330
1E
100
AcDbEntity
  8
虛線
 48
0.27
100
AcDbLine
 10
6.999999999926176
 20
21.10000001573296
 30
-12.5
 11
7.230940107602082
 21
21.50000001573293
 31
-12.5
  0
LINE
  5
520A
330
1E
100
AcDbEntity
  8
0
 48
0.27
100
AcDbLine
 10
13.65408899488632
 20
20.9559110208708
 30
-12.5
 11
13.11000000002418
 21
21.50000001573293
 31
-12.5
  0
LINE
  5
520B
330
1E
100
AcDbEntity
  8
0
 48
0.27
100
AcDbLine
 10
13.6540890107242
 20
20.95591102093293
 30
-12.5
 11
13.11000001582421
 21
21.50000001573293
 31
-12.5
  0
LINE
  5
520C
330
1E
100
AcDbEntity
  8
0
 48
0.27
100
AcDbLine
 10
13.65408901062621
 20
20.95591102093293
 30
-12.5
 11
13.11000001572621
 21
21.50000001573293
 31
-12.5
  0
LINE
  5
520D
330
1E
100
AcDbEntity
  8
0
 48
0.27
100
AcDbLine
 10
13.65408899478844
 20
20.9559110208708
 30
-12.5
 11
13.10999999992619
 21
21.50000001573293
 31
-12.5
  0
LINE
  5
520E
330
1E
100
AcDbEntity
  8
0
 48
0.27
100
AcDbLine
 10
17.00000000002417
 20
17.61000001573298
 30
-12.5
 11
16.45391100516197
 21
18.15608901059518
 31
-12.5
  0
LINE
  5
520F
330
1E
100
AcDbEntity
  8
0
 48
0.27
100
AcDbLine
 10
17.00000001582419
 20
17.61000001573295
 30
-12.5
 11
16.45391102092419
 21
18.15608901063295
 31
-12.5
  0
LINE
  5
5210
330
1E
100
AcDbEntity
  8
0
 48
0.27
100
AcDbLine
 10
17.0000000157262
 20
17.61000001573295
 30
-12.5
 11
16.45391102082619
 21
18.15608901063295
 31
-12.5
  0
LINE
  5
5211
330
1E
100
AcDbEntity
  8
0
 48
0.27
100
AcDbLine
 10
16.99999999992617
 20
17.61000001573298
 30
-12.5
 11
16.45391100506397
 21
18.15608901059518
 31
-12.5
  0
LINE
  5
5212
330
1E
100
AcDbEntity
  8
0
 48
0.27
100
AcDbLine
 10
17.00000000002417
 20
17.61000001573298
 30
-12.5
 11
17.00000000002417
 21
15.38000001573296
 31
-12.5
  0
LINE
  5
5213
330
1E
100
AcDbEntity
  8
0
 48
0.27
100
AcDbLine
 10
17.00000001582419
 20
17.61000001573295
 30
-12.5
 11
17.00000001582419
 21
15.38000001573296
 31
-12.5
  0
LINE
  5
5214
330
1E
100
AcDbEntity
  8
0
 48
0.27
100
AcDbLine
 10
17.0000000157262
 20
17.61000001573295
 30
-12.5
 11
17.0000000157262
 21
15.38000001573296
 31
-12.5
  0
LINE
  5
5215
330
1E
100
AcDbEntity
  8
0
 48
0.27
100
AcDbLine
 10
16.99999999992617
 20
17.61000001573298
 30
-12.5
 11
16.99999999992617
 21
15.38000001573296
 31
-12.5
  0
LINE
  5
5216
330
1E
100
AcDbEntity
  8
0
 48
0.27
100
AcDbLine
 10
17.00000000002417
 20
15.38000001573296
 30
-12.5
 11
16.46650742069762
 21
14.84650743640641
 31
-12.5
  0
LINE
  5
5217
330
1E
100
AcDbEntity
  8
0
 48
0.27
100
AcDbLine
 10
17.00000001582419
 20
15.38000001573296
 30
-12.5
 11
16.46650743652419
 21
14.84650743643295
 31
-12.5
  0
LINE
  5
5218
330
1E
100
AcDbEntity
  8
0
 48
0.27
100
AcDbLine
 10
17.0000000157262
 20
15.38000001573296
 30
-12.5
 11
16.46650743642619
 21
14.84650743643295
 31
-12.5
  0
LINE
  5
5219
330
1E
100
AcDbEntity
  8
0
 48
0.27
100
AcDbLine
 10
16.99999999992617
 20
15.38000001573296
 30
-12.5
 11
16.46650742059962
 21
14.84650743640641
 31
-12.5
  0
LINE
  5
521A
330
1E
100
AcDbEntity
  8
中心線
 48
0.27
100
AcDbLine
 10
0.0000000022539712
 20
50.5000000000001
 30
-0.0000000000000018
 11
0.0000000022539865
 21
17.50000001573296
 31
-0.0000000000000018
  0
LINE
  5
521B
330
1E
100
AcDbEntity
  8
0
 48
0.27
100
AcDbLine
 10
34.50000000225402
 20
24.00000000000015
 30
-0.0000000000000018
 11
34.50000000225402
 21
2.500000000000156
 31
-0.0000000000000018
  0
LINE
  5
521C
330
1E
100
AcDbEntity
  8
0
 48
0.27
100
AcDbLine
 10
33.99999999997551
 20
1.999999999932967
 30
-12.5
 11
33.99999999997551
 21
36.99999999993297
 31
-12.5
  0
LINE
  5
521D
330
1E
100
AcDbEntity
  8
0
 48
0.27
100
AcDbLine
 10
-34.49999999774597
 20
36.79999999824009
 30
-0.0000000000000018
 11
-34.49999999774597
 21
2.500000000000156
 31
-0.0000000000000018
  0
LINE
  5
521E
330
1E
100
AcDbEntity
  8
0
 48
0.27
100
AcDbLine
 10
11.79999999997558
 20
10.18000001573302
 30
-12.5
 11
11.79999999997558
 21
4.70000001573301
 31
-12.5
  0
LINE
  5
521F
330
1E
100
AcDbEntity
  8
0
 48
0.27
100
AcDbLine
 10
13.17370001577556
 20
9.610994845122817
 30
-12.5
 11
13.17370001577556
 21
5.269003638878402
 31
-12.5
  0
LINE
  5
5220
330
1E
100
AcDbEntity
  8
0
 48
0.27
100
AcDbLine
 10
11.80000001577555
 20
10.18000001573297
 30
-12.5
 11
11.80000001577555
 21
4.700000015732982
 31
-12.5
  0
LINE
  5
5221
330
1E
100
AcDbEntity
  8
0
 48
0.27
100
AcDbLine
 10
14.03970001577561
 20
9.252285900121464
 30
-12.5
 11
13.17370001577556
 21
9.610994845122817
 31
-12.5
  0
LINE
  5
5222
330
1E
100
AcDbEntity
  8
0
 48
0.27
100
AcDbLine
 10
15.75356748123205
 20
10.96615336567045
 30
-12.5
 11
14.03970001577561
 21
9.252285900121464
 31
-12.5
  0
LINE
  5
5223
330
1E
100
AcDbEntity
  8
0
 48
0.27
100
AcDbLine
 10
-11.80000000002455
 20
10.18000001573302
 30
-12.5
 11
-11.80000000002455
 21
4.70000001573301
 31
-12.5
  0
LINE
  5
5224
330
1E
100
AcDbEntity
  8
0
 48
0.27
100
AcDbLine
 10
-11.80000001582452
 20
10.18000001573297
 30
-12.5
 11
-11.80000001582452
 21
4.700000015732982
 31
-12.5
  0
LINE
  5
5225
330
1E
100
AcDbEntity
  8
0
 48
0.27
100
AcDbLine
 10
-13.17370001582453
 20
9.610994845122817
 30
-12.5
 11
-13.17370001582453
 21
5.269003638878402
 31
-12.5
  0
LINE
  5
5226
330
1E
100
AcDbEntity
  8
0
 48
0.27
100
AcDbLine
 10
-14.03970001582457
 20
9.252285900121464
 30
-12.5
 11
-13.17370001582453
 21
9.610994845122817
 31
-12.5
  0
LINE
  5
5227
330
1E
100
AcDbEntity
  8
0
 48
0.27
100
AcDbLine
 10
-15.75356748128102
 20
10.96615336567045
 30
-12.5
 11
-14.03970001582457
 21
9.252285900121464
 31
-12.5
  0
LINE
  5
5228
330
1E
100
AcDbEntity
  8
0
 48
0.27
100
AcDbLine
 10
-34.00000000002448
 20
1.999999999932967
 30
-12.5
 11
-34.00000000002448
 21
36.99999999993297
 31
-12.5
  0
LINE
  5
5229
330
1E
100
AcDbEntity
  8
0
 48
0.27
100
AcDbLine
 10
16.49998168548417
 20
0.000000269171764
 30
-12.5
 11
32.00000038077071
 21
0.000000522093714
 31
-12.5
  0
LINE
  5
522A
330
1E
100
AcDbEntity
  8
0
 48
0.27
100
AcDbLine
 10
-16.49998168553314
 20
0.000000269171764
 30
-12.5
 11
-32.00000038081968
 21
0.000000522093714
 31
-12.5
  0
LINE
  5
522B
330
1E
100
AcDbEntity
  8
0
 48
0.27
100
AcDbLine
 10
-34.00000000002448
 20
1.999999999932967
 30
-12.5
 11
-32.00000000002448
 21
-0.0000000000670326
 31
-12.5
  0
LINE
  5
522C
330
1E
100
AcDbEntity
  8
0
 48
0.27
100
AcDbLine
 10
-13.17370001582453
 20
5.269003638878402
 30
-12.5
 11
-11.80000001582452
 21
4.700000015732982
 31
-12.5
  0
LINE
  5
522D
330
1E
100
AcDbEntity
  8
0
 48
0.27
100
AcDbLine
 10
-16.49998168553314
 20
0.000000269171764
 30
-12.5
 11
-11.80000001582452
 21
4.700000015732982
 31
-12.5
  0
LINE
  5
522E
330
1E
100
AcDbEntity
  8
0
 48
0.27
100
AcDbLine
 10
-17.38155832729147
 20
2.28584044356792
 30
-12.5
 11
-14.03970001582455
 21
5.627711608336014
 31
-12.5
  0
LINE
  5
522F
330
1E
100
AcDbEntity
  8
0
 48
0.27
100
AcDbLine
 10
-18.4426830885116
 20
0.0000003008718323
 30
-12.5
 11
-13.17370001582453
 21
5.269003638878402
 31
-12.5
  0
ARC
  5
5230
330
1E
100
AcDbEntity
  8
0
 48
0.27
100
AcDbCircle
 10
-20.00000000002448
 20
3.749999999932967
 30
-12.5
 40
3.0
100
AcDbArc
 50
299.2129235960597
 51
330.7872967719008
  0
LINE
  5
5231
330
1E
100
AcDbEntity
  8
0
 48
0.27
100
AcDbLine
 10
-19.66738965834442
 20
0.0000003208559889
 30
-12.5
 11
-18.53583037276011
 21
1.131563958591399
 31
-12.5
  0
LINE
  5
5232
330
1E
100
AcDbEntity
  8
0
 48
0.27
100
AcDbLine
 10
-14.03970001582457
 20
9.252285900121464
 30
-12.5
 11
-14.03970001582455
 21
5.627711608336014
 31
-12.5
  0
LINE
  5
5233
330
1E
100
AcDbEntity
  8
0
 48
0.27
100
AcDbLine
 10
-14.03970001582455
 20
5.627711608336014
 30
-12.5
 11
-13.17370001582453
 21
5.269003638878402
 31
-12.5
  0
LINE
  5
5234
330
1E
100
AcDbEntity
  8
0
 48
0.27
100
AcDbLine
 10
13.17370001577556
 20
5.269003638878402
 30
-12.5
 11
11.80000001577555
 21
4.700000015732982
 31
-12.5
  0
LINE
  5
5235
330
1E
100
AcDbEntity
  8
0
 48
0.27
100
AcDbLine
 10
16.49998168548417
 20
0.000000269171764
 30
-12.5
 11
11.80000001577555
 21
4.700000015732982
 31
-12.5
  0
LINE
  5
5236
330
1E
100
AcDbEntity
  8
0
 48
0.27
100
AcDbLine
 10
17.3815583272425
 20
2.28584044356792
 30
-12.5
 11
14.03970001577558
 21
5.627711608336014
 31
-12.5
  0
LINE
  5
5237
330
1E
100
AcDbEntity
  8
0
 48
0.27
100
AcDbLine
 10
18.44268308846262
 20
0.0000003008718323
 30
-12.5
 11
13.17370001577556
 21
5.269003638878402
 31
-12.5
  0
ARC
  5
5238
330
1E
100
AcDbEntity
  8
0
 48
0.27
100
AcDbCircle
 10
20.00000000453248
 20
3.749999999932967
 30
-12.5
 40
3.0
100
AcDbArc
 50
209.2127032280991
 51
240.7870764039402
  0
LINE
  5
5239
330
1E
100
AcDbEntity
  8
0
 48
0.27
100
AcDbLine
 10
19.66738965829544
 20
0.0000003208559889
 30
-12.5
 11
18.53583037271114
 21
1.131563958591399
 31
-12.5
  0
LINE
  5
523A
330
1E
100
AcDbEntity
  8
0
 48
0.27
100
AcDbLine
 10
14.03970001577561
 20
9.252285900121464
 30
-12.5
 11
14.03970001577558
 21
5.627711608336014
 31
-12.5
  0
LINE
  5
523B
330
1E
100
AcDbEntity
  8
0
 48
0.27
100
AcDbLine
 10
14.03970001577558
 20
5.627711608336014
 30
-12.5
 11
13.17370001577556
 21
5.269003638878402
 31
-12.5
  0
LINE
  5
523C
330
1E
100
AcDbEntity
  8
0
 48
0.27
100
AcDbLine
 10
33.99999999997551
 20
1.999999999932967
 30
-12.5
 11
31.99999999997551
 21
-0.0000000000670326
 31
-12.5
  0
LINE
  5
523D
330
1E
100
AcDbEntity
  8
0
 48
0.27
100
AcDbLine
 10
24.00000000002462
 20
0.0000000000001563
 30
-0.0000000000000018
 11
32.00000000225402
 21
0.0000000000001563
 31
-0.0000000000000018
  0
LINE
  5
523E
330
1E
100
AcDbEntity
  8
0
 48
0.27
100
AcDbLine
 10
-23.99999999551635
 20
0.0000000000001563
 30
-0.0000000000000018
 11
-31.99999999774597
 21
0.0000000000001563
 31
-0.0000000000000018
  0
LINE
  5
523F
330
1E
100
AcDbEntity
  8
0
 48
0.27
100
AcDbLine
 10
-31.99999999774597
 20
0.0000000000001563
 30
-0.0000000000000018
 11
-34.49999999774597
 21
2.500000000000156
 31
-0.0000000000000018
  0
LINE
  5
5240
330
1E
100
AcDbEntity
  8
0
 48
0.27
100
AcDbLine
 10
34.50000000225402
 20
2.500000000000156
 30
-0.0000000000000018
 11
32.00000000225402
 21
0.0000000000001563
 31
-0.0000000000000018
  0
LINE
  5
5241
330
1E
100
AcDbEntity
  8
0
 48
0.27
100
AcDbLine
 10
31.99999999997551
 20
38.99999999993296
 30
-12.5
 11
-32.00000000002448
 21
38.99999999993296
 31
-12.5
  0
LINE
  5
5243
330
1E
100
AcDbEntity
  8
0
 48
0.27
100
AcDbLine
 10
13.10999999997553
 20
21.50000001573296
 30
-12.5
 11
-13.11000000002449
 21
21.50000001573296
 31
-12.5
  0
LINE
  5
5244
330
1E
100
AcDbEntity
  8
0
 48
0.27
100
AcDbLine
 10
-14.03771413135099
 20
23.73970001573296
 30
-12.5
 11
14.03771413130199
 21
23.73970001573302
 31
-12.5
  0
LINE
  5
5245
330
1E
100
AcDbEntity
  8
0
 48
0.27
100
AcDbLine
 10
-13.67900518638246
 20
22.87370001573298
 30
-12.5
 11
13.6790051863335
 21
22.87370001573298
 31
-12.5
  0
LINE
  5
5246
330
1E
100
AcDbEntity
  8
0
 48
0.27
100
AcDbLine
 10
-13.11000001582449
 20
21.50000001573296
 30
-12.5
 11
13.11000001577555
 21
21.50000001573296
 31
-12.5
  0
ARC
  5
5248
330
1E
100
AcDbEntity
  8
0
 48
0.27
100
AcDbCircle
 10
-16.86757360892453
 20
21.36957360893295
 30
-12.5
 40
1.0003
100
AcDbArc
 50
258.3631432639153
 51
11.63685674236762
  0
LINE
  5
5249
330
1E
100
AcDbEntity
  8
0
 48
0.27
100
AcDbLine
 10
-15.00937936377776
 20
21.54332583858213
 30
-12.5
 11
-13.65408901072451
 21
20.95591102093293
 31
-12.5
  0
ARC
  5
524A
330
1E
100
AcDbEntity
  8
0
 48
0.27
100
AcDbCircle
 10
-16.86757360892453
 20
21.36957360893295
 30
-12.5
 40
1.8663
100
AcDbArc
 50
264.6580361333634
 51
5.341963871443408
  0
LINE
  5
524B
330
1E
100
AcDbEntity
  8
0
 48
0.27
100
AcDbLine
 10
-13.65408899488663
 20
20.95591102087082
 30
-12.5
 11
-13.11000000002449
 21
21.50000001573296
 31
-12.5
  0
LINE
  5
524C
330
1E
100
AcDbEntity
  8
0
 48
0.27
100
AcDbLine
 10
-13.65408901072451
 20
20.95591102093293
 30
-12.5
 11
-13.11000001582452
 21
21.50000001573296
 31
-12.5
  0
LINE
  5
524D
330
1E
100
AcDbEntity
  8
0
 48
0.27
100
AcDbLine
 10
-13.17370001582453
 20
9.610994845122817
 30
-12.5
 11
-11.80000001582452
 21
10.18000001573297
 31
-12.5
  0
LINE
  5
524E
330
1E
100
AcDbEntity
  8
0
 48
0.27
100
AcDbLine
 10
-13.65249257935106
 20
12.03249259505942
 30
-12.5
 11
-11.80000000002455
 21
10.18000001573302
 31
-12.5
  0
LINE
  5
524F
330
1E
100
AcDbEntity
  8
0
 48
0.27
100
AcDbLine
 10
-13.65249259512448
 20
12.03249259513295
 30
-12.5
 11
-11.80000001582452
 21
10.18000001573297
 31
-12.5
  0
LINE
  5
5250
330
1E
100
AcDbEntity
  8
0
 48
0.27
100
AcDbLine
 10
-17.00000000002448
 20
15.38000001573296
 30
-12.5
 11
-16.46650742069793
 21
14.84650743640641
 31
-12.5
  0
LINE
  5
5251
330
1E
100
AcDbEntity
  8
0
 48
0.27
100
AcDbLine
 10
-17.00000001582451
 20
15.38000001573296
 30
-12.5
 11
-16.4665074365245
 21
14.84650743643295
 31
-12.5
  0
ARC
  5
5252
330
1E
100
AcDbEntity
  8
0
 48
0.27
100
AcDbCircle
 10
-16.86757359315338
 20
11.63142642260409
 30
-12.5
 40
3.24
100
AcDbArc
 50
7.110645891652625
 51
82.8893541083441
  0
ARC
  5
5253
330
1E
100
AcDbEntity
  8
0
 48
0.27
100
AcDbCircle
 10
-16.86757360892453
 20
11.63142642263294
 30
-12.5
 40
3.24
100
AcDbArc
 50
7.110645891700214
 51
82.88935410830147
  0
LINE
  5
5254
330
1E
100
AcDbEntity
  8
0
 48
0.27
100
AcDbLine
 10
-18.37370001582452
 20
18.17900518636484
 30
-12.5
 11
-18.37370001582452
 21
14.81099484510103
 31
-12.5
  0
LINE
  5
5255
330
1E
100
AcDbEntity
  8
0
 48
0.27
100
AcDbLine
 10
-19.23970001582456
 20
18.53771413137993
 30
-12.5
 11
-19.23970001582453
 21
14.45228590008598
 31
-12.5
  0
LINE
  5
5256
330
1E
100
AcDbEntity
  8
0
 48
0.27
100
AcDbLine
 10
-18.37370001582452
 20
14.81099484510103
 30
-12.5
 11
-17.00000001582451
 21
15.38000001573296
 31
-12.5
  0
ARC
  5
5257
330
1E
100
AcDbEntity
  8
0
 48
0.27
100
AcDbCircle
 10
-16.86757360892453
 20
11.63142642263294
 30
-12.5
 40
1.0003
100
AcDbArc
 50
348.0082083486939
 51
101.9917916554315
  0
ARC
  5
5258
330
1E
100
AcDbEntity
  8
0
 48
0.27
100
AcDbCircle
 10
-16.86757360892453
 20
11.63142642263294
 30
-12.5
 40
1.8663
100
AcDbArc
 50
354.3485551779203
 51
95.65144482547513
  0
LINE
  5
5259
330
1E
100
AcDbEntity
  8
0
 48
0.27
100
AcDbLine
 10
-16.4665074365245
 20
14.84650743643295
 30
-12.5
 11
-17.05136021999256
 21
13.4886550492691
 31
-12.5
  0
LINE
  5
525A
330
1E
100
AcDbEntity
  8
0
 48
0.27
100
AcDbLine
 10
-17.05136021999142
 20
13.48865504926796
 30
-12.5
 11
-17.07540749706988
 21
12.60989725252015
 31
-12.5
  0
LINE
  5
525B
330
1E
100
AcDbEntity
  8
0
 48
0.27
100
AcDbLine
 10
-19.23970001582453
 20
14.45228590008598
 30
-12.5
 11
-18.37370001582452
 21
14.81099484510103
 31
-12.5
  0
LINE
  5
525C
330
1E
100
AcDbEntity
  8
0
 48
0.27
100
AcDbLine
 10
-19.23970001582453
 20
14.45228590008598
 30
-12.5
 11
-17.53284666600218
 21
12.74543255026357
 31
-12.5
  0
ARC
  5
525D
330
1E
100
AcDbEntity
  8
0
 48
0.27
100
AcDbCircle
 10
-17.17929327540893
 20
13.09898594085682
 30
-12.5
 40
0.5
100
AcDbArc
 50
224.9999999999999
 51
281.9917916554295
  0
LINE
  5
525E
330
1E
100
AcDbEntity
  8
0
 48
0.27
100
AcDbLine
 10
-17.53284666600221
 20
12.74543255026354
 30
-12.5
 11
-17.05136021999142
 21
13.48865504926796
 31
-12.5
  0
LINE
  5
525F
330
1E
100
AcDbEntity
  8
0
 48
0.27
100
AcDbLine
 10
-18.37370001582452
 20
14.81099484510103
 30
-12.5
 11
-17.05136021999256
 21
13.4886550492691
 31
-12.5
  0
ARC
  5
5260
330
1E
100
AcDbEntity
  8
0
 48
0.27
100
AcDbCircle
 10
-15.40001409067819
 20
11.31970675625417
 30
-12.5
 40
0.5
100
AcDbArc
 50
168.0082083486922
 51
224.9999999984523
  0
LINE
  5
5261
330
1E
100
AcDbEntity
  8
0
 48
0.27
100
AcDbLine
 10
-15.01034498227748
 20
11.44763981167493
 30
-12.5
 11
-13.65249259512826
 21
12.03249259513673
 31
-12.5
  0
LINE
  5
5262
330
1E
100
AcDbEntity
  8
0
 48
0.27
100
AcDbLine
 10
-15.75356748128102
 20
10.96615336567045
 30
-12.5
 11
-15.01034498227879
 21
11.44763981167436
 31
-12.5
  0
LINE
  5
5263
330
1E
100
AcDbEntity
  8
0
 48
0.27
100
AcDbLine
 10
-15.01034498227879
 20
11.44763981167436
 30
-12.5
 11
-15.88910277902321
 21
11.42359253455824
 31
-12.5
  0
LINE
  5
5264
330
1E
100
AcDbEntity
  8
0
 48
0.27
100
AcDbLine
 10
-15.01034498227748
 20
11.44763981167493
 30
-12.5
 11
-13.17370001582453
 21
9.610994845122817
 31
-12.5
  0
ARC
  5
5265
330
1E
100
AcDbEntity
  8
0
 48
0.27
100
AcDbCircle
 10
-16.86757359315326
 20
21.36957360886181
 30
-12.5
 40
3.24
100
AcDbArc
 50
277.3351813687925
 51
352.6648186312057
  0
ARC
  5
5266
330
1E
100
AcDbEntity
  8
0
 48
0.27
100
AcDbCircle
 10
-16.86757360892453
 20
21.36957360893295
 30
-12.5
 40
3.24
100
AcDbArc
 50
277.3351813687992
 51
352.6648186312007
  0
LINE
  5
5267
330
1E
100
AcDbEntity
  8
0
 48
0.27
100
AcDbLine
 10
-17.00000000002448
 20
17.61000001573298
 30
-12.5
 11
-16.45391100516228
 21
18.15608901059518
 31
-12.5
  0
LINE
  5
5268
330
1E
100
AcDbEntity
  8
0
 48
0.27
100
AcDbLine
 10
-16.45391102093329
 20
18.1560890106664
 30
-12.5
 11
-17.04132583841782
 21
19.51137936377158
 31
-12.5
  0
LINE
  5
5269
330
1E
100
AcDbEntity
  8
0
 48
0.27
100
AcDbLine
 10
-17.06934213356639
 20
20.38983407596318
 30
-12.5
 11
-17.04132583841665
 21
19.51137936377274
 31
-12.5
  0
LINE
  5
526A
330
1E
100
AcDbEntity
  8
0
 48
0.27
100
AcDbLine
 10
-17.00000001582451
 20
17.61000001573295
 30
-12.5
 11
-16.4539110209245
 21
18.15608901063295
 31
-12.5
  0
LINE
  5
526B
330
1E
100
AcDbEntity
  8
0
 48
0.27
100
AcDbLine
 10
-17.00000000002448
 20
17.61000001573298
 30
-12.5
 11
-17.00000000002448
 21
15.38000001573296
 31
-12.5
  0
LINE
  5
526C
330
1E
100
AcDbEntity
  8
0
 48
0.27
100
AcDbLine
 10
-17.00000001582451
 20
17.61000001573295
 30
-12.5
 11
-17.00000001582451
 21
15.38000001573296
 31
-12.5
  0
LINE
  5
526D
330
1E
100
AcDbEntity
  8
0
 48
0.27
100
AcDbLine
 10
-18.37370001582452
 20
18.17900518636484
 30
-12.5
 11
-19.23970001582456
 21
18.53771413137993
 31
-12.5
  0
LINE
  5
526E
330
1E
100
AcDbEntity
  8
0
 48
0.27
100
AcDbLine
 10
-19.23970001582456
 20
18.53771413137993
 30
-12.5
 11
-17.52374953027891
 21
20.25366461692554
 31
-12.5
  0
ARC
  5
526F
330
1E
100
AcDbEntity
  8
0
 48
0.27
100
AcDbCircle
 10
-17.17019613968567
 20
19.90011122633229
 30
-12.5
 40
0.5
100
AcDbArc
 50
78.36314326391532
 51
135.0
  0
LINE
  5
5270
330
1E
100
AcDbEntity
  8
0
 48
0.27
100
AcDbLine
 10
-17.04132583841782
 20
19.51137936377158
 30
-12.5
 11
-17.52374953027891
 21
20.25366461692554
 31
-12.5
  0
LINE
  5
5271
330
1E
100
AcDbEntity
  8
0
 48
0.27
100
AcDbLine
 10
-18.37370001582452
 20
18.17900518636484
 30
-12.5
 11
-17.04132583841782
 21
19.51137936377158
 31
-12.5
  0
LINE
  5
5272
330
1E
100
AcDbEntity
  8
0
 48
0.27
100
AcDbLine
 10
-17.00000001582451
 20
17.61000001573295
 30
-12.5
 11
-18.37370001582452
 21
18.17900518636484
 31
-12.5
  0
LINE
  5
5273
330
1E
100
AcDbEntity
  8
0
 48
0.27
100
AcDbLine
 10
-13.67900518638246
 20
22.87370001573298
 30
-12.5
 11
-14.03771413135096
 21
23.73970001573302
 31
-12.5
  0
ARC
  5
5274
330
1E
100
AcDbEntity
  8
0
 48
0.27
100
AcDbCircle
 10
-15.39811122635704
 20
21.67219613985524
 30
-12.5
 40
0.5
100
AcDbArc
 50
134.9999999947377
 51
191.6368567423693
  0
LINE
  5
5275
330
1E
100
AcDbEntity
  8
0
 48
0.27
100
AcDbLine
 10
-15.75166461691783
 20
22.02574953048098
 30
-12.5
 11
-15.00937936377899
 21
21.54332583858202
 31
-12.5
  0
LINE
  5
5276
330
1E
100
AcDbEntity
  8
0
 48
0.27
100
AcDbLine
 10
-15.00937936377899
 20
21.54332583858202
 30
-12.5
 11
-15.88783407597598
 21
21.57134213368242
 31
-12.5
  0
LINE
  5
5277
330
1E
100
AcDbEntity
  8
0
 48
0.27
100
AcDbLine
 10
-15.00937936377776
 20
21.54332583858213
 30
-12.5
 11
-13.67900518638246
 21
22.87370001573298
 31
-12.5
  0
LINE
  5
5278
330
1E
100
AcDbEntity
  8
0
 48
0.27
100
AcDbLine
 10
-13.11000001582452
 20
21.50000001573296
 30
-12.5
 11
-13.67900518638246
 21
22.87370001573298
 31
-12.5
  0
LINE
  5
5279
330
1E
100
AcDbEntity
  8
0
 48
0.27
100
AcDbLine
 10
-15.75166461691786
 20
22.025749530481
 30
-12.5
 11
-14.03771413135096
 21
23.73970001573302
 31
-12.5
  0
LINE
  5
527A
330
1E
100
AcDbEntity
  8
0
 48
0.27
100
AcDbLine
 10
-32.00000000002448
 20
38.99999999993296
 30
-12.5
 11
-34.00000000002448
 21
36.99999999993297
 31
-12.5
  0
LINE
  5
527B
330
1E
100
AcDbEntity
  8
0
 48
0.27
100
AcDbLine
 10
13.17370001577556
 20
9.610994845122817
 30
-12.5
 11
11.80000001577555
 21
10.18000001573297
 31
-12.5
  0
LINE
  5
527C
330
1E
100
AcDbEntity
  8
0
 48
0.27
100
AcDbLine
 10
13.65249257930209
 20
12.03249259505953
 30
-12.5
 11
11.79999999997558
 21
10.18000001573302
 31
-12.5
  0
LINE
  5
527D
330
1E
100
AcDbEntity
  8
0
 48
0.27
100
AcDbLine
 10
13.65249259507551
 20
12.03249259513295
 30
-12.5
 11
11.80000001577555
 21
10.18000001573297
 31
-12.5
  0
ARC
  5
527E
330
1E
100
AcDbEntity
  8
0
 48
0.27
100
AcDbCircle
 10
16.86757360887556
 20
21.36957360893295
 30
-12.5
 40
1.0003
100
AcDbArc
 50
168.3631432576323
 51
281.6368567360846
  0
LINE
  5
527F
330
1E
100
AcDbEntity
  8
0
 48
0.27
100
AcDbLine
 10
15.0093793637288
 20
21.54332583858213
 30
-12.5
 11
13.65408901067555
 21
20.95591102093293
 31
-12.5
  0
LINE
  5
5280
330
1E
100
AcDbEntity
  8
0
 48
0.27
100
AcDbLine
 10
13.65408899483778
 20
20.95591102087082
 30
-12.5
 11
13.10999999997553
 21
21.50000001573296
 31
-12.5
  0
LINE
  5
5281
330
1E
100
AcDbEntity
  8
0
 48
0.27
100
AcDbLine
 10
13.65408901067555
 20
20.95591102093293
 30
-12.5
 11
13.11000001577555
 21
21.50000001573296
 31
-12.5
  0
ARC
  5
5282
330
1E
100
AcDbEntity
  8
0
 48
0.27
100
AcDbCircle
 10
16.86757360887556
 20
21.36957360893295
 30
-12.5
 40
1.8663
100
AcDbArc
 50
174.6580361285566
 51
275.3419638666365
  0
LINE
  5
5283
330
1E
100
AcDbEntity
  8
0
 48
0.27
100
AcDbLine
 10
16.99999999997551
 20
15.38000001573296
 30
-12.5
 11
16.46650742064896
 21
14.84650743640641
 31
-12.5
  0
LINE
  5
5284
330
1E
100
AcDbEntity
  8
0
 48
0.27
100
AcDbLine
 10
17.00000001577554
 20
15.38000001573296
 30
-12.5
 11
16.46650743647553
 21
14.84650743643295
 31
-12.5
  0
LINE
  5
5285
330
1E
100
AcDbEntity
  8
0
 48
0.27
100
AcDbLine
 10
18.37370001577555
 20
14.81099484510103
 30
-12.5
 11
17.00000001577554
 21
15.38000001573296
 31
-12.5
  0
LINE
  5
5286
330
1E
100
AcDbEntity
  8
0
 48
0.27
100
AcDbLine
 10
19.23970001577559
 20
18.53771413137993
 30
-12.5
 11
19.23970001577556
 21
14.45228590008598
 31
-12.5
  0
LINE
  5
5287
330
1E
100
AcDbEntity
  8
0
 48
0.27
100
AcDbLine
 10
18.37370001577555
 20
18.17900518636484
 30
-12.5
 11
18.37370001577555
 21
14.81099484510103
 31
-12.5
  0
ARC
  5
5288
330
1E
100
AcDbEntity
  8
0
 48
0.27
100
AcDbCircle
 10
16.86757359310429
 20
11.63142642260409
 30
-12.5
 40
3.24
100
AcDbArc
 50
97.11064589165593
 51
172.8893541083473
  0
ARC
  5
5289
330
1E
100
AcDbEntity
  8
0
 48
0.27
100
AcDbCircle
 10
16.86757360887556
 20
11.63142642263294
 30
-12.5
 40
3.24
100
AcDbArc
 50
97.11064589169852
 51
172.8893541082998
  0
LINE
  5
528A
330
1E
100
AcDbEntity
  8
0
 48
0.27
100
AcDbLine
 10
16.46650743647553
 20
14.84650743643295
 30
-12.5
 11
17.05136021994358
 21
13.4886550492691
 31
-12.5
  0
ARC
  5
528B
330
1E
100
AcDbEntity
  8
0
 48
0.27
100
AcDbCircle
 10
16.86757360887556
 20
11.63142642263294
 30
-12.5
 40
1.0003
100
AcDbArc
 50
78.00820834456846
 51
191.991791651306
  0
ARC
  5
528C
330
1E
100
AcDbEntity
  8
0
 48
0.27
100
AcDbCircle
 10
16.86757360887556
 20
11.63142642263294
 30
-12.5
 40
1.8663
100
AcDbArc
 50
84.34855517452485
 51
185.6514448220796
  0
ARC
  5
528D
330
1E
100
AcDbEntity
  8
0
 48
0.27
100
AcDbCircle
 10
15.40001409062923
 20
11.31970675625417
 30
-12.5
 40
0.5
100
AcDbArc
 50
315.0000000015476
 51
11.99179165130773
  0
LINE
  5
528E
330
1E
100
AcDbEntity
  8
0
 48
0.27
100
AcDbLine
 10
15.01034498222852
 20
11.44763981167493
 30
-12.5
 11
13.65249259507929
 21
12.03249259513673
 31
-12.5
  0
LINE
  5
528F
330
1E
100
AcDbEntity
  8
0
 48
0.27
100
AcDbLine
 10
15.01034498222982
 20
11.44763981167436
 30
-12.5
 11
15.88910277897425
 21
11.42359253455824
 31
-12.5
  0
LINE
  5
5290
330
1E
100
AcDbEntity
  8
0
 48
0.27
100
AcDbLine
 10
15.75356748123205
 20
10.96615336567045
 30
-12.5
 11
15.01034498222982
 21
11.44763981167436
 31
-12.5
  0
LINE
  5
5291
330
1E
100
AcDbEntity
  8
0
 48
0.27
100
AcDbLine
 10
15.01034498222852
 20
11.44763981167493
 30
-12.5
 11
13.17370001577556
 21
9.610994845122817
 31
-12.5
  0
LINE
  5
5292
330
1E
100
AcDbEntity
  8
0
 48
0.27
100
AcDbLine
 10
17.05136021994245
 20
13.48865504926796
 30
-12.5
 11
17.07540749702092
 21
12.60989725252015
 31
-12.5
  0
LINE
  5
5293
330
1E
100
AcDbEntity
  8
0
 48
0.27
100
AcDbLine
 10
19.23970001577556
 20
14.45228590008598
 30
-12.5
 11
18.37370001577555
 21
14.81099484510103
 31
-12.5
  0
LINE
  5
5294
330
1E
100
AcDbEntity
  8
0
 48
0.27
100
AcDbLine
 10
19.23970001577556
 20
14.45228590008598
 30
-12.5
 11
17.53284666595321
 21
12.74543255026357
 31
-12.5
  0
LINE
  5
5295
330
1E
100
AcDbEntity
  8
0
 48
0.27
100
AcDbLine
 10
17.53284666595324
 20
12.74543255026354
 30
-12.5
 11
17.05136021994245
 21
13.48865504926796
 31
-12.5
  0
ARC
  5
5296
330
1E
100
AcDbEntity
  8
0
 48
0.27
100
AcDbCircle
 10
17.17929327535996
 20
13.09898594085682
 30
-12.5
 40
0.5
100
AcDbArc
 50
258.0082083445704
 51
315.0
  0
LINE
  5
5297
330
1E
100
AcDbEntity
  8
0
 48
0.27
100
AcDbLine
 10
18.37370001577555
 20
14.81099484510103
 30
-12.5
 11
17.05136021994358
 21
13.4886550492691
 31
-12.5
  0
LINE
  5
5298
330
1E
100
AcDbEntity
  8
0
 48
0.27
100
AcDbLine
 10
16.99999999997551
 20
17.61000001573298
 30
-12.5
 11
16.45391100511331
 21
18.15608901059518
 31
-12.5
  0
LINE
  5
5299
330
1E
100
AcDbEntity
  8
0
 48
0.27
100
AcDbLine
 10
16.45391102088431
 20
18.1560890106664
 30
-12.5
 11
17.04132583836885
 21
19.51137936377158
 31
-12.5
  0
LINE
  5
529A
330
1E
100
AcDbEntity
  8
0
 48
0.27
100
AcDbLine
 10
17.00000001577554
 20
17.61000001573295
 30
-12.5
 11
16.45391102087553
 21
18.15608901063295
 31
-12.5
  0
ARC
  5
529B
330
1E
100
AcDbEntity
  8
0
 48
0.27
100
AcDbCircle
 10
16.86757359310429
 20
21.36957360886181
 30
-12.5
 40
3.24
100
AcDbArc
 50
187.3351813687942
 51
262.6648186312074
  0
ARC
  5
529C
330
1E
100
AcDbEntity
  8
0
 48
0.27
100
AcDbCircle
 10
16.86757360887556
 20
21.36957360893295
 30
-12.5
 40
3.24
100
AcDbArc
 50
187.3351813687992
 51
262.6648186312007
  0
LINE
  5
529D
330
1E
100
AcDbEntity
  8
0
 48
0.27
100
AcDbLine
 10
17.06934213351742
 20
20.38983407596318
 30
-12.5
 11
17.04132583836768
 21
19.51137936377274
 31
-12.5
  0
LINE
  5
529E
330
1E
100
AcDbEntity
  8
0
 48
0.27
100
AcDbLine
 10
18.37370001577555
 20
18.17900518636484
 30
-12.5
 11
19.23970001577559
 21
18.53771413137993
 31
-12.5
  0
LINE
  5
529F
330
1E
100
AcDbEntity
  8
0
 48
0.27
100
AcDbLine
 10
19.23970001577559
 20
18.53771413137993
 30
-12.5
 11
17.52374953022995
 21
20.25366461692554
 31
-12.5
  0
LINE
  5
52A0
330
1E
100
AcDbEntity
  8
0
 48
0.27
100
AcDbLine
 10
17.04132583836885
 20
19.51137936377158
 30
-12.5
 11
17.52374953022995
 21
20.25366461692554
 31
-12.5
  0
LINE
  5
52A1
330
1E
100
AcDbEntity
  8
0
 48
0.27
100
AcDbLine
 10
17.00000001577554
 20
17.61000001573295
 30
-12.5
 11
18.37370001577555
 21
18.17900518636484
 31
-12.5
  0
ARC
  5
52A2
330
1E
100
AcDbEntity
  8
0
 48
0.27
100
AcDbCircle
 10
17.1701961396367
 20
19.90011122633229
 30
-12.5
 40
0.5
100
AcDbArc
 50
44.99999999999994
 51
101.6368567360846
  0
LINE
  5
52A3
330
1E
100
AcDbEntity
  8
0
 48
0.27
100
AcDbLine
 10
18.37370001577555
 20
18.17900518636484
 30
-12.5
 11
17.04132583836885
 21
19.51137936377158
 31
-12.5
  0
LINE
  5
52A4
330
1E
100
AcDbEntity
  8
0
 48
0.27
100
AcDbLine
 10
16.99999999997551
 20
17.61000001573298
 30
-12.5
 11
16.99999999997551
 21
15.38000001573296
 31
-12.5
  0
LINE
  5
52A5
330
1E
100
AcDbEntity
  8
0
 48
0.27
100
AcDbLine
 10
17.00000001577554
 20
17.61000001573295
 30
-12.5
 11
17.00000001577554
 21
15.38000001573296
 31
-12.5
  0
LINE
  5
52A6
330
1E
100
AcDbEntity
  8
0
 48
0.27
100
AcDbLine
 10
13.6790051863335
 20
22.87370001573298
 30
-12.5
 11
14.03771413130199
 21
23.73970001573302
 31
-12.5
  0
ARC
  5
52A7
330
1E
100
AcDbEntity
  8
0
 48
0.27
100
AcDbCircle
 10
15.39811122630807
 20
21.67219613985524
 30
-12.5
 40
0.5
100
AcDbArc
 50
348.3631432576307
 51
45.00000000526222
  0
LINE
  5
52A8
330
1E
100
AcDbEntity
  8
0
 48
0.27
100
AcDbLine
 10
15.00937936373002
 20
21.54332583858202
 30
-12.5
 11
15.88783407592702
 21
21.57134213368242
 31
-12.5
  0
LINE
  5
52A9
330
1E
100
AcDbEntity
  8
0
 48
0.27
100
AcDbLine
 10
15.75166461686886
 20
22.02574953048098
 30
-12.5
 11
15.00937936373002
 21
21.54332583858202
 31
-12.5
  0
LINE
  5
52AA
330
1E
100
AcDbEntity
  8
0
 48
0.27
100
AcDbLine
 10
13.11000001577555
 20
21.50000001573296
 30
-12.5
 11
13.6790051863335
 21
22.87370001573298
 31
-12.5
  0
LINE
  5
52AB
330
1E
100
AcDbEntity
  8
0
 48
0.27
100
AcDbLine
 10
15.0093793637288
 20
21.54332583858213
 30
-12.5
 11
13.6790051863335
 21
22.87370001573298
 31
-12.5
  0
LINE
  5
52AC
330
1E
100
AcDbEntity
  8
0
 48
0.27
100
AcDbLine
 10
15.75166461686889
 20
22.025749530481
 30
-12.5
 11
14.03771413130199
 21
23.73970001573302
 31
-12.5
  0
LINE
  5
52AD
330
1E
100
AcDbEntity
  8
0
 48
0.27
100
AcDbLine
 10
31.99999999997551
 20
38.99999999993296
 30
-12.5
 11
33.99999999997551
 21
36.99999999993297
 31
-12.5
  0
LINE
  5
52AE
330
1E
100
AcDbEntity
  8
虛線
 48
0.27
100
AcDbLine
 10
21.00000000225402
 20
35.50000000000013
 30
-0.0000000000000018
 11
29.00000000225402
 21
35.50000000000013
 31
-0.0000000000000018
  0
LINE
  5
52AF
330
1E
100
AcDbEntity
  8
虛線
 48
0.27
100
AcDbLine
 10
29.00000000225402
 20
46.70000000000015
 30
-0.0000000000000018
 11
21.00000000225402
 21
46.70000000000015
 31
-0.0000000000000018
  0
LINE
  5
52B0
330
1E
100
AcDbEntity
  8
0
 48
0.27
100
AcDbLine
 10
17.50000000225402
 20
47.50000000000009
 30
-0.0000000000000018
 11
33.50000000225402
 21
47.50000000000009
 31
-0.0000000000000018
  0
LINE
  5
52B1
330
1E
100
AcDbEntity
  8
0
 48
0.27
100
AcDbLine
 10
6.90000000515427
 20
47.50000000000009
 30
-0.0000000000000018
 11
-6.900000000645986
 21
47.50000000000009
 31
-0.0000000000000018
  0
LINE
  5
52B2
330
1E
100
AcDbEntity
  8
虛線
 48
0.27
100
AcDbLine
 10
-28.39999999774583
 20
46.70000000000015
 30
-0.0000000000000018
 11
-28.39999999774583
 21
31.70000000000014
 31
-0.0000000000000018
  0
LINE
  5
52B3
330
1E
100
AcDbEntity
  8
虛線
 48
0.27
100
AcDbLine
 10
-21.59999999774588
 20
46.70000000000015
 30
-0.0000000000000018
 11
-21.59999999774588
 21
31.70000000000014
 31
-0.0000000000000018
  0
LINE
  5
52B4
330
1E
100
AcDbEntity
  8
中心線
 48
0.27
100
AcDbLine
 10
-24.99999999774597
 20
49.0000000000001
 30
-0.0000000000000018
 11
-24.99999999774597
 21
27.73493649053908
 31
-0.0000000000000018
  0
LINE
  5
52B5
330
1E
100
AcDbEntity
  8
虛線
 48
0.27
100
AcDbLine
 10
-24.99999999774597
 20
29.73700908475546
 30
-0.0000000000000018
 11
-21.59999999774588
 21
31.70000000000014
 31
-0.0000000000000018
  0
LINE
  5
52B6
330
1E
100
AcDbEntity
  8
虛線
 48
0.27
100
AcDbLine
 10
-28.39999999774583
 20
31.70000000000014
 30
-0.0000000000000018
 11
-21.59999999774588
 21
31.70000000000014
 31
-0.0000000000000018
  0
LINE
  5
52B7
330
1E
100
AcDbEntity
  8
虛線
 48
0.27
100
AcDbLine
 10
-28.39999999774583
 20
31.70000000000014
 30
-0.0000000000000018
 11
-24.99999999774597
 21
29.73700908475546
 31
-0.0000000000000018
  0
LINE
  5
52B8
330
1E
100
AcDbEntity
  8
虛線
 48
0.27
100
AcDbLine
 10
-20.19999999774579
 20
47.50000000000009
 30
-0.0000000000000018
 11
-20.99999999774597
 21
46.70000000000015
 31
-0.0000000000000018
  0
LINE
  5
52B9
330
1E
100
AcDbEntity
  8
0
 48
0.27
100
AcDbLine
 10
-17.49999999774597
 20
47.50000000000009
 30
-0.0000000000000018
 11
-33.49999999774597
 21
47.50000000000009
 31
-0.0000000000000018
  0
LINE
  5
52BA
330
1E
100
AcDbEntity
  8
虛線
 48
0.27
100
AcDbLine
 10
-20.99999999774597
 20
46.70000000000015
 30
-0.0000000000000018
 11
-20.99999999774597
 21
35.50000000000013
 31
-0.0000000000000018
  0
LINE
  5
52BB
330
1E
100
AcDbEntity
  8
虛線
 48
0.27
100
AcDbLine
 10
-28.99999999774597
 20
46.70000000000015
 30
-0.0000000000000018
 11
-28.99999999774597
 21
35.50000000000013
 31
-0.0000000000000018
  0
LINE
  5
52BC
330
1E
100
AcDbEntity
  8
0
 48
0.27
100
AcDbLine
 10
-34.99999999774597
 20
46.0000000000001
 30
-0.0000000000000018
 11
-34.99999999774597
 21
37.29999999824006
 31
-0.0000000000000018
  0
LINE
  5
52BD
330
1E
100
AcDbEntity
  8
虛線
 48
0.27
100
AcDbLine
 10
-20.99999999774597
 20
35.50000000000013
 30
-0.0000000000000018
 11
-28.99999999774597
 21
35.50000000000013
 31
-0.0000000000000018
  0
LINE
  5
52BE
330
1E
100
AcDbEntity
  8
0
 48
0.27
100
AcDbLine
 10
-34.99999999774597
 20
37.29999999824006
 30
-0.0000000000000018
 11
-34.49999999774597
 21
36.79999999824009
 31
-0.0000000000000018
  0
LINE
  5
52BF
330
1E
100
AcDbEntity
  8
虛線
 48
0.27
100
AcDbLine
 10
-28.99999999774597
 20
46.70000000000015
 30
-0.0000000000000018
 11
-20.99999999774597
 21
46.70000000000015
 31
-0.0000000000000018
  0
LINE
  5
52C0
330
1E
100
AcDbEntity
  8
0
 48
0.27
100
AcDbLine
 10
-33.49999999774597
 20
47.50000000000009
 30
-0.0000000000000018
 11
-34.99999999774597
 21
46.0000000000001
 31
-0.0000000000000018
  0
LINE
  5
52C1
330
1E
100
AcDbEntity
  8
虛線
 48
0.27
100
AcDbLine
 10
-29.79999999774593
 20
47.50000000000009
 30
-0.0000000000000018
 11
-28.99999999774597
 21
46.70000000000015
 31
-0.0000000000000018
  0
LINE
  5
52C2
330
1E
100
AcDbEntity
  8
0
 48
0.27
100
AcDbLine
 10
-16.99999999919593
 20
47.00000000145017
 30
-0.0000000000000018
 11
-7.399999999196024
 21
47.00000000145017
 31
-0.0000000000000018
  0
LINE
  5
52C3
330
1E
100
AcDbEntity
  8
0
 48
0.27
100
AcDbLine
 10
-16.99999999919593
 20
47.00000000145017
 30
-0.0000000000000018
 11
-17.49999999774597
 21
47.50000000000009
 31
-0.0000000000000018
  0
LINE
  5
52C4
330
1E
100
AcDbEntity
  8
0
 48
0.27
100
AcDbLine
 10
-7.399999999196024
 20
47.00000000145017
 30
-0.0000000000000018
 11
-6.900000000645986
 21
47.50000000000009
 31
-0.0000000000000018
  0
LINE
  5
52C5
330
1E
100
AcDbEntity
  8
虛線
 48
0.27
100
AcDbLine
 10
28.40000000225412
 20
46.70000000000015
 30
-0.0000000000000018
 11
28.40000000225412
 21
31.70000000000014
 31
-0.0000000000000018
  0
LINE
  5
52C6
330
1E
100
AcDbEntity
  8
虛線
 48
0.27
100
AcDbLine
 10
21.60000000225416
 20
46.70000000000015
 30
-0.0000000000000018
 11
21.60000000225416
 21
31.70000000000014
 31
-0.0000000000000018
  0
LINE
  5
52C7
330
1E
100
AcDbEntity
  8
中心線
 48
0.27
100
AcDbLine
 10
25.00000000225402
 20
49.0000000000001
 30
-0.0000000000000018
 11
25.00000000225402
 21
27.73493649053908
 31
-0.0000000000000018
  0
LINE
  5
52C8
330
1E
100
AcDbEntity
  8
虛線
 48
0.27
100
AcDbLine
 10
25.00000000225402
 20
29.73700908475546
 30
-0.0000000000000018
 11
21.60000000225416
 21
31.70000000000014
 31
-0.0000000000000018
  0
LINE
  5
52C9
330
1E
100
AcDbEntity
  8
虛線
 48
0.27
100
AcDbLine
 10
28.40000000225412
 20
31.70000000000014
 30
-0.0000000000000018
 11
21.60000000225416
 21
31.70000000000014
 31
-0.0000000000000018
  0
LINE
  5
52CA
330
1E
100
AcDbEntity
  8
虛線
 48
0.27
100
AcDbLine
 10
28.40000000225412
 20
31.70000000000014
 30
-0.0000000000000018
 11
25.00000000225402
 21
29.73700908475546
 31
-0.0000000000000018
  0
LINE
  5
52CB
330
1E
100
AcDbEntity
  8
0
 48
0.27
100
AcDbLine
 10
17.00000000370421
 20
47.00000000145017
 30
-0.0000000000000018
 11
7.40000000370408
 21
47.00000000145017
 31
-0.0000000000000018
  0
LINE
  5
52CC
330
1E
100
AcDbEntity
  8
0
 48
0.27
100
AcDbLine
 10
7.40000000370408
 20
47.00000000145017
 30
-0.0000000000000018
 11
6.90000000515427
 21
47.50000000000009
 31
-0.0000000000000018
  0
LINE
  5
52CD
330
1E
100
AcDbEntity
  8
虛線
 48
0.27
100
AcDbLine
 10
21.00000000225402
 20
46.70000000000015
 30
-0.0000000000000018
 11
21.00000000225402
 21
35.50000000000013
 31
-0.0000000000000018
  0
LINE
  5
52CE
330
1E
100
AcDbEntity
  8
虛線
 48
0.27
100
AcDbLine
 10
20.20000000225407
 20
47.50000000000009
 30
-0.0000000000000018
 11
21.00000000225402
 21
46.70000000000015
 31
-0.0000000000000018
  0
LINE
  5
52CF
330
1E
100
AcDbEntity
  8
0
 48
0.27
100
AcDbLine
 10
17.00000000370421
 20
47.00000000145017
 30
-0.0000000000000018
 11
17.50000000225402
 21
47.50000000000009
 31
-0.0000000000000018
  0
LINE
  5
52D0
330
1E
100
AcDbEntity
  8
0
 48
0.27
100
AcDbLine
 10
35.00000000225402
 20
46.0000000000001
 30
-0.0000000000000018
 11
35.00000000225402
 21
24.50000000000015
 31
-0.0000000000000018
  0
LINE
  5
52D1
330
1E
100
AcDbEntity
  8
0
 48
0.27
100
AcDbLine
 10
35.00000000225402
 20
24.50000000000015
 30
-0.0000000000000018
 11
34.50000000225402
 21
24.00000000000015
 31
-0.0000000000000018
  0
LINE
  5
52D2
330
1E
100
AcDbEntity
  8
虛線
 48
0.27
100
AcDbLine
 10
29.00000000225402
 20
46.70000000000015
 30
-0.0000000000000018
 11
29.00000000225402
 21
35.50000000000013
 31
-0.0000000000000018
  0
LINE
  5
52D3
330
1E
100
AcDbEntity
  8
虛線
 48
0.27
100
AcDbLine
 10
29.80000000225398
 20
47.50000000000009
 30
-0.0000000000000018
 11
29.00000000225402
 21
46.70000000000015
 31
-0.0000000000000018
  0
LINE
  5
52D4
330
1E
100
AcDbEntity
  8
0
 48
0.27
100
AcDbLine
 10
35.00000000225402
 20
46.0000000000001
 30
-0.0000000000000018
 11
33.50000000225402
 21
47.50000000000009
 31
-0.0000000000000018
  0
LINE
  5
52D5
330
1E
100
AcDbEntity
  8
指線
 48
0.27
100
AcDbLine
 10
27.69405273896691
 20
34.74810577777787
 30
12.5
 11
25.55977224388703
 21
34.74848840701428
 31
12.5
  0
LINE
  5
52D6
330
1E
100
AcDbEntity
  8
指線
 48
0.27
100
AcDbLine
 10
27.69388321968389
 20
33.65218780064376
 30
12.5
 11
25.55960272460402
 21
33.65257042988016
 31
12.5
  0
LINE
  5
52D7
330
1E
100
AcDbEntity
  8
指線
 48
0.27
100
AcDbLine
 10
28.7899685169134
 20
34.74793615407227
 30
12.5
 11
30.92864115827642
 21
34.7476574236073
 31
12.5
  0
LINE
  5
52D8
330
1E
100
AcDbEntity
  8
指線
 48
0.27
100
AcDbLine
 10
28.78979899763064
 20
33.65201817693841
 30
12.5
 11
30.92847163899365
 21
33.6517394464732
 31
12.5
  0
LINE
  5
52D9
330
1E
100
AcDbEntity
  8
指線
 48
0.27
100
AcDbLine
 10
27.69388321968389
 20
33.65218780064376
 30
12.5
 11
27.69372824266469
 21
32.65028472280771
 31
12.5
  0
LINE
  5
52DA
330
1E
100
AcDbEntity
  8
指線
 48
0.27
100
AcDbLine
 10
28.78979899763064
 20
33.65201817693841
 30
12.5
 11
28.78964402083046
 21
32.65011509910709
 31
12.5
  0
LINE
  5
52DB
330
1E
100
AcDbEntity
  8
指線
 48
0.27
100
AcDbLine
 10
27.69420771576684
 20
35.75000885560894
 30
12.5
 11
27.69405273896691
 21
34.74810577777787
 31
12.5
  0
LINE
  5
52DC
330
1E
100
AcDbEntity
  8
指線
 48
0.27
100
AcDbLine
 10
28.79012351012523
 20
35.74994391476526
 30
12.5
 11
28.7899685169134
 21
34.74793615407227
 31
12.5
  0
CIRCLE
  5
52DD
330
1E
100
AcDbEntity
  8
指線
 48
0.27
100
AcDbCircle
 10
28.24412194144028
 20
34.20011392674374
 30
12.5
 40
2.739789749117051
  0
ARC
  5
52DE
330
1E
100
AcDbEntity
  8
指線
 48
0.27
100
AcDbCircle
 10
28.24412194144028
 20
34.20011392674374
 30
12.5
 40
1.643195272868438
100
AcDbArc
 50
109.5519646902243
 51
160.5125356647091
  0
ARC
  5
52DF
330
1E
100
AcDbEntity
  8
指線
 48
0.27
100
AcDbCircle
 10
28.24412194144028
 20
34.20011392674374
 30
12.5
 40
1.643195272868438
100
AcDbArc
 50
199.4717855360969
 51
250.430310000205
  0
ARC
  5
52E0
330
1E
100
AcDbEntity
  8
指線
 48
0.27
100
AcDbCircle
 10
28.24412194144028
 20
34.20011392674374
 30
12.5
 40
1.643195272868438
100
AcDbArc
 50
289.3895192455082
 51
340.5104803126675
  0
ARC
  5
52E1
330
1E
100
AcDbEntity
  8
指線
 48
0.27
100
AcDbCircle
 10
28.24412194144028
 20
34.20011392674374
 30
12.5
 40
1.643195272868438
100
AcDbArc
 50
19.46973018413991
 51
70.59275544491747
  0
CIRCLE
  5
52E2
330
1E
100
AcDbEntity
  8
指線
 48
0.27
100
AcDbCircle
 10
19.99412194144028
 20
3.750113926743647
 30
-0.0000000000000018
 40
2.739789749117051
  0
ARC
  5
52E3
330
1E
100
AcDbEntity
  8
指線
 48
0.27
100
AcDbCircle
 10
19.99412194144028
 20
3.750113926743647
 30
-0.0000000000000018
 40
1.643195272868438
100
AcDbArc
 50
199.4717855360969
 51
250.430310000205
  0
ARC
  5
52E4
330
1E
100
AcDbEntity
  8
指線
 48
0.27
100
AcDbCircle
 10
19.99412194144028
 20
3.750113926743647
 30
-0.0000000000000018
 40
1.643195272868438
100
AcDbArc
 50
109.5519646902243
 51
160.5125356647091
  0
LINE
  5
52E5
330
1E
100
AcDbEntity
  8
指線
 48
0.27
100
AcDbLine
 10
19.44420771576684
 20
5.30000885560884
 30
-0.0000000000000018
 11
19.44405273896691
 21
4.298105777777774
 31
-0.0000000000000018
  0
LINE
  5
52E6
330
1E
100
AcDbEntity
  8
指線
 48
0.27
100
AcDbLine
 10
19.44388321968389
 20
3.202187800643663
 30
-0.0000000000000018
 11
19.44372824266469
 21
2.200284722807612
 31
-0.0000000000000018
  0
LINE
  5
52E7
330
1E
100
AcDbEntity
  8
指線
 48
0.27
100
AcDbLine
 10
19.44388321968389
 20
3.202187800643663
 30
-0.0000000000000018
 11
17.30960272460402
 21
3.202570429880065
 31
-0.0000000000000018
  0
LINE
  5
52E8
330
1E
100
AcDbEntity
  8
指線
 48
0.27
100
AcDbLine
 10
19.44405273896691
 20
4.298105777777774
 30
-0.0000000000000018
 11
17.30977224388703
 21
4.298488407014172
 31
-0.0000000000000018
  0
ARC
  5
52E9
330
1E
100
AcDbEntity
  8
指線
 48
0.27
100
AcDbCircle
 10
19.99412194144028
 20
3.750113926743647
 30
-0.0000000000000018
 40
1.643195272868438
100
AcDbArc
 50
289.3895192455082
 51
340.5104803126675
  0
ARC
  5
52EA
330
1E
100
AcDbEntity
  8
指線
 48
0.27
100
AcDbCircle
 10
19.99412194144028
 20
3.750113926743647
 30
-0.0000000000000018
 40
1.643195272868438
100
AcDbArc
 50
19.46973018413991
 51
70.59275544491747
  0
LINE
  5
52EB
330
1E
100
AcDbEntity
  8
指線
 48
0.27
100
AcDbLine
 10
20.54012351012522
 20
5.299943914765158
 30
-0.0000000000000018
 11
20.5399685169134
 21
4.297936154072171
 31
-0.0000000000000018
  0
LINE
  5
52EC
330
1E
100
AcDbEntity
  8
指線
 48
0.27
100
AcDbLine
 10
20.53979899763064
 20
3.20201817693831
 30
-0.0000000000000018
 11
20.53964402083046
 21
2.200115099106994
 31
-0.0000000000000018
  0
LINE
  5
52ED
330
1E
100
AcDbEntity
  8
指線
 48
0.27
100
AcDbLine
 10
20.53979899763064
 20
3.20201817693831
 30
-0.0000000000000018
 11
22.67847163899365
 21
3.201739446473098
 31
-0.0000000000000018
  0
LINE
  5
52EE
330
1E
100
AcDbEntity
  8
指線
 48
0.27
100
AcDbLine
 10
20.5399685169134
 20
4.297936154072171
 30
-0.0000000000000018
 11
22.67864115827642
 21
4.297657423607205
 31
-0.0000000000000018
  0
CIRCLE
  5
52EF
330
1E
100
AcDbEntity
  8
指線
 48
0.27
100
AcDbCircle
 10
-20.00587805855971
 20
3.750113926743647
 30
-0.0000000000000018
 40
2.739789749117051
  0
ARC
  5
52F0
330
1E
100
AcDbEntity
  8
指線
 48
0.27
100
AcDbCircle
 10
-20.00587805855971
 20
3.750113926743647
 30
-0.0000000000000018
 40
1.643195272868438
100
AcDbArc
 50
199.4717855360969
 51
250.430310000205
  0
ARC
  5
52F1
330
1E
100
AcDbEntity
  8
指線
 48
0.27
100
AcDbCircle
 10
-20.00587805855971
 20
3.750113926743647
 30
-0.0000000000000018
 40
1.643195272868438
100
AcDbArc
 50
109.5519646902243
 51
160.5125356647091
  0
LINE
  5
52F2
330
1E
100
AcDbEntity
  8
指線
 48
0.27
100
AcDbLine
 10
-20.55579228423315
 20
5.30000885560884
 30
-0.0000000000000018
 11
-20.55594726103308
 21
4.298105777777774
 31
-0.0000000000000018
  0
LINE
  5
52F3
330
1E
100
AcDbEntity
  8
指線
 48
0.27
100
AcDbLine
 10
-20.5561167803161
 20
3.202187800643663
 30
-0.0000000000000018
 11
-20.55627175733531
 21
2.200284722807612
 31
-0.0000000000000018
  0
LINE
  5
52F4
330
1E
100
AcDbEntity
  8
指線
 48
0.27
100
AcDbLine
 10
-20.5561167803161
 20
3.202187800643663
 30
-0.0000000000000018
 11
-22.69039727539598
 21
3.202570429880065
 31
-0.0000000000000018
  0
LINE
  5
52F5
330
1E
100
AcDbEntity
  8
指線
 48
0.27
100
AcDbLine
 10
-20.55594726103308
 20
4.298105777777774
 30
-0.0000000000000018
 11
-22.69022775611297
 21
4.298488407014172
 31
-0.0000000000000018
  0
ARC
  5
52F6
330
1E
100
AcDbEntity
  8
指線
 48
0.27
100
AcDbCircle
 10
-20.00587805855971
 20
3.750113926743647
 30
-0.0000000000000018
 40
1.643195272868438
100
AcDbArc
 50
289.3895192455082
 51
340.5104803126675
  0
ARC
  5
52F7
330
1E
100
AcDbEntity
  8
指線
 48
0.27
100
AcDbCircle
 10
-20.00587805855971
 20
3.750113926743647
 30
-0.0000000000000018
 40
1.643195272868438
100
AcDbArc
 50
19.46973018413991
 51
70.59275544491747
  0
LINE
  5
52F8
330
1E
100
AcDbEntity
  8
指線
 48
0.27
100
AcDbLine
 10
-19.45987648987477
 20
5.299943914765158
 30
-0.0000000000000018
 11
-19.46003148308659
 21
4.297936154072171
 31
-0.0000000000000018
  0
LINE
  5
52F9
330
1E
100
AcDbEntity
  8
指線
 48
0.27
100
AcDbLine
 10
-19.46020100236935
 20
3.20201817693831
 30
-0.0000000000000018
 11
-19.46035597916953
 21
2.200115099106994
 31
-0.0000000000000018
  0
LINE
  5
52FA
330
1E
100
AcDbEntity
  8
指線
 48
0.27
100
AcDbLine
 10
-19.46020100236935
 20
3.20201817693831
 30
-0.0000000000000018
 11
-17.32152836100634
 21
3.201739446473098
 31
-0.0000000000000018
  0
LINE
  5
52FB
330
1E
100
AcDbEntity
  8
指線
 48
0.27
100
AcDbLine
 10
-19.46003148308659
 20
4.297936154072171
 30
-0.0000000000000018
 11
-17.32135884172357
 21
4.297657423607205
 31
-0.0000000000000018
  0
CIRCLE
  5
52FC
330
1E
100
AcDbEntity
  8
指線
 48
0.27
100
AcDbCircle
 10
-28.25587805855971
 20
34.20011392674369
 30
10.49999999999999
 40
2.739789749117051
  0
ARC
  5
52FD
330
1E
100
AcDbEntity
  8
指線
 48
0.27
100
AcDbCircle
 10
-28.25587805855971
 20
34.20011392674369
 30
10.49999999999999
 40
1.643195272868438
100
AcDbArc
 50
199.4717855360969
 51
250.430310000205
  0
ARC
  5
52FE
330
1E
100
AcDbEntity
  8
指線
 48
0.27
100
AcDbCircle
 10
-28.25587805855971
 20
34.20011392674369
 30
10.49999999999999
 40
1.643195272868438
100
AcDbArc
 50
109.5519646902243
 51
160.5125356647091
  0
LINE
  5
52FF
330
1E
100
AcDbEntity
  8
指線
 48
0.27
100
AcDbLine
 10
-28.80579228423315
 20
35.75000885560888
 30
10.49999999999999
 11
-28.80594726103308
 21
34.74810577777781
 31
10.49999999999999
  0
LINE
  5
5300
330
1E
100
AcDbEntity
  8
指線
 48
0.27
100
AcDbLine
 10
-28.8061167803161
 20
33.6521878006437
 30
10.49999999999999
 11
-28.80627175733531
 21
32.65028472280766
 31
10.49999999999999
  0
LINE
  5
5301
330
1E
100
AcDbEntity
  8
指線
 48
0.27
100
AcDbLine
 10
-28.8061167803161
 20
33.6521878006437
 30
10.49999999999999
 11
-30.94039727539598
 21
33.65257042988011
 31
10.49999999999999
  0
LINE
  5
5302
330
1E
100
AcDbEntity
  8
指線
 48
0.27
100
AcDbLine
 10
-28.80594726103308
 20
34.74810577777781
 30
10.49999999999999
 11
-30.94022775611296
 21
34.74848840701422
 31
10.49999999999999
  0
ARC
  5
5303
330
1E
100
AcDbEntity
  8
指線
 48
0.27
100
AcDbCircle
 10
-28.25587805855971
 20
34.20011392674369
 30
10.49999999999999
 40
1.643195272868438
100
AcDbArc
 50
289.3895192455082
 51
340.5104803126675
  0
ARC
  5
5304
330
1E
100
AcDbEntity
  8
指線
 48
0.27
100
AcDbCircle
 10
-28.25587805855971
 20
34.20011392674369
 30
10.49999999999999
 40
1.643195272868438
100
AcDbArc
 50
19.46973018413991
 51
70.59275544491747
  0
LINE
  5
5305
330
1E
100
AcDbEntity
  8
指線
 48
0.27
100
AcDbLine
 10
-27.70987648987477
 20
35.7499439147652
 30
10.49999999999999
 11
-27.71003148308659
 21
34.74793615407221
 31
10.49999999999999
  0
LINE
  5
5306
330
1E
100
AcDbEntity
  8
指線
 48
0.27
100
AcDbLine
 10
-27.71020100236936
 20
33.65201817693835
 30
10.49999999999999
 11
-27.71035597916953
 21
32.65011509910704
 31
10.49999999999999
  0
LINE
  5
5307
330
1E
100
AcDbEntity
  8
指線
 48
0.27
100
AcDbLine
 10
-27.71020100236936
 20
33.65201817693835
 30
10.49999999999999
 11
-25.57152836100634
 21
33.65173944647314
 31
10.49999999999999
  0
LINE
  5
5308
330
1E
100
AcDbEntity
  8
指線
 48
0.27
100
AcDbLine
 10
-27.71003148308659
 20
34.74793615407221
 30
10.49999999999999
 11
-25.57135884172358
 21
34.74765742360725
 31
10.49999999999999
  0
LINE
  5
540D
330
1E
100
AcDbEntity
  8
中心線
 48
0.27
100
AcDbLine
 10
112.2228038440514
 20
31.49999999993296
 30
-6.25
 11
127.5272719585883
 21
31.49999999993296
 31
-6.25
  0
ARC
  5
540E
330
1E
100
AcDbEntity
  8
0
 48
0.27
100
AcDbCircle
 10
126.4144190850346
 20
29.50001933103301
 30
-6.25
 40
2.954110999999976
100
AcDbArc
 50
137.3885930045003
 51
222.6114069976005
  0
ARC
  5
540F
330
1E
100
AcDbEntity
  8
0
 48
0.27
100
AcDbCircle
 10
126.4144200850346
 20
33.5000193310329
 30
-6.25
 40
2.954111999999976
100
AcDbArc
 50
137.3885980021988
 51
222.6114019998987
  0
LWPOLYLINE
  5
5410
330
1E
100
AcDbEntity
  8
0
 48
0.27
100
AcDbPolyline
 90
       31
 70
     0
 43
0.0
 38
-6.25
 10
116.1315910850347
 20
31.50001933103293
 10
116.0987730850347
 20
31.71027433103295
 10
116.0546260850347
 20
31.81576133103293
 10
115.9915930850347
 20
31.91354033103293
 10
115.9121170850347
 20
31.99765333103293
 10
115.8206260850347
 20
32.06352633103294
 10
115.7227060850347
 20
32.10880733103287
 10
115.5900700850347
 20
32.13774833103291
 10
115.4670610850347
 20
32.13508933103291
 10
115.3601370850347
 20
32.1095833310329
 10
115.2439320850347
 20
32.0538153310329
 10
115.1333620850347
 20
31.96432633103295
 10
115.0451320850347
 20
31.84977633103294
 10
114.9884980850347
 20
31.72993733103298
 10
114.9606470850347
 20
31.62628133103293
 10
114.9490260850347
 20
31.50001933103293
 10
114.9818440850347
 20
31.28976433103296
 10
115.0259920850347
 20
31.18427633103293
 10
115.0890240850347
 20
31.08649833103292
 10
115.1685000850347
 20
31.00238533103292
 10
115.2599910850347
 20
30.93651233103291
 10
115.3579110850347
 20
30.89123133103292
 10
115.4905470850347
 20
30.86228933103289
 10
115.6135560850347
 20
30.86494933103294
 10
115.7204800850347
 20
30.89045433103295
 10
115.8366850850347
 20
30.94622233103295
 10
115.9472550850347
 20
31.03571233103291
 10
116.0354850850347
 20
31.15026133103292
 10
116.0921190850347
 20
31.27010033103293
 10
116.1199710850347
 20
31.37375733103299
 10
116.1315910850347
 20
31.50001933103293
  0
ARC
  5
5411
330
1E
100
AcDbEntity
  8
0
 48
0.27
100
AcDbCircle
 10
119.7119680850347
 20
31.50001933103296
 30
-6.25
 40
3.999999999999968
100
AcDbArc
 50
90.0
 51
131.4096219995999
  0
ARC
  5
5412
330
1E
100
AcDbEntity
  8
0
 48
0.27
100
AcDbCircle
 10
119.7119680850347
 20
31.50001933103296
 30
-6.25
 40
3.999999999999968
100
AcDbArc
 50
228.5903779973006
 51
270.0
  0
LINE
  5
5413
330
1E
100
AcDbEntity
  8
0
 48
0.27
100
AcDbLine
 10
126.3695257909454
 20
35.50001933103295
 30
-6.25
 11
119.7119680850347
 21
35.50001933103295
 31
-6.25
  0
LINE
  5
5414
330
1E
100
AcDbEntity
  8
0
 48
0.27
100
AcDbLine
 10
124.2403040850346
 20
31.50001933103296
 30
-6.25
 11
127.2228020850347
 21
31.50001933103296
 31
-6.25
  0
LINE
  5
5415
330
1E
100
AcDbEntity
  8
0
 48
0.27
100
AcDbLine
 10
119.7119680850347
 20
27.50001933103296
 30
-6.25
 11
127.2228020850347
 21
27.50001933103296
 31
-6.25
  0
LINE
  5
5416
330
1E
100
AcDbEntity
  8
0
 48
0.27
100
AcDbLine
 10
123.4603080850346
 20
35.50001933103295
 30
-6.25
 11
123.4603080850346
 21
27.50001933103296
 31
-6.25
  0
LINE
  5
5417
330
1E
100
AcDbEntity
  8
0
 48
0.27
100
AcDbLine
 10
116.1845310850347
 20
34.50001933103293
 30
-6.25
 11
120.0843070850346
 21
34.50001933103293
 31
-6.25
  0
LINE
  5
5418
330
1E
100
AcDbEntity
  8
0
 48
0.27
100
AcDbLine
 10
115.9381380850347
 20
28.96194633103296
 30
-6.25
 11
116.1845310850347
 21
28.50001933103298
 31
-6.25
  0
LINE
  5
5419
330
1E
100
AcDbEntity
  8
0
 48
0.27
100
AcDbLine
 10
116.1845310850347
 20
34.50001933103293
 30
-6.25
 11
115.9381380850347
 21
34.03809233103295
 31
-6.25
  0
LINE
  5
541A
330
1E
100
AcDbEntity
  8
0
 48
0.27
100
AcDbLine
 10
120.9851490850347
 20
31.50001933103296
 30
-6.25
 11
121.6845130850346
 21
31.50001933103296
 31
-6.25
  0
LINE
  5
541B
330
1E
100
AcDbEntity
  8
0
 48
0.27
100
AcDbLine
 10
120.0843070850346
 20
34.50001933103293
 30
-6.25
 11
121.6845130850346
 21
31.50001933103296
 31
-6.25
  0
LINE
  5
541C
330
1E
100
AcDbEntity
  8
0
 48
0.27
100
AcDbLine
 10
120.0843070850346
 20
28.50001933103298
 30
-6.25
 11
116.1845310850347
 21
28.50001933103298
 31
-6.25
  0
LINE
  5
541D
330
1E
100
AcDbEntity
  8
0
 48
0.27
100
AcDbLine
 10
121.6845130850346
 20
31.50001933103296
 30
-6.25
 11
120.0843070850346
 21
28.50001933103298
 31
-6.25
  0
LINE
  5
541E
330
1E
100
AcDbEntity
  8
0
 48
0.27
100
AcDbLine
 10
116.3056100850347
 20
34.02955333103294
 30
-6.25
 11
116.7240770850347
 21
34.27165733103292
 31
-6.25
  0
LINE
  5
541F
330
1E
100
AcDbEntity
  8
0
 48
0.27
100
AcDbLine
 10
116.3056100850347
 20
28.970484331033
 30
-6.25
 11
116.7240770850347
 21
28.72838033103296
 31
-6.25
  0
LINE
  5
5420
330
1E
100
AcDbEntity
  8
0
 48
0.27
100
AcDbLine
 10
116.7240770850347
 20
34.27165733103292
 30
-6.25
 11
117.2440170850347
 21
34.44237533103289
 31
-6.25
  0
LINE
  5
5421
330
1E
100
AcDbEntity
  8
0
 48
0.27
100
AcDbLine
 10
116.7240770850347
 20
28.72838033103296
 30
-6.25
 11
117.2440170850347
 21
28.55766333103302
 31
-6.25
  0
LINE
  5
5422
330
1E
100
AcDbEntity
  8
0
 48
0.27
100
AcDbLine
 10
117.2440170850347
 20
34.44237533103289
 30
-6.25
 11
117.7847370850347
 21
34.50001933103293
 31
-6.25
  0
LINE
  5
5423
330
1E
100
AcDbEntity
  8
0
 48
0.27
100
AcDbLine
 10
117.2440170850347
 20
28.55766333103302
 30
-6.25
 11
117.7847370850347
 21
28.50001933103298
 31
-6.25
  0
LINE
  5
5424
330
1E
100
AcDbEntity
  8
0
 48
0.27
100
AcDbLine
 10
117.7847370850347
 20
34.50001933103293
 30
-6.25
 11
118.3254570850347
 21
34.44237533103289
 31
-6.25
  0
LINE
  5
5425
330
1E
100
AcDbEntity
  8
0
 48
0.27
100
AcDbLine
 10
117.7847370850347
 20
28.50001933103298
 30
-6.25
 11
118.3254570850347
 21
28.55766333103302
 31
-6.25
  0
LINE
  5
5426
330
1E
100
AcDbEntity
  8
0
 48
0.27
100
AcDbLine
 10
118.3254570850347
 20
34.44237533103289
 30
-6.25
 11
118.8453970850346
 21
34.27165733103292
 31
-6.25
  0
LINE
  5
5427
330
1E
100
AcDbEntity
  8
0
 48
0.27
100
AcDbLine
 10
118.3254570850347
 20
28.55766333103302
 30
-6.25
 11
118.8453970850346
 21
28.72838033103296
 31
-6.25
  0
LINE
  5
5428
330
1E
100
AcDbEntity
  8
0
 48
0.27
100
AcDbLine
 10
118.8453970850346
 20
34.27165733103292
 30
-6.25
 11
119.3245770850347
 21
33.99442833103295
 31
-6.25
  0
LINE
  5
5429
330
1E
100
AcDbEntity
  8
0
 48
0.27
100
AcDbLine
 10
118.8453970850346
 20
28.72838033103296
 30
-6.25
 11
119.3245770850347
 21
29.00561033103297
 31
-6.25
  0
LINE
  5
542A
330
1E
100
AcDbEntity
  8
0
 48
0.27
100
AcDbLine
 10
119.3245770850347
 20
33.99442833103295
 30
-6.25
 11
119.7445810850346
 21
33.62133933103296
 31
-6.25
  0
LINE
  5
542B
330
1E
100
AcDbEntity
  8
0
 48
0.27
100
AcDbLine
 10
119.3245770850347
 20
29.00561033103297
 30
-6.25
 11
119.7445810850346
 21
29.37869833103293
 31
-6.25
  0
LINE
  5
542C
330
1E
100
AcDbEntity
  8
0
 48
0.27
100
AcDbLine
 10
119.3849430850347
 20
34.50001933103293
 30
-6.25
 11
120.9851490850347
 21
31.50001933103296
 31
-6.25
  0
LINE
  5
542D
330
1E
100
AcDbEntity
  8
0
 48
0.27
100
AcDbLine
 10
120.9851490850347
 20
31.50001933103296
 30
-6.25
 11
119.3849430850347
 21
28.50001933103298
 31
-6.25
  0
LINE
  5
542E
330
1E
100
AcDbEntity
  8
0
 48
0.27
100
AcDbLine
 10
119.7445810850346
 20
33.62133933103296
 30
-6.25
 11
120.0892700850346
 21
33.16672933103295
 31
-6.25
  0
LINE
  5
542F
330
1E
100
AcDbEntity
  8
0
 48
0.27
100
AcDbLine
 10
120.0892700850346
 20
29.83330833103293
 30
-6.25
 11
119.7445810850346
 21
29.37869833103293
 31
-6.25
  0
LINE
  5
5430
330
1E
100
AcDbEntity
  8
0
 48
0.27
100
AcDbLine
 10
120.0892700850346
 20
33.16672933103295
 30
-6.25
 11
120.3453970850347
 21
32.64806933103294
 31
-6.25
  0
LINE
  5
5431
330
1E
100
AcDbEntity
  8
0
 48
0.27
100
AcDbLine
 10
120.3453970850347
 20
30.35196833103301
 30
-6.25
 11
120.0892700850346
 21
29.83330833103293
 31
-6.25
  0
LINE
  5
5432
330
1E
100
AcDbEntity
  8
0
 48
0.27
100
AcDbLine
 10
120.3453970850347
 20
32.64806933103294
 30
-6.25
 11
120.5031190850346
 21
32.08529033103299
 31
-6.25
  0
LINE
  5
5433
330
1E
100
AcDbEntity
  8
0
 48
0.27
100
AcDbLine
 10
120.5031190850346
 20
30.91474833103292
 30
-6.25
 11
120.3453970850347
 21
30.35196833103301
 31
-6.25
  0
LINE
  5
5434
330
1E
100
AcDbEntity
  8
0
 48
0.27
100
AcDbLine
 10
120.5031190850346
 20
32.08529033103299
 30
-6.25
 11
120.5563750850346
 21
31.50001933103296
 31
-6.25
  0
LINE
  5
5435
330
1E
100
AcDbEntity
  8
0
 48
0.27
100
AcDbLine
 10
120.5563750850346
 20
31.50001933103296
 30
-6.25
 11
120.5031190850346
 21
30.91474833103292
 31
-6.25
  0
LINE
  5
5436
330
1E
100
AcDbEntity
  8
0
 48
0.27
100
AcDbLine
 10
114.8808400850347
 20
33.14024633103291
 30
-6.25
 11
114.8838110850347
 21
33.13863133103295
 31
-6.25
  0
LINE
  5
5437
330
1E
100
AcDbEntity
  8
0
 48
0.27
100
AcDbLine
 10
114.8808400850347
 20
29.85979133103298
 30
-6.25
 11
114.8838110850347
 21
29.86140733103296
 31
-6.25
  0
LINE
  5
5438
330
1E
100
AcDbEntity
  8
0
 48
0.27
100
AcDbLine
 10
113.7681300850347
 20
31.99816133103296
 30
-6.25
 11
113.7228020850347
 21
31.50001933103296
 31
-6.25
  0
LINE
  5
5439
330
1E
100
AcDbEntity
  8
0
 48
0.27
100
AcDbLine
 10
113.9023720850347
 20
32.47715933103295
 30
-6.25
 11
113.7681300850347
 21
31.99816133103296
 31
-6.25
  0
LINE
  5
543A
330
1E
100
AcDbEntity
  8
0
 48
0.27
100
AcDbLine
 10
113.7228020850347
 20
31.50001933103296
 30
-6.25
 11
113.7681300850347
 21
31.00187733103295
 31
-6.25
  0
LINE
  5
543B
330
1E
100
AcDbEntity
  8
0
 48
0.27
100
AcDbLine
 10
114.1203690850347
 20
32.91860733103296
 30
-6.25
 11
113.9023720850347
 21
32.47715933103295
 31
-6.25
  0
LINE
  5
543C
330
1E
100
AcDbEntity
  8
0
 48
0.27
100
AcDbLine
 10
113.7681300850347
 20
31.00187733103295
 30
-6.25
 11
113.9023720850347
 21
30.52287833103294
 31
-6.25
  0
LINE
  5
543D
330
1E
100
AcDbEntity
  8
0
 48
0.27
100
AcDbLine
 10
114.4137450850347
 20
33.30553933103299
 30
-6.25
 11
114.1203690850347
 21
32.91860733103296
 31
-6.25
  0
LINE
  5
543E
330
1E
100
AcDbEntity
  8
0
 48
0.27
100
AcDbLine
 10
113.9023720850347
 20
30.52287833103294
 30
-6.25
 11
114.1203690850347
 21
30.08143133103295
 31
-6.25
  0
LINE
  5
543F
330
1E
100
AcDbEntity
  8
0
 48
0.27
100
AcDbLine
 10
114.4137450850347
 20
33.30553933103299
 30
-6.25
 11
114.7712230850347
 21
33.62308633103295
 31
-6.25
  0
LINE
  5
5440
330
1E
100
AcDbEntity
  8
0
 48
0.27
100
AcDbLine
 10
114.1203690850347
 20
30.08143133103295
 30
-6.25
 11
114.4137450850347
 21
29.69449933103293
 31
-6.25
  0
LINE
  5
5441
330
1E
100
AcDbEntity
  8
0
 48
0.27
100
AcDbLine
 10
113.9168330850347
 20
31.84955533103296
 30
-6.25
 11
113.8850270850347
 21
31.50001933103296
 31
-6.25
  0
LINE
  5
5442
330
1E
100
AcDbEntity
  8
0
 48
0.27
100
AcDbLine
 10
114.0110280850347
 20
32.18565933103296
 30
-6.25
 11
113.9168330850347
 21
31.84955533103296
 31
-6.25
  0
LINE
  5
5443
330
1E
100
AcDbEntity
  8
0
 48
0.27
100
AcDbLine
 10
113.8850270850347
 20
31.50001933103296
 30
-6.25
 11
113.9168330850347
 21
31.15048333103295
 31
-6.25
  0
LINE
  5
5444
330
1E
100
AcDbEntity
  8
0
 48
0.27
100
AcDbLine
 10
114.1639920850347
 20
32.49541433103293
 30
-6.25
 11
114.0110280850347
 21
32.18565933103296
 31
-6.25
  0
LINE
  5
5445
330
1E
100
AcDbEntity
  8
0
 48
0.27
100
AcDbLine
 10
113.9168330850347
 20
31.15048333103295
 30
-6.25
 11
114.0110280850347
 21
30.81437933103295
 31
-6.25
  0
LINE
  5
5446
330
1E
100
AcDbEntity
  8
0
 48
0.27
100
AcDbLine
 10
114.7712230850347
 20
33.62308633103295
 30
-6.25
 11
115.1790680850347
 21
33.85904533103293
 31
-6.25
  0
LINE
  5
5447
330
1E
100
AcDbEntity
  8
0
 48
0.27
100
AcDbLine
 10
114.4137450850347
 20
29.69449933103293
 30
-6.25
 11
114.7712230850347
 21
29.37695233103296
 31
-6.25
  0
LINE
  5
5448
330
1E
100
AcDbEntity
  8
0
 48
0.27
100
AcDbLine
 10
114.3698480850347
 20
32.76691633103296
 30
-6.25
 11
114.1639920850347
 21
32.49541433103293
 31
-6.25
  0
LINE
  5
5449
330
1E
100
AcDbEntity
  8
0
 48
0.27
100
AcDbLine
 10
114.0110280850347
 20
30.81437933103295
 30
-6.25
 11
114.1639920850347
 21
30.50462433103298
 31
-6.25
  0
LINE
  5
544A
330
1E
100
AcDbEntity
  8
0
 48
0.27
100
AcDbLine
 10
115.1790680850347
 20
33.85904533103293
 30
-6.25
 11
115.6216050850347
 21
34.00434733103288
 31
-6.25
  0
LINE
  5
544B
330
1E
100
AcDbEntity
  8
0
 48
0.27
100
AcDbLine
 10
114.7712230850347
 20
29.37695233103296
 30
-6.25
 11
115.1790680850347
 21
29.14099333103296
 31
-6.25
  0
LINE
  5
544C
330
1E
100
AcDbEntity
  8
0
 48
0.27
100
AcDbLine
 10
114.3698480850347
 20
32.76691633103296
 30
-6.25
 11
114.6206830850347
 21
32.98973333103292
 31
-6.25
  0
LINE
  5
544D
330
1E
100
AcDbEntity
  8
0
 48
0.27
100
AcDbLine
 10
114.1639920850347
 20
30.50462433103298
 30
-6.25
 11
114.3698480850347
 21
30.23312133103301
 31
-6.25
  0
LINE
  5
544E
330
1E
100
AcDbEntity
  8
0
 48
0.27
100
AcDbLine
 10
115.6216050850347
 20
34.00434733103288
 30
-6.25
 11
116.0818280850347
 21
34.05341033103293
 31
-6.25
  0
LINE
  5
544F
330
1E
100
AcDbEntity
  8
0
 48
0.27
100
AcDbLine
 10
115.1790680850347
 20
29.14099333103296
 30
-6.25
 11
115.6216050850347
 21
28.99569033103294
 31
-6.25
  0
LINE
  5
5450
330
1E
100
AcDbEntity
  8
0
 48
0.27
100
AcDbLine
 10
114.6206830850347
 20
32.98973333103292
 30
-6.25
 11
114.9068600850347
 21
33.1553003310329
 31
-6.25
  0
LINE
  5
5451
330
1E
100
AcDbEntity
  8
0
 48
0.27
100
AcDbLine
 10
114.3698480850347
 20
30.23312133103301
 30
-6.25
 11
114.6206830850347
 21
30.01030533103299
 31
-6.25
  0
LINE
  5
5452
330
1E
100
AcDbEntity
  8
0
 48
0.27
100
AcDbLine
 10
116.6864870850347
 20
33.97700033103292
 30
-6.25
 11
117.1241910850347
 21
33.83328433103291
 31
-6.25
  0
LINE
  5
5453
330
1E
100
AcDbEntity
  8
0
 48
0.27
100
AcDbLine
 10
114.9068600850347
 20
33.1553003310329
 30
-6.25
 11
115.2173790850347
 21
33.25725633103293
 31
-6.25
  0
LINE
  5
5454
330
1E
100
AcDbEntity
  8
0
 48
0.27
100
AcDbLine
 10
114.6206830850347
 20
30.01030533103299
 30
-6.25
 11
114.9068600850347
 21
29.84473733103298
 31
-6.25
  0
LINE
  5
5455
330
1E
100
AcDbEntity
  8
0
 48
0.27
100
AcDbLine
 10
116.5420510850347
 20
34.00434733103288
 30
-6.25
 11
116.6864870850347
 21
33.97700033103292
 31
-6.25
  0
LINE
  5
5456
330
1E
100
AcDbEntity
  8
0
 48
0.27
100
AcDbLine
 10
116.0818280850347
 20
34.05341033103293
 30
-6.25
 11
116.5420510850347
 21
34.00434733103288
 31
-6.25
  0
LINE
  5
5457
330
1E
100
AcDbEntity
  8
0
 48
0.27
100
AcDbLine
 10
115.6216050850347
 20
28.99569033103294
 30
-6.25
 11
116.0818280850347
 21
28.94662833103298
 31
-6.25
  0
LINE
  5
5458
330
1E
100
AcDbEntity
  8
0
 48
0.27
100
AcDbLine
 10
117.1241910850347
 20
33.83328433103291
 30
-6.25
 11
117.5275820850347
 21
33.59990233103293
 31
-6.25
  0
LINE
  5
5459
330
1E
100
AcDbEntity
  8
0
 48
0.27
100
AcDbLine
 10
116.6864870850347
 20
29.02303833103299
 30
-6.25
 11
117.1241910850347
 21
29.166754331033
 31
-6.25
  0
LINE
  5
545A
330
1E
100
AcDbEntity
  8
0
 48
0.27
100
AcDbLine
 10
117.5275820850347
 20
33.59990233103293
 30
-6.25
 11
117.8811570850347
 21
33.28582333103294
 31
-6.25
  0
LINE
  5
545B
330
1E
100
AcDbEntity
  8
0
 48
0.27
100
AcDbLine
 10
117.1241910850347
 20
29.166754331033
 30
-6.25
 11
117.5275820850347
 21
29.40013633103298
 31
-6.25
  0
LINE
  5
545C
330
1E
100
AcDbEntity
  8
0
 48
0.27
100
AcDbLine
 10
115.2173790850347
 20
33.25725633103293
 30
-6.25
 11
115.5403090850347
 21
33.29168233103295
 31
-6.25
  0
LINE
  5
545D
330
1E
100
AcDbEntity
  8
0
 48
0.27
100
AcDbLine
 10
114.9068600850347
 20
29.84473733103298
 30
-6.25
 11
115.2173790850347
 21
29.74278133103295
 31
-6.25
  0
LINE
  5
545E
330
1E
100
AcDbEntity
  8
0
 48
0.27
100
AcDbLine
 10
116.5420510850347
 20
34.00434733103288
 30
-6.25
 11
116.9845880850347
 21
33.85904533103293
 31
-6.25
  0
LINE
  5
545F
330
1E
100
AcDbEntity
  8
0
 48
0.27
100
AcDbLine
 10
116.5420510850347
 20
28.99569033103294
 30
-6.25
 11
116.6864870850347
 21
29.02303833103299
 31
-6.25
  0
LINE
  5
5460
330
1E
100
AcDbEntity
  8
0
 48
0.27
100
AcDbLine
 10
116.0818280850347
 20
28.94662833103298
 30
-6.25
 11
116.5420510850347
 21
28.99569033103294
 31
-6.25
  0
LINE
  5
5461
330
1E
100
AcDbEntity
  8
0
 48
0.27
100
AcDbLine
 10
117.8811570850347
 20
33.28582333103294
 30
-6.25
 11
118.1713280850347
 21
32.90311633103293
 31
-6.25
  0
LINE
  5
5462
330
1E
100
AcDbEntity
  8
0
 48
0.27
100
AcDbLine
 10
117.5275820850347
 20
29.40013633103298
 30
-6.25
 11
117.8811570850347
 21
29.71421533103294
 31
-6.25
  0
LINE
  5
5463
330
1E
100
AcDbEntity
  8
0
 48
0.27
100
AcDbLine
 10
115.5403090850347
 20
33.29168233103295
 30
-6.25
 11
115.8632380850347
 21
33.25725633103293
 31
-6.25
  0
LINE
  5
5464
330
1E
100
AcDbEntity
  8
0
 48
0.27
100
AcDbLine
 10
115.2173790850347
 20
29.74278133103295
 30
-6.25
 11
115.5403090850347
 21
29.70835533103299
 31
-6.25
  0
LINE
  5
5465
330
1E
100
AcDbEntity
  8
0
 48
0.27
100
AcDbLine
 10
116.9845880850347
 20
33.85904533103293
 30
-6.25
 11
117.3924320850347
 21
33.62308633103295
 31
-6.25
  0
LINE
  5
5466
330
1E
100
AcDbEntity
  8
0
 48
0.27
100
AcDbLine
 10
116.5420510850347
 20
28.99569033103294
 30
-6.25
 11
116.9845880850347
 21
29.14099333103296
 31
-6.25
  0
LINE
  5
5467
330
1E
100
AcDbEntity
  8
0
 48
0.27
100
AcDbLine
 10
118.1713280850347
 20
32.90311633103293
 30
-6.25
 11
118.3869450850347
 21
32.46648933103294
 31
-6.25
  0
LINE
  5
5468
330
1E
100
AcDbEntity
  8
0
 48
0.27
100
AcDbLine
 10
118.1713280850347
 20
30.09692233103298
 30
-6.25
 11
117.8811570850347
 21
29.71421533103294
 31
-6.25
  0
LINE
  5
5469
330
1E
100
AcDbEntity
  8
0
 48
0.27
100
AcDbLine
 10
118.3869450850347
 20
32.46648933103294
 30
-6.25
 11
118.5197210850347
 21
31.99272133103296
 31
-6.25
  0
LINE
  5
546A
330
1E
100
AcDbEntity
  8
0
 48
0.27
100
AcDbLine
 10
118.3869450850347
 20
30.53354933103297
 30
-6.25
 11
118.1713280850347
 21
30.09692233103298
 31
-6.25
  0
LINE
  5
546B
330
1E
100
AcDbEntity
  8
0
 48
0.27
100
AcDbLine
 10
117.3924320850347
 20
33.62308633103295
 30
-6.25
 11
117.7499110850346
 21
33.30553933103299
 31
-6.25
  0
LINE
  5
546C
330
1E
100
AcDbEntity
  8
0
 48
0.27
100
AcDbLine
 10
116.9845880850347
 20
29.14099333103296
 30
-6.25
 11
117.3924320850347
 21
29.37695233103296
 31
-6.25
  0
LINE
  5
546D
330
1E
100
AcDbEntity
  8
0
 48
0.27
100
AcDbLine
 10
118.5197210850347
 20
31.99272133103296
 30
-6.25
 11
118.5645540850347
 21
31.50001933103296
 31
-6.25
  0
LINE
  5
546E
330
1E
100
AcDbEntity
  8
0
 48
0.27
100
AcDbLine
 10
118.5197210850347
 20
31.00731733103295
 30
-6.25
 11
118.3869450850347
 21
30.53354933103297
 31
-6.25
  0
LINE
  5
546F
330
1E
100
AcDbEntity
  8
0
 48
0.27
100
AcDbLine
 10
115.8632380850347
 20
33.25725633103293
 30
-6.25
 11
116.1737570850347
 21
33.1553003310329
 31
-6.25
  0
LINE
  5
5470
330
1E
100
AcDbEntity
  8
0
 48
0.27
100
AcDbLine
 10
115.5403090850347
 20
29.70835533103299
 30
-6.25
 11
115.8632380850347
 21
29.74278133103295
 31
-6.25
  0
LINE
  5
5471
330
1E
100
AcDbEntity
  8
0
 48
0.27
100
AcDbLine
 10
118.5645540850347
 20
31.50001933103296
 30
-6.25
 11
118.5197210850347
 21
31.00731733103295
 31
-6.25
  0
LINE
  5
5472
330
1E
100
AcDbEntity
  8
0
 48
0.27
100
AcDbLine
 10
117.7499110850346
 20
33.30553933103299
 30
-6.25
 11
118.0432860850347
 21
32.91860733103296
 31
-6.25
  0
LINE
  5
5473
330
1E
100
AcDbEntity
  8
0
 48
0.27
100
AcDbLine
 10
117.3924320850347
 20
29.37695233103296
 30
-6.25
 11
117.7499110850346
 21
29.69449933103293
 31
-6.25
  0
LINE
  5
5474
330
1E
100
AcDbEntity
  8
0
 48
0.27
100
AcDbLine
 10
116.1737570850347
 20
33.1553003310329
 30
-6.25
 11
116.4599340850347
 21
32.98973333103292
 31
-6.25
  0
LINE
  5
5475
330
1E
100
AcDbEntity
  8
0
 48
0.27
100
AcDbLine
 10
115.8632380850347
 20
29.74278133103295
 30
-6.25
 11
116.1737570850347
 21
29.84473733103298
 31
-6.25
  0
LINE
  5
5476
330
1E
100
AcDbEntity
  8
0
 48
0.27
100
AcDbLine
 10
118.0432860850347
 20
32.91860733103296
 30
-6.25
 11
118.2612830850347
 21
32.47715933103295
 31
-6.25
  0
LINE
  5
5477
330
1E
100
AcDbEntity
  8
0
 48
0.27
100
AcDbLine
 10
118.0432860850347
 20
30.08143133103295
 30
-6.25
 11
117.7499110850346
 21
29.69449933103293
 31
-6.25
  0
LINE
  5
5478
330
1E
100
AcDbEntity
  8
0
 48
0.27
100
AcDbLine
 10
118.2612830850347
 20
32.47715933103295
 30
-6.25
 11
118.3955260850346
 21
31.99816133103296
 31
-6.25
  0
LINE
  5
5479
330
1E
100
AcDbEntity
  8
0
 48
0.27
100
AcDbLine
 10
118.2612830850347
 20
30.52287833103294
 30
-6.25
 11
118.0432860850347
 21
30.08143133103295
 31
-6.25
  0
LINE
  5
547A
330
1E
100
AcDbEntity
  8
0
 48
0.27
100
AcDbLine
 10
116.4599340850347
 20
32.98973333103292
 30
-6.25
 11
116.7107690850347
 21
32.76691633103296
 31
-6.25
  0
LINE
  5
547B
330
1E
100
AcDbEntity
  8
0
 48
0.27
100
AcDbLine
 10
116.1737570850347
 20
29.84473733103298
 30
-6.25
 11
116.4599340850347
 21
30.01030533103299
 31
-6.25
  0
LINE
  5
547C
330
1E
100
AcDbEntity
  8
0
 48
0.27
100
AcDbLine
 10
118.3955260850346
 20
31.99816133103296
 30
-6.25
 11
118.4408540850347
 21
31.50001933103296
 31
-6.25
  0
LINE
  5
547D
330
1E
100
AcDbEntity
  8
0
 48
0.27
100
AcDbLine
 10
118.3955260850346
 20
31.00187733103295
 30
-6.25
 11
118.2612830850347
 21
30.52287833103294
 31
-6.25
  0
LINE
  5
547E
330
1E
100
AcDbEntity
  8
0
 48
0.27
100
AcDbLine
 10
118.4408540850347
 20
31.50001933103296
 30
-6.25
 11
118.3955260850346
 21
31.00187733103295
 31
-6.25
  0
LINE
  5
547F
330
1E
100
AcDbEntity
  8
0
 48
0.27
100
AcDbLine
 10
116.7107690850347
 20
32.76691633103296
 30
-6.25
 11
116.9166250850347
 21
32.49541433103293
 31
-6.25
  0
LINE
  5
5480
330
1E
100
AcDbEntity
  8
0
 48
0.27
100
AcDbLine
 10
116.4599340850347
 20
30.01030533103299
 30
-6.25
 11
116.7107690850347
 21
30.23312133103301
 31
-6.25
  0
LINE
  5
5481
330
1E
100
AcDbEntity
  8
0
 48
0.27
100
AcDbLine
 10
116.9166250850347
 20
32.49541433103293
 30
-6.25
 11
117.0695890850347
 21
32.18565933103296
 31
-6.25
  0
LINE
  5
5482
330
1E
100
AcDbEntity
  8
0
 48
0.27
100
AcDbLine
 10
116.9166250850347
 20
30.50462433103298
 30
-6.25
 11
116.7107690850347
 21
30.23312133103301
 31
-6.25
  0
LINE
  5
5483
330
1E
100
AcDbEntity
  8
0
 48
0.27
100
AcDbLine
 10
117.0695890850347
 20
32.18565933103296
 30
-6.25
 11
117.1637840850347
 21
31.84955533103296
 31
-6.25
  0
LINE
  5
5484
330
1E
100
AcDbEntity
  8
0
 48
0.27
100
AcDbLine
 10
117.0695890850347
 20
30.81437933103295
 30
-6.25
 11
116.9166250850347
 21
30.50462433103298
 31
-6.25
  0
LINE
  5
5485
330
1E
100
AcDbEntity
  8
0
 48
0.27
100
AcDbLine
 10
117.1637840850347
 20
31.84955533103296
 30
-6.25
 11
117.1955900850347
 21
31.50001933103296
 31
-6.25
  0
LINE
  5
5486
330
1E
100
AcDbEntity
  8
0
 48
0.27
100
AcDbLine
 10
117.1637840850347
 20
31.15048333103295
 30
-6.25
 11
117.0695890850347
 21
30.81437933103295
 31
-6.25
  0
LINE
  5
5487
330
1E
100
AcDbEntity
  8
0
 48
0.27
100
AcDbLine
 10
117.1955900850347
 20
31.50001933103296
 30
-6.25
 11
117.1637840850347
 21
31.15048333103295
 31
-6.25
  0
POINT
  5
5488
330
1E
100
AcDbEntity
  8
0
100
AcDbPoint
 10
113.7228020850347
 20
31.50001933103296
 30
-6.25
1001
pntflag
1000
endpoint
  0
ARC
  5
5489
330
1E
100
AcDbEntity
  8
0
 48
0.27
100
AcDbCircle
 10
-0.0000000000001545
 20
31.49999999993296
 30
-12.5
 40
5.249999999999996
100
AcDbArc
 50
30.24329777399993
 51
329.7566907592998
  0
LWPOLYLINE
  5
548A
330
1E
100
AcDbEntity
  8
0
 48
0.27
100
AcDbPolyline
 90
       17
 70
     0
 43
0.0
 38
-12.5
 10
8.951687727299836
 20
31.49999999993296
 10
8.985236028699867
 20
31.28296275743295
 10
9.018127017899852
 20
31.22005852343297
 10
9.054697351699823
 20
31.19051688673295
 10
9.08867450909984
 20
31.19082416673297
 10
9.125167354899852
 20
31.22102845953296
 10
9.156511255899866
 20
31.28079843703295
 10
9.185897916599865
 20
31.41087141773295
 10
9.190865165399864
 20
31.49999999993296
 10
9.157318199999858
 20
31.71703590643295
 10
9.12442587479982
 20
31.77994014043296
 10
9.087855540999848
 20
31.80948177713296
 10
9.053879719599857
 20
31.80917449703295
 10
9.017385537799848
 20
31.77897020423295
 10
8.986042972799831
 20
31.71920022673296
 10
8.956654976099835
 20
31.58912724613295
 10
8.951687727299836
 20
31.49999999993296
  0
ARC
  5
548B
330
1E
100
AcDbEntity
  8
0
 48
0.27
100
AcDbCircle
 10
-0.0000000000001545
 20
31.49999999993296
 30
-12.5
 40
3.999999331999998
100
AcDbArc
 50
48.59037799889986
 51
311.4096220031999
  0
LINE
  5
548C
330
1E
100
AcDbEntity
  8
0
 48
0.27
100
AcDbLine
 10
2.886751770999831
 20
34.49999916493295
 30
-12.5
 11
2.309400615199843
 21
35.49999933193295
 31
-12.5
  0
LINE
  5
548D
330
1E
100
AcDbEntity
  8
0
 48
0.27
100
AcDbLine
 10
-2.309400615200159
 20
35.49999933193295
 30
-12.5
 11
2.309400615199843
 21
35.49999933193295
 31
-12.5
  0
LINE
  5
548E
330
1E
100
AcDbEntity
  8
0
 48
0.27
100
AcDbLine
 10
-2.309400615200159
 20
35.49999933193295
 30
-12.5
 11
-4.61880123040015
 21
31.49999999993296
 31
-12.5
  0
LINE
  5
548F
330
1E
100
AcDbEntity
  8
0
 48
0.27
100
AcDbLine
 10
-4.61880123040015
 20
31.49999999993296
 30
-12.5
 11
-2.309400615200159
 21
27.49999933193295
 31
-12.5
  0
LINE
  5
5490
330
1E
100
AcDbEntity
  8
0
 48
0.27
100
AcDbLine
 10
2.30940195119984
 20
27.49999933193295
 30
-12.5
 11
-2.309400615200159
 21
27.49999933193295
 31
-12.5
  0
LINE
  5
5491
330
1E
100
AcDbEntity
  8
0
 48
0.27
100
AcDbLine
 10
2.886751770999831
 20
28.49999949893295
 30
-12.5
 11
2.30940195119984
 21
27.49999933193295
 31
-12.5
  0
LINE
  5
5492
330
1E
100
AcDbEntity
  8
0
 48
0.27
100
AcDbLine
 10
1.301506022999847
 20
28.49999949893295
 30
-12.5
 11
4.315574606199826
 21
28.49999949893295
 31
-12.5
  0
LINE
  5
5493
330
1E
100
AcDbEntity
  8
0
 48
0.27
100
AcDbLine
 10
4.378473496199839
 20
34.21531221563296
 30
-12.5
 11
4.315574606199826
 21
34.49999916493295
 31
-12.5
  0
LINE
  5
5494
330
1E
100
AcDbEntity
  8
0
 48
0.27
100
AcDbLine
 10
4.315574606199826
 20
28.49999949893295
 30
-12.5
 11
4.378473496199839
 21
28.78468644823296
 31
-12.5
  0
LINE
  5
5495
330
1E
100
AcDbEntity
  8
0
 48
0.27
100
AcDbLine
 10
1.301506022999847
 20
34.49999916493295
 30
-12.5
 11
4.315574606199826
 21
34.49999916493295
 31
-12.5
  0
LINE
  5
5496
330
1E
100
AcDbEntity
  8
0
 48
0.27
100
AcDbLine
 10
3.876721248399841
 20
28.55764390013296
 30
-12.5
 11
5.878527854699834
 21
29.46345872413296
 31
-12.5
  0
LINE
  5
5497
330
1E
100
AcDbEntity
  8
0
 48
0.27
100
AcDbLine
 10
9.743742133299813
 20
31.15046360033295
 30
-12.5
 11
9.756916431399838
 21
31.49999999993296
 31
-12.5
  0
LINE
  5
5498
330
1E
100
AcDbEntity
  8
0
 48
0.27
100
AcDbLine
 10
9.704725583099852
 20
30.81435934693295
 30
-12.5
 11
9.743742133299813
 21
31.15046360033295
 31
-12.5
  0
LINE
  5
5499
330
1E
100
AcDbEntity
  8
0
 48
0.27
100
AcDbLine
 10
9.756916431399838
 20
31.49999999993296
 30
-12.5
 11
9.743742133299813
 21
31.84953639953296
 31
-12.5
  0
LINE
  5
549A
330
1E
100
AcDbEntity
  8
0
 48
0.27
100
AcDbLine
 10
3.652747492799841
 20
28.49999949893295
 30
-12.5
 11
3.876721248399841
 21
28.55764390013296
 31
-12.5
  0
LINE
  5
549B
330
1E
100
AcDbEntity
  8
0
 48
0.27
100
AcDbLine
 10
3.652747492799841
 20
34.49999916493295
 30
-12.5
 11
3.876721248399841
 21
34.44235476373295
 31
-12.5
  0
LINE
  5
549C
330
1E
100
AcDbEntity
  8
0
 48
0.27
100
AcDbLine
 10
3.876721248399841
 20
34.44235476373295
 30
-12.5
 11
5.878527854699834
 21
33.53653993973296
 31
-12.5
  0
LINE
  5
549D
330
1E
100
AcDbEntity
  8
0
 48
0.27
100
AcDbLine
 10
9.641365772999842
 20
30.50460502563295
 30
-12.5
 11
9.704725583099852
 21
30.81435934693295
 31
-12.5
  0
LINE
  5
549E
330
1E
100
AcDbEntity
  8
0
 48
0.27
100
AcDbLine
 10
9.743742133299813
 20
31.84953639953296
 30
-12.5
 11
9.704725583099852
 21
32.18563931693295
 31
-12.5
  0
LINE
  5
549F
330
1E
100
AcDbEntity
  8
0
 48
0.27
100
AcDbLine
 10
9.556096895399827
 20
30.23310172653296
 30
-12.5
 11
9.641365772999842
 21
30.50460502563295
 31
-12.5
  0
LINE
  5
54A0
330
1E
100
AcDbEntity
  8
0
 48
0.27
100
AcDbLine
 10
8.796742430699817
 20
29.86169099543296
 30
-12.5
 11
8.798640886999828
 21
29.86261951553295
 31
-12.5
  0
LINE
  5
54A1
330
1E
100
AcDbEntity
  8
0
 48
0.27
100
AcDbLine
 10
9.704725583099852
 20
32.18563931693295
 30
-12.5
 11
9.641365772999842
 21
32.49539497423296
 31
-12.5
  0
LINE
  5
54A2
330
1E
100
AcDbEntity
  8
0
 48
0.27
100
AcDbLine
 10
3.428773737199842
 20
28.55764390013296
 30
-12.5
 11
3.652747492799841
 21
28.49999949893295
 31
-12.5
  0
LINE
  5
54A3
330
1E
100
AcDbEntity
  8
0
 48
0.27
100
AcDbLine
 10
3.428773737199842
 20
34.44235476373295
 30
-12.5
 11
3.652747492799841
 21
34.49999916493295
 31
-12.5
  0
LINE
  5
54A4
330
1E
100
AcDbEntity
  8
0
 48
0.27
100
AcDbLine
 10
9.452197494899843
 20
30.01028494703296
 30
-12.5
 11
9.556096895399827
 21
30.23310172653296
 31
-12.5
  0
LINE
  5
54A5
330
1E
100
AcDbEntity
  8
0
 48
0.27
100
AcDbLine
 10
9.641365772999842
 20
32.49539497423296
 30
-12.5
 11
9.556096895399827
 21
32.76689693733295
 31
-12.5
  0
LINE
  5
54A6
330
1E
100
AcDbEntity
  8
0
 48
0.27
100
AcDbLine
 10
5.878527854699834
 20
29.46345872413296
 30
-12.5
 11
6.11965050899982
 21
29.56186181973298
 31
-12.5
  0
LINE
  5
54A7
330
1E
100
AcDbEntity
  8
0
 48
0.27
100
AcDbLine
 10
5.878527854699834
 20
33.53653993973296
 30
-12.5
 11
6.11965050899982
 21
33.43813818013295
 31
-12.5
  0
LINE
  5
54A8
330
1E
100
AcDbEntity
  8
0
 48
0.27
100
AcDbLine
 10
9.333659540099839
 20
29.84471844873296
 30
-12.5
 11
9.452197494899843
 21
30.01028494703296
 31
-12.5
  0
LINE
  5
54A9
330
1E
100
AcDbEntity
  8
0
 48
0.27
100
AcDbLine
 10
9.556096895399827
 20
32.76689693733295
 30
-12.5
 11
9.452197494899843
 21
32.98971371683297
 31
-12.5
  0
LINE
  5
54AA
330
1E
100
AcDbEntity
  8
0
 48
0.27
100
AcDbLine
 10
3.213407830899834
 20
28.72836067923295
 30
-12.5
 11
3.428773737199842
 21
28.55764390013296
 31
-12.5
  0
LINE
  5
54AB
330
1E
100
AcDbEntity
  8
0
 48
0.27
100
AcDbLine
 10
3.213407830899834
 20
34.27163798463296
 30
-12.5
 11
3.428773737199842
 21
34.44235476373295
 31
-12.5
  0
LINE
  5
54AC
330
1E
100
AcDbEntity
  8
0
 48
0.27
100
AcDbLine
 10
6.11965050899982
 20
29.56186181973298
 30
-12.5
 11
6.334574199199829
 21
29.55273426633296
 31
-12.5
  0
LINE
  5
54AD
330
1E
100
AcDbEntity
  8
0
 48
0.27
100
AcDbLine
 10
6.11965050899982
 20
33.43813818013295
 30
-12.5
 11
6.334574199199829
 21
33.44726439753294
 31
-12.5
  0
LINE
  5
54AE
330
1E
100
AcDbEntity
  8
0
 48
0.27
100
AcDbLine
 10
7.954563968799854
 20
28.99567160973296
 30
-12.5
 11
9.205038791599827
 21
29.74276159253296
 31
-12.5
  0
LINE
  5
54AF
330
1E
100
AcDbEntity
  8
0
 48
0.27
100
AcDbLine
 10
9.205038791599827
 20
29.74276159253296
 30
-12.5
 11
9.333659540099839
 21
29.84471844873296
 31
-12.5
  0
LINE
  5
54B0
330
1E
100
AcDbEntity
  8
0
 48
0.27
100
AcDbLine
 10
9.452197494899843
 20
32.98971371683297
 30
-12.5
 11
9.333659540099839
 21
33.15528021513294
 31
-12.5
  0
LINE
  5
54B1
330
1E
100
AcDbEntity
  8
0
 48
0.27
100
AcDbLine
 10
0.6386789095998413
 20
31.49999999993296
 30
-12.5
 11
1.301506022999847
 21
34.49999916493295
 31
-12.5
  0
LINE
  5
54B2
330
1E
100
AcDbEntity
  8
0
 48
0.27
100
AcDbLine
 10
0.6386789095998413
 20
31.49999999993296
 30
-12.5
 11
2.327093265999844
 21
31.49999999993296
 31
-12.5
  0
LINE
  5
54B3
330
1E
100
AcDbEntity
  8
0
 48
0.27
100
AcDbLine
 10
1.301506022999847
 20
28.49999949893295
 30
-12.5
 11
0.6386789095998413
 21
31.49999999993296
 31
-12.5
  0
LINE
  5
54B4
330
1E
100
AcDbEntity
  8
0
 48
0.27
100
AcDbLine
 10
3.213407830899834
 20
28.72836067923295
 30
-12.5
 11
3.014924959399843
 21
29.00559007533296
 31
-12.5
  0
LINE
  5
54B5
330
1E
100
AcDbEntity
  8
0
 48
0.27
100
AcDbLine
 10
3.014924959399843
 20
33.99440858853294
 30
-12.5
 11
3.213407830899834
 21
34.27163798463296
 31
-12.5
  0
LINE
  5
54B6
330
1E
100
AcDbEntity
  8
0
 48
0.27
100
AcDbLine
 10
7.763934106499826
 20
28.94660833793295
 30
-12.5
 11
7.954563968799854
 21
28.99567160973296
 31
-12.5
  0
LINE
  5
54B7
330
1E
100
AcDbEntity
  8
0
 48
0.27
100
AcDbLine
 10
7.403101825099819
 20
28.97449199833296
 30
-12.5
 11
7.763934106499826
 21
28.94660833793295
 31
-12.5
  0
LINE
  5
54B8
330
1E
100
AcDbEntity
  8
0
 48
0.27
100
AcDbLine
 10
6.334574199199829
 20
29.55273426633296
 30
-12.5
 11
6.888521303299834
 21
29.18751723223295
 31
-12.5
  0
LINE
  5
54B9
330
1E
100
AcDbEntity
  8
0
 48
0.27
100
AcDbLine
 10
9.07127711429984
 20
29.70833553903295
 30
-12.5
 11
9.205038791599827
 21
29.74276159253296
 31
-12.5
  0
LINE
  5
54BA
330
1E
100
AcDbEntity
  8
0
 48
0.27
100
AcDbLine
 10
7.954563968799854
 20
34.00432839013294
 30
-12.5
 11
9.205038791599827
 21
33.25723707133296
 31
-12.5
  0
LINE
  5
54BB
330
1E
100
AcDbEntity
  8
0
 48
0.27
100
AcDbLine
 10
9.205038791599827
 20
33.25723707133296
 30
-12.5
 11
9.333659540099839
 21
33.15528021513294
 31
-12.5
  0
LINE
  5
54BC
330
1E
100
AcDbEntity
  8
0
 48
0.27
100
AcDbLine
 10
7.763934106499826
 20
34.05339032593296
 30
-12.5
 11
7.954563968799854
 21
34.00432839013294
 31
-12.5
  0
LINE
  5
54BD
330
1E
100
AcDbEntity
  8
0
 48
0.27
100
AcDbLine
 10
7.403101825099819
 20
34.02550800143296
 30
-12.5
 11
7.763934106499826
 21
34.05339032593296
 31
-12.5
  0
LINE
  5
54BE
330
1E
100
AcDbEntity
  8
0
 48
0.27
100
AcDbLine
 10
6.143738592899831
 20
29.69723738533295
 30
-12.5
 11
6.283819551099833
 21
29.58619706363298
 31
-12.5
  0
LINE
  5
54BF
330
1E
100
AcDbEntity
  8
0
 48
0.27
100
AcDbLine
 10
6.888521303299834
 20
29.18751723223295
 30
-12.5
 11
7.214553451099826
 21
29.02301819813296
 31
-12.5
  0
LINE
  5
54C0
330
1E
100
AcDbEntity
  8
0
 48
0.27
100
AcDbLine
 10
7.214553451099826
 20
29.02301819813296
 30
-12.5
 11
7.403101825099819
 21
28.97449199833296
 31
-12.5
  0
LINE
  5
54C1
330
1E
100
AcDbEntity
  8
0
 48
0.27
100
AcDbLine
 10
6.334574199199829
 20
33.44726439753294
 30
-12.5
 11
6.888521303299834
 21
33.81248143163295
 31
-12.5
  0
LINE
  5
54C2
330
1E
100
AcDbEntity
  8
0
 48
0.27
100
AcDbLine
 10
6.143738592899831
 20
33.30276127853295
 30
-12.5
 11
6.283819551099833
 21
33.41380160023296
 31
-12.5
  0
LINE
  5
54C3
330
1E
100
AcDbEntity
  8
0
 48
0.27
100
AcDbLine
 10
3.014924959399843
 20
29.00559007533296
 30
-12.5
 11
2.840953683699831
 21
29.37867882263295
 31
-12.5
  0
LINE
  5
54C4
330
1E
100
AcDbEntity
  8
0
 48
0.27
100
AcDbLine
 10
2.840953683699831
 20
33.62131984123295
 30
-12.5
 11
3.014924959399843
 21
33.99440858853294
 31
-12.5
  0
LINE
  5
54C5
330
1E
100
AcDbEntity
  8
0
 48
0.27
100
AcDbLine
 10
7.573302908199815
 20
28.99567160973296
 30
-12.5
 11
7.763934106499826
 21
28.94660833793295
 31
-12.5
  0
LINE
  5
54C6
330
1E
100
AcDbEntity
  8
0
 48
0.27
100
AcDbLine
 10
7.214553451099826
 20
33.97698046573296
 30
-12.5
 11
7.403101825099819
 21
34.02550800143296
 31
-12.5
  0
LINE
  5
54C7
330
1E
100
AcDbEntity
  8
0
 48
0.27
100
AcDbLine
 10
6.888521303299834
 20
33.81248143163295
 30
-12.5
 11
7.214553451099826
 21
33.97698046573296
 31
-12.5
  0
LINE
  5
54C8
330
1E
100
AcDbEntity
  8
0
 48
0.27
100
AcDbLine
 10
2.989920379399856
 20
28.49999949893295
 30
-12.5
 11
2.327093265999844
 21
31.49999999993296
 31
-12.5
  0
LINE
  5
54C9
330
1E
100
AcDbEntity
  8
0
 48
0.27
100
AcDbLine
 10
2.327093265999844
 20
31.49999999993296
 30
-12.5
 11
2.989920379399856
 21
34.49999916493295
 31
-12.5
  0
LINE
  5
54CA
330
1E
100
AcDbEntity
  8
0
 48
0.27
100
AcDbLine
 10
6.143738592899831
 20
29.69723738533295
 30
-12.5
 11
6.014638220299838
 21
29.87755599793295
 31
-12.5
  0
LINE
  5
54CB
330
1E
100
AcDbEntity
  8
0
 48
0.27
100
AcDbLine
 10
8.937515437099827
 20
29.74276159253296
 30
-12.5
 11
9.07127711429984
 21
29.70833553903295
 31
-12.5
  0
LINE
  5
54CC
330
1E
100
AcDbEntity
  8
0
 48
0.27
100
AcDbLine
 10
9.07127711429984
 20
33.29166312483295
 30
-12.5
 11
9.205038791599827
 21
33.25723707133296
 31
-12.5
  0
LINE
  5
54CD
330
1E
100
AcDbEntity
  8
0
 48
0.27
100
AcDbLine
 10
7.573302908199815
 20
34.00432839013294
 30
-12.5
 11
7.763934106499826
 21
34.05339032593296
 31
-12.5
  0
LINE
  5
54CE
330
1E
100
AcDbEntity
  8
0
 48
0.27
100
AcDbLine
 10
6.719258092399835
 20
33.67830960223295
 30
-12.5
 11
6.888521303299834
 21
33.81248143163295
 31
-12.5
  0
LINE
  5
54CF
330
1E
100
AcDbEntity
  8
0
 48
0.27
100
AcDbLine
 10
6.014638220299838
 20
33.12244266593296
 30
-12.5
 11
6.143738592899831
 21
33.30276127853295
 31
-12.5
  0
LINE
  5
54D0
330
1E
100
AcDbEntity
  8
0
 48
0.27
100
AcDbLine
 10
2.840953683699831
 20
29.37867882263295
 30
-12.5
 11
2.698178012999841
 21
29.83328896693294
 31
-12.5
  0
LINE
  5
54D1
330
1E
100
AcDbEntity
  8
0
 48
0.27
100
AcDbLine
 10
2.698178012999841
 20
33.16670969693295
 30
-12.5
 11
2.840953683699831
 21
33.62131984123295
 31
-12.5
  0
LINE
  5
54D2
330
1E
100
AcDbEntity
  8
0
 48
0.27
100
AcDbLine
 10
6.014638220299838
 20
29.87755599793295
 30
-12.5
 11
5.901481674399841
 21
30.12022440453296
 31
-12.5
  0
LINE
  5
54D3
330
1E
100
AcDbEntity
  8
0
 48
0.27
100
AcDbLine
 10
7.389998334999839
 20
29.14097365683295
 30
-12.5
 11
7.573302908199815
 21
28.99567160973296
 31
-12.5
  0
LINE
  5
54D4
330
1E
100
AcDbEntity
  8
0
 48
0.27
100
AcDbLine
 10
5.901481674399841
 20
32.87977425933295
 30
-12.5
 11
6.014638220299838
 21
33.12244266593296
 31
-12.5
  0
LINE
  5
54D5
330
1E
100
AcDbEntity
  8
0
 48
0.27
100
AcDbLine
 10
8.808893352599818
 20
29.84471844873296
 30
-12.5
 11
8.937515437099827
 21
29.74276159253296
 31
-12.5
  0
LINE
  5
54D6
330
1E
100
AcDbEntity
  8
0
 48
0.27
100
AcDbLine
 10
7.389998334999839
 20
33.85902500703295
 30
-12.5
 11
7.573302908199815
 21
34.00432839013294
 31
-12.5
  0
LINE
  5
54D7
330
1E
100
AcDbEntity
  8
0
 48
0.27
100
AcDbLine
 10
8.937515437099827
 20
33.25723707133296
 30
-12.5
 11
9.07127711429984
 21
33.29166312483295
 31
-12.5
  0
LINE
  5
54D8
330
1E
100
AcDbEntity
  8
0
 48
0.27
100
AcDbLine
 10
5.901481674399841
 20
30.12022440453296
 30
-12.5
 11
5.808616299599842
 21
30.41591732353296
 31
-12.5
  0
LINE
  5
54D9
330
1E
100
AcDbEntity
  8
0
 48
0.27
100
AcDbLine
 10
2.698178012999841
 20
29.83328896693294
 30
-12.5
 11
2.592087572199838
 21
30.35194963343297
 31
-12.5
  0
LINE
  5
54DA
330
1E
100
AcDbEntity
  8
0
 48
0.27
100
AcDbLine
 10
2.592087572199838
 20
32.64805036643294
 30
-12.5
 11
2.698178012999841
 21
33.16670969693295
 31
-12.5
  0
LINE
  5
54DB
330
1E
100
AcDbEntity
  8
0
 48
0.27
100
AcDbLine
 10
5.808616299599842
 20
32.58408134033294
 30
-12.5
 11
5.901481674399841
 21
32.87977425933295
 31
-12.5
  0
LINE
  5
54DC
330
1E
100
AcDbEntity
  8
0
 48
0.27
100
AcDbLine
 10
7.389998334999839
 20
29.14097365683295
 30
-12.5
 11
7.221063780199822
 21
29.37693267033296
 31
-12.5
  0
LINE
  5
54DD
330
1E
100
AcDbEntity
  8
0
 48
0.27
100
AcDbLine
 10
5.808616299599842
 20
30.41591732353296
 30
-12.5
 11
5.739611888599833
 21
30.75327073723297
 31
-12.5
  0
LINE
  5
54DE
330
1E
100
AcDbEntity
  8
0
 48
0.27
100
AcDbLine
 10
2.592087572199838
 20
30.35194963343297
 30
-12.5
 11
2.526757161799837
 21
30.91472903483296
 31
-12.5
  0
LINE
  5
54DF
330
1E
100
AcDbEntity
  8
0
 48
0.27
100
AcDbLine
 10
2.526757161799837
 20
32.08527096493296
 30
-12.5
 11
2.592087572199838
 21
32.64805036643294
 31
-12.5
  0
LINE
  5
54E0
330
1E
100
AcDbEntity
  8
0
 48
0.27
100
AcDbLine
 10
8.808893352599818
 20
33.15528021513294
 30
-12.5
 11
8.937515437099827
 21
33.25723707133296
 31
-12.5
  0
LINE
  5
54E1
330
1E
100
AcDbEntity
  8
0
 48
0.27
100
AcDbLine
 10
8.808893352599818
 20
29.84471844873296
 30
-12.5
 11
8.690355397799857
 21
30.01028494703296
 31
-12.5
  0
LINE
  5
54E2
330
1E
100
AcDbEntity
  8
0
 48
0.27
100
AcDbLine
 10
7.221063780199822
 20
33.62306599353294
 30
-12.5
 11
7.389998334999839
 21
33.85902500703295
 31
-12.5
  0
LINE
  5
54E3
330
1E
100
AcDbEntity
  8
0
 48
0.27
100
AcDbLine
 10
5.739611888599833
 20
32.24672792663294
 30
-12.5
 11
5.808616299599842
 21
32.58408134033294
 31
-12.5
  0
LINE
  5
54E4
330
1E
100
AcDbEntity
  8
0
 48
0.27
100
AcDbLine
 10
5.739611888599833
 20
30.75327073723297
 30
-12.5
 11
5.697117729899838
 21
31.11932009943294
 31
-12.5
  0
LINE
  5
54E5
330
1E
100
AcDbEntity
  8
0
 48
0.27
100
AcDbLine
 10
2.526757161799837
 20
30.91472903483296
 30
-12.5
 11
2.504697126299847
 21
31.49999999993296
 31
-12.5
  0
LINE
  5
54E6
330
1E
100
AcDbEntity
  8
0
 48
0.27
100
AcDbLine
 10
2.504697126299847
 20
31.49999999993296
 30
-12.5
 11
2.526757161799837
 21
32.08527096493296
 31
-12.5
  0
LINE
  5
54E7
330
1E
100
AcDbEntity
  8
0
 48
0.27
100
AcDbLine
 10
5.697117729899838
 20
31.88067856443295
 30
-12.5
 11
5.739611888599833
 21
32.24672792663294
 31
-12.5
  0
LINE
  5
54E8
330
1E
100
AcDbEntity
  8
0
 48
0.27
100
AcDbLine
 10
5.697117729899838
 20
31.11932009943294
 30
-12.5
 11
5.682770423599842
 21
31.49999999993296
 31
-12.5
  0
LINE
  5
54E9
330
1E
100
AcDbEntity
  8
0
 48
0.27
100
AcDbLine
 10
5.682770423599842
 20
31.49999999993296
 30
-12.5
 11
5.697117729899838
 21
31.88067856443295
 31
-12.5
  0
LINE
  5
54EA
330
1E
100
AcDbEntity
  8
0
 48
0.27
100
AcDbLine
 10
7.221063780199822
 20
29.37693267033296
 30
-12.5
 11
7.072990868599839
 21
29.69447988083295
 31
-12.5
  0
LINE
  5
54EB
330
1E
100
AcDbEntity
  8
0
 48
0.27
100
AcDbLine
 10
8.690355397799857
 20
32.98971371683297
 30
-12.5
 11
8.808893352599818
 21
33.15528021513294
 31
-12.5
  0
LINE
  5
54EC
330
1E
100
AcDbEntity
  8
0
 48
0.27
100
AcDbLine
 10
8.690355397799857
 20
30.01028494703296
 30
-12.5
 11
8.586455997299816
 21
30.23310172653296
 31
-12.5
  0
LINE
  5
54ED
330
1E
100
AcDbEntity
  8
0
 48
0.27
100
AcDbLine
 10
7.072990868599839
 20
33.30552011903296
 30
-12.5
 11
7.221063780199822
 21
33.62306599353294
 31
-12.5
  0
LINE
  5
54EE
330
1E
100
AcDbEntity
  8
0
 48
0.27
100
AcDbLine
 10
8.586455997299816
 20
32.76689693733295
 30
-12.5
 11
8.690355397799857
 21
32.98971371683297
 31
-12.5
  0
LINE
  5
54EF
330
1E
100
AcDbEntity
  8
0
 48
0.27
100
AcDbLine
 10
7.072990868599839
 20
29.69447988083295
 30
-12.5
 11
6.951470961299841
 21
30.08141092633295
 31
-12.5
  0
LINE
  5
54F0
330
1E
100
AcDbEntity
  8
0
 48
0.27
100
AcDbLine
 10
8.586455997299816
 20
30.23310172653296
 30
-12.5
 11
8.501188455699812
 21
30.50460502563295
 31
-12.5
  0
LINE
  5
54F1
330
1E
100
AcDbEntity
  8
0
 48
0.27
100
AcDbLine
 10
6.951470961299841
 20
32.91858773743296
 30
-12.5
 11
7.072990868599839
 21
33.30552011903296
 31
-12.5
  0
LINE
  5
54F2
330
1E
100
AcDbEntity
  8
0
 48
0.27
100
AcDbLine
 10
8.501188455699812
 20
32.49539497423296
 30
-12.5
 11
8.586455997299816
 21
32.76689693733295
 31
-12.5
  0
LINE
  5
54F3
330
1E
100
AcDbEntity
  8
0
 48
0.27
100
AcDbLine
 10
6.951470961299841
 20
30.08141092633295
 30
-12.5
 11
6.861173378899858
 21
30.52285879653295
 31
-12.5
  0
LINE
  5
54F4
330
1E
100
AcDbEntity
  8
0
 48
0.27
100
AcDbLine
 10
8.501188455699812
 20
30.50460502563295
 30
-12.5
 11
8.437828645599845
 21
30.81435934693295
 31
-12.5
  0
LINE
  5
54F5
330
1E
100
AcDbEntity
  8
0
 48
0.27
100
AcDbLine
 10
6.861173378899858
 20
32.47713986733296
 30
-12.5
 11
6.951470961299841
 21
32.91858773743296
 31
-12.5
  0
LINE
  5
54F6
330
1E
100
AcDbEntity
  8
0
 48
0.27
100
AcDbLine
 10
8.437828645599845
 20
32.18563931693295
 30
-12.5
 11
8.501188455699812
 21
32.49539497423296
 31
-12.5
  0
LINE
  5
54F7
330
1E
100
AcDbEntity
  8
0
 48
0.27
100
AcDbLine
 10
6.861173378899858
 20
30.52285879653295
 30
-12.5
 11
6.805569050099828
 21
31.00185762473296
 31
-12.5
  0
LINE
  5
54F8
330
1E
100
AcDbEntity
  8
0
 48
0.27
100
AcDbLine
 10
8.437828645599845
 20
30.81435934693295
 30
-12.5
 11
8.398810759399816
 21
31.15046360033295
 31
-12.5
  0
LINE
  5
54F9
330
1E
100
AcDbEntity
  8
0
 48
0.27
100
AcDbLine
 10
6.805569050099828
 20
31.99814103913297
 30
-12.5
 11
6.861173378899858
 21
32.47713986733296
 31
-12.5
  0
LINE
  5
54FA
330
1E
100
AcDbEntity
  8
0
 48
0.27
100
AcDbLine
 10
8.398810759399816
 20
31.84953639953296
 30
-12.5
 11
8.437828645599845
 21
32.18563931693295
 31
-12.5
  0
LINE
  5
54FB
330
1E
100
AcDbEntity
  8
0
 48
0.27
100
AcDbLine
 10
6.805569050099828
 20
31.00185762473296
 30
-12.5
 11
6.786792903099817
 21
31.49999999993296
 31
-12.5
  0
LINE
  5
54FC
330
1E
100
AcDbEntity
  8
0
 48
0.27
100
AcDbLine
 10
8.398810759399816
 20
31.15046360033295
 30
-12.5
 11
8.385636461299847
 21
31.49999999993296
 31
-12.5
  0
LINE
  5
54FD
330
1E
100
AcDbEntity
  8
0
 48
0.27
100
AcDbLine
 10
8.385636461299847
 20
31.49999999993296
 30
-12.5
 11
8.398810759399816
 21
31.84953639953296
 31
-12.5
  0
LINE
  5
54FE
330
1E
100
AcDbEntity
  8
0
 48
0.27
100
AcDbLine
 10
6.786792903099817
 20
31.49999999993296
 30
-12.5
 11
6.805569050099828
 21
31.99814103913297
 31
-12.5
  0
LINE
  5
54FF
330
1E
100
AcDbEntity
  8
0
 48
0.27
100
AcDbLine
 10
6.283819551099833
 20
29.58619706363298
 30
-12.5
 11
6.334574199199829
 21
29.55273426633296
 31
-12.5
  0
LINE
  5
5500
330
1E
100
AcDbEntity
  8
0
 48
0.27
100
AcDbLine
 10
6.071296653399835
 20
29.56391525213296
 30
-12.5
 11
6.11965050899982
 21
29.56186181973298
 31
-12.5
  0
LINE
  5
5501
330
1E
100
AcDbEntity
  8
0
 48
0.27
100
AcDbLine
 10
6.283819551099833
 20
33.41380160023296
 30
-12.5
 11
6.334574199199829
 21
33.44726439753294
 31
-12.5
  0
LINE
  5
5502
330
1E
100
AcDbEntity
  8
中心線
 48
0.27
100
AcDbLine
 10
-0.0000000000001552
 20
24.74999999993297
 30
-12.5
 11
-0.0000000000001541
 21
38.24999999993297
 31
-12.5
  0
LINE
  5
5503
330
1E
100
AcDbEntity
  8
中心線
 48
0.27
100
AcDbLine
 10
11.25691643139983
 20
31.49999999993296
 30
-12.5
 11
-6.75000000000015
 21
31.49999999993296
 31
-12.5
  0
POINT
  5
5504
330
1E
100
AcDbEntity
  8
0
100
AcDbPoint
 10
9.756916431399838
 20
31.49999999993296
 30
-12.5
1001
pntflag
1000
endpoint
  0
LINE
  5
55DF
330
1E
100
AcDbEntity
  8
0
100
AcDbLine
 10
141.9228020850347
 20
86.62310892799519
 30
-6.250000000000007
 11
141.9228020850347
 21
156.8231089279951
 31
-6.250000000000007
  0
LINE
  5
55E0
330
1E
100
AcDbEntity
  8
0
100
AcDbLine
 10
247.7228020850347
 20
86.62310892799519
 30
-6.250000000000007
 11
247.7228020850347
 21
156.8231089279951
 31
-6.250000000000007
  0
LINE
  5
55E1
330
1E
100
AcDbEntity
  8
CENTER
100
AcDbLine
 10
194.8228020850347
 20
81.62310892799519
 30
-6.250000000000007
 11
194.8228020850347
 21
161.8231089279951
 31
-6.250000000000007
  0
LINE
  5
55E4
330
1E
100
AcDbEntity
  8
0
100
AcDbLine
 10
141.9228020850347
 20
156.8231089279951
 30
-6.250000000000007
 11
247.7228020850347
 21
156.8231089279951
 31
-6.250000000000007
  0
LINE
  5
55E5
330
1E
100
AcDbEntity
  8
0
100
AcDbLine
 10
141.9228020850347
 20
139.523108927995
 30
-6.250000000000007
 11
247.7228020850347
 21
139.523108927995
 31
-6.250000000000007
  0
LINE
  5
55E6
330
1E
100
AcDbEntity
  8
0
100
AcDbLine
 10
141.9228020850347
 20
138.8231089294452
 30
-6.250000000000007
 11
247.7228020850347
 21
138.8231089294452
 31
-6.250000000000007
  0
LINE
  5
55E7
330
1E
100
AcDbEntity
  8
0
100
AcDbLine
 10
141.9228020850347
 20
129.2231089294451
 30
-6.250000000000007
 11
247.7228020850347
 21
129.2231089294451
 31
-6.250000000000007
  0
LINE
  5
55E8
330
1E
100
AcDbEntity
  8
0
100
AcDbLine
 10
141.9228020850347
 20
128.5231089308953
 30
-6.250000000000007
 11
247.7228020850347
 21
128.5231089308953
 31
-6.250000000000007
  0
LINE
  5
55E9
330
1E
100
AcDbEntity
  8
0
100
AcDbLine
 10
141.9228020850347
 20
155.123108927995
 30
-6.250000000000007
 11
247.7228020850347
 21
155.123108927995
 31
-6.250000000000007
  0
LINE
  5
55EA
330
1E
100
AcDbEntity
  8
CENTER
100
AcDbLine
 10
226.6228020850348
 20
146.8231089279951
 30
-6.250000000000007
 11
235.0228020850347
 21
146.8231089279951
 31
-6.250000000000007
  0
CIRCLE
  5
55EB
330
1E
100
AcDbEntity
  8
0
100
AcDbCircle
 10
230.8228020850347
 20
146.8231089279951
 30
-6.250000000000007
 40
3.4
  0
ARC
  5
55EC
330
1E
100
AcDbEntity
  8
0.15
100
AcDbCircle
 10
230.8228020850347
 20
146.8231089279951
 30
-6.250000000000007
 40
4.0
100
AcDbArc
 50
169.9999999988373
 51
100.0000000011642
  0
LINE
  5
560A
330
1E
100
AcDbEntity
  8
CENTER
100
AcDbLine
 10
158.8228020850347
 20
151.0231089279951
 30
-6.250000000000007
 11
158.8228020850347
 21
142.623108927995
 31
-6.250000000000007
  0
LINE
  5
560B
330
1E
100
AcDbEntity
  8
CENTER
100
AcDbLine
 10
154.6228020850347
 20
146.8231089279951
 30
-6.250000000000007
 11
163.0228020850347
 21
146.8231089279951
 31
-6.250000000000007
  0
CIRCLE
  5
560C
330
1E
100
AcDbEntity
  8
0
100
AcDbCircle
 10
158.8228020850347
 20
146.8231089279951
 30
-6.250000000000007
 40
3.4
  0
ARC
  5
560D
330
1E
100
AcDbEntity
  8
0.15
100
AcDbCircle
 10
158.8228020850347
 20
146.8231089279951
 30
-6.250000000000007
 40
4.0
100
AcDbArc
 50
169.9999999988373
 51
100.0000000011642
  0
LINE
  5
5615
330
1E
100
AcDbEntity
  8
CENTER
100
AcDbLine
 10
230.8228020850347
 20
151.0231089279951
 30
-6.250000000000007
 11
230.8228020850347
 21
142.623108927995
 31
-6.250000000000007
  0
LINE
  5
5634
330
1E
100
AcDbEntity
  8
0
100
AcDbLine
 10
141.9228020850347
 20
115.1231089250949
 30
-6.250000000000007
 11
247.7228020850347
 21
115.1231089250949
 31
-6.250000000000007
  0
LINE
  5
5635
330
1E
100
AcDbEntity
  8
0
100
AcDbLine
 10
141.9228020850347
 20
114.423108926545
 30
-6.250000000000007
 11
247.7228020850347
 21
114.423108926545
 31
-6.250000000000007
  0
LINE
  5
5636
330
1E
100
AcDbEntity
  8
0
100
AcDbLine
 10
141.9228020850347
 20
104.823108926545
 30
-6.250000000000007
 11
247.7228020850347
 21
104.823108926545
 31
-6.250000000000007
  0
LINE
  5
5637
330
1E
100
AcDbEntity
  8
0
100
AcDbLine
 10
141.9228020850347
 20
104.1231089279951
 30
-6.250000000000007
 11
247.7228020850347
 21
104.1231089279951
 31
-6.250000000000007
  0
LINE
  5
5638
330
1E
100
AcDbEntity
  8
0
100
AcDbLine
 10
141.9228020850347
 20
88.52310892799517
 30
-6.250000000000007
 11
247.7228020850347
 21
88.52310892799517
 31
-6.250000000000007
  0
LINE
  5
5639
330
1E
100
AcDbEntity
  8
0
100
AcDbLine
 10
141.9228020850347
 20
86.62310892799519
 30
-6.250000000000007
 11
247.7228020850347
 21
86.62310892799519
 31
-6.250000000000007
  0
LINE
  5
563A
330
1E
100
AcDbEntity
  8
CENTER
100
AcDbLine
 10
125.4545479104601
 20
121.8231089279951
 30
-6.250000000000007
 11
266.4445991636055
 21
121.8231089279951
 31
-6.250000000000007
  0
LINE
  5
563B
330
1E
100
AcDbEntity
  8
CENTER
100
AcDbLine
 10
226.6228020850348
 20
96.82310892799513
 30
-6.250000000000007
 11
235.0228020850347
 21
96.82310892799513
 31
-6.250000000000007
  0
CIRCLE
  5
563C
330
1E
100
AcDbEntity
  8
0
100
AcDbCircle
 10
230.8228020850347
 20
96.82310892799513
 30
-6.250000000000007
 40
3.4
  0
ARC
  5
563D
330
1E
100
AcDbEntity
  8
0.15
100
AcDbCircle
 10
230.8228020850347
 20
96.82310892799513
 30
-6.250000000000007
 40
4.0
100
AcDbArc
 50
169.9999999988373
 51
100.0000000011642
  0
LINE
  5
565B
330
1E
100
AcDbEntity
  8
CENTER
100
AcDbLine
 10
158.8228020850347
 20
101.0231089279951
 30
-6.250000000000007
 11
158.8228020850347
 21
92.62310892799508
 31
-6.250000000000007
  0
LINE
  5
565C
330
1E
100
AcDbEntity
  8
CENTER
100
AcDbLine
 10
154.6228020850347
 20
96.82310892799513
 30
-6.250000000000007
 11
163.0228020850347
 21
96.82310892799513
 31
-6.250000000000007
  0
CIRCLE
  5
565D
330
1E
100
AcDbEntity
  8
0
100
AcDbCircle
 10
158.8228020850347
 20
96.82310892799513
 30
-6.250000000000007
 40
3.4
  0
ARC
  5
565E
330
1E
100
AcDbEntity
  8
0.15
100
AcDbCircle
 10
158.8228020850347
 20
96.82310892799513
 30
-6.250000000000007
 40
4.0
100
AcDbArc
 50
169.9999999988373
 51
100.0000000011642
  0
LINE
  5
5667
330
1E
100
AcDbEntity
  8
CENTER
100
AcDbLine
 10
230.8228020850347
 20
101.0231089279951
 30
-6.250000000000007
 11
230.8228020850347
 21
92.62310892799508
 31
-6.250000000000007
  0
LINE
  5
56E1
330
1E
100
AcDbEntity
  8
中心線
 48
0.27
100
AcDbLine
 10
280.8883745553325
 20
121.8231089279951
 30
-6.25000000000001
 11
307.8431915720057
 21
121.8231089279951
 31
-6.25000000000001
  0
CIRCLE
  5
56E2
330
1E
100
AcDbEntity
  8
0
100
AcDbCircle
 10
294.3657830636691
 20
121.8231089279951
 30
-6.250000000000007
 40
4.500000000048657
  0
CIRCLE
  5
56E3
330
1E
100
AcDbEntity
  8
0
100
AcDbCircle
 10
294.3657830636691
 20
121.8231089279951
 30
-6.250000000000007
 40
6.999999999950702
  0
LINE
  5
56E4
330
1E
100
AcDbEntity
  8
0
100
AcDbLine
 10
314.3657830636691
 20
104.8231089279951
 30
-0.0000000000000044
 11
262.4228020850348
 21
104.8231089279951
 31
-0.0000000000000071
  0
LINE
  5
56E5
330
1E
100
AcDbEntity
  8
0
100
AcDbLine
 10
314.3657830636691
 20
138.8231089279951
 30
-0.0000000000000053
 11
262.4228020850348
 21
138.8231089279951
 31
-0.0000000000000053
  0
LINE
  5
56E6
330
1E
100
AcDbEntity
  8
0
100
AcDbLine
 10
314.3657830636691
 20
104.8231089279951
 30
-6.250000000000007
 11
314.3657830636691
 21
138.8231089279951
 31
-6.250000000000007
  0
LINE
  5
56E7
330
1E
100
AcDbEntity
  8
中心線
 48
0.27
100
AcDbLine
 10
294.3657830636691
 20
108.3457004196585
 30
-6.250000000000007
 11
294.3657830636691
 21
135.3005174363316
 31
-6.250000000000007
  0
LINE
  5
56E8
330
1E
100
AcDbEntity
  8
0
100
AcDbLine
 10
127.2228020850346
 20
155.8231089279951
 30
-6.250000000000008
 11
127.2228020850346
 21
87.82310892799509
 31
-6.250000000000008
  0
LINE
  5
56E9
330
1E
100
AcDbEntity
  8
0
 48
0.27
100
AcDbLine
 10
128.9228020850346
 20
87.82310892799509
 30
-6.250000000000008
 11
128.9228020850346
 21
155.8231089279951
 31
-6.250000000000008
  0
LINE
  5
56EA
330
1E
100
AcDbEntity
  8
0
 48
0.27
100
AcDbLine
 10
141.9228020850347
 20
87.82310892799513
 30
-6.250000000000007
 11
127.2228020850346
 21
87.82310892799509
 31
-6.250000000000007
  0
LINE
  5
56EB
330
1E
100
AcDbEntity
  8
中心線
100
AcDbLine
 10
125.4389522886635
 20
101.9231089279949
 30
-17.75
 11
131.1905892630444
 21
101.9231089279949
 31
-17.75
  0
LINE
  5
56EC
330
1E
100
AcDbEntity
  8
0
100
AcDbLine
 10
126.3384742256764
 20
102.9231089279949
 30
-17.75
 11
126.3384742256764
 21
100.9231089279949
 31
-17.75
  0
ARC
  5
56ED
330
1E
100
AcDbEntity
  8
0
100
AcDbCircle
 10
127.5583259045288
 20
100.942860566012
 30
-17.75
 40
1.220011576012179
100
AcDbArc
 50
180.9276427879975
 51
254.0369778311711
  0
ARC
  5
56EE
330
1E
100
AcDbEntity
  8
0
100
AcDbCircle
 10
127.5583259045288
 20
102.9033572899778
 30
-17.75
 40
1.220011576012179
100
AcDbArc
 50
105.9630221688288
 51
179.0723572120024
  0
LINE
  5
56EF
330
1E
100
AcDbEntity
  8
中心線
100
AcDbLine
 10
125.4389522886635
 20
141.9231089279949
 30
-17.75
 11
131.1905892630444
 21
141.9231089279949
 31
-17.75
  0
LINE
  5
56F0
330
1E
100
AcDbEntity
  8
0
100
AcDbLine
 10
126.3384742256763
 20
142.9231089279949
 30
-17.75
 11
126.3384742256763
 21
140.9231089279949
 31
-17.75
  0
ARC
  5
56F1
330
1E
100
AcDbEntity
  8
0
100
AcDbCircle
 10
127.5583259045288
 20
140.942860566012
 30
-17.75
 40
1.220011576012179
100
AcDbArc
 50
180.9276427879975
 51
254.0369778311711
  0
ARC
  5
56F2
330
1E
100
AcDbEntity
  8
0
100
AcDbCircle
 10
127.5583259045288
 20
142.9033572899778
 30
-17.75
 40
1.220011576012179
100
AcDbArc
 50
105.9630221688288
 51
179.0723572120024
  0
LINE
  5
56F3
330
1E
100
AcDbEntity
  8
0
 48
0.27
100
AcDbLine
 10
88.56578306366907
 20
104.9231089279951
 30
-6.250000000000007
 11
88.56578306366904
 21
138.9231089279951
 31
-6.250000000000007
  0
LINE
  5
56F4
330
1E
100
AcDbEntity
  8
中心線
 48
0.27
100
AcDbLine
 10
95.08837455533248
 20
121.9231089279952
 30
-6.250000000000007
 11
122.0431915720055
 21
121.9231089279951
 31
-6.250000000000007
  0
ARC
  5
56F5
330
1E
100
AcDbEntity
  8
0
  6
Continuous
100
AcDbCircle
 10
115.7551938775305
 20
119.797381351005
 30
-6.250000000000008
 40
1.854133729915247
100
AcDbArc
 50
214.6327799989371
 51
280.3672200010621
  0
LINE
  5
56F6
330
1E
100
AcDbEntity
  8
0
  6
Continuous
100
AcDbLine
 10
114.22959195497
 20
118.7437102378728
 30
-6.250000000000008
 11
114.8016692234856
 21
120.1248269382485
 31
-6.250000000000008
  0
ARC
  5
56F7
330
1E
100
AcDbEntity
  8
0
  6
Continuous
100
AcDbCircle
 10
112.9560819588909
 20
117.0641173010052
 30
-6.250000000000008
 40
2.059673609817605
100
AcDbArc
 50
335.8479011650596
 51
45.84790116506002
  0
LINE
  5
56F8
330
1E
100
AcDbEntity
  8
0
100
AcDbLine
 10
88.56578306366907
 20
104.9231089279951
 30
-6.250000000000007
 11
127.2228020850346
 21
104.9231089279951
 31
-6.250000000000008
  0
LINE
  5
56F9
330
1E
100
AcDbEntity
  8
0
  6
Continuous
100
AcDbLine
 10
113.4603080850346
 20
114.5179622413325
 30
-6.250000000000008
 11
119.2227329688355
 21
112.131087702306
 31
-6.250000000000008
  0
LINE
  5
56FA
330
1E
100
AcDbEntity
  8
0
  6
Continuous
100
AcDbLine
 10
113.4603080850346
 20
111.4859662789466
 30
-6.250000000000008
 11
117.0787880633022
 21
109.9871427967727
 31
-6.250000000000008
  0
ARC
  5
56FB
330
1E
100
AcDbEntity
  8
0
100
AcDbCircle
 10
108.565783063669
 20
121.9231089279952
 30
-6.250000000000003
 40
6.999999999950702
100
AcDbArc
 50
345.2784288205498
 51
329.1684515164121
  0
ARC
  5
56FC
330
1E
100
AcDbEntity
  8
0
  6
Continuous
100
AcDbCircle
 10
116.204090311275
 20
113.7097199421097
 30
-6.250000000000008
 40
2.860349020536762
100
AcDbArc
 50
118.5864858262623
 51
163.5864858262621
  0
LINE
  5
56FD
330
1E
100
AcDbEntity
  8
0
  6
Continuous
100
AcDbLine
 10
113.4603080850346
 20
111.4859662789466
 30
-6.250000000000008
 11
113.4603080850346
 21
114.5179622413325
 31
-6.250000000000008
  0
LINE
  5
56FE
330
1E
100
AcDbEntity
  8
中心線
 48
0.27
100
AcDbLine
 10
108.565783063669
 20
108.4457004196586
 30
-6.250000000000003
 11
108.565783063669
 21
135.4005174363317
 31
-6.250000000000003
  0
CIRCLE
  5
56FF
330
1E
100
AcDbEntity
  8
0
100
AcDbCircle
 10
108.565783063669
 20
121.9231089279952
 30
-6.250000000000003
 40
4.500000000048657
  0
ARC
  5
5700
330
1E
100
AcDbEntity
  8
0
  6
Continuous
100
AcDbCircle
 10
116.7110723399396
 20
113.4997211099575
 30
-6.250000000000008
 40
2.860349020536762
100
AcDbArc
 50
331.4135141737373
 51
16.41351417373787
  0
LINE
  5
5701
330
1E
100
AcDbEntity
  8
中心線
100
AcDbLine
 10
125.4389522886635
 20
93.67310892799508
 30
-5.250000000000007
 11
131.1905892630444
 21
93.67310892799508
 31
-5.250000000000007
  0
ARC
  5
5702
330
1E
100
AcDbEntity
  8
0
100
AcDbCircle
 10
127.5583259045288
 20
94.65335728997798
 30
-5.250000000000007
 40
1.220011576012179
100
AcDbArc
 50
105.9630221688288
 51
179.0723572120024
  0
LINE
  5
5703
330
1E
100
AcDbEntity
  8
0
100
AcDbLine
 10
126.3384742256764
 20
94.67310892799508
 30
-5.250000000000007
 11
126.3384742256764
 21
92.67310892799509
 31
-5.250000000000007
  0
ARC
  5
5704
330
1E
100
AcDbEntity
  8
0
100
AcDbCircle
 10
127.5583259045288
 20
92.6928605660122
 30
-5.250000000000007
 40
1.220011576012179
100
AcDbArc
 50
180.9276427879975
 51
254.0369778311711
  0
LINE
  5
5705
330
1E
100
AcDbEntity
  8
0
  6
Continuous
100
AcDbLine
 10
117.0787880633022
 20
109.9871427967727
 30
-6.250000000000008
 11
119.2227329688355
 21
112.131087702306
 31
-6.250000000000008
  0
ARC
  5
5706
330
1E
100
AcDbEntity
  8
0
  6
Continuous
100
AcDbCircle
 10
125.5793180620806
 20
125.273109027588
 30
-6.250000000000008
 40
2.119009977045996
100
AcDbArc
 50
147.1327799989379
 51
212.867220001062
  0
LINE
  5
5707
330
1E
100
AcDbEntity
  8
0
  6
Continuous
100
AcDbLine
 10
123.4603080850346
 20
118.3731088284021
 30
-6.250000000000008
 11
123.4603080850346
 21
125.273109027588
 31
-6.250000000000008
  0
ARC
  5
5708
330
1E
100
AcDbEntity
  8
0
  6
Continuous
100
AcDbCircle
 10
119.8617492625495
 20
121.8231089279951
 30
-6.250000000000008
 40
4.0
100
AcDbArc
 50
90.0
 51
210.8352048940846
  0
ARC
  5
5709
330
1E
100
AcDbEntity
  8
0
  6
Continuous
100
AcDbCircle
 10
120.7132975376409
 20
115.9905541945773
 30
-6.250000000000008
 40
1.854133729915247
100
AcDbArc
 50
34.63277999893714
 51
100.367220001062
  0
LINE
  5
570A
330
1E
100
AcDbEntity
  8
0
  6
Continuous
100
AcDbLine
 10
120.9953525631902
 20
117.8231089279951
 30
-6.250000000000008
 11
123.5329301730496
 21
117.8231089279951
 31
-6.250000000000008
  0
LINE
  5
570B
330
1E
100
AcDbEntity
  8
0
  6
Continuous
100
AcDbLine
 10
116.0888996751697
 20
117.973559763541
 30
-6.250000000000008
 11
116.6609769436853
 21
119.3546764639168
 31
-6.250000000000008
  0
LINE
  5
570C
330
1E
100
AcDbEntity
  8
0
  6
Continuous
100
AcDbLine
 10
115.8449209589111
 20
120.0140016877861
 30
-6.250000000000008
 11
121.4228437974687
 21
117.7035503981848
 31
-6.250000000000008
  0
ARC
  5
570D
330
1E
100
AcDbEntity
  8
0
  6
Continuous
100
AcDbCircle
 10
115.96600301853
 20
112.4179455101192
 30
-6.250000000000008
 40
6.971504732179473
100
AcDbArc
 50
50.7213499979131
 51
84.27865000208781
  0
LINE
  5
570E
330
1E
100
AcDbEntity
  8
0
  6
Continuous
100
AcDbLine
 10
115.0456476177027
 20
118.0843851473975
 30
-6.250000000000008
 11
120.6235704562603
 21
115.7739338577963
 31
-6.250000000000008
  0
ARC
  5
570F
330
1E
100
AcDbEntity
  8
0
  6
Continuous
100
AcDbCircle
 10
120.5024883966414
 20
123.3699900354631
 30
-6.250000000000008
 40
6.971504732179473
100
AcDbArc
 50
230.721349997913
 51
264.2786500020894
  0
LINE
  5
5710
330
1E
100
AcDbEntity
  8
0
  6
Continuous
100
AcDbLine
 10
115.0202328101258
 20
116.1448438845327
 30
-6.250000000000008
 11
119.2700786596777
 21
114.3845000956533
 31
-6.250000000000008
  0
ARC
  5
5711
330
1E
100
AcDbEntity
  8
0
  6
Continuous
100
AcDbCircle
 10
121.3331167160882
 20
117.4869300614038
 30
-6.250000000000008
 40
1.854133729915247
100
AcDbArc
 50
214.6327799989371
 51
280.3672200010621
  0
LINE
  5
5712
330
1E
100
AcDbEntity
  8
0
  6
Continuous
100
AcDbLine
 10
119.8075144714861
 20
116.4332590816655
 30
-6.250000000000008
 11
120.3795917400017
 21
117.8143757820413
 31
-6.250000000000008
  0
LINE
  5
5713
330
1E
100
AcDbEntity
  8
0
  6
Continuous
100
AcDbLine
 10
121.6667799396393
 20
115.6630658280632
 30
-6.250000000000008
 11
122.2388998330051
 21
117.0442854339305
 31
-6.250000000000008
  0
ARC
  5
5714
330
1E
100
AcDbEntity
  8
0
  6
Continuous
100
AcDbCircle
 10
121.3796781905301
 20
113.5749494979053
 30
-6.250000000000008
 40
2.059673609817604
100
AcDbArc
 50
89.15209883494084
 51
159.1520988349398
  0
ARC
  5
5715
330
1E
100
AcDbEntity
  8
0
  6
Continuous
100
AcDbCircle
 10
115.1353746990832
 20
118.3010054841786
 30
-6.250000000000008
 40
1.854133729915247
100
AcDbArc
 50
34.63277999893714
 51
100.367220001062
  0
ARC
  5
5716
330
1E
100
AcDbEntity
  8
0
  6
Continuous
100
AcDbCircle
 10
125.5793180620806
 20
118.3731088284021
 30
-6.250000000000008
 40
2.119009977045996
100
AcDbArc
 50
147.1327799989379
 51
212.867220001062
  0
LINE
  5
5717
330
1E
100
AcDbEntity
  8
0
  6
Continuous
100
AcDbLine
 10
123.799560627144
 20
117.2231089279951
 30
-6.250000000000008
 11
127.2228020850346
 21
117.2231089279951
 31
-6.250000000000008
  0
LINE
  5
5718
330
1E
100
AcDbEntity
  8
0
  6
Continuous
100
AcDbLine
 10
123.799560627144
 20
124.1231087288092
 30
-6.250000000000008
 11
127.2228020850346
 21
124.1231087288092
 31
-6.250000000000008
  0
LINE
  5
5719
330
1E
100
AcDbEntity
  8
0
  6
Continuous
100
AcDbLine
 10
123.799560627144
 20
119.5231091271809
 30
-6.250000000000008
 11
127.2228020850346
 21
119.5231091271809
 31
-6.250000000000008
  0
ARC
  5
571A
330
1E
100
AcDbEntity
  8
0
  6
Continuous
100
AcDbCircle
 10
131.4277420646682
 20
121.8231089279951
 30
-6.250000000000008
 40
7.96743397963368
100
AcDbArc
 50
163.2213499979121
 51
196.7786500020878
  0
LINE
  5
571B
330
1E
100
AcDbEntity
  8
0
  6
Continuous
100
AcDbLine
 10
119.8617492625495
 20
125.8231089279951
 30
-6.250000000000008
 11
123.5329301730496
 21
125.8231089279951
 31
-6.250000000000008
  0
LINE
  5
571C
330
1E
100
AcDbEntity
  8
0
  6
Continuous
100
AcDbLine
 10
123.799560627144
 20
126.4231089279951
 30
-6.250000000000008
 11
127.2228020850346
 21
126.4231089279951
 31
-6.250000000000008
  0
LINE
  5
571D
330
1E
100
AcDbEntity
  8
0
100
AcDbLine
 10
88.56578306366904
 20
138.9231089279951
 30
-6.250000000000007
 11
127.2228020850346
 21
138.9231089279951
 31
-6.250000000000007
  0
LINE
  5
571E
330
1E
100
AcDbEntity
  8
中心線
100
AcDbLine
 10
125.4389522886635
 20
150.173108927995
 30
-7.250000000000007
 11
131.1905892630444
 21
150.173108927995
 31
-7.250000000000007
  0
LINE
  5
571F
330
1E
100
AcDbEntity
  8
0
 48
0.27
100
AcDbLine
 10
141.9228020850347
 20
155.8231089279951
 30
-6.250000000000007
 11
127.2228020850346
 21
155.8231089279951
 31
-6.250000000000007
  0
ARC
  5
5720
330
1E
100
AcDbEntity
  8
0
100
AcDbCircle
 10
127.5583259045288
 20
151.1533572899779
 30
-7.250000000000007
 40
1.220011576012179
100
AcDbArc
 50
105.9630221688288
 51
179.0723572120024
  0
ARC
  5
5721
330
1E
100
AcDbEntity
  8
0
100
AcDbCircle
 10
127.5583259045288
 20
149.1928605660121
 30
-7.250000000000007
 40
1.220011576012179
100
AcDbArc
 50
180.9276427879975
 51
254.0369778311711
  0
LINE
  5
5722
330
1E
100
AcDbEntity
  8
0
100
AcDbLine
 10
126.3384742256763
 20
151.173108927995
 30
-7.250000000000007
 11
126.3384742256763
 21
149.173108927995
 31
-7.250000000000007
  0
LINE
  5
5726
330
1E
100
AcDbEntity
  8
0
 48
0.27
100
AcDbLine
 10
247.7228020850346
 20
155.8231089279951
 30
-6.250000000000007
 11
262.4228020850347
 21
155.8231089279951
 31
-6.250000000000007
  0
LINE
  5
5727
330
1E
100
AcDbEntity
  8
0
100
AcDbLine
 10
262.4228020850347
 20
155.8231089279951
 30
-6.250000000000008
 11
262.4228020850347
 21
87.82310892799509
 31
-6.250000000000008
  0
LINE
  5
5728
330
1E
100
AcDbEntity
  8
0
 48
0.27
100
AcDbLine
 10
260.7228020850347
 20
87.82310892799509
 30
-6.250000000000008
 11
260.7228020850347
 21
155.8231089279951
 31
-6.250000000000008
  0
ARC
  5
5729
330
1E
100
AcDbEntity
  8
0
100
AcDbCircle
 10
262.0872782655405
 20
142.9033572899778
 30
-17.75
 40
1.220011576012179
100
AcDbArc
 50
0.9276427879975765
 51
74.03697783117111
  0
LINE
  5
572A
330
1E
100
AcDbEntity
  8
中心線
100
AcDbLine
 10
264.2066518814059
 20
141.9231089279949
 30
-17.75
 11
258.4550149070249
 21
141.9231089279949
 31
-17.75
  0
LINE
  5
572B
330
1E
100
AcDbEntity
  8
0
100
AcDbLine
 10
263.307129944393
 20
142.9231089279949
 30
-17.75
 11
263.307129944393
 21
140.9231089279949
 31
-17.75
  0
ARC
  5
572C
330
1E
100
AcDbEntity
  8
0
100
AcDbCircle
 10
262.0872782655405
 20
140.942860566012
 30
-17.75
 40
1.220011576012179
100
AcDbArc
 50
285.9630221688289
 51
359.0723572120024
  0
LINE
  5
572D
330
1E
100
AcDbEntity
  8
中心線
100
AcDbLine
 10
264.2066518814059
 20
150.173108927995
 30
-7.250000000000007
 11
258.4550149070249
 21
150.173108927995
 31
-7.250000000000007
  0
LINE
  5
572E
330
1E
100
AcDbEntity
  8
0
100
AcDbLine
 10
263.307129944393
 20
151.173108927995
 30
-7.250000000000007
 11
263.307129944393
 21
149.173108927995
 31
-7.250000000000007
  0
ARC
  5
572F
330
1E
100
AcDbEntity
  8
0
100
AcDbCircle
 10
262.0872782655406
 20
149.1928605660121
 30
-7.250000000000007
 40
1.220011576012179
100
AcDbArc
 50
285.9630221688289
 51
359.0723572120024
  0
ARC
  5
5730
330
1E
100
AcDbEntity
  8
0
100
AcDbCircle
 10
262.0872782655406
 20
151.1533572899779
 30
-7.250000000000007
 40
1.220011576012179
100
AcDbArc
 50
0.9276427879975765
 51
74.03697783117111
  0
LINE
  5
5731
330
1E
100
AcDbEntity
  8
0
 48
0.27
100
AcDbLine
 10
247.7228020850346
 20
87.82310892799513
 30
-6.250000000000007
 11
262.4228020850347
 21
87.82310892799509
 31
-6.250000000000007
  0
LINE
  5
5732
330
1E
100
AcDbEntity
  8
中心線
100
AcDbLine
 10
264.2066518814059
 20
101.9231089279949
 30
-17.75
 11
258.4550149070249
 21
101.9231089279949
 31
-17.75
  0
LINE
  5
5733
330
1E
100
AcDbEntity
  8
0
100
AcDbLine
 10
263.307129944393
 20
102.9231089279949
 30
-17.75
 11
263.307129944393
 21
100.9231089279949
 31
-17.75
  0
ARC
  5
5734
330
1E
100
AcDbEntity
  8
0
100
AcDbCircle
 10
262.0872782655405
 20
100.942860566012
 30
-17.75
 40
1.220011576012179
100
AcDbArc
 50
285.9630221688289
 51
359.0723572120024
  0
ARC
  5
5735
330
1E
100
AcDbEntity
  8
0
100
AcDbCircle
 10
262.0872782655405
 20
102.9033572899778
 30
-17.75
 40
1.220011576012179
100
AcDbArc
 50
0.9276427879975765
 51
74.03697783117111
  0
LINE
  5
5736
330
1E
100
AcDbEntity
  8
中心線
100
AcDbLine
 10
264.2066518814059
 20
93.67310892799508
 30
-5.250000000000007
 11
258.4550149070249
 21
93.67310892799508
 31
-5.250000000000007
  0
LINE
  5
5737
330
1E
100
AcDbEntity
  8
0
100
AcDbLine
 10
263.307129944393
 20
94.67310892799508
 30
-5.250000000000007
 11
263.307129944393
 21
92.67310892799509
 31
-5.250000000000007
  0
ARC
  5
5738
330
1E
100
AcDbEntity
  8
0
100
AcDbCircle
 10
262.0872782655405
 20
92.6928605660122
 30
-5.250000000000007
 40
1.220011576012179
100
AcDbArc
 50
285.9630221688289
 51
359.0723572120024
  0
ARC
  5
5739
330
1E
100
AcDbEntity
  8
0
100
AcDbCircle
 10
262.0872782655405
 20
94.65335728997798
 30
-5.250000000000007
 40
1.220011576012179
100
AcDbArc
 50
0.9276427879975765
 51
74.03697783117111
  0
ENDSEC
  0
SECTION
  2
OBJECTS
  0
DICTIONARY
  5
C
330
0
100
AcDbDictionary
281
     1
  3
ACAD_COLOR
350
3D97
  3
ACAD_GROUP
350
D
  3
ACAD_LAYOUT
350
19
  3
ACAD_MATERIAL
350
3D96
  3
ACAD_MLINESTYLE
350
16
  3
ACAD_PLOTSETTINGS
350
18
  3
ACAD_PLOTSTYLENAME
350
E
  3
ACDBHEADERROUNDTRIPXREC
350
5744
  3
AcDbVariableDictionary
350
3E63
  0
DICTIONARY
  5
43C2
330
2
100
AcDbDictionary
280
     1
281
     1
  3
ACAD_LAYERSTATES
360
43C3
  0
DICTIONARY
  5
3D1E
330
1E
100
AcDbDictionary
280
     1
281
     1
  3
ACAD_LAYOUTSELFREF
360
3D92
  0
DICTIONARY
  5
3D20
330
1A
100
AcDbDictionary
280
     1
281
     1
  3
ACAD_LAYOUTSELFREF
360
3D91
  0
DICTIONARY
  5
3D97
102
{ACAD_REACTORS
330
C
102
}
330
C
100
AcDbDictionary
281
     1
  0
DICTIONARY
  5
D
102
{ACAD_REACTORS
330
C
102
}
330
C
100
AcDbDictionary
281
     1
  3
*A1
350
4143
  3
*A10
350
43B7
  3
*A11
350
43B8
  3
*A12
350
4377
  3
*A13
350
43B9
  3
*A14
350
414E
  3
*A15
350
43BA
  3
*A16
350
4241
  3
*A17
350
43BB
  3
*A18
350
43BC
  3
*A19
350
43BD
  3
*A2
350
437D
  3
*A20
350
43BE
  3
*A21
350
4144
  3
*A22
350
4147
  3
*A23
350
4378
  3
*A24
350
43BF
  3
*A25
350
43C0
  3
*A26
350
43C1
  3
*A27
350
4148
  3
*A28
350
414C
  3
*A29
350
414F
  3
*A3
350
437E
  3
*A30
350
4149
  3
*A31
350
414A
  3
*A32
350
414B
  3
*A33
350
4235
  3
*A34
350
4239
  3
*A35
350
423B
  3
*A36
350
4236
  3
*A37
350
4237
  3
*A38
350
4238
  3
*A39
350
423C
  3
*A4
350
4240
  3
*A40
350
4373
  3
*A41
350
423D
  3
*A42
350
423E
  3
*A43
350
423F
  3
*A44
350
4374
  3
*A45
350
4379
  3
*A46
350
4375
  3
*A47
350
4145
  3
*A48
350
4376
  3
*A49
350
437A
  3
*A5
350
437F
  3
*A50
350
437B
  3
*A51
350
414D
  3
*A52
350
437C
  3
*A6
350
4146
  3
*A7
350
43B5
  3
*A8
350
423A
  3
*A9
350
43B6
  0
DICTIONARY
  5
19
102
{ACAD_REACTORS
330
C
102
}
330
C
100
AcDbDictionary
281
     1
  3
Model
350
21
  3
配置1
350
1D
  0
DICTIONARY
  5
3D96
102
{ACAD_REACTORS
330
C
102
}
330
C
100
AcDbDictionary
281
     1
  0
DICTIONARY
  5
16
102
{ACAD_REACTORS
330
C
102
}
330
C
100
AcDbDictionary
281
     1
  3
Standard
350
17
  0
DICTIONARY
  5
18
102
{ACAD_REACTORS
330
C
102
}
330
C
100
AcDbDictionary
281
     1
  3
LANSRO
350
4150
  0
ACDBDICTIONARYWDFLT
  5
E
102
{ACAD_REACTORS
330
C
102
}
330
C
100
AcDbDictionary
281
     1
  3
Normal
350
F
100
AcDbDictionaryWithDefault
340
F
  0
DICTIONARY
  5
5744
102
{ACAD_REACTORS
330
C
102
}
330
C
100
AcDbDictionary
281
     1
  3
CEPSNTYPE
350
574E
  3
DIMSTYLEDATA
350
5752
  3
FINGERPRINTGUID
350
574F
  3
HYPERLINKBASE
350
5747
  3
INSUNITS
350
574D
  3
LAYOUTDICT
350
5749
  3
LWETCUNION
350
574C
  3
PLOTSETDICT
350
574A
  3
PLOTSTYLNAMDICT
350
574B
  3
PSVPSCALE
350
5751
  3
PUCSBASE
350
5755
  3
PUCSORGBACK
350
575B
  3
PUCSORGBOTTOM
350
5757
  3
PUCSORGFRONT
350
575A
  3
PUCSORGLEFT
350
5758
  3
PUCSORGRIGHT
350
5759
  3
PUCSORGTOP
350
5756
  3
PUCSORTHOREF
350
5753
  3
PUCSORTHOVIEW
350
5754
  3
STYLESHEET
350
5748
  3
TSTACKALIGN
350
5745
  3
TSTACKSIZE
350
5746
  3
UCSBASE
350
575E
  3
UCSORGBACK
350
5764
  3
UCSORGBOTTOM
350
5760
  3
UCSORGFRONT
350
5763
  3
UCSORGLEFT
350
5761
  3
UCSORGRIGHT
350
5762
  3
UCSORGTOP
350
575F
  3
UCSORTHOREF
350
575C
  3
UCSORTHOVIEW
350
575D
  3
VERSIONGUID
350
5750
  0
DICTIONARY
  5
3E63
102
{ACAD_REACTORS
330
C
102
}
330
C
100
AcDbDictionary
281
     1
  3
DIMASSOC
350
3E64
  3
PROJECTNAME
350
3E65
  0
DICTIONARY
  5
43C3
102
{ACAD_REACTORS
330
43C2
102
}
330
43C2
100
AcDbDictionary
281
     1
  0
XRECORD
  5
3D92
102
{ACAD_REACTORS
330
3D1E
102
}
330
3D1E
100
AcDbXrecord
280
     1
340
1E
  0
XRECORD
  5
3D91
102
{ACAD_REACTORS
330
3D20
102
}
330
3D20
100
AcDbXrecord
280
     1
340
1A
  0
GROUP
  5
4143
102
{ACAD_REACTORS
330
D
102
}
330
D
100
AcDbGroup
300

 70
     1
 71
     1
  0
GROUP
  5
43B7
102
{ACAD_REACTORS
330
D
102
}
330
D
100
AcDbGroup
300

 70
     1
 71
     1
  0
GROUP
  5
43B8
102
{ACAD_REACTORS
330
D
102
}
330
D
100
AcDbGroup
300

 70
     1
 71
     1
  0
GROUP
  5
4377
102
{ACAD_REACTORS
330
D
102
}
330
D
100
AcDbGroup
300

 70
     1
 71
     1
  0
GROUP
  5
43B9
102
{ACAD_REACTORS
330
D
102
}
330
D
100
AcDbGroup
300

 70
     1
 71
     1
  0
GROUP
  5
414E
102
{ACAD_REACTORS
330
D
102
}
330
D
100
AcDbGroup
300

 70
     1
 71
     1
  0
GROUP
  5
43BA
102
{ACAD_REACTORS
330
D
102
}
330
D
100
AcDbGroup
300

 70
     1
 71
     1
  0
GROUP
  5
4241
102
{ACAD_REACTORS
330
D
102
}
330
D
100
AcDbGroup
300

 70
     1
 71
     1
  0
GROUP
  5
43BB
102
{ACAD_REACTORS
330
D
102
}
330
D
100
AcDbGroup
300

 70
     1
 71
     1
  0
GROUP
  5
43BC
102
{ACAD_REACTORS
330
D
102
}
330
D
100
AcDbGroup
300

 70
     1
 71
     1
  0
GROUP
  5
43BD
102
{ACAD_REACTORS
330
D
102
}
330
D
100
AcDbGroup
300

 70
     1
 71
     1
  0
GROUP
  5
437D
102
{ACAD_REACTORS
330
D
102
}
330
D
100
AcDbGroup
300

 70
     1
 71
     1
  0
GROUP
  5
43BE
102
{ACAD_REACTORS
330
D
102
}
330
D
100
AcDbGroup
300

 70
     1
 71
     1
  0
GROUP
  5
4144
102
{ACAD_REACTORS
330
D
102
}
330
D
100
AcDbGroup
300

 70
     1
 71
     1
  0
GROUP
  5
4147
102
{ACAD_REACTORS
330
D
102
}
330
D
100
AcDbGroup
300

 70
     1
 71
     1
  0
GROUP
  5
4378
102
{ACAD_REACTORS
330
D
102
}
330
D
100
AcDbGroup
300

 70
     1
 71
     1
  0
GROUP
  5
43BF
102
{ACAD_REACTORS
330
D
102
}
330
D
100
AcDbGroup
300

 70
     1
 71
     1
  0
GROUP
  5
43C0
102
{ACAD_REACTORS
330
D
102
}
330
D
100
AcDbGroup
300

 70
     1
 71
     1
  0
GROUP
  5
43C1
102
{ACAD_REACTORS
330
D
102
}
330
D
100
AcDbGroup
300

 70
     1
 71
     1
  0
GROUP
  5
4148
102
{ACAD_REACTORS
330
D
102
}
330
D
100
AcDbGroup
300

 70
     1
 71
     1
  0
GROUP
  5
414C
102
{ACAD_REACTORS
330
D
102
}
330
D
100
AcDbGroup
300

 70
     1
 71
     1
  0
GROUP
  5
414F
102
{ACAD_REACTORS
330
D
102
}
330
D
100
AcDbGroup
300

 70
     1
 71
     1
  0
GROUP
  5
437E
102
{ACAD_REACTORS
330
D
102
}
330
D
100
AcDbGroup
300

 70
     1
 71
     1
  0
GROUP
  5
4149
102
{ACAD_REACTORS
330
D
102
}
330
D
100
AcDbGroup
300

 70
     1
 71
     1
  0
GROUP
  5
414A
102
{ACAD_REACTORS
330
D
102
}
330
D
100
AcDbGroup
300

 70
     1
 71
     1
  0
GROUP
  5
414B
102
{ACAD_REACTORS
330
D
102
}
330
D
100
AcDbGroup
300

 70
     1
 71
     1
  0
GROUP
  5
4235
102
{ACAD_REACTORS
330
D
102
}
330
D
100
AcDbGroup
300

 70
     1
 71
     1
  0
GROUP
  5
4239
102
{ACAD_REACTORS
330
D
102
}
330
D
100
AcDbGroup
300

 70
     1
 71
     1
  0
GROUP
  5
423B
102
{ACAD_REACTORS
330
D
102
}
330
D
100
AcDbGroup
300

 70
     1
 71
     1
  0
GROUP
  5
4236
102
{ACAD_REACTORS
330
D
102
}
330
D
100
AcDbGroup
300

 70
     1
 71
     1
  0
GROUP
  5
4237
102
{ACAD_REACTORS
330
D
102
}
330
D
100
AcDbGroup
300

 70
     1
 71
     1
  0
GROUP
  5
4238
102
{ACAD_REACTORS
330
D
102
}
330
D
100
AcDbGroup
300

 70
     1
 71
     1
  0
GROUP
  5
423C
102
{ACAD_REACTORS
330
D
102
}
330
D
100
AcDbGroup
300

 70
     1
 71
     1
  0
GROUP
  5
4240
102
{ACAD_REACTORS
330
D
102
}
330
D
100
AcDbGroup
300

 70
     1
 71
     1
  0
GROUP
  5
4373
102
{ACAD_REACTORS
330
D
102
}
330
D
100
AcDbGroup
300

 70
     1
 71
     1
  0
GROUP
  5
423D
102
{ACAD_REACTORS
330
D
102
}
330
D
100
AcDbGroup
300

 70
     1
 71
     1
  0
GROUP
  5
423E
102
{ACAD_REACTORS
330
D
102
}
330
D
100
AcDbGroup
300

 70
     1
 71
     1
  0
GROUP
  5
423F
102
{ACAD_REACTORS
330
D
102
}
330
D
100
AcDbGroup
300

 70
     1
 71
     1
  0
GROUP
  5
4374
102
{ACAD_REACTORS
330
D
102
}
330
D
100
AcDbGroup
300

 70
     1
 71
     1
  0
GROUP
  5
4379
102
{ACAD_REACTORS
330
D
102
}
330
D
100
AcDbGroup
300

 70
     1
 71
     1
  0
GROUP
  5
4375
102
{ACAD_REACTORS
330
D
102
}
330
D
100
AcDbGroup
300

 70
     1
 71
     1
  0
GROUP
  5
4145
102
{ACAD_REACTORS
330
D
102
}
330
D
100
AcDbGroup
300

 70
     1
 71
     1
  0
GROUP
  5
4376
102
{ACAD_REACTORS
330
D
102
}
330
D
100
AcDbGroup
300

 70
     1
 71
     1
  0
GROUP
  5
437A
102
{ACAD_REACTORS
330
D
102
}
330
D
100
AcDbGroup
300

 70
     1
 71
     1
  0
GROUP
  5
437F
102
{ACAD_REACTORS
330
D
102
}
330
D
100
AcDbGroup
300

 70
     1
 71
     1
  0
GROUP
  5
437B
102
{ACAD_REACTORS
330
D
102
}
330
D
100
AcDbGroup
300

 70
     1
 71
     1
  0
GROUP
  5
414D
102
{ACAD_REACTORS
330
D
102
}
330
D
100
AcDbGroup
300

 70
     1
 71
     1
  0
GROUP
  5
437C
102
{ACAD_REACTORS
330
D
102
}
330
D
100
AcDbGroup
300

 70
     1
 71
     1
  0
GROUP
  5
4146
102
{ACAD_REACTORS
330
D
102
}
330
D
100
AcDbGroup
300

 70
     1
 71
     1
  0
GROUP
  5
43B5
102
{ACAD_REACTORS
330
D
102
}
330
D
100
AcDbGroup
300

 70
     1
 71
     1
  0
GROUP
  5
423A
102
{ACAD_REACTORS
330
D
102
}
330
D
100
AcDbGroup
300

 70
     1
 71
     1
  0
GROUP
  5
43B6
102
{ACAD_REACTORS
330
D
102
}
330
D
100
AcDbGroup
300

 70
     1
 71
     1
  0
LAYOUT
  5
21
102
{ACAD_XDICTIONARY
360
3E61
102
}
102
{ACAD_REACTORS
330
19
102
}
330
19
100
AcDbPlotSettings
  1

  2
HP 2200
  4

  6

 40
0.0
 41
0.0
 42
0.0
 43
0.0
 44
0.0
 45
0.0
 46
0.0
 47
0.0
 48
0.0
 49
0.0
140
0.0
141
0.0
142
1.0
143
1.0
 70
  1712
 72
     0
 73
     0
 74
     0
  7
AAA.ctb
 75
     0
147
1.0
148
0.0
149
0.0
100
AcDbLayout
  1
Model
 70
     1
 71
     0
 10
0.0
 20
0.0
 11
12.0
 21
9.0
 12
0.0
 22
0.0
 32
0.0
 14
0.0
 24
0.0
 34
0.0
 15
0.0
 25
0.0
 35
0.0
146
0.0
 13
0.0
 23
0.0
 33
0.0
 16
1.0
 26
0.0
 36
0.0
 17
0.0
 27
1.0
 37
0.0
 76
     0
330
1E
  0
LAYOUT
  5
1D
102
{ACAD_XDICTIONARY
360
3E5F
102
}
102
{ACAD_REACTORS
330
19
102
}
330
19
100
AcDbPlotSettings
  1

  2
HP 2200
  4

  6

 40
0.0
 41
0.0
 42
0.0
 43
0.0
 44
0.0
 45
0.0
 46
0.0
 47
0.0
 48
0.0
 49
0.0
140
0.0
141
0.0
142
1.0
143
1.0
 70
   688
 72
     0
 73
     0
 74
     5
  7
AAA.ctb
 75
    16
147
1.0
148
0.0
149
0.0
100
AcDbLayout
  1
配置1
 70
     0
 71
     1
 10
0.0
 20
0.0
 11
12.0
 21
9.0
 12
0.0
 22
0.0
 32
0.0
 14
1.000000000000000E+20
 24
1.000000000000000E+20
 34
1.000000000000000E+20
 15
-1.000000000000000E+20
 25
-1.000000000000000E+20
 35
-1.000000000000000E+20
146
0.0
 13
0.0
 23
0.0
 33
0.0
 16
1.0
 26
0.0
 36
0.0
 17
0.0
 27
1.0
 37
0.0
 76
     0
330
1A
  0
MLINESTYLE
  5
17
102
{ACAD_REACTORS
330
16
102
}
330
16
100
AcDbMlineStyle
  2
STANDARD
 70
     0
  3

 62
   256
 51
90.0
 52
90.0
 71
     2
 49
0.5
 62
   256
  6
BYLAYER
 49
-0.5
 62
   256
  6
BYLAYER
  0
PLOTSETTINGS
  5
4150
102
{ACAD_XDICTIONARY
360
4151
102
}
102
{ACAD_REACTORS
330
18
102
}
330
18
100
AcDbPlotSettings
  1
LANSRO
  2
\\1260\HP2200
  4
A4
  6

 40
6.043083190917968
 41
6.762742042541503
 42
7.736419677734375
 43
5.027069091796875
 44
209.9733276367187
 45
296.9683227539062
 46
5.15
 47
0.0
 48
0.0
 49
0.0
140
0.0
141
0.0
142
1.0
143
0.8829829263240881
 70
  1716
 72
     1
 73
     1
 74
     0
  7
AAA.ctb
 75
     0
147
1.132524729739748
148
-132.297014905803
149
-71.78507365635891
  0
ACDBPLACEHOLDER
  5
F
102
{ACAD_REACTORS
330
E
102
}
330
E
  0
XRECORD
  5
574E
102
{ACAD_REACTORS
330
5744
102
}
330
5744
100
AcDbXrecord
280
     1
 90
        0
  0
XRECORD
  5
5752
102
{ACAD_REACTORS
330
5744
102
}
330
5744
100
AcDbXrecord
280
     1
1000
DSTYLE
1002
{
1070
   279
 70
     2
1002
}
  0
XRECORD
  5
574F
102
{ACAD_REACTORS
330
5744
102
}
330
5744
100
AcDbXrecord
280
     1
  1
{77095E5F-9CE7-11D7-970D-0040F4541FA8}
  0
XRECORD
  5
5747
102
{ACAD_REACTORS
330
5744
102
}
330
5744
100
AcDbXrecord
280
     1
  1

  0
XRECORD
  5
574D
102
{ACAD_REACTORS
330
5744
102
}
330
5744
100
AcDbXrecord
280
     1
 90
        0
  0
XRECORD
  5
5749
102
{ACAD_REACTORS
330
5744
102
}
330
5744
100
AcDbXrecord
280
     1
340
19
  0
XRECORD
  5
574C
102
{ACAD_REACTORS
330
5744
102
}
330
5744
100
AcDbXrecord
280
     1
 90
    14877
  0
XRECORD
  5
574A
102
{ACAD_REACTORS
330
5744
102
}
330
5744
100
AcDbXrecord
280
     1
340
18
  0
XRECORD
  5
574B
102
{ACAD_REACTORS
330
5744
102
}
330
5744
100
AcDbXrecord
280
     1
340
E
  0
XRECORD
  5
5751
102
{ACAD_REACTORS
330
5744
102
}
330
5744
100
AcDbXrecord
280
     1
 40
0.0
  0
XRECORD
  5
5755
102
{ACAD_REACTORS
330
5744
102
}
330
5744
100
AcDbXrecord
280
     1
340
0
  0
XRECORD
  5
575B
102
{ACAD_REACTORS
330
5744
102
}
330
5744
100
AcDbXrecord
280
     1
 10
0.0
 20
0.0
 30
0.0
  0
XRECORD
  5
5757
102
{ACAD_REACTORS
330
5744
102
}
330
5744
100
AcDbXrecord
280
     1
 10
0.0
 20
0.0
 30
0.0
  0
XRECORD
  5
575A
102
{ACAD_REACTORS
330
5744
102
}
330
5744
100
AcDbXrecord
280
     1
 10
0.0
 20
0.0
 30
0.0
  0
XRECORD
  5
5758
102
{ACAD_REACTORS
330
5744
102
}
330
5744
100
AcDbXrecord
280
     1
 10
0.0
 20
0.0
 30
0.0
  0
XRECORD
  5
5759
102
{ACAD_REACTORS
330
5744
102
}
330
5744
100
AcDbXrecord
280
     1
 10
0.0
 20
0.0
 30
0.0
  0
XRECORD
  5
5756
102
{ACAD_REACTORS
330
5744
102
}
330
5744
100
AcDbXrecord
280
     1
 10
0.0
 20
0.0
 30
0.0
  0
XRECORD
  5
5753
102
{ACAD_REACTORS
330
5744
102
}
330
5744
100
AcDbXrecord
280
     1
340
0
  0
XRECORD
  5
5754
102
{ACAD_REACTORS
330
5744
102
}
330
5744
100
AcDbXrecord
280
     1
 70
     0
  0
XRECORD
  5
5748
102
{ACAD_REACTORS
330
5744
102
}
330
5744
100
AcDbXrecord
280
     1
  1

  0
XRECORD
  5
5745
102
{ACAD_REACTORS
330
5744
102
}
330
5744
100
AcDbXrecord
280
     1
 90
        1
  0
XRECORD
  5
5746
102
{ACAD_REACTORS
330
5744
102
}
330
5744
100
AcDbXrecord
280
     1
 90
       70
  0
XRECORD
  5
575E
102
{ACAD_REACTORS
330
5744
102
}
330
5744
100
AcDbXrecord
280
     1
340
0
  0
XRECORD
  5
5764
102
{ACAD_REACTORS
330
5744
102
}
330
5744
100
AcDbXrecord
280
     1
 10
0.0
 20
0.0
 30
0.0
  0
XRECORD
  5
5760
102
{ACAD_REACTORS
330
5744
102
}
330
5744
100
AcDbXrecord
280
     1
 10
0.0
 20
0.0
 30
0.0
  0
XRECORD
  5
5763
102
{ACAD_REACTORS
330
5744
102
}
330
5744
100
AcDbXrecord
280
     1
 10
0.0
 20
0.0
 30
0.0
  0
XRECORD
  5
5761
102
{ACAD_REACTORS
330
5744
102
}
330
5744
100
AcDbXrecord
280
     1
 10
0.0
 20
0.0
 30
0.0
  0
XRECORD
  5
5762
102
{ACAD_REACTORS
330
5744
102
}
330
5744
100
AcDbXrecord
280
     1
 10
0.0
 20
0.0
 30
0.0
  0
XRECORD
  5
575F
102
{ACAD_REACTORS
330
5744
102
}
330
5744
100
AcDbXrecord
280
     1
 10
0.0
 20
0.0
 30
0.0
  0
XRECORD
  5
575C
102
{ACAD_REACTORS
330
5744
102
}
330
5744
100
AcDbXrecord
280
     1
340
0
  0
XRECORD
  5
575D
102
{ACAD_REACTORS
330
5744
102
}
330
5744
100
AcDbXrecord
280
     1
 70
     0
  0
XRECORD
  5
5750
102
{ACAD_REACTORS
330
5744
102
}
330
5744
100
AcDbXrecord
280
     1
  1
{BD83E1AD-AC68-4120-A1BB-8FB7636D2D13}
  0
DICTIONARYVAR
  5
3E64
102
{ACAD_REACTORS
330
3E63
102
}
330
3E63
100
DictionaryVariables
280
     0
  1
1
  0
DICTIONARYVAR
  5
3E65
102
{ACAD_REACTORS
330
3E63
102
}
330
3E63
100
DictionaryVariables
280
     0
  1

  0
DICTIONARY
  5
3E61
330
21
100
AcDbDictionary
280
     1
281
     1
  3
ACAD_XREC_ROUNDTRIP
360
3E62
  0
DICTIONARY
  5
3E5F
330
1D
100
AcDbDictionary
280
     1
281
     1
  3
ACAD_XREC_ROUNDTRIP
360
3E60
  0
DICTIONARY
  5
4151
330
4150
100
AcDbDictionary
280
     1
281
     1
  3
ACAD_XREC_ROUNDTRIP
360
4152
  0
XRECORD
  5
3E62
102
{ACAD_REACTORS
330
3E61
102
}
330
3E61
100
AcDbXrecord
280
     1
102
SHADEPLOT
 70
     0
102
SHADEPLOTRESLEVEL
 70
     2
102
SHADEPLOTCUSTOMDPI
 70
   300
  0
XRECORD
  5
3E60
102
{ACAD_REACTORS
330
3E5F
102
}
330
3E5F
100
AcDbXrecord
280
     1
102
SHADEPLOT
 70
     0
102
SHADEPLOTRESLEVEL
 70
     2
102
SHADEPLOTCUSTOMDPI
 70
   300
  0
XRECORD
  5
4152
102
{ACAD_REACTORS
330
4151
102
}
330
4151
100
AcDbXrecord
280
     1
102
SHADEPLOT
 70
     0
102
SHADEPLOTRESLEVEL
 70
     2
102
SHADEPLOTCUSTOMDPI
 70
   300
  0
ENDSEC
  0
EOF
