  0
SECTION
  2
HEADER
  9
$ACADVER
  1
AC1009
  9
$INSBASE
 10
0.0
 20
0.0
 30
0.0
  9
$EXTMIN
 10
-498.58580487944312
 20
-61.524226853394431
 30
0.0
  9
$EXTMAX
 10
-102.99776787604129
 20
232.04104299035939
 30
0.0
  9
$LIMMIN
 10
-10.0
 20
-15.0
  9
$LIMMAX
 10
120.0
 20
90.0
  9
$ORTHOMODE
 70
     1
  9
$REGENMODE
 70
     0
  9
$FILLMODE
 70
     1
  9
$QTEXTMODE
 70
     0
  9
$MIRRTEXT
 70
     0
  9
$DRAGMODE
 70
     2
  9
$LTSCALE
 40
3.0
  9
$OSMODE
 70
  3071
  9
$ATTMODE
 70
     1
  9
$TEXTSIZE
 40
3.0
  9
$TRACEWID
 40
1.0
  9
$TEXTSTYLE
  7
STANDARD
  9
$CLAYER
  8
0
  9
$CELTYPE
  6
ByLayer
  9
$CECOLOR
 62
   256
  9
$DIMSCALE
 40
1.0
  9
$DIMASZ
 40
3.0
  9
$DIMEXO
 40
1.0
  9
$DIMDLI
 40
6.0
  9
$DIMRND
 40
0.0
  9
$DIMDLE
 40
0.0
  9
$DIMEXE
 40
1.0
  9
$DIMTP
 40
0.0
  9
$DIMTM
 40
0.0
  9
$DIMTXT
 40
3.0
  9
$DIMCEN
 40
1.5
  9
$DIMTSZ
 40
0.0
  9
$DIMTOL
 70
     0
  9
$DIMLIM
 70
     0
  9
$DIMTIH
 70
     1
  9
$DIMTOH
 70
     1
  9
$DIMSE1
 70
     0
  9
$DIMSE2
 70
     0
  9
$DIMTAD
 70
     0
  9
$DIMZIN
 70
     0
  9
$DIMBLK
  1

  9
$DIMASO
 70
     1
  9
$DIMSHO
 70
     0
  9
$DIMPOST
  1

  9
$DIMAPOST
  1

  9
$DIMALT
 70
     0
  9
$DIMALTD
 70
     2
  9
$DIMALTF
 40
25.399999999999999
  9
$DIMLFAC
 40
1.0
  9
$DIMTOFL
 70
     1
  9
$DIMTVP
 40
0.0
  9
$DIMTIX
 70
     0
  9
$DIMSOXD
 70
     0
  9
$DIMSAH
 70
     0
  9
$DIMBLK1
  1

  9
$DIMBLK2
  1

  9
$DIMSTYLE
  2
STANDARD
  9
$DIMCLRD
 70
     0
  9
$DIMCLRE
 70
     0
  9
$DIMCLRT
 70
     0
  9
$DIMTFAC
 40
1.0
  9
$DIMGAP
 40
0.09
  9
$LUNITS
 70
     2
  9
$LUPREC
 70
     4
  9
$SKETCHINC
 40
0.5
  9
$FILLETRAD
 40
0.0
  9
$AUNITS
 70
     0
  9
$AUPREC
 70
     0
  9
$MENU
  1
ACAD
  9
$ELEVATION
 40
0.0
  9
$PELEVATION
 40
0.0
  9
$THICKNESS
 40
0.0
  9
$LIMCHECK
 70
     0
  9
$BLIPMODE
 70
     0
  9
$CHAMFERA
 40
0.0
  9
$CHAMFERB
 40
0.0
  9
$SKPOLY
 70
     0
  9
$TDCREATE
 40
2444975.333333334
  9
$TDUPDATE
 40
2453706.677780672
  9
$TDINDWG
 40
0.0462735069
  9
$TDUSRTIMER
 40
0.0
  9
$USRTIMER
 70
     0
  9
$ANGBASE
 50
0.0
  9
$ANGDIR
 70
     0
  9
$PDMODE
 70
   171
  9
$PDSIZE
 40
0.001
  9
$PLINEWID
 40
0.0
  9
$COORDS
 70
     2
  9
$SPLFRAME
 70
     0
  9
$SPLINETYPE
 70
     6
  9
$SPLINESEGS
 70
     8
  9
$ATTDIA
 70
     0
  9
$ATTREQ
 70
     1
  9
$HANDLING
 70
     1
  9
$HANDSEED
  5
60C2
  9
$SURFTAB1
 70
     6
  9
$SURFTAB2
 70
     6
  9
$SURFTYPE
 70
     6
  9
$SURFU
 70
     6
  9
$SURFV
 70
     6
  9
$UCSNAME
  2

  9
$UCSORG
 10
0.0
 20
0.0
 30
0.0
  9
$UCSXDIR
 10
1.0
 20
0.0
 30
0.0
  9
$UCSYDIR
 10
0.0
 20
1.0
 30
0.0
  9
$PUCSNAME
  2

  9
$PUCSORG
 10
0.0
 20
0.0
 30
0.0
  9
$PUCSXDIR
 10
1.0
 20
0.0
 30
0.0
  9
$PUCSYDIR
 10
0.0
 20
1.0
 30
0.0
  9
$USERI1
 70
     0
  9
$USERI2
 70
     0
  9
$USERI3
 70
     0
  9
$USERI4
 70
     0
  9
$USERI5
 70
     0
  9
$USERR1
 40
0.0
  9
$USERR2
 40
0.0
  9
$USERR3
 40
0.0
  9
$USERR4
 40
0.0
  9
$USERR5
 40
0.0
  9
$WORLDVIEW
 70
     1
  9
$SHADEDGE
 70
     3
  9
$SHADEDIF
 70
    70
  9
$TILEMODE
 70
     1
  9
$MAXACTVP
 70
    48
  9
$PLIMCHECK
 70
     0
  9
$PEXTMIN
 10
1.0000000000000000E+020
 20
1.0000000000000000E+020
 30
1.0000000000000000E+020
  9
$PEXTMAX
 10
-1.0000000000000000E+020
 20
-1.0000000000000000E+020
 30
-1.0000000000000000E+020
  9
$PLIMMIN
 10
0.0
 20
0.0
  9
$PLIMMAX
 10
12.0
 20
9.0
  9
$UNITMODE
 70
     0
  9
$VISRETAIN
 70
     1
  9
$PLINEGEN
 70
     0
  9
$PSLTSCALE
 70
     0
  0
ENDSEC
  0
SECTION
  2
TABLES
  0
TABLE
  2
VPORT
 70
     3
  0
VPORT
  2
*ACTIVE
 70
     0
 10
0.0
 20
0.0
 11
1.0
 21
1.0
 12
-268.96843565501263
 22
96.467250940698293
 13
457.99999999999972
 23
1082.0
 14
10.0
 24
10.0
 15
10.0
 25
10.0
 16
0.0
 26
0.0
 36
1.0
 17
0.0
 27
0.0
 37
0.0
 40
407.1487723285145
 41
1.7038081805359659
 42
1.0
 43
0.0
 44
0.0
 50
0.0
 51
0.0
 71
     0
 72
   100
 73
     1
 74
     1
 75
     0
 76
     0
 77
     0
 78
     0
  0
ENDTAB
  0
TABLE
  2
LTYPE
 70
     5
  0
LTYPE
  2
ByBlock
 70
     0
  3

 72
    65
 73
     0
 40
0.0
  0
LTYPE
  2
ByLayer
 70
     0
  3

 72
    65
 73
     0
 40
0.0
  0
LTYPE
  2
CONTINUOUS
 70
     0
  3
łsÄň˝u ________________________
 72
    65
 73
     2
 40
200000.0
 49
200000.0
 49
0.0
  0
LTYPE
  2
CENTER2
 70
     0
  3
Center (.5x) ___ _ ___ _ ___ _ ___ _ ___ _ ___
 72
    65
 73
     4
 40
28.574999999999999
 49
19.050000000000001
 49
-3.1749999999999989
 49
3.1749999999999989
 49
-3.1749999999999989
  0
LTYPE
  2
DASHED2
 70
     0
  3
Dashed (.5x) _ _ _ _ _ _ _ _ _ _ _ _ _ _ _ _ _
 72
    65
 73
     2
 40
9.5249999999999986
 49
6.3499999999999988
 49
-3.1749999999999989
  0
ENDTAB
  0
TABLE
  2
LAYER
 70
    10
  0
LAYER
  2
0
 70
     0
 62
     7
  6
CONTINUOUS
  0
LAYER
  2
«ü˝u
 70
     0
 62
     3
  6
CONTINUOUS
  0
LAYER
  2
¤¤¤ß˝u
 70
     0
 62
     4
  6
CENTER2
  0
LAYER
  2
µę˝u
 70
     0
 62
     6
  6
DASHED2
  0
LAYER
  2
«Řşc˝u
 70
     0
 62
     1
  6
CONTINUOUS
  0
LAYER
  2
AM3
 70
     0
 62
     6
  6
DASHED2
  0
LAYER
  2
AM4
 70
     0
 62
     3
  6
CONTINUOUS
  0
LAYER
  2
AM5
 70
     0
 62
     3
  6
CONTINUOUS
  0
LAYER
  2
AM7
 70
     0
 62
     4
  6
CENTER2
  0
LAYER
  2
DEFPOINTS
 70
     0
 62
     7
  6
CONTINUOUS
  0
ENDTAB
  0
TABLE
  2
STYLE
 70
     2
  0
STYLE
  2
STANDARD
 70
     0
 40
0.0
 41
1.0
 50
0.0
 71
     0
 42
3.0
  3
txt
  4

  0
STYLE
  2
«¬¦ˇ2
 70
     0
 40
0.0
 41
1.0
 50
0.0
 71
     0
 42
2.5
  3
txt
  4

  0
ENDTAB
  0
TABLE
  2
VIEW
 70
     0
  0
ENDTAB
  0
TABLE
  2
UCS
 70
     0
  0
ENDTAB
  0
TABLE
  2
APPID
 70
     4
  0
APPID
  2
ACAD
 70
     0
  0
APPID
  2
TCAD
 70
     0
  0
APPID
  2
CONTENTBLOCKICON
 70
     0
  0
APPID
  2
PNTFLAG
 70
     0
  0
ENDTAB
  0
TABLE
  2
DIMSTYLE
 70
     3
  0
DIMSTYLE
  2
STANDARD
 70
     0
  3

  4

  5

  6

  7

 40
1.0
 41
0.18
 42
0.0625
 43
0.38
 44
0.18
 45
0.0
 46
0.0
 47
0.0
 48
0.0
140
0.18
141
0.09
142
0.0
143
25.399999999999999
144
1.0
145
0.0
146
1.0
147
0.09
 71
     0
 72
     0
 73
     1
 74
     1
 75
     0
 76
     0
 77
     0
 78
     0
170
     0
171
     2
172
     0
173
     0
174
     0
175
     0
176
     0
177
     0
178
     0
  0
DIMSTYLE
  2
ISO-25
 70
     0
  3

  4

  5

  6

  7

 40
1.0
 41
1.1999999999999991
 42
0.7
 43
3.75
 44
0.3
 45
0.0
 46
0.0
 47
0.0
 48
0.0
140
2.0
141
2.5
142
0.0
143
0.03937007874016
144
1.0
145
0.0
146
1.0
147
0.5
 71
     0
 72
     0
 73
     0
 74
     0
 75
     0
 76
     0
 77
     1
 78
     8
170
     0
171
     3
172
     1
173
     0
174
     0
175
     0
176
     3
177
     3
178
     2
  0
DIMSTYLE
  2
˝ĆĄ»_ISO-25
 70
     0
  3

  4

  5

  6

  7

 40
1.0
 41
1.8
 42
0.7
 43
3.75
 44
0.3
 45
0.0
 46
0.0
 47
0.0
 48
0.0
140
2.7999999999999989
141
2.5
142
0.0
143
0.03937007874016
144
1.0
145
0.0
146
1.0
147
0.5
 71
     0
 72
     0
 73
     0
 74
     0
 75
     0
 76
     0
 77
     1
 78
     8
170
     0
171
     3
172
     1
173
     0
174
     0
175
     0
176
     3
177
     3
178
     2
  0
ENDTAB
  0
ENDSEC
  0
SECTION
  2
BLOCKS
  0
BLOCK
  8
0
  2
$MODEL_SPACE
 70
     0
 10
0.0
 20
0.0
 30
0.0
  3
$MODEL_SPACE
  1

  0
ENDBLK
  5
255
  8
0
  0
BLOCK
 67
     1
  8
0
  2
$PAPER_SPACE
 70
     0
 10
0.0
 20
0.0
 30
0.0
  3
$PAPER_SPACE
  1

  0
ENDBLK
  5
253
 67
     1
  8
0
  0
BLOCK
  8
0
  2
*U0
 70
     1
 10
0.0
 20
0.0
 30
0.0
  3
*U0
  1

  0
TEXT
  5
6086
  8
0
 10
-498.36648259666418
 20
-30.93038680179458
 30
0.0
 40
7.8000001593418631
  1
HGH45HA
  0
TEXT
  5
6087
  8
0
 10
-498.58580487944312
 20
-44.028800912201042
 30
0.0
 40
7.8000001593418631
  1
C : 9640 kgf
  0
TEXT
  5
6088
  8
0
 10
-498.58580487944312
 20
-57.226828391621531
 30
0.0
 40
7.8000001593418631
  1
C
  0
TEXT
  5
6089
  8
0
 10
-490.90390133390531
 20
-52.416828293360709
 30
0.0
 40
5.4600001115393031
  1

  0
TEXT
  5
608A
  8
0
 10
-491.7325192370115
 20
-59.689430067944912
 30
0.0
 40
5.4600001115393031
  1
0
  0
TEXT
  5
608B
  8
0
 10
-487.29349475608518
 20
-57.227998391645428
 30
0.0
 40
7.8023401593896651
  1
: 21120 kgf
  0
ENDBLK
  5
608D
  8
0
  0
ENDSEC
  0
SECTION
  2
ENTITIES
  0
INSERT
  5
413A
  8
0
  2
*U0
 10
0.0
 20
0.0
 30
0.0
  0
LINE
  5
5DBB
  8
0
 10
-389.7978931690443
 20
159.51339451652041
 30
0.0
 11
-389.7978931690443
 21
204.51412193749539
 31
0.0
  0
LINE
  5
5DBC
  8
0
 10
-172.5289513395561
 20
73.719849820769014
 30
0.0
 11
-172.5289513395561
 21
13.2198498207689
 31
0.0
  0
LINE
  5
5DBD
  8
0
 10
-172.5289513395561
 20
141.01375822700811
 30
0.0
 11
-152.96568007355529
 21
141.01375822700811
 31
0.0
  0
LINE
  5
5DBE
  8
0
 10
-172.5289513395561
 20
223.01375822700729
 30
0.0
 11
-152.96568007355521
 21
223.0137582270072
 31
0.0
  0
LINE
  5
5DBF
  8
0
 10
-301.32895133955623
 20
223.01375822700709
 30
0.0
 11
-320.89222260555709
 21
223.01375822700709
 31
0.0
  0
LINE
  5
5DC0
  8
0
 10
-301.32895133955611
 20
141.01375822700811
 30
0.0
 11
-320.89222260555709
 21
141.013758227008
 31
0.0
  0
LINE
  5
5DC1
  8
0
 10
-321.92895133955642
 20
50.397859149003523
 30
0.0
 11
-321.92895133955642
 21
50.220099448808178
 31
0.0
  0
POINT
  5
5DC2
  8
0
 10
-334.10083383955617
 20
55.220099448808178
 30
0.0
1001
PNTFLAG
1000
endpoint
  0
LINE
  5
5DC3
  8
0
 10
-329.7598488395563
 20
55.220099448808178
 30
0.0
 11
-329.79960633955642
 21
54.783179448808198
 31
0.0
  0
LINE
  5
5DC4
  8
0
 10
-329.79960633955642
 20
54.783179448808198
 30
0.0
 11
-329.91735008955629
 21
54.363049448808162
 31
0.0
  0
LINE
  5
5DC5
  8
0
 10
-329.79960633955642
 20
55.657019448808171
 30
0.0
 11
-329.7598488395563
 21
55.220099448808178
 31
0.0
  0
LINE
  5
5DC6
  8
0
 10
-329.91735008955629
 20
54.363049448808162
 30
0.0
 11
-330.10855508955638
 21
53.975855698808232
 31
0.0
  0
LINE
  5
5DC7
  8
0
 10
-329.91735008955629
 20
56.07714944880815
 30
0.0
 11
-329.79960633955642
 21
55.657019448808171
 31
0.0
  0
LINE
  5
5DC8
  8
0
 10
-330.10855508955638
 20
53.975855698808232
 30
0.0
 11
-330.3658750895562
 21
53.636476948808252
 31
0.0
  0
LINE
  5
5DC9
  8
0
 10
-330.10855508955638
 20
56.464343198808137
 30
0.0
 11
-329.91735008955629
 21
56.07714944880815
 31
0.0
  0
LINE
  5
5DCA
  8
0
 10
-330.67941883955621
 20
53.35795694880818
 30
0.0
 11
-330.3658750895562
 21
53.636476948808252
 31
0.0
  0
LINE
  5
5DCB
  8
0
 10
-330.3658750895562
 20
56.803720698808149
 30
0.0
 11
-330.10855508955638
 21
56.464343198808137
 31
0.0
  0
LINE
  5
5DCC
  8
0
 10
-328.20326883955642
 20
55.220099448808178
 30
0.0
 11
-328.25992883955632
 21
54.597421948808169
 31
0.0
  0
LINE
  5
5DCD
  8
0
 10
-328.25992883955632
 20
54.597421948808169
 30
0.0
 11
-328.42773258955629
 21
53.998673198808149
 31
0.0
  0
LINE
  5
5DCE
  8
0
 10
-328.25992883955632
 20
55.842776948808194
 30
0.0
 11
-328.20326883955642
 21
55.220099448808178
 31
0.0
  0
LINE
  5
5DCF
  8
0
 10
-331.0371400895562
 20
53.150996948808199
 30
0.0
 11
-330.67941883955621
 21
53.35795694880818
 31
0.0
  0
LINE
  5
5DD0
  8
0
 10
-330.67941883955621
 20
57.082241948808068
 30
0.0
 11
-330.3658750895562
 21
56.803720698808149
 31
0.0
  0
LINE
  5
5DD1
  8
0
 10
-328.42773258955629
 20
53.998673198808149
 30
0.0
 11
-328.7002288395563
 21
53.446864448808178
 31
0.0
  0
LINE
  5
5DD2
  8
0
 10
-328.42773258955629
 20
56.441524448808138
 30
0.0
 11
-328.25992883955632
 21
55.842776948808194
 31
0.0
  0
LINE
  5
5DD3
  8
0
 10
-328.7002288395563
 20
53.446864448808178
 30
0.0
 11
-329.06694758955632
 21
52.963199448808147
 31
0.0
  0
LINE
  5
5DD4
  8
0
 10
-328.7002288395563
 20
56.993334448808177
 30
0.0
 11
-328.42773258955629
 21
56.441524448808138
 31
0.0
  0
LINE
  5
5DD5
  8
0
 10
-331.42528883955629
 20
53.023551948808169
 30
0.0
 11
-331.0371400895562
 21
53.150996948808199
 31
0.0
  0
LINE
  5
5DD6
  8
0
 10
-331.0371400895562
 20
57.289200698808088
 30
0.0
 11
-330.67941883955621
 21
57.082241948808068
 31
0.0
  0
LINE
  5
5DD7
  8
0
 10
-329.51379633955628
 20
52.566265698808188
 30
0.0
 11
-329.06694758955632
 21
52.963199448808147
 31
0.0
  0
LINE
  5
5DD8
  8
0
 10
-329.06694758955632
 20
57.476999448808208
 30
0.0
 11
-328.7002288395563
 21
56.993334448808177
 31
0.0
  0
LINE
  5
5DD9
  8
0
 10
-328.04864383955618
 20
55.220099448808178
 30
0.0
 11
-328.10468508955631
 21
54.604221948808117
 31
0.0
  0
LINE
  5
5DDA
  8
0
 10
-331.8289500895562
 20
52.980519448808188
 30
0.0
 11
-331.42528883955629
 21
53.023551948808169
 31
0.0
  0
LINE
  5
5DDB
  8
0
 10
-331.42528883955629
 20
57.416645698808168
 30
0.0
 11
-331.0371400895562
 21
57.289200698808088
 31
0.0
  0
LINE
  5
5DDC
  8
0
 10
-328.10468508955631
 20
54.604221948808117
 30
0.0
 11
-328.27065508955639
 21
54.012011948808151
 31
0.0
  0
LINE
  5
5DDD
  8
0
 10
-328.10468508955631
 20
55.835976948808188
 30
0.0
 11
-328.04864383955618
 21
55.220099448808178
 31
0.0
  0
LINE
  5
5DDE
  8
0
 10
-330.02360133955631
 20
52.271316948808192
 30
0.0
 11
-329.51379633955628
 21
52.566265698808188
 31
0.0
  0
LINE
  5
5DDF
  8
0
 10
-329.51379633955628
 20
57.873933198808167
 30
0.0
 11
-329.06694758955632
 21
57.476999448808208
 31
0.0
  0
LINE
  5
5DE0
  8
0
 10
-328.27065508955639
 20
54.012011948808151
 30
0.0
 11
-328.54017633955618
 21
53.466228198808203
 31
0.0
  0
LINE
  5
5DE1
  8
0
 10
-328.27065508955639
 20
56.428186948808161
 30
0.0
 11
-328.10468508955631
 21
55.835976948808188
 31
0.0
  0
LINE
  5
5DE2
  8
0
 10
-328.54017633955618
 20
53.466228198808203
 30
0.0
 11
-328.90289008955631
 21
52.987844448808119
 31
0.0
  0
LINE
  5
5DE3
  8
0
 10
-328.54017633955618
 20
56.973970698808159
 30
0.0
 11
-328.27065508955639
 21
56.428186948808161
 31
0.0
  0
LINE
  5
5DE4
  8
0
 10
-330.5767725895563
 20
52.089688198808119
 30
0.0
 11
-330.02360133955631
 21
52.271316948808192
 31
0.0
  0
LINE
  5
5DE5
  8
0
 10
-330.02360133955631
 20
58.168881948808121
 30
0.0
 11
-329.51379633955628
 21
57.873933198808167
 31
0.0
  0
LINE
  5
5DE6
  8
0
 10
-332.2326125895562
 20
53.023551948808169
 30
0.0
 11
-331.8289500895562
 21
52.980519448808188
 31
0.0
  0
LINE
  5
5DE7
  8
0
 10
-331.8289500895562
 20
57.459678198808149
 30
0.0
 11
-331.42528883955629
 21
57.416645698808168
 31
0.0
  0
LINE
  5
5DE8
  8
0
 10
-329.34485883955631
 20
52.595245698808178
 30
0.0
 11
-328.90289008955631
 21
52.987844448808119
 31
0.0
  0
LINE
  5
5DE9
  8
0
 10
-328.90289008955631
 20
57.452354448808137
 30
0.0
 11
-328.54017633955618
 21
56.973970698808159
 31
0.0
  0
LINE
  5
5DEA
  8
0
 10
-331.15205133955618
 20
52.028360698808228
 30
0.0
 11
-330.5767725895563
 21
52.089688198808119
 31
0.0
  0
LINE
  5
5DEB
  8
0
 10
-330.5767725895563
 20
52.089688198808119
 30
0.0
 11
-330.39622758955642
 21
52.123873198808212
 31
0.0
  0
LINE
  5
5DEC
  8
0
 10
-330.5767725895563
 20
58.350509448808111
 30
0.0
 11
-330.02360133955631
 21
58.168881948808121
 31
0.0
  0
LINE
  5
5DED
  8
0
 10
-332.62076133955622
 20
53.150996948808199
 30
0.0
 11
-332.2326125895562
 21
53.023551948808169
 31
0.0
  0
LINE
  5
5DEE
  8
0
 10
-332.2326125895562
 20
57.416645698808168
 30
0.0
 11
-331.8289500895562
 21
57.459678198808149
 31
0.0
  0
LINE
  5
5DEF
  8
0
 10
-329.84909758955621
 20
52.303518198808263
 30
0.0
 11
-329.34485883955631
 21
52.595245698808178
 31
0.0
  0
LINE
  5
5DF0
  8
0
 10
-329.34485883955631
 20
57.844953198808128
 30
0.0
 11
-328.90289008955631
 21
57.452354448808137
 31
0.0
  0
LINE
  5
5DF1
  8
0
 10
-330.39622758955642
 20
52.123873198808212
 30
0.0
 11
-329.84909758955621
 21
52.303518198808263
 31
0.0
  0
LINE
  5
5DF2
  8
0
 10
-329.84909758955621
 20
58.136680698808107
 30
0.0
 11
-329.34485883955631
 21
57.844953198808128
 31
0.0
  0
LINE
  5
5DF3
  8
0
 10
-331.7273300895564
 20
52.089688198808119
 30
0.0
 11
-331.15205133955618
 21
52.028360698808228
 31
0.0
  0
LINE
  5
5DF4
  8
0
 10
-331.15205133955618
 20
58.411838198808141
 30
0.0
 11
-330.5767725895563
 21
58.350509448808111
 31
0.0
  0
LINE
  5
5DF5
  8
0
 10
-330.5767725895563
 20
58.350509448808111
 30
0.0
 11
-330.39622758955642
 21
58.316325698808157
 31
0.0
  0
LINE
  5
5DF6
  8
0
 10
-332.97848258955628
 20
53.35795694880818
 30
0.0
 11
-332.62076133955622
 21
53.150996948808199
 31
0.0
  0
LINE
  5
5DF7
  8
0
 10
-332.62076133955622
 20
57.289200698808088
 30
0.0
 11
-332.2326125895562
 21
57.416645698808168
 31
0.0
  0
LINE
  5
5DF8
  8
0
 10
-330.39622758955642
 20
58.316325698808157
 30
0.0
 11
-329.84909758955621
 21
58.136680698808107
 31
0.0
  0
LINE
  5
5DF9
  8
0
 10
-333.2920263395564
 20
53.636476948808252
 30
0.0
 11
-332.97848258955628
 21
53.35795694880818
 31
0.0
  0
LINE
  5
5DFA
  8
0
 10
-332.97848258955628
 20
57.082241948808068
 30
0.0
 11
-332.62076133955622
 21
57.289200698808088
 31
0.0
  0
LINE
  5
5DFB
  8
0
 10
-332.28050133955628
 20
52.271316948808192
 30
0.0
 11
-331.7273300895564
 21
52.089688198808119
 31
0.0
  0
LINE
  5
5DFC
  8
0
 10
-331.7273300895564
 20
58.350509448808111
 30
0.0
 11
-331.15205133955618
 21
58.411838198808141
 31
0.0
  0
LINE
  5
5DFD
  8
0
 10
-333.54934633955622
 20
53.975855698808232
 30
0.0
 11
-333.2920263395564
 21
53.636476948808252
 31
0.0
  0
LINE
  5
5DFE
  8
0
 10
-333.2920263395564
 20
56.803720698808149
 30
0.0
 11
-332.97848258955628
 21
57.082241948808068
 31
0.0
  0
LINE
  5
5DFF
  8
0
 10
-332.79030758955628
 20
52.566265698808188
 30
0.0
 11
-332.28050133955628
 21
52.271316948808192
 31
0.0
  0
LINE
  5
5E00
  8
0
 10
-332.28050133955628
 20
58.168881948808121
 30
0.0
 11
-331.7273300895564
 21
58.350509448808111
 31
0.0
  0
LINE
  5
5E01
  8
0
 10
-333.7405513395563
 20
54.363049448808162
 30
0.0
 11
-333.54934633955622
 21
53.975855698808232
 31
0.0
  0
LINE
  5
5E02
  8
0
 10
-333.2920263395564
 20
56.803720698808149
 30
0.0
 11
-333.54934633955622
 21
56.464343198808137
 31
0.0
  0
LINE
  5
5E03
  8
0
 10
-333.23715508955632
 20
52.963199448808147
 30
0.0
 11
-332.79030758955628
 21
52.566265698808188
 31
0.0
  0
LINE
  5
5E04
  8
0
 10
-332.79030758955628
 20
57.873933198808167
 30
0.0
 11
-332.28050133955628
 21
58.168881948808121
 31
0.0
  0
LINE
  5
5E05
  8
0
 10
-333.85829508955618
 20
54.783179448808198
 30
0.0
 11
-333.7405513395563
 21
54.363049448808162
 31
0.0
  0
LINE
  5
5E06
  8
0
 10
-333.54934633955622
 20
56.464343198808137
 30
0.0
 11
-333.7405513395563
 21
56.07714944880815
 31
0.0
  0
LINE
  5
5E07
  8
0
 10
-333.8980525895563
 20
55.220099448808178
 30
0.0
 11
-333.85829508955618
 21
54.783179448808198
 31
0.0
  0
LINE
  5
5E08
  8
0
 10
-333.7405513395563
 20
56.07714944880815
 30
0.0
 11
-333.85829508955618
 21
55.657019448808171
 31
0.0
  0
LINE
  5
5E09
  8
0
 10
-333.85829508955618
 20
55.657019448808171
 30
0.0
 11
-333.8980525895563
 21
55.220099448808178
 31
0.0
  0
LINE
  5
5E0A
  8
0
 10
-333.6038750895562
 20
53.446864448808178
 30
0.0
 11
-333.23715508955632
 21
52.963199448808147
 31
0.0
  0
LINE
  5
5E0B
  8
0
 10
-333.23715508955632
 20
57.476999448808208
 30
0.0
 11
-332.79030758955628
 21
57.873933198808167
 31
0.0
  0
LINE
  5
5E0C
  8
0
 10
-333.87637133955627
 20
53.998673198808149
 30
0.0
 11
-333.6038750895562
 21
53.446864448808178
 31
0.0
  0
LINE
  5
5E0D
  8
0
 10
-333.23715508955632
 20
57.476999448808208
 30
0.0
 11
-333.6038750895562
 21
56.993334448808177
 31
0.0
  0
LINE
  5
5E0E
  8
0
 10
-334.04417383955632
 20
54.597421948808169
 30
0.0
 11
-333.87637133955627
 21
53.998673198808149
 31
0.0
  0
LINE
  5
5E0F
  8
0
 10
-333.6038750895562
 20
56.993334448808177
 30
0.0
 11
-333.87637133955627
 21
56.441524448808138
 31
0.0
  0
LINE
  5
5E10
  8
0
 10
-334.10083383955617
 20
55.220099448808178
 30
0.0
 11
-334.04417383955632
 21
54.597421948808169
 31
0.0
  0
LINE
  5
5E11
  8
0
 10
-333.87637133955627
 20
56.441524448808138
 30
0.0
 11
-334.04417383955632
 21
55.842776948808194
 31
0.0
  0
LINE
  5
5E12
  8
0
 10
-334.04417383955632
 20
55.842776948808194
 30
0.0
 11
-334.10083383955617
 21
55.220099448808178
 31
0.0
  0
LINE
  5
5E13
  8
0
 10
-332.6532863395563
 20
53.169814448808211
 30
0.0
 11
-332.64957258955621
 21
53.17183444880817
 31
0.0
  0
LINE
  5
5E14
  8
0
 10
-332.6532863395563
 20
57.270383198808133
 30
0.0
 11
-332.64957258955621
 21
57.2683644488082
 31
0.0
  0
LINE
  5
5E15
  8
0
 10
-325.55886758955643
 20
55.220099448808178
 30
0.0
 11
-325.62543758955633
 21
54.488510698808113
 31
0.0
  0
LINE
  5
5E16
  8
0
 10
-325.62543758955633
 20
55.951688198808199
 30
0.0
 11
-325.55886758955643
 21
55.220099448808178
 31
0.0
  0
LINE
  5
5E17
  8
0
 10
-325.62543758955633
 20
54.488510698808113
 30
0.0
 11
-325.82259008955651
 21
53.785035698808258
 31
0.0
  0
LINE
  5
5E18
  8
0
 10
-325.82259008955651
 20
56.655161948808143
 30
0.0
 11
-325.62543758955633
 21
55.951688198808199
 31
0.0
  0
LINE
  5
5E19
  8
0
 10
-325.82259008955651
 20
53.785035698808258
 30
0.0
 11
-326.14274883955642
 21
53.136710698808152
 31
0.0
  0
LINE
  5
5E1A
  8
0
 10
-326.14274883955642
 20
57.303486948808143
 30
0.0
 11
-325.82259008955651
 21
56.655161948808143
 31
0.0
  0
LINE
  5
5E1B
  8
0
 10
-326.14274883955642
 20
53.136710698808152
 30
0.0
 11
-326.57361008955621
 21
52.568448198808142
 31
0.0
  0
LINE
  5
5E1C
  8
0
 10
-326.57361008955621
 20
57.871749448808139
 30
0.0
 11
-326.14274883955642
 21
57.303486948808143
 31
0.0
  0
LINE
  5
5E1D
  8
0
 10
-325.0229000895564
 20
55.220099448808178
 30
0.0
 11
-327.02315758955638
 21
51.470099448808178
 31
0.0
  0
LINE
  5
5E1E
  8
0
 10
-327.02315758955638
 20
58.970099448808178
 30
0.0
 11
-325.0229000895564
 21
55.220099448808178
 31
0.0
  0
LINE
  5
5E1F
  8
0
 10
-327.09861508955618
 20
52.102088198808183
 30
0.0
 11
-326.57361008955621
 21
52.568448198808142
 31
0.0
  0
LINE
  5
5E20
  8
0
 10
-327.09861508955618
 20
58.33811069880818
 30
0.0
 11
-326.57361008955621
 21
57.871749448808139
 31
0.0
  0
LINE
  5
5E21
  8
0
 10
-327.69759008955651
 20
51.755550698808179
 30
0.0
 11
-327.09861508955618
 21
52.102088198808183
 31
0.0
  0
LINE
  5
5E22
  8
0
 10
-327.69759008955651
 20
58.684646948808108
 30
0.0
 11
-327.09861508955618
 21
58.33811069880818
 31
0.0
  0
LINE
  5
5E23
  8
0
 10
-328.34751508955628
 20
51.542154448808269
 30
0.0
 11
-327.69759008955651
 21
51.755550698808179
 31
0.0
  0
LINE
  5
5E24
  8
0
 10
-328.34751508955628
 20
58.898044448808093
 30
0.0
 11
-327.69759008955651
 21
58.684646948808108
 31
0.0
  0
LINE
  5
5E25
  8
0
 10
-329.02341508955629
 20
51.470099448808178
 30
0.0
 11
-328.34751508955628
 21
51.542154448808269
 31
0.0
  0
LINE
  5
5E26
  8
0
 10
-329.02341508955629
 20
58.970099448808178
 30
0.0
 11
-328.34751508955628
 21
58.898044448808093
 31
0.0
  0
LINE
  5
5E27
  8
0
 10
-329.69931508955631
 20
51.542154448808269
 30
0.0
 11
-329.02341508955629
 21
51.470099448808178
 31
0.0
  0
LINE
  5
5E28
  8
0
 10
-329.69931508955631
 20
58.898044448808093
 30
0.0
 11
-329.02341508955629
 21
58.970099448808178
 31
0.0
  0
LINE
  5
5E29
  8
0
 10
-330.34924008955647
 20
51.755550698808179
 30
0.0
 11
-329.69931508955631
 21
51.542154448808269
 31
0.0
  0
LINE
  5
5E2A
  8
0
 10
-330.34924008955647
 20
58.684646948808108
 30
0.0
 11
-329.69931508955631
 21
58.898044448808093
 31
0.0
  0
LINE
  5
5E2B
  8
0
 10
-330.8723238395562
 20
52.058180698808258
 30
0.0
 11
-330.34924008955647
 21
51.755550698808179
 31
0.0
  0
LINE
  5
5E2C
  8
0
 10
-330.8723238395562
 20
58.382016948808143
 30
0.0
 11
-330.34924008955647
 21
58.684646948808108
 31
0.0
  0
LINE
  5
5E2D
  8
0
 10
-324.14869508955633
 20
55.220099448808178
 30
0.0
 11
-326.1489525895563
 21
51.470099448808178
 31
0.0
  0
LINE
  5
5E2E
  8
0
 10
-326.1489525895563
 20
51.470099448808178
 30
0.0
 11
-331.02367258955621
 21
51.470099448808178
 31
0.0
  0
LINE
  5
5E2F
  8
0
 10
-326.1489525895563
 20
58.970099448808178
 30
0.0
 11
-324.14869508955633
 21
55.220099448808178
 31
0.0
  0
LINE
  5
5E30
  8
0
 10
-325.0229000895564
 20
55.220099448808178
 30
0.0
 11
-324.14869508955633
 21
55.220099448808178
 31
0.0
  0
LINE
  5
5E31
  8
0
 10
-331.02367258955621
 20
58.970099448808178
 30
0.0
 11
-331.3316638395562
 21
58.392690698808167
 31
0.0
  0
LINE
  5
5E32
  8
0
 10
-331.3316638395562
 20
52.047508198808202
 30
0.0
 11
-331.02367258955621
 21
51.470099448808178
 31
0.0
  0
LINE
  5
5E33
  8
0
 10
-331.02367258955621
 20
58.970099448808178
 30
0.0
 11
-326.1489525895563
 21
58.970099448808178
 31
0.0
  0
LINE
  5
5E34
  8
0
 10
-321.92895133955642
 20
60.220099448808178
 30
0.0
 11
-321.92895133955642
 21
56.040560017949083
 31
0.0
  0
LINE
  5
5E35
  8
0
 10
-326.61437633955632
 20
50.220099448808178
 30
0.0
 11
-321.830137837346
 21
50.220099448808178
 31
0.0
  0
LINE
  5
5E36
  8
0
 10
-320.52895133955627
 20
60.220099448808178
 30
0.0
 11
-326.61437633955632
 21
60.220099448808178
 31
0.0
  0
ARC
  5
5E37
  8
0
 10
-326.61437633955632
 20
55.220099448808178
 30
0.0
 40
4.99999999999996
 50
228.59037799730129
 51
270.0
  0
ARC
  5
5E38
  8
0
 10
-326.61437633955632
 20
55.220099448808178
 30
0.0
 40
4.99999999999996
 50
90.0
 51
131.40962199959921
  0
POLYLINE
  5
5E39
  8
0
 66
     1
 10
0.0
 20
0.0
 30
0.0
  0
VERTEX
  5
6090
  8
0
 10
-331.08984758955631
 20
55.220099448808178
 30
0.0
  0
VERTEX
  5
6091
  8
0
 10
-331.1308700895562
 20
55.482918198808129
 30
0.0
  0
VERTEX
  5
6092
  8
0
 10
-331.18605383955628
 20
55.614776948808128
 30
0.0
  0
VERTEX
  5
6093
  8
0
 10
-331.26484508955627
 20
55.737000698808181
 30
0.0
  0
VERTEX
  5
6094
  8
0
 10
-331.3641900895563
 20
55.842141948808141
 30
0.0
  0
VERTEX
  5
6095
  8
0
 10
-331.47855383955618
 20
55.924483198808161
 30
0.0
  0
VERTEX
  5
6096
  8
0
 10
-331.60095383955633
 20
55.981084448808069
 30
0.0
  0
VERTEX
  5
6097
  8
0
 10
-331.76674883955633
 20
56.017260698808109
 30
0.0
  0
VERTEX
  5
6098
  8
0
 10
-331.92051008955627
 20
56.013936948808123
 30
0.0
  0
VERTEX
  5
6099
  8
0
 10
-332.05416508955631
 20
55.982054448808128
 30
0.0
  0
VERTEX
  5
609A
  8
0
 10
-332.1994213395563
 20
55.912344448808142
 30
0.0
  0
VERTEX
  5
609B
  8
0
 10
-332.33763383955619
 20
55.800483198808131
 30
0.0
  0
VERTEX
  5
609C
  8
0
 10
-332.44792133955627
 20
55.65729569880812
 30
0.0
  0
VERTEX
  5
609D
  8
0
 10
-332.51871383955631
 20
55.507496948808182
 30
0.0
  0
VERTEX
  5
609E
  8
0
 10
-332.55352758955621
 20
55.377926948808117
 30
0.0
  0
VERTEX
  5
609F
  8
0
 10
-332.56805383955623
 20
55.220099448808178
 30
0.0
  0
VERTEX
  5
60A0
  8
0
 10
-332.52703133955629
 20
54.957280698808177
 30
0.0
  0
VERTEX
  5
60A1
  8
0
 10
-332.47184633955629
 20
54.825420698808159
 30
0.0
  0
VERTEX
  5
60A2
  8
0
 10
-332.39305633955621
 20
54.703198198808131
 30
0.0
  0
VERTEX
  5
60A3
  8
0
 10
-332.29371133955618
 20
54.598056948808171
 30
0.0
  0
VERTEX
  5
60A4
  8
0
 10
-332.17934758955619
 20
54.515715698808087
 30
0.0
  0
VERTEX
  5
60A5
  8
0
 10
-332.05694758955622
 20
54.459114448808123
 30
0.0
  0
VERTEX
  5
60A6
  8
0
 10
-331.89115258955621
 20
54.422936948808108
 30
0.0
  0
VERTEX
  5
60A7
  8
0
 10
-331.73739133955621
 20
54.42626194880819
 30
0.0
  0
VERTEX
  5
60A8
  8
0
 10
-331.60373633955618
 20
54.458143198808159
 30
0.0
  0
VERTEX
  5
60A9
  8
0
 10
-331.4584800895563
 20
54.527853198808138
 30
0.0
  0
VERTEX
  5
60AA
  8
0
 10
-331.32026758955629
 20
54.639715698808111
 30
0.0
  0
VERTEX
  5
60AB
  8
0
 10
-331.20998008955621
 20
54.78290194880816
 30
0.0
  0
VERTEX
  5
60AC
  8
0
 10
-331.13918758955617
 20
54.932700698808112
 30
0.0
  0
VERTEX
  5
60AD
  8
0
 10
-331.10437258955619
 20
55.062271948808252
 30
0.0
  0
VERTEX
  5
60AE
  8
0
 10
-331.08984758955631
 20
55.220099448808178
 30
0.0
  0
SEQEND
  5
60AF
  8
0
  0
ARC
  5
5E3A
  8
0
 10
-318.23631133955632
 20
57.720099448808128
 30
0.0
 40
3.6926399999999688
 50
137.38859800219919
 51
200.6485887113607
  0
CIRCLE
  5
5E3B
  8
0
 10
-161.82895133955651
 20
43.219209583476349
 30
0.0
 40
0.75
  0
LINE
  5
5E3C
  8
µę˝u
 10
-191.22895133955629
 20
73.719209583476641
 30
0.0
 11
-191.92895133955651
 21
73.019209583476709
 31
0.0
  0
LINE
  5
5E3D
  8
µę˝u
 10
-202.62895133955669
 20
73.71920958347647
 30
0.0
 11
-201.92895133955651
 21
73.019209583476709
 31
0.0
  0
LINE
  5
5E3E
  8
µę˝u
 10
-191.92895133955651
 20
73.019209583476709
 30
0.0
 11
-201.92895133955651
 21
73.019209583476709
 31
0.0
  0
LINE
  5
5E3F
  8
µę˝u
 10
-196.92895133955631
 20
49.765470939420872
 30
0.0
 11
-192.67895133955619
 21
52.21920958347652
 31
0.0
  0
LINE
  5
5E40
  8
µę˝u
 10
-201.17895133955619
 20
52.21920958347652
 30
0.0
 11
-192.67895133955619
 21
52.21920958347652
 31
0.0
  0
LINE
  5
5E41
  8
µę˝u
 10
-201.17895133955619
 20
52.21920958347652
 30
0.0
 11
-196.92895133955631
 21
49.765470939420872
 31
0.0
  0
LINE
  5
5E42
  8
µę˝u
 10
-201.92895133955619
 20
56.71920958347647
 30
0.0
 11
-191.92895133955631
 21
56.71920958347647
 31
0.0
  0
LINE
  5
5E43
  8
µę˝u
 10
-201.17895133955619
 20
73.019209583476709
 30
0.0
 11
-201.17895133955619
 21
52.21920958347652
 31
0.0
  0
LINE
  5
5E44
  8
µę˝u
 10
-192.67895133955619
 20
73.019209583476709
 30
0.0
 11
-192.67895133955619
 21
52.21920958347652
 31
0.0
  0
LINE
  5
5E45
  8
¤¤¤ß˝u
 10
-276.92895133955631
 20
74.81920958347655
 30
0.0
 11
-276.92895133955631
 21
46.876795804825797
 31
0.0
  0
LINE
  5
5E46
  8
µę˝u
 10
-201.92895133955619
 20
73.019209583476709
 30
0.0
 11
-201.92895133955619
 21
56.71920958347647
 31
0.0
  0
LINE
  5
5E47
  8
µę˝u
 10
-191.92895133955631
 20
73.019209583476709
 30
0.0
 11
-191.92895133955631
 21
56.71920958347647
 31
0.0
  0
LINE
  5
5E48
  8
0
 10
-153.32895133955651
 20
59.219209583476349
 30
0.0
 11
-172.52895133955681
 21
59.219209583476299
 31
0.0
  0
LINE
  5
5E49
  8
0
 10
-153.32895133955651
 20
62.219209583476243
 30
0.0
 11
-172.52895133955681
 21
62.219209583476299
 31
0.0
  0
CIRCLE
  5
5E4A
  8
0
 10
-161.82895133955651
 20
43.219209583476349
 30
0.0
 40
4.549999999999998
  0
CIRCLE
  5
5E4B
  8
0
 10
-161.82895133955651
 20
43.219209583476349
 30
0.0
 40
3.9375
  0
CIRCLE
  5
5E4C
  8
0
 10
-161.82895133955651
 20
43.219209583476349
 30
0.0
 40
4.25
  0
LINE
  5
5E4D
  8
0
 10
-155.82895133955651
 20
13.219209583476349
 30
0.0
 11
-155.82895133955651
 21
62.219209583476299
 31
0.0
  0
LINE
  5
5E4E
  8
µę˝u
 10
-271.22895133955672
 20
73.719209583476527
 30
0.0
 11
-271.92895133955659
 21
73.019209583476595
 31
0.0
  0
LINE
  5
5E4F
  8
µę˝u
 10
-282.62895133955669
 20
73.719209583476356
 30
0.0
 11
-281.92895133955648
 21
73.019209583476595
 31
0.0
  0
LINE
  5
5E50
  8
µę˝u
 10
-271.92895133955659
 20
73.019209583476595
 30
0.0
 11
-281.92895133955648
 21
73.019209583476595
 31
0.0
  0
LINE
  5
5E51
  8
µę˝u
 10
-276.92895133955631
 20
49.765470939420773
 30
0.0
 11
-272.67895133955631
 21
52.21920958347642
 31
0.0
  0
LINE
  5
5E52
  8
µę˝u
 10
-281.17895133955631
 20
52.21920958347642
 30
0.0
 11
-272.67895133955631
 21
52.21920958347642
 31
0.0
  0
LINE
  5
5E53
  8
µę˝u
 10
-281.17895133955631
 20
52.21920958347642
 30
0.0
 11
-276.92895133955631
 21
49.765470939420773
 31
0.0
  0
LINE
  5
5E54
  8
µę˝u
 10
-281.92895133955619
 20
56.719209583476349
 30
0.0
 11
-271.92895133955642
 21
56.719209583476349
 31
0.0
  0
CIRCLE
  5
5E55
  8
0
 10
-312.02895133955627
 20
43.219209583476349
 30
0.0
 40
0.75
  0
CIRCLE
  5
5E56
  8
0
 10
-312.02895133955627
 20
43.219209583476349
 30
0.0
 40
4.549999999999998
  0
CIRCLE
  5
5E57
  8
0
 10
-312.02895133955627
 20
43.219209583476349
 30
0.0
 40
4.25
  0
CIRCLE
  5
5E58
  8
0
 10
-312.02895133955627
 20
43.219209583476349
 30
0.0
 40
3.9375
  0
LINE
  5
5E59
  8
0
 10
-318.02895133955627
 20
59.219209583476299
 30
0.0
 11
-301.32895133955623
 21
59.219209583476299
 31
0.0
  0
LINE
  5
5E5A
  8
0
 10
-318.02895133955627
 20
62.219209583476299
 30
0.0
 11
-301.32895133955623
 21
62.219209583476299
 31
0.0
  0
LINE
  5
5E5B
  8
µę˝u
 10
-281.17895133955631
 20
73.019209583476595
 30
0.0
 11
-281.17895133955631
 21
52.21920958347642
 31
0.0
  0
LINE
  5
5E5C
  8
µę˝u
 10
-272.67895133955631
 20
73.019209583476595
 30
0.0
 11
-272.67895133955631
 21
52.21920958347642
 31
0.0
  0
LINE
  5
5E5D
  8
µę˝u
 10
-281.92895133955619
 20
73.019209583476595
 30
0.0
 11
-281.92895133955619
 21
56.719209583476349
 31
0.0
  0
LINE
  5
5E5E
  8
µę˝u
 10
-271.92895133955642
 20
73.019209583476595
 30
0.0
 11
-271.92895133955642
 21
56.719209583476349
 31
0.0
  0
LINE
  5
5E5F
  8
0
 10
-301.32895133955628
 20
13.219209583476349
 30
0.0
 11
-301.32895133955628
 21
62.219209583476299
 31
0.0
  0
LINE
  5
5E60
  8
0
 10
-318.02895133955627
 20
13.219209583476349
 30
0.0
 11
-318.02895133955627
 21
62.219209583476299
 31
0.0
  0
LINE
  5
5E61
  8
0
 10
-301.32895133955623
 20
73.719849820769014
 30
0.0
 11
-301.32895133955628
 21
13.219209583476349
 31
0.0
  0
LINE
  5
5E62
  8
0
 10
-318.02895133955627
 20
13.219209583476349
 30
0.0
 11
-318.02895133955627
 21
62.219209583476299
 31
0.0
  0
LINE
  5
5E63
  8
0
 10
-301.32895133955623
 20
71.718747871190601
 30
0.0
 11
-172.52864085995239
 21
71.718747871190601
 31
0.0
  0
LINE
  5
5E64
  8
0
 10
-155.82895133955651
 20
16.219209583476349
 30
0.0
 11
-320.52926181916081
 21
16.219209583476349
 31
0.0
  0
LINE
  5
5E65
  8
0
 10
-318.02895133955627
 20
62.219209583476299
 30
0.0
 11
-320.52895133955627
 21
62.219209583476299
 31
0.0
  0
LINE
  5
5E66
  8
0
 10
-318.02895133955627
 20
59.219209583476299
 30
0.0
 11
-320.52895133955627
 21
59.219209583476299
 31
0.0
  0
ARC
  5
5E67
  8
0
 10
-319.90795826499033
 20
51.404949585293082
 30
0.0
 40
2.2580177488916551
 50
180.92764278799589
 51
254.03697783117121
  0
LINE
  5
5E68
  8
0
 10
-322.16568007355528
 20
55.070026242341442
 30
0.0
 11
-322.16568007355528
 21
51.368392924611221
 31
0.0
  0
ARC
  5
5E69
  8
0
 10
-319.90795826499033
 20
55.033469581659631
 30
0.0
 40
2.2580177488916551
 50
105.9630221688287
 51
179.07235721200399
  0
LINE
  5
5E6A
  8
0
 10
-322.52895133955627
 20
43.269209583476297
 30
0.0
 11
-320.52895133955627
 21
44.419209583476402
 31
0.0
  0
LINE
  5
5E6B
  8
0
 10
-322.52895133955627
 20
13.21984982076896
 30
0.0
 11
-322.52895133955627
 21
43.269209583476297
 31
0.0
  0
ARC
  5
5E6C
  8
0
 10
-319.90795826499033
 20
31.033469581659631
 30
0.0
 40
2.2580177488916551
 50
105.9630221688287
 51
179.07235721200399
  0
ARC
  5
5E6D
  8
0
 10
-319.90795826499033
 20
27.404949585293028
 30
0.0
 40
2.2580177488916551
 50
180.92764278799589
 51
254.03697783117121
  0
LINE
  5
5E6E
  8
0
 10
-322.16568007355528
 20
31.070026242341498
 30
0.0
 11
-322.16568007355528
 21
27.368392924611161
 31
0.0
  0
LINE
  5
5E6F
  8
0
 10
-320.52895133955627
 20
13.219209583476349
 30
0.0
 11
-320.52895133955627
 21
62.219209583476299
 31
0.0
  0
ARC
  5
5E70
  8
0
 10
-153.94994441412271
 20
51.404949585293082
 30
0.0
 40
2.2580177488916551
 50
285.96302216882867
 51
359.07235721200402
  0
LINE
  5
5E71
  8
0
 10
-151.6922226055575
 20
55.070026242341442
 30
0.0
 11
-151.6922226055575
 21
51.368392924611221
 31
0.0
  0
ARC
  5
5E72
  8
0
 10
-153.94994441412271
 20
55.033469581659631
 30
0.0
 40
2.2580177488916551
 50
0.927642787995955
 51
74.036977831171299
  0
LINE
  5
5E73
  8
0
 10
-151.3289513395564
 20
43.269209583476297
 30
0.0
 11
-153.32895133955651
 21
44.419209583476402
 31
0.0
  0
ARC
  5
5E74
  8
0
 10
-153.94994441412271
 20
31.033469581659631
 30
0.0
 40
2.2580177488916551
 50
0.927642787995955
 51
74.036977831171299
  0
ARC
  5
5E75
  8
0
 10
-153.94994441412271
 20
27.404949585293028
 30
0.0
 40
2.2580177488916551
 50
285.96302216882867
 51
359.07235721200402
  0
LINE
  5
5E76
  8
0
 10
-151.6922226055575
 20
31.070026242341498
 30
0.0
 11
-151.6922226055575
 21
27.368392924611161
 31
0.0
  0
LINE
  5
5E77
  8
0
 10
-151.32895133955651
 20
13.21984982076896
 30
0.0
 11
-151.3289513395564
 21
43.269209583476297
 31
0.0
  0
LINE
  5
5E78
  8
0
 10
-153.32895133955651
 20
13.219209583476349
 30
0.0
 11
-153.32895133955651
 21
62.219209583476243
 31
0.0
  0
LINE
  5
5E79
  8
0
 10
-322.52926181916013
 20
19.219834297674542
 30
0.0
 11
-336.45440342252488
 21
19.219834297674542
 31
0.0
  0
LINE
  5
5E7A
  8
0
 10
-322.52926181916013
 20
23.219837820769101
 30
0.0
 11
-336.68829772531291
 21
23.21983782076904
 31
0.0
  0
LINE
  5
5E7B
  8
0
 10
-322.52926181916013
 20
24.319479594553851
 30
0.0
 11
-336.97437014438037
 21
24.319479594553851
 31
0.0
  0
LINE
  5
5E7C
  8
0
 10
-322.52926181916013
 20
27.6876951091499
 30
0.0
 11
-337.85061328389418
 21
27.6876951091499
 31
0.0
  0
LINE
  5
5E7D
  8
0
 10
-322.52926181916013
 20
31.519843721181189
 30
0.0
 11
-338.13296624408292
 21
31.519843721181129
 31
0.0
  0
LINE
  5
5E7E
  8
0
 10
-322.52926181916013
 20
33.319817036646668
 30
0.0
 11
-337.66313591702169
 21
33.319817036646668
 31
0.0
  0
LINE
  5
5E7F
  8
0
 10
-322.52926181916013
 20
37.153090828459597
 30
0.0
 11
-338.25378907533178
 21
37.15309082845954
 31
0.0
  0
LINE
  5
5E80
  8
0
 10
-322.52926181916013
 20
40.52007902709493
 30
0.0
 11
-338.46105328216441
 21
40.52007902709488
 31
0.0
  0
LINE
  5
5E81
  8
0
 10
-322.52926181916013
 20
41.719849820769006
 30
0.0
 11
-389.7978931690443
 21
41.719849820769006
 31
0.0
  0
LINE
  5
5E82
  8
µę˝u
 10
-115.49776787604119
 20
41.31984982076915
 30
0.0
 11
-115.2668277683654
 21
41.71984982076907
 31
0.0
  0
LINE
  5
5E83
  8
µę˝u
 10
-135.49776787604139
 20
41.31984982076915
 30
0.0
 11
-135.72870798371719
 21
41.71984982076907
 31
0.0
  0
LINE
  5
5E84
  8
µę˝u
 10
-135.49776787604119
 20
41.31984982076915
 30
0.0
 11
-115.49776787604119
 21
41.31984982076915
 31
0.0
  0
LINE
  5
5E85
  8
µę˝u
 10
-118.49776787604119
 20
24.419849820769119
 30
0.0
 11
-118.1977678760413
 21
24.71984982076907
 31
0.0
  0
LINE
  5
5E86
  8
µę˝u
 10
-132.49776787604139
 20
24.419849820769119
 30
0.0
 11
-132.79776787604141
 21
24.71984982076907
 31
0.0
  0
LINE
  5
5E87
  8
µę˝u
 10
-132.49776787604119
 20
24.419849820769119
 30
0.0
 11
-118.49776787604119
 21
24.419849820769119
 31
0.0
  0
LINE
  5
5E88
  8
µę˝u
 10
-135.49776787604119
 20
24.71984982076907
 30
0.0
 11
-115.49776787604129
 21
24.71984982076907
 31
0.0
  0
LINE
  5
5E89
  8
µę˝u
 10
-118.49776787604119
 20
4.4198498207691719
 30
0.0
 11
-117.79776787604089
 21
3.7198498207691268
 31
0.0
  0
LINE
  5
5E8A
  8
µę˝u
 10
-132.49776787604131
 20
4.4198498207691719
 30
0.0
 11
-133.19776787604121
 21
3.7198498207691268
 31
0.0
  0
LINE
  5
5E8B
  8
µę˝u
 10
-132.49776787604131
 20
4.4198498207691719
 30
0.0
 11
-118.49776787604119
 21
4.4198498207691719
 31
0.0
  0
LINE
  5
5E8C
  8
µę˝u
 10
-118.49776787604119
 20
24.419849820769119
 30
0.0
 11
-118.49776787604119
 21
4.4198498207691719
 31
0.0
  0
LINE
  5
5E8D
  8
µę˝u
 10
-132.49776787604119
 20
24.419849820769119
 30
0.0
 11
-132.49776787604131
 21
4.4198498207691719
 31
0.0
  0
LINE
  5
5E8E
  8
¤¤¤ß˝u
 10
-125.49776787604139
 20
1.760428660531943
 30
0.0
 11
-125.49776787604139
 21
43.735323983634537
 31
0.0
  0
LINE
  5
5E8F
  8
0
 10
-102.99776787604139
 20
3.7198498207691841
 30
0.0
 11
-102.99776787604139
 21
41.71984982076907
 31
0.0
  0
LINE
  5
5E90
  8
µę˝u
 10
-115.49776787604119
 20
41.31984982076915
 30
0.0
 11
-115.49776787604129
 21
24.71984982076907
 31
0.0
  0
LINE
  5
5E91
  8
µę˝u
 10
-135.49776787604119
 20
41.31984982076915
 30
0.0
 11
-135.49776787604119
 21
24.71984982076907
 31
0.0
  0
LINE
  5
5E92
  8
µę˝u
 10
-255.2978931690441
 20
4.419849820769115
 30
0.0
 11
-254.59789316904391
 21
3.71984982076907
 31
0.0
  0
LINE
  5
5E93
  8
µę˝u
 10
-255.2978931690441
 20
13.21920958347641
 30
0.0
 11
-255.2978931690441
 21
4.419849820769115
 31
0.0
  0
LINE
  5
5E94
  8
µę˝u
 10
-269.29789316904419
 20
4.419849820769115
 30
0.0
 11
-269.99789316904418
 21
3.71984982076907
 31
0.0
  0
LINE
  5
5E95
  8
µę˝u
 10
-269.29789316904419
 20
13.21920958347641
 30
0.0
 11
-269.29789316904419
 21
4.419849820769115
 31
0.0
  0
LINE
  5
5E96
  8
µę˝u
 10
-269.29789316904419
 20
4.419849820769115
 30
0.0
 11
-255.2978931690441
 21
4.419849820769115
 31
0.0
  0
LINE
  5
5E97
  8
¤¤¤ß˝u
 10
-262.29789316904441
 20
1.760428660531886
 30
0.0
 11
-262.29789316904441
 21
14.68310456098391
 31
0.0
  0
LINE
  5
5E98
  8
«Řşc˝u
 10
-338.87296640654438
 20
38.932192524596189
 30
0.0
 11
-337.34452169743952
 21
34.540464279160119
 31
0.0
  0
LINE
  5
5E99
  8
«Řşc˝u
 10
-337.34452169743952
 20
34.540464279160119
 30
0.0
 11
-338.49085410371322
 21
30.14873470552072
 31
0.0
  0
LINE
  5
5E9A
  8
«Řşc˝u
 10
-338.14982112836492
 20
41.719849820769006
 30
0.0
 11
-338.87296640654438
 21
38.932192524596189
 31
0.0
  0
LINE
  5
5E9B
  8
«Řşc˝u
 10
-336.00713539085967
 20
20.60149886962347
 30
0.0
 11
-338.10874405199201
 21
14.10937775741934
 31
0.0
  0
LINE
  5
5E9C
  8
«Řşc˝u
 10
-338.10874405199201
 20
14.10937775741934
 30
0.0
 11
-335.62622388695593
 21
3.7198498207691841
 31
0.0
  0
LINE
  5
5E9D
  8
«Řşc˝u
 10
-338.49085410371322
 20
30.14873470552072
 30
0.0
 11
-336.00713539085967
 21
20.60149886962347
 31
0.0
  0
LINE
  5
5E9E
  8
0
 10
-262.29789316904441
 20
6.0198602557520644
 30
0.0
 11
-336.17579762054203
 21
6.0198559753041527
 31
0.0
  0
LINE
  5
5E9F
  8
0
 10
-262.29789316904441
 20
10.91980952536721
 30
0.0
 11
-337.34661438622589
 21
10.91980952536721
 31
0.0
  0
LINE
  5
5EA0
  8
0
 10
-357.29789316904407
 20
41.319849820769093
 30
0.0
 11
-357.06695306136811
 21
41.719849820769006
 31
0.0
  0
LINE
  5
5EA1
  8
0
 10
-377.2978931690443
 20
41.319849820769093
 30
0.0
 11
-377.52883327672009
 21
41.719849820769006
 31
0.0
  0
LINE
  5
5EA2
  8
0
 10
-377.29789316904407
 20
41.319849820769093
 30
0.0
 11
-357.29789316904407
 21
41.319849820769093
 31
0.0
  0
LINE
  5
5EA3
  8
0
 10
-360.29789316904407
 20
24.419849820769059
 30
0.0
 11
-359.99789316904418
 21
24.71984982076901
 31
0.0
  0
LINE
  5
5EA4
  8
0
 10
-374.2978931690443
 20
24.419849820769059
 30
0.0
 11
-374.59789316904431
 21
24.71984982076901
 31
0.0
  0
LINE
  5
5EA5
  8
0
 10
-374.29789316904407
 20
24.419849820769059
 30
0.0
 11
-360.29789316904407
 21
24.419849820769059
 31
0.0
  0
LINE
  5
5EA6
  8
0
 10
-360.29789316904407
 20
4.419849820769115
 30
0.0
 11
-359.59789316904403
 21
3.71984982076907
 31
0.0
  0
LINE
  5
5EA7
  8
0
 10
-374.29789316904419
 20
4.419849820769115
 30
0.0
 11
-374.99789316904412
 21
3.71984982076907
 31
0.0
  0
LINE
  5
5EA8
  8
0
 10
-374.29789316904419
 20
4.419849820769115
 30
0.0
 11
-360.29789316904407
 21
4.419849820769115
 31
0.0
  0
LINE
  5
5EA9
  8
0
 10
-360.29789316904407
 20
24.419849820769059
 30
0.0
 11
-360.29789316904407
 21
4.419849820769115
 31
0.0
  0
LINE
  5
5EAA
  8
0
 10
-374.29789316904407
 20
24.419849820769059
 30
0.0
 11
-374.29789316904419
 21
4.419849820769115
 31
0.0
  0
LINE
  5
5EAB
  8
0
 10
-377.29789316904407
 20
24.71984982076901
 30
0.0
 11
-357.29789316904419
 21
24.71984982076901
 31
0.0
  0
LINE
  5
5EAC
  8
¤¤¤ß˝u
 10
-367.2978931690443
 20
1.760428660531886
 30
0.0
 11
-367.2978931690443
 21
43.73532398363448
 31
0.0
  0
LINE
  5
5EAD
  8
0
 10
-389.79789316904419
 20
3.7198498207691268
 30
0.0
 11
-389.7978931690443
 21
41.719849820769006
 31
0.0
  0
LINE
  5
5EAE
  8
0
 10
-357.29789316904407
 20
41.319849820769093
 30
0.0
 11
-357.29789316904419
 21
24.71984982076901
 31
0.0
  0
LINE
  5
5EAF
  8
0
 10
-377.29789316904407
 20
41.319849820769093
 30
0.0
 11
-377.29789316904407
 21
24.71984982076901
 31
0.0
  0
LINE
  5
5EB0
  8
0
 10
-262.29789316904441
 20
3.7198498207692401
 30
0.0
 11
-389.7978931690443
 21
3.7198498207691268
 31
0.0
  0
LINE
  5
5EB1
  8
0
 10
-102.99776787604129
 20
41.719849820769177
 30
0.0
 11
-151.32895133955569
 21
41.719849820769127
 31
0.0
  0
LINE
  5
5EB2
  8
0
 10
-102.99776787604129
 20
40.520079027094141
 30
0.0
 11
-151.32895133955569
 21
40.520079027094262
 31
0.0
  0
LINE
  5
5EB3
  8
0
 10
-102.99776787604129
 20
37.153090828459483
 30
0.0
 11
-151.32895133955569
 21
37.153090828459597
 31
0.0
  0
LINE
  5
5EB4
  8
0
 10
-102.99776787604129
 20
33.319817036645929
 30
0.0
 11
-151.32895133955569
 21
33.319817036646207
 31
0.0
  0
LINE
  5
5EB5
  8
0
 10
-102.99776787604129
 20
31.519843721181189
 30
0.0
 11
-151.32895133955569
 21
31.519843721181129
 31
0.0
  0
LINE
  5
5EB6
  8
0
 10
-102.99776787604129
 20
27.68769510915007
 30
0.0
 11
-151.32895133955569
 21
27.68769510915002
 31
0.0
  0
LINE
  5
5EB7
  8
0
 10
-102.99776787604129
 20
24.319479594553691
 30
0.0
 11
-151.32895133955569
 21
24.319479594553801
 31
0.0
  0
LINE
  5
5EB8
  8
0
 10
-102.99776787604129
 20
23.21983782076893
 30
0.0
 11
-151.32895133955569
 21
23.219837820769101
 31
0.0
  0
LINE
  5
5EB9
  8
0
 10
-102.99776787604129
 20
19.219834297673849
 30
0.0
 11
-151.3289513395558
 21
19.21983429767436
 31
0.0
  0
LINE
  5
5EBA
  8
0
 10
-102.99776787604129
 20
10.91980952536715
 30
0.0
 11
-262.29789316904441
 21
10.9198095253671
 31
0.0
  0
LINE
  5
5EBB
  8
0
 10
-102.99776787604129
 20
6.0198457207653169
 30
0.0
 11
-262.29789316904441
 21
6.0198457207653169
 31
0.0
  0
LINE
  5
5EBC
  8
0
 10
-102.99776787604129
 20
3.7198498207691841
 30
0.0
 11
-262.29789316904441
 21
3.7198498207691268
 31
0.0
  0
LINE
  5
5EBD
  8
0
 10
-491.26300913367862
 20
73.719849820769127
 30
0.0
 11
-493.26300913367879
 21
71.719849820769014
 31
0.0
  0
LINE
  5
5EBE
  8
0
 10
-492.26300913367868
 20
16.21984982076901
 30
0.0
 11
-489.26300913367851
 21
13.21984982076901
 31
0.0
  0
LINE
  5
5EBF
  8
0
 10
-492.26300913367868
 20
16.21984982076901
 30
0.0
 11
-492.26300913367868
 21
41.719849820769006
 31
0.0
  0
LINE
  5
5EC0
  8
0
 10
-493.26300913367879
 20
42.719849820769006
 30
0.0
 11
-493.26300913367879
 21
71.719849820769014
 31
0.0
  0
LINE
  5
5EC1
  8
0
 10
-493.26300913367879
 20
42.719849820769006
 30
0.0
 11
-492.26300913367868
 21
41.719849820769006
 31
0.0
  0
LINE
  5
5EC2
  8
µę˝u
 10
-420.26300913367868
 20
49.766111176713359
 30
0.0
 11
-416.01300913367868
 21
52.219849820769006
 31
0.0
  0
LINE
  5
5EC3
  8
0
 10
-411.26300913367891
 20
13.21984982076901
 30
0.0
 11
-429.76300913367828
 21
13.21984982076901
 31
0.0
  0
LINE
  5
5EC4
  8
µę˝u
 10
-415.26300913367891
 20
73.019849820769196
 30
0.0
 11
-425.26300913367902
 21
73.019849820769196
 31
0.0
  0
LINE
  5
5EC5
  8
0
 10
-429.6872732023906
 20
73.719849820769127
 30
0.0
 11
-409.26300913367868
 21
73.719849820769127
 31
0.0
  0
LINE
  5
5EC6
  8
µę˝u
 10
-425.26300913367868
 20
56.719849820769006
 30
0.0
 11
-415.26300913367879
 21
56.719849820769006
 31
0.0
  0
LINE
  5
5EC7
  8
µę˝u
 10
-424.51300913367879
 20
52.219849820769006
 30
0.0
 11
-416.01300913367868
 21
52.219849820769006
 31
0.0
  0
LINE
  5
5EC8
  8
0
 10
-470.76300913367868
 20
13.21984982076896
 30
0.0
 11
-489.26300913367851
 21
13.21984982076901
 31
0.0
  0
LINE
  5
5EC9
  8
0
 10
-458.1872732023906
 20
73.719849820769127
 30
0.0
 11
-442.33874506496659
 21
73.719849820769127
 31
0.0
  0
CIRCLE
  5
5ECA
  8
0
 62
     3
 10
-484.26300913367862
 20
53.220715545407302
 30
0.0
 40
4.0
  0
LINE
  5
5ECB
  8
µę˝u
 10
-476.01300913367879
 20
73.019849820769196
 30
0.0
 11
-476.01300913367879
 21
52.219849820769006
 31
0.0
  0
LINE
  5
5ECC
  8
µę˝u
 10
-484.51300913367879
 20
73.019849820769196
 30
0.0
 11
-484.51300913367879
 21
52.219849820769006
 31
0.0
  0
LINE
  5
5ECD
  8
µę˝u
 10
-480.26300913367868
 20
49.766111176713359
 30
0.0
 11
-484.51300913367879
 21
52.219849820769006
 31
0.0
  0
LINE
  5
5ECE
  8
µę˝u
 10
-476.01300913367879
 20
52.219849820769006
 30
0.0
 11
-484.51300913367879
 21
52.219849820769006
 31
0.0
  0
LINE
  5
5ECF
  8
µę˝u
 10
-476.01300913367879
 20
52.219849820769006
 30
0.0
 11
-480.26300913367868
 21
49.766111176713359
 31
0.0
  0
LINE
  5
5ED0
  8
0
 10
-491.26300913367862
 20
73.719849820769127
 30
0.0
 11
-470.83874506496687
 21
73.719849820769014
 31
0.0
  0
LINE
  5
5ED1
  8
µę˝u
 10
-475.26300913367868
 20
73.019849820769196
 30
0.0
 11
-475.26300913367868
 21
56.719849820769006
 31
0.0
  0
LINE
  5
5ED2
  8
µę˝u
 10
-485.26300913367879
 20
73.019849820769196
 30
0.0
 11
-485.26300913367879
 21
56.719849820769006
 31
0.0
  0
LINE
  5
5ED3
  8
µę˝u
 10
-475.26300913367868
 20
56.719849820769006
 30
0.0
 11
-485.26300913367879
 21
56.719849820769006
 31
0.0
  0
LINE
  5
5ED4
  8
µę˝u
 10
-485.26300913367902
 20
73.019849820769196
 30
0.0
 11
-475.26300913367902
 21
73.019849820769196
 31
0.0
  0
LINE
  5
5ED5
  8
µę˝u
 10
-485.96300913367929
 20
73.719849820769127
 30
0.0
 11
-485.26300913367902
 21
73.019849820769196
 31
0.0
  0
LINE
  5
5ED6
  8
µę˝u
 10
-474.56300913367909
 20
73.719849820769014
 30
0.0
 11
-475.26300913367902
 21
73.019849820769196
 31
0.0
  0
LINE
  5
5ED7
  8
0
 10
-469.83874506496687
 20
72.719849820769241
 30
0.0
 11
-459.1872732023906
 21
72.719849820769241
 31
0.0
  0
LINE
  5
5ED8
  8
0
 10
-469.83874506496687
 20
72.719849820769241
 30
0.0
 11
-470.83874506496687
 21
73.719849820769014
 31
0.0
  0
LINE
  5
5ED9
  8
0
 10
-458.1872732023906
 20
73.719849820769127
 30
0.0
 11
-459.1872732023906
 21
72.719849820769241
 31
0.0
  0
LINE
  5
5EDA
  8
µę˝u
 10
-424.51300913367879
 20
73.019849820769196
 30
0.0
 11
-424.51300913367879
 21
52.219849820769006
 31
0.0
  0
LINE
  5
5EDB
  8
µę˝u
 10
-424.51300913367879
 20
52.219849820769006
 30
0.0
 11
-420.26300913367868
 21
49.766111176713359
 31
0.0
  0
LINE
  5
5EDC
  8
0
 10
-430.6872732023906
 20
72.719849820769014
 30
0.0
 11
-441.33874506496687
 21
72.719849820769241
 31
0.0
  0
LINE
  5
5EDD
  8
0
 10
-442.33874506496659
 20
73.719849820769127
 30
0.0
 11
-441.33874506496687
 21
72.719849820769241
 31
0.0
  0
LINE
  5
5EDE
  8
µę˝u
 10
-425.26300913367868
 20
73.019849820769196
 30
0.0
 11
-425.26300913367868
 21
56.719849820769006
 31
0.0
  0
LINE
  5
5EDF
  8
µę˝u
 10
-425.96300913367918
 20
73.719849820769127
 30
0.0
 11
-425.26300913367902
 21
73.019849820769196
 31
0.0
  0
LINE
  5
5EE0
  8
0
 10
-430.6872732023906
 20
72.719849820769014
 30
0.0
 11
-429.6872732023906
 21
73.719849820769127
 31
0.0
  0
LINE
  5
5EE1
  8
0
 10
-408.26300913367862
 20
16.21984982076901
 30
0.0
 11
-408.26300913367862
 21
56.719849820769006
 31
0.0
  0
LINE
  5
5EE2
  8
0
 10
-408.26300913367862
 20
16.21984982076901
 30
0.0
 11
-411.26300913367891
 21
13.21984982076901
 31
0.0
  0
LINE
  5
5EE3
  8
µę˝u
 10
-416.01300913367868
 20
73.019849820769196
 30
0.0
 11
-416.01300913367868
 21
52.219849820769006
 31
0.0
  0
LINE
  5
5EE4
  8
µę˝u
 10
-415.26300913367879
 20
73.019849820769196
 30
0.0
 11
-415.26300913367879
 21
56.719849820769006
 31
0.0
  0
LINE
  5
5EE5
  8
0
 10
-407.26300913367851
 20
71.719849820769127
 30
0.0
 11
-407.26300913367851
 21
57.71984982076912
 31
0.0
  0
LINE
  5
5EE6
  8
0
 10
-407.26300913367851
 20
57.71984982076912
 30
0.0
 11
-408.26300913367862
 21
56.719849820769006
 31
0.0
  0
LINE
  5
5EE7
  8
0
 10
-409.26300913367868
 20
73.719849820769127
 30
0.0
 11
-407.26300913367851
 21
71.719849820769127
 31
0.0
  0
LINE
  5
5EE8
  8
µę˝u
 10
-414.56300913367892
 20
73.719849820769127
 30
0.0
 11
-415.26300913367891
 21
73.019849820769196
 31
0.0
  0
CIRCLE
  5
5EE9
  8
0
 62
     3
 10
-413.26300913367862
 20
29.220715545407302
 30
0.0
 40
4.0
  0
LINE
  5
5EEA
  8
0
 62
     3
 10
-410.76300913367862
 20
30.02071554540737
 30
0.0
 11
-410.76300913367862
 21
28.420715545407351
 31
0.0
  0
LINE
  5
5EEB
  8
0
 62
     3
 10
-415.76300913367868
 20
30.02071554540737
 30
0.0
 11
-415.76300913367868
 21
28.420715545407351
 31
0.0
  0
LINE
  5
5EEC
  8
0
 62
     3
 10
-414.06300913367858
 20
31.720715545407302
 30
0.0
 11
-412.46300913367861
 21
31.720715545407302
 31
0.0
  0
LINE
  5
5EED
  8
0
 62
     3
 10
-414.06300913367858
 20
26.720715545407302
 30
0.0
 11
-412.46300913367861
 21
26.720715545407302
 31
0.0
  0
LINE
  5
5EEE
  8
0
 62
     3
 10
-410.76300913367862
 20
30.02071554540737
 30
0.0
 11
-412.46300913367861
 21
30.02071554540737
 31
0.0
  0
LINE
  5
5EEF
  8
0
 62
     3
 10
-410.76300913367862
 20
28.420715545407351
 30
0.0
 11
-412.46300913367861
 21
28.420715545407351
 31
0.0
  0
LINE
  5
5EF0
  8
0
 62
     3
 10
-414.06300913367858
 20
26.720715545407302
 30
0.0
 11
-414.06300913367858
 21
28.420715545407351
 31
0.0
  0
LINE
  5
5EF1
  8
0
 62
     3
 10
-412.46300913367861
 20
26.720715545407302
 30
0.0
 11
-412.46300913367861
 21
28.420715545407351
 31
0.0
  0
LINE
  5
5EF2
  8
0
 62
     3
 10
-414.06300913367858
 20
28.420715545407351
 30
0.0
 11
-415.76300913367868
 21
28.420715545407351
 31
0.0
  0
LINE
  5
5EF3
  8
0
 62
     3
 10
-414.06300913367858
 20
30.02071554540737
 30
0.0
 11
-414.06300913367858
 21
31.720715545407302
 31
0.0
  0
LINE
  5
5EF4
  8
0
 62
     3
 10
-412.46300913367861
 20
30.02071554540737
 30
0.0
 11
-412.46300913367861
 21
31.720715545407302
 31
0.0
  0
LINE
  5
5EF5
  8
0
 62
     3
 10
-414.06300913367858
 20
30.02071554540737
 30
0.0
 11
-415.76300913367868
 21
30.02071554540737
 31
0.0
  0
CIRCLE
  5
5EF6
  8
0
 62
     3
 10
-416.26300913367868
 20
53.220715545407302
 30
0.0
 40
4.0
  0
LINE
  5
5EF7
  8
0
 62
     3
 10
-413.76300913367862
 20
54.02071554540737
 30
0.0
 11
-413.76300913367862
 21
52.420715545407347
 31
0.0
  0
LINE
  5
5EF8
  8
0
 62
     3
 10
-418.76300913367862
 20
54.02071554540737
 30
0.0
 11
-418.76300913367868
 21
52.420715545407347
 31
0.0
  0
LINE
  5
5EF9
  8
0
 62
     3
 10
-417.06300913367869
 20
55.720715545407302
 30
0.0
 11
-415.46300913367872
 21
55.720715545407302
 31
0.0
  0
LINE
  5
5EFA
  8
0
 62
     3
 10
-417.06300913367869
 20
50.720715545407302
 30
0.0
 11
-415.46300913367872
 21
50.720715545407302
 31
0.0
  0
LINE
  5
5EFB
  8
0
 62
     3
 10
-413.76300913367862
 20
54.02071554540737
 30
0.0
 11
-415.46300913367872
 21
54.02071554540737
 31
0.0
  0
LINE
  5
5EFC
  8
0
 62
     3
 10
-413.76300913367862
 20
52.420715545407347
 30
0.0
 11
-415.46300913367872
 21
52.420715545407347
 31
0.0
  0
LINE
  5
5EFD
  8
0
 62
     3
 10
-417.06300913367869
 20
50.720715545407302
 30
0.0
 11
-417.06300913367869
 21
52.420715545407347
 31
0.0
  0
LINE
  5
5EFE
  8
0
 62
     3
 10
-415.46300913367872
 20
50.720715545407302
 30
0.0
 11
-415.46300913367872
 21
52.420715545407347
 31
0.0
  0
LINE
  5
5EFF
  8
0
 62
     3
 10
-417.06300913367869
 20
52.420715545407347
 30
0.0
 11
-418.76300913367868
 21
52.420715545407347
 31
0.0
  0
LINE
  5
5F00
  8
0
 62
     3
 10
-417.06300913367869
 20
54.02071554540737
 30
0.0
 11
-417.06300913367869
 21
55.720715545407302
 31
0.0
  0
LINE
  5
5F01
  8
0
 62
     3
 10
-415.46300913367872
 20
54.02071554540737
 30
0.0
 11
-415.46300913367872
 21
55.720715545407302
 31
0.0
  0
LINE
  5
5F02
  8
0
 62
     3
 10
-417.06300913367869
 20
54.02071554540737
 30
0.0
 11
-418.76300913367862
 21
54.02071554540737
 31
0.0
  0
LINE
  5
5F03
  8
0
 62
     3
 10
-483.46300913367861
 20
54.02071554540737
 30
0.0
 11
-481.76300913367868
 21
54.02071554540737
 31
0.0
  0
LINE
  5
5F04
  8
0
 62
     3
 10
-485.06300913367858
 20
54.02071554540737
 30
0.0
 11
-485.06300913367858
 21
55.720715545407302
 31
0.0
  0
LINE
  5
5F05
  8
0
 62
     3
 10
-483.46300913367861
 20
54.02071554540737
 30
0.0
 11
-483.46300913367861
 21
55.720715545407302
 31
0.0
  0
LINE
  5
5F06
  8
0
 62
     3
 10
-483.46300913367861
 20
52.420715545407347
 30
0.0
 11
-481.76300913367862
 21
52.420715545407347
 31
0.0
  0
LINE
  5
5F07
  8
0
 62
     3
 10
-485.06300913367858
 20
50.720715545407302
 30
0.0
 11
-485.06300913367858
 21
52.420715545407347
 31
0.0
  0
LINE
  5
5F08
  8
0
 62
     3
 10
-483.46300913367861
 20
50.720715545407302
 30
0.0
 11
-483.46300913367861
 21
52.420715545407347
 31
0.0
  0
LINE
  5
5F09
  8
0
 62
     3
 10
-486.76300913367868
 20
52.420715545407347
 30
0.0
 11
-485.06300913367858
 21
52.420715545407347
 31
0.0
  0
LINE
  5
5F0A
  8
0
 62
     3
 10
-486.76300913367868
 20
54.02071554540737
 30
0.0
 11
-485.06300913367858
 21
54.02071554540737
 31
0.0
  0
LINE
  5
5F0B
  8
0
 62
     3
 10
-483.46300913367861
 20
50.720715545407302
 30
0.0
 11
-485.06300913367858
 21
50.720715545407302
 31
0.0
  0
LINE
  5
5F0C
  8
0
 62
     3
 10
-483.46300913367861
 20
55.720715545407302
 30
0.0
 11
-485.06300913367858
 21
55.720715545407302
 31
0.0
  0
LINE
  5
5F0D
  8
0
 62
     3
 10
-481.76300913367868
 20
54.02071554540737
 30
0.0
 11
-481.76300913367862
 21
52.420715545407347
 31
0.0
  0
LINE
  5
5F0E
  8
0
 62
     3
 10
-486.76300913367868
 20
54.02071554540737
 30
0.0
 11
-486.76300913367868
 21
52.420715545407347
 31
0.0
  0
LINE
  5
5F0F
  8
0
 62
     3
 10
-486.46300913367872
 20
30.02071554540737
 30
0.0
 11
-484.76300913367862
 21
30.02071554540737
 31
0.0
  0
LINE
  5
5F10
  8
0
 62
     3
 10
-488.06300913367869
 20
30.02071554540737
 30
0.0
 11
-488.06300913367869
 21
31.720715545407302
 31
0.0
  0
LINE
  5
5F11
  8
0
 62
     3
 10
-486.46300913367872
 20
30.02071554540737
 30
0.0
 11
-486.46300913367872
 21
31.720715545407302
 31
0.0
  0
LINE
  5
5F12
  8
0
 62
     3
 10
-486.46300913367872
 20
28.420715545407351
 30
0.0
 11
-484.76300913367862
 21
28.420715545407351
 31
0.0
  0
LINE
  5
5F13
  8
0
 62
     3
 10
-488.06300913367869
 20
26.720715545407302
 30
0.0
 11
-488.06300913367869
 21
28.420715545407351
 31
0.0
  0
LINE
  5
5F14
  8
0
 62
     3
 10
-486.46300913367872
 20
26.720715545407302
 30
0.0
 11
-486.46300913367872
 21
28.420715545407351
 31
0.0
  0
LINE
  5
5F15
  8
0
 62
     3
 10
-489.76300913367862
 20
28.420715545407351
 30
0.0
 11
-488.06300913367869
 21
28.420715545407351
 31
0.0
  0
LINE
  5
5F16
  8
0
 62
     3
 10
-489.76300913367862
 20
30.02071554540737
 30
0.0
 11
-488.06300913367869
 21
30.02071554540737
 31
0.0
  0
LINE
  5
5F17
  8
0
 62
     3
 10
-486.46300913367872
 20
26.720715545407302
 30
0.0
 11
-488.06300913367869
 21
26.720715545407302
 31
0.0
  0
LINE
  5
5F18
  8
0
 62
     3
 10
-486.46300913367872
 20
31.720715545407302
 30
0.0
 11
-488.06300913367869
 21
31.720715545407302
 31
0.0
  0
LINE
  5
5F19
  8
0
 62
     3
 10
-484.76300913367862
 20
30.02071554540737
 30
0.0
 11
-484.76300913367862
 21
28.420715545407351
 31
0.0
  0
LINE
  5
5F1A
  8
0
 62
     3
 10
-489.76300913367862
 20
30.02071554540737
 30
0.0
 11
-489.76300913367862
 21
28.420715545407351
 31
0.0
  0
CIRCLE
  5
5F1B
  8
0
 62
     3
 10
-487.26300913367868
 20
29.220715545407302
 30
0.0
 40
4.0
  0
LINE
  5
5F1C
  8
0
 10
-409.26300913367868
 20
16.220715545407302
 30
0.0
 11
-412.26300913367868
 21
13.2207155454073
 31
0.0
  0
LINE
  5
5F1D
  8
0
 10
-491.26300913367862
 20
16.220715545407302
 30
0.0
 11
-488.26300913367851
 21
13.2207155454073
 31
0.0
  0
ARC
  5
5F1E
  8
0
 10
-412.26300913367868
 20
59.220715545407351
 30
0.0
 40
3.0
 50
0.0
 51
90.0
  0
ARC
  5
5F1F
  8
0
 10
-488.26300913367862
 20
59.220715545407302
 30
0.0
 40
3.0
 50
90.0
 51
180.0
  0
LINE
  5
5F20
  8
0
 10
-409.26300913367868
 20
16.220715545407302
 30
0.0
 11
-409.26300913367862
 21
59.220715545407351
 31
0.0
  0
LINE
  5
5F21
  8
0
 10
-491.26300913367862
 20
16.220715545407302
 30
0.0
 11
-491.26300913367868
 21
59.220715545407302
 31
0.0
  0
LINE
  5
5F22
  8
0
 10
-488.26300913367862
 20
62.220715545407302
 30
0.0
 11
-412.26300913367868
 21
62.220715545407359
 31
0.0
  0
ARC
  5
5F23
  8
0
 10
-430.93094048364048
 20
24.059642241708499
 30
0.0
 40
4.0
 50
89.884068652309324
 51
180.1159321106052
  0
ARC
  5
5F24
  8
0
 10
-430.93075869780461
 20
40.989642240732557
 30
0.0
 40
4.0
 50
182.96722500742791
 51
267.03275679006248
  0
ARC
  5
5F25
  8
0
 10
-469.59094048141168
 20
24.060057353369189
 30
0.0
 40
4.0
 50
359.81902765862702
 51
90.180971569584344
  0
ARC
  5
5F26
  8
0
 10
-469.59075869557591
 20
40.990057352393251
 30
0.0
 40
4.0
 50
272.90547361102671
 51
357.0945447258992
  0
LINE
  5
5F27
  8
µę˝u
 10
-440.26300913367851
 20
41.319849820769093
 30
0.0
 11
-440.0320690260026
 21
41.719849820769127
 31
0.0
  0
LINE
  5
5F28
  8
0
 10
-435.862660133644
 20
41.71984982076907
 30
0.0
 11
-434.92539593454211
 21
40.782583440220378
 31
0.0
  0
LINE
  5
5F29
  8
0
 10
-431.1378187673879
 20
36.995005069776539
 30
0.0
 11
-427.76300913367851
 21
33.620184050030844
 31
0.0
  0
LINE
  5
5F2A
  8
0
 10
-427.76300913367851
 20
33.620184050030844
 30
0.0
 11
-427.76300913367851
 21
31.219477213623861
 31
0.0
  0
LINE
  5
5F2B
  8
0
 10
-430.92284695426912
 20
28.059634053547828
 30
0.0
 11
-427.76300913367851
 21
31.219477213623861
 31
0.0
  0
LINE
  5
5F2C
  8
µę˝u
 10
-443.26300913367851
 20
24.419849820769059
 30
0.0
 11
-442.96300913367861
 21
24.71984982076901
 31
0.0
  0
LINE
  5
5F2D
  8
0
 10
-435.76300913367851
 20
23.21947182076946
 30
0.0
 11
-434.93093229537209
 21
24.051548659076051
 31
0.0
  0
LINE
  5
5F2E
  8
µę˝u
 10
-440.26300913367851
 20
41.319849820769093
 30
0.0
 11
-440.26300913367851
 21
24.71984982076901
 31
0.0
  0
LINE
  5
5F2F
  8
µę˝u
 10
-460.26300913367879
 20
41.319849820769093
 30
0.0
 11
-460.49394924135441
 21
41.719849820769127
 31
0.0
  0
LINE
  5
5F30
  8
0
 10
-464.66335813371359
 20
41.71984982076907
 30
0.0
 11
-465.5959005532668
 21
40.78730523075842
 31
0.0
  0
LINE
  5
5F31
  8
0
 10
-469.38800529542772
 20
36.995199274973182
 30
0.0
 11
-472.76300913367839
 21
33.620184050031469
 31
0.0
  0
LINE
  5
5F32
  8
0
 10
-472.76300913367839
 20
33.620184050031469
 30
0.0
 11
-472.76300913367839
 21
31.21947721362346
 31
0.0
  0
LINE
  5
5F33
  8
µę˝u
 10
-457.26300913367879
 20
24.419849820769059
 30
0.0
 11
-457.56300913367869
 21
24.71984982076901
 31
0.0
  0
LINE
  5
5F34
  8
0
 10
-464.76300913367839
 20
23.219471820768831
 30
0.0
 11
-465.59096043443827
 21
24.047423121528819
 31
0.0
  0
LINE
  5
5F35
  8
0
 10
-469.60357465937142
 20
28.06003740051279
 30
0.0
 11
-472.76300913367839
 21
31.21947721362346
 31
0.0
  0
LINE
  5
5F36
  8
µę˝u
 10
-460.26300913367851
 20
41.319849820769093
 30
0.0
 11
-460.26300913367851
 21
24.71984982076901
 31
0.0
  0
LINE
  5
5F37
  8
µę˝u
 10
-460.26300913367851
 20
24.71984982076901
 30
0.0
 11
-440.26300913367851
 21
24.71984982076901
 31
0.0
  0
LINE
  5
5F38
  8
µę˝u
 10
-460.26300913367851
 20
41.319849820769093
 30
0.0
 11
-440.26300913367851
 21
41.319849820769093
 31
0.0
  0
LINE
  5
5F39
  8
0
 10
-464.66335813371359
 20
41.71984982076907
 30
0.0
 11
-435.862660133644
 21
41.71984982076907
 31
0.0
  0
LINE
  5
5F3A
  8
µę˝u
 10
-457.26300913367851
 20
24.419849820769059
 30
0.0
 11
-443.26300913367851
 21
24.419849820769059
 31
0.0
  0
LINE
  5
5F3B
  8
0
 10
-429.26300913367862
 20
3.7198498207691268
 30
0.0
 11
-427.76300913367851
 21
5.2198498207691273
 31
0.0
  0
LINE
  5
5F3C
  8
0
 10
-435.01338749176767
 20
3.7198498207691268
 30
0.0
 11
-429.26300913367862
 21
3.7198498207691268
 31
0.0
  0
LINE
  5
5F3D
  8
0
 10
-427.76300913367862
 20
11.219849820769239
 30
0.0
 11
-427.76300913367851
 21
5.2198498207691273
 31
0.0
  0
LINE
  5
5F3E
  8
µę˝u
 10
-443.26300913367851
 20
4.4198498207691719
 30
0.0
 11
-442.56300913367829
 21
3.7198498207691268
 31
0.0
  0
LINE
  5
5F3F
  8
0
 10
-441.01338583367863
 20
4.7198503207692957
 30
0.0
 11
-442.01338711824963
 21
3.7198498207691841
 31
0.0
  0
LINE
  5
5F40
  8
0
 10
-441.01338583367863
 20
4.7198498207691273
 30
0.0
 11
-436.01338713367869
 21
4.7198498207691273
 31
0.0
  0
LINE
  5
5F41
  8
0
 10
-436.01338713367869
 20
4.719849640769211
 30
0.0
 11
-435.01338749176767
 21
3.7198498207691268
 31
0.0
  0
LINE
  5
5F42
  8
0
 10
-427.76300913367862
 20
11.219849820769239
 30
0.0
 11
-435.76300913367851
 21
19.219849820769131
 31
0.0
  0
LINE
  5
5F43
  8
0
 10
-472.76300913367839
 20
11.219849820769181
 30
0.0
 11
-464.76300913367822
 21
19.219849820769351
 31
0.0
  0
LINE
  5
5F44
  8
µę˝u
 10
-457.26300913367851
 20
4.4198498207691719
 30
0.0
 11
-457.96300913367861
 21
3.7198498207691268
 31
0.0
  0
LINE
  5
5F45
  8
0
 10
-459.51338393367871
 20
4.7198498207691273
 30
0.0
 11
-458.51338276465049
 21
3.7198498207691268
 31
0.0
  0
LINE
  5
5F46
  8
0
 10
-464.51338413367858
 20
4.719849640769211
 30
0.0
 11
-465.51338344962238
 21
3.7198498207691268
 31
0.0
  0
LINE
  5
5F47
  8
0
 10
-472.76300913367828
 20
5.2198498207691273
 30
0.0
 11
-471.26300913367839
 21
3.7198498207691268
 31
0.0
  0
LINE
  5
5F48
  8
0
 10
-471.26300913367839
 20
3.7198498207691268
 30
0.0
 11
-465.51338344962238
 21
3.7198498207691268
 31
0.0
  0
LINE
  5
5F49
  8
0
 10
-464.5133831336787
 20
4.7198498207691273
 30
0.0
 11
-459.51338393367871
 21
4.7198498207691273
 31
0.0
  0
LINE
  5
5F4A
  8
0
 10
-472.76300913367839
 20
11.21984982076912
 30
0.0
 11
-472.76300913367828
 21
5.2198498207691273
 31
0.0
  0
LINE
  5
5F4B
  8
0
 10
-458.51338276465049
 20
3.7198498207691268
 30
0.0
 11
-442.01338711824963
 21
3.7198498207691841
 31
0.0
  0
LINE
  5
5F4C
  8
µę˝u
 10
-457.26300913367851
 20
4.4198498207691719
 30
0.0
 11
-443.26300913367851
 21
4.4198498207691719
 31
0.0
  0
LINE
  5
5F4D
  8
µę˝u
 10
-457.26300913367851
 20
24.419849820769059
 30
0.0
 11
-457.26300913367851
 21
4.4198498207691719
 31
0.0
  0
LINE
  5
5F4E
  8
¤¤¤ß˝u
 10
-450.26300913367862
 20
80.473218652616765
 30
0.0
 11
-450.26300913367862
 21
1.4198498207691721
 31
0.0
  0
LINE
  5
5F4F
  8
µę˝u
 10
-443.26300913367851
 20
24.419849820769059
 30
0.0
 11
-443.26300913367851
 21
4.4198498207691719
 31
0.0
  0
LINE
  5
5F50
  8
0
 10
-464.76300913367839
 20
23.219471820768831
 30
0.0
 11
-464.76300913367822
 21
19.219849820769351
 31
0.0
  0
LINE
  5
5F51
  8
0
 10
-435.76300913367851
 20
23.21947182076946
 30
0.0
 11
-435.76300913367851
 21
19.219849820769131
 31
0.0
  0
ARC
  5
5F52
  8
0
 10
-450.26300913367862
 20
55.221446352079617
 30
0.0
 40
6.5625010959376811
 50
30.243297773998719
 51
329.75669075929892
  0
POLYLINE
  5
5F53
  8
0
 66
     1
 10
0.0
 20
0.0
 30
0.0
  0
VERTEX
  5
60B0
  8
0
 10
-439.07339760588849
 20
55.221446352079617
 30
0.0
  0
VERTEX
  5
60B1
  8
0
 10
-439.0314622221353
 20
54.95014975364802
 30
0.0
  0
VERTEX
  5
60B2
  8
0
 10
-438.99034847876919
 20
54.871519448016841
 30
0.0
  0
VERTEX
  5
60B3
  8
0
 10
-438.94463555388518
 20
54.834592395974987
 30
0.0
  0
VERTEX
  5
60B4
  8
0
 10
-438.9021641000424
 20
54.834976496039182
 30
0.0
  0
VERTEX
  5
60B5
  8
0
 10
-438.85654803517451
 20
54.872731868344317
 30
0.0
  0
VERTEX
  5
60B6
  8
0
 10
-438.81736815238162
 20
54.947444352696273
 30
0.0
  0
VERTEX
  5
60B7
  8
0
 10
-438.78063482037197
 20
55.110035605724022
 30
0.0
  0
VERTEX
  5
60B8
  8
0
 10
-438.77442575833521
 20
55.221446352079617
 30
0.0
  0
VERTEX
  5
60B9
  8
0
 10
-438.81635947208798
 20
55.49274128051087
 30
0.0
  0
VERTEX
  5
60BA
  8
0
 10
-438.85747488545428
 20
55.571371586142163
 30
0.0
  0
VERTEX
  5
60BB
  8
0
 10
-438.90318781033852
 20
55.608298638183953
 30
0.0
  0
VERTEX
  5
60BC
  8
0
 10
-438.94565759418077
 20
55.607914537994809
 30
0.0
  0
VERTEX
  5
60BD
  8
0
 10
-438.99127532904902
 20
55.570159165689631
 30
0.0
  0
VERTEX
  5
60BE
  8
0
 10
-439.03045354184212
 20
55.495446681337619
 30
0.0
  0
VERTEX
  5
60BF
  8
0
 10
-439.0671885438515
 20
55.332855428434932
 30
0.0
  0
VERTEX
  5
60C0
  8
0
 10
-439.07339760588849
 20
55.221446352079617
 30
0.0
  0
SEQEND
  5
60C1
  8
0
  0
ARC
  5
5F54
  8
0
 10
-450.26300913367862
 20
55.221446352079617
 30
0.0
 40
5.0
 50
48.590377998903008
 51
311.40962200319859
  0
LINE
  5
5F55
  8
0
 10
-446.65456881731899
 20
58.971445934579549
 30
0.0
 11
-447.37625788259129
 21
60.221446352079617
 31
0.0
  0
LINE
  5
5F56
  8
0
 10
-453.14976038476601
 20
60.221446352079617
 30
0.0
 11
-447.37625788259129
 21
60.221446352079617
 31
0.0
  0
LINE
  5
5F57
  8
0
 10
-453.14976038476601
 20
60.221446352079617
 30
0.0
 11
-456.03651163585363
 21
55.221446352079617
 31
0.0
  0
LINE
  5
5F58
  8
0
 10
-456.03651163585363
 20
55.221446352079617
 30
0.0
 11
-453.14976038476601
 21
50.221444682079323
 31
0.0
  0
LINE
  5
5F59
  8
0
 10
-447.37625621259087
 20
50.221444682079323
 30
0.0
 11
-453.14976038476601
 21
50.221444682079323
 31
0.0
  0
LINE
  5
5F5A
  8
0
 10
-446.65456881731899
 20
51.471445099579462
 30
0.0
 11
-447.37625621259087
 21
50.221444682079323
 31
0.0
  0
LINE
  5
5F5B
  8
0
 10
-448.63612633323908
 20
51.471445099579462
 30
0.0
 11
-444.86853997505261
 21
51.471445099579462
 31
0.0
  0
LINE
  5
5F5C
  8
0
 10
-444.78991634942213
 20
58.615587188526092
 30
0.0
 11
-444.86853997505261
 21
58.971445934579549
 31
0.0
  0
LINE
  5
5F5D
  8
0
 10
-444.86853997505261
 20
51.471445099579462
 30
0.0
 11
-444.78991634942213
 21
51.827303845632848
 31
0.0
  0
LINE
  5
5F5E
  8
0
 10
-448.63612633323908
 20
58.971445934579549
 30
0.0
 11
-444.86853997505261
 21
58.971445934579549
 31
0.0
  0
LINE
  5
5F5F
  8
0
 10
-445.41710676391301
 20
51.543500613112663
 30
0.0
 11
-442.91484808816068
 21
52.675769332201519
 31
0.0
  0
LINE
  5
5F60
  8
0
 10
-438.08332943304703
 20
54.78452577961388
 30
0.0
 11
-438.06686155767193
 21
55.221446352079617
 31
0.0
  0
LINE
  5
5F61
  8
0
 10
-438.13210012894177
 20
54.364395392702022
 30
0.0
 11
-438.08332943304703
 21
54.78452577961388
 31
0.0
  0
LINE
  5
5F62
  8
0
 10
-438.06686155767193
 20
55.221446352079617
 30
0.0
 11
-438.08332943304703
 21
55.658366924545362
 31
0.0
  0
LINE
  5
5F63
  8
0
 10
-445.69707400516739
 20
51.471445099579462
 30
0.0
 11
-445.41710676391301
 21
51.543500613112663
 31
0.0
  0
LINE
  5
5F64
  8
0
 10
-445.69707400516739
 20
58.971445934579549
 30
0.0
 11
-445.41710676391301
 21
58.899390421046292
 31
0.0
  0
LINE
  5
5F65
  8
0
 10
-445.41710676391301
 20
58.899390421046292
 30
0.0
 11
-442.91484808816068
 21
57.767121701957358
 31
0.0
  0
LINE
  5
5F66
  8
0
 10
-438.21129990479312
 20
53.977202426415822
 30
0.0
 11
-438.13210012894177
 21
54.364395392702022
 31
0.0
  0
LINE
  5
5F67
  8
0
 10
-438.08332943304703
 20
55.658366924545362
 30
0.0
 11
-438.13210012894177
 21
56.078495641456811
 31
0.0
  0
LINE
  5
5F68
  8
0
 10
-438.31788601959329
 20
53.637823245864517
 30
0.0
 11
-438.21129990479312
 21
53.977202426415822
 31
0.0
  0
LINE
  5
5F69
  8
0
 10
-439.2670792589833
 20
53.173559754457528
 30
0.0
 11
-439.26470618821219
 21
53.174720404776387
 31
0.0
  0
LINE
  5
5F6A
  8
0
 10
-438.13210012894177
 20
56.078495641456811
 30
0.0
 11
-438.21129990479312
 21
56.46569027774337
 31
0.0
  0
LINE
  5
5F6B
  8
0
 10
-445.97704124642189
 20
51.543500613112663
 30
0.0
 11
-445.69707400516739
 21
51.471445099579462
 31
0.0
  0
LINE
  5
5F6C
  8
0
 10
-445.97704124642189
 20
58.899390421046292
 30
0.0
 11
-445.69707400516739
 21
58.971445934579549
 31
0.0
  0
LINE
  5
5F6D
  8
0
 10
-438.44776029190712
 20
53.359302224976553
 30
0.0
 11
-438.31788601959329
 21
53.637823245864517
 31
0.0
  0
LINE
  5
5F6E
  8
0
 10
-438.21129990479312
 20
56.46569027774337
 30
0.0
 11
-438.31788601959329
 21
56.805067788294359
 31
0.0
  0
LINE
  5
5F6F
  8
0
 10
-442.91484808816068
 20
52.675769332201519
 30
0.0
 11
-442.6134447199513
 21
52.798773222243199
 31
0.0
  0
LINE
  5
5F70
  8
0
 10
-442.91484808816068
 20
57.767121701957358
 30
0.0
 11
-442.6134447199513
 21
57.64411948191605
 31
0.0
  0
LINE
  5
5F71
  8
0
 10
-438.59593276015181
 20
53.152344067539502
 30
0.0
 11
-438.44776029190712
 21
53.359302224976553
 31
0.0
  0
LINE
  5
5F72
  8
0
 10
-438.31788601959329
 20
56.805067788294359
 30
0.0
 11
-438.44776029190712
 21
57.083588809182459
 31
0.0
  0
LINE
  5
5F73
  8
0
 10
-446.2462486742545
 20
51.756896622624822
 30
0.0
 11
-445.97704124642189
 21
51.543500613112663
 31
0.0
  0
LINE
  5
5F74
  8
0
 10
-446.2462486742545
 20
58.685994411534132
 30
0.0
 11
-445.97704124642189
 21
58.899390421046292
 31
0.0
  0
LINE
  5
5F75
  8
0
 10
-442.6134447199513
 20
52.798773222243199
 30
0.0
 11
-442.3447900623359
 21
52.78736377858786
 31
0.0
  0
LINE
  5
5F76
  8
0
 10
-442.6134447199513
 20
57.64411948191605
 30
0.0
 11
-442.3447900623359
 21
57.655527255571087
 31
0.0
  0
LINE
  5
5F77
  8
0
 10
-440.31980251216299
 20
52.091035341550992
 30
0.0
 11
-438.7567087226264
 21
53.024897976006059
 31
0.0
  0
LINE
  5
5F78
  8
0
 10
-438.7567087226264
 20
53.024897976006059
 30
0.0
 11
-438.59593276015181
 21
53.152344067539502
 31
0.0
  0
LINE
  5
5F79
  8
0
 10
-438.44776029190712
 20
57.083588809182459
 30
0.0
 11
-438.59593276015181
 21
57.290546966619388
 31
0.0
  0
LINE
  5
5F7A
  8
0
 10
-449.4646603633546
 20
55.221446352079617
 30
0.0
 11
-448.63612633323908
 21
58.971445934579549
 31
0.0
  0
LINE
  5
5F7B
  8
0
 10
-449.4646603633546
 20
55.221446352079617
 30
0.0
 11
-447.35414206539792
 21
55.221446352079617
 31
0.0
  0
LINE
  5
5F7C
  8
0
 10
-448.63612633323908
 20
51.471445099579462
 30
0.0
 11
-449.4646603633546
 21
55.221446352079617
 31
0.0
  0
LINE
  5
5F7D
  8
0
 10
-446.2462486742545
 20
51.756896622624822
 30
0.0
 11
-446.4943523050631
 21
52.103433425621461
 31
0.0
  0
LINE
  5
5F7E
  8
0
 10
-446.4943523050631
 20
58.339457608537479
 30
0.0
 11
-446.2462486742545
 21
58.685994411534132
 31
0.0
  0
LINE
  5
5F7F
  8
0
 10
-440.55808987983198
 20
52.029706241558991
 30
0.0
 11
-440.31980251216299
 21
52.091035341550992
 31
0.0
  0
LINE
  5
5F80
  8
0
 10
-441.00913030690589
 20
52.064560822879677
 30
0.0
 11
-440.55808987983198
 21
52.029706241558991
 31
0.0
  0
LINE
  5
5F81
  8
0
 10
-442.3447900623359
 20
52.78736377858786
 30
0.0
 11
-441.65235606657438
 21
52.3308424097238
 31
0.0
  0
LINE
  5
5F82
  8
0
 10
-438.92391084717411
 20
52.98186540194456
 30
0.0
 11
-438.7567087226264
 21
53.024897976006059
 31
0.0
  0
LINE
  5
5F83
  8
0
 10
-440.31980251216299
 20
58.35185736260825
 30
0.0
 11
-438.7567087226264
 21
57.417993058152881
 31
0.0
  0
LINE
  5
5F84
  8
0
 10
-438.7567087226264
 20
57.417993058152881
 30
0.0
 11
-438.59593276015181
 21
57.290546966619388
 31
0.0
  0
LINE
  5
5F85
  8
0
 10
-440.55808987983198
 20
58.413184792599957
 30
0.0
 11
-440.31980251216299
 21
58.35185736260825
 31
0.0
  0
LINE
  5
5F86
  8
0
 10
-441.00913030690589
 20
58.378331881154509
 30
0.0
 11
-440.55808987983198
 21
58.413184792599957
 31
0.0
  0
LINE
  5
5F87
  8
0
 10
-442.5833346100481
 20
52.967992707502837
 30
0.0
 11
-442.40823338305592
 21
52.829192282198157
 31
0.0
  0
LINE
  5
5F88
  8
0
 10
-441.65235606657438
 20
52.3308424097238
 30
0.0
 11
-441.24481581376517
 21
52.125218582759658
 31
0.0
  0
LINE
  5
5F89
  8
0
 10
-441.24481581376517
 20
52.125218582759658
 30
0.0
 11
-441.00913030690589
 21
52.064560822879677
 31
0.0
  0
LINE
  5
5F8A
  8
0
 10
-442.3447900623359
 20
57.655527255571087
 30
0.0
 11
-441.65235606657438
 21
58.112048624435211
 31
0.0
  0
LINE
  5
5F8B
  8
0
 10
-442.5833346100481
 20
57.474898326656103
 30
0.0
 11
-442.40823338305592
 21
57.613698751960733
 31
0.0
  0
LINE
  5
5F8C
  8
0
 10
-446.4943523050631
 20
52.103433425621461
 30
0.0
 11
-446.71181643600431
 21
52.569794437628723
 31
0.0
  0
LINE
  5
5F8D
  8
0
 10
-446.71181643600431
 20
57.873096596530161
 30
0.0
 11
-446.4943523050631
 21
58.339457608537479
 31
0.0
  0
LINE
  5
5F8E
  8
0
 10
-440.79637891750122
 20
52.091035341550992
 30
0.0
 11
-440.55808987983198
 21
52.029706241558991
 31
0.0
  0
LINE
  5
5F8F
  8
0
 10
-441.24481581376517
 20
58.317672451399403
 30
0.0
 11
-441.00913030690589
 21
58.378331881154509
 31
0.0
  0
LINE
  5
5F90
  8
0
 10
-441.65235606657438
 20
58.112048624435211
 30
0.0
 11
-441.24481581376517
 21
58.317672451399403
 31
0.0
  0
LINE
  5
5F91
  8
0
 10
-446.5256080352824
 20
51.471445099579462
 30
0.0
 11
-447.35414206539792
 21
55.221446352079617
 31
0.0
  0
LINE
  5
5F92
  8
0
 10
-447.35414206539792
 20
55.221446352079617
 30
0.0
 11
-446.5256080352824
 21
58.971445934579549
 31
0.0
  0
LINE
  5
5F93
  8
0
 10
-442.5833346100481
 20
52.967992707502837
 30
0.0
 11
-442.7447101027476
 21
53.193391010894402
 31
0.0
  0
LINE
  5
5F94
  8
0
 10
-439.09111297159723
 20
53.024897976006059
 30
0.0
 11
-438.92391084717411
 21
52.98186540194456
 31
0.0
  0
LINE
  5
5F95
  8
0
 10
-438.92391084717411
 20
57.46102563221438
 30
0.0
 11
-438.7567087226264
 21
57.417993058152881
 31
0.0
  0
LINE
  5
5F96
  8
0
 10
-440.79637891750122
 20
58.35185736260825
 30
0.0
 11
-440.55808987983198
 21
58.413184792599957
 31
0.0
  0
LINE
  5
5F97
  8
0
 10
-441.8639351155332
 20
57.944333809676777
 30
0.0
 11
-441.65235606657438
 21
58.112048624435211
 31
0.0
  0
LINE
  5
5F98
  8
0
 10
-442.7447101027476
 20
57.249500023264552
 30
0.0
 11
-442.5833346100481
 21
57.474898326656103
 31
0.0
  0
LINE
  5
5F99
  8
0
 10
-446.71181643600431
 20
52.569794437628723
 30
0.0
 11
-446.89028605418372
 21
53.138057212903611
 31
0.0
  0
LINE
  5
5F9A
  8
0
 10
-446.89028605418372
 20
57.304833821255329
 30
0.0
 11
-446.71181643600431
 21
57.873096596530161
 31
0.0
  0
LINE
  5
5F9B
  8
0
 10
-442.7447101027476
 20
53.193391010894402
 30
0.0
 11
-442.88615580874432
 21
53.49672656980146
 31
0.0
  0
LINE
  5
5F9C
  8
0
 10
-441.02550967226631
 20
52.272662930757747
 30
0.0
 11
-440.79637891750122
 21
52.091035341550992
 31
0.0
  0
LINE
  5
5F9D
  8
0
 10
-442.88615580874432
 20
56.946164464357537
 30
0.0
 11
-442.7447101027476
 21
57.249500023264552
 31
0.0
  0
LINE
  5
5F9E
  8
0
 10
-439.25189060407178
 20
53.152344067539502
 30
0.0
 11
-439.09111297159723
 21
53.024897976006059
 31
0.0
  0
LINE
  5
5F9F
  8
0
 10
-441.02550967226631
 20
58.170228103401143
 30
0.0
 11
-440.79637891750122
 21
58.35185736260825
 31
0.0
  0
LINE
  5
5FA0
  8
0
 10
-439.09111297159723
 20
57.417993058152881
 30
0.0
 11
-438.92391084717411
 21
57.46102563221438
 31
0.0
  0
LINE
  5
5FA1
  8
0
 10
-442.88615580874432
 20
53.49672656980146
 30
0.0
 11
-443.00223754662977
 21
53.866342780277357
 31
0.0
  0
LINE
  5
5FA2
  8
0
 10
-446.89028605418372
 20
53.138057212903611
 30
0.0
 11
-447.02289912733022
 21
53.786383154299067
 31
0.0
  0
LINE
  5
5FA3
  8
0
 10
-447.02289912733022
 20
56.656509549860168
 30
0.0
 11
-446.89028605418372
 21
57.304833821255329
 31
0.0
  0
LINE
  5
5FA4
  8
0
 10
-443.00223754662977
 20
56.576548253881583
 30
0.0
 11
-442.88615580874432
 21
56.946164464357537
 31
0.0
  0
LINE
  5
5FA5
  8
0
 10
-441.02550967226631
 20
52.272662930757747
 30
0.0
 11
-441.23667790103121
 21
52.56761174688927
 31
0.0
  0
LINE
  5
5FA6
  8
0
 10
-443.00223754662977
 20
53.866342780277357
 30
0.0
 11
-443.08849307478431
 21
54.288034617824898
 31
0.0
  0
LINE
  5
5FA7
  8
0
 10
-447.02289912733022
 20
53.786383154299067
 30
0.0
 11
-447.10456215396812
 21
54.489857523529281
 31
0.0
  0
LINE
  5
5FA8
  8
0
 10
-447.10456215396812
 20
55.953035180504912
 30
0.0
 11
-447.02289912733022
 21
56.656509549860168
 31
0.0
  0
LINE
  5
5FA9
  8
0
 10
-439.25189060407178
 20
57.290546966619388
 30
0.0
 11
-439.09111297159723
 21
57.417993058152881
 31
0.0
  0
LINE
  5
5FAA
  8
0
 10
-439.25189060407178
 20
53.152344067539502
 30
0.0
 11
-439.4000630723167
 21
53.359302224976553
 31
0.0
  0
LINE
  5
5FAB
  8
0
 10
-441.23667790103121
 20
57.875279287269677
 30
0.0
 11
-441.02550967226631
 21
58.170228103401143
 31
0.0
  0
LINE
  5
5FAC
  8
0
 10
-443.08849307478431
 20
56.154856416334098
 30
0.0
 11
-443.00223754662977
 21
56.576548253881583
 31
0.0
  0
LINE
  5
5FAD
  8
0
 10
-443.08849307478431
 20
54.288034617824898
 30
0.0
 11
-443.14161078203
 21
54.745596396987708
 31
0.0
  0
LINE
  5
5FAE
  8
0
 10
-447.10456215396812
 20
54.489857523529281
 30
0.0
 11
-447.13213720294812
 21
55.221446352079617
 31
0.0
  0
LINE
  5
5FAF
  8
0
 10
-447.13213720294812
 20
55.221446352079617
 30
0.0
 11
-447.10456215396812
 21
55.953035180504912
 31
0.0
  0
LINE
  5
5FB0
  8
0
 10
-443.14161078203
 20
55.697294637171233
 30
0.0
 11
-443.08849307478431
 21
56.154856416334098
 31
0.0
  0
LINE
  5
5FB1
  8
0
 10
-443.14161078203
 20
54.745596396987708
 30
0.0
 11
-443.15954491790012
 21
55.221446352079617
 31
0.0
  0
LINE
  5
5FB2
  8
0
 10
-443.15954491790012
 20
55.221446352079617
 30
0.0
 11
-443.14161078203
 21
55.697294637171233
 31
0.0
  0
LINE
  5
5FB3
  8
0
 10
-441.23667790103121
 20
52.56761174688927
 30
0.0
 11
-441.42176907144159
 21
52.964545826302242
 31
0.0
  0
LINE
  5
5FB4
  8
0
 10
-439.4000630723167
 20
57.083588809182459
 30
0.0
 11
-439.25189060407178
 21
57.290546966619388
 31
0.0
  0
LINE
  5
5FB5
  8
0
 10
-439.4000630723167
 20
53.359302224976553
 30
0.0
 11
-439.52993734463053
 21
53.637823245864517
 31
0.0
  0
LINE
  5
5FB6
  8
0
 10
-441.42176907144159
 20
57.478346877857007
 30
0.0
 11
-441.23667790103121
 21
57.875279287269677
 31
0.0
  0
LINE
  5
5FB7
  8
0
 10
-439.52993734463053
 20
56.805067788294359
 30
0.0
 11
-439.4000630723167
 21
57.083588809182459
 31
0.0
  0
LINE
  5
5FB8
  8
0
 10
-441.42176907144159
 20
52.964545826302242
 30
0.0
 11
-441.5736689809338
 21
53.448209713949147
 31
0.0
  0
LINE
  5
5FB9
  8
0
 10
-439.52993734463053
 20
53.637823245864517
 30
0.0
 11
-439.63652178943022
 21
53.977202426415822
 31
0.0
  0
LINE
  5
5FBA
  8
0
 10
-441.5736689809338
 20
56.994681320084851
 30
0.0
 11
-441.42176907144159
 21
57.478346877857007
 31
0.0
  0
LINE
  5
5FBB
  8
0
 10
-439.63652178943022
 20
56.46569027774337
 30
0.0
 11
-439.52993734463053
 21
56.805067788294359
 31
0.0
  0
LINE
  5
5FBC
  8
0
 10
-441.5736689809338
 20
53.448209713949147
 30
0.0
 11
-441.6865409777833
 21
54.000019643851367
 31
0.0
  0
LINE
  5
5FBD
  8
0
 10
-439.63652178943022
 20
53.977202426415822
 30
0.0
 11
-439.7157215652818
 21
54.364395392702022
 31
0.0
  0
LINE
  5
5FBE
  8
0
 10
-441.6865409777833
 20
56.442871390307573
 30
0.0
 11
-441.5736689809338
 21
56.994681320084851
 31
0.0
  0
LINE
  5
5FBF
  8
0
 10
-439.7157215652818
 20
56.078495641456811
 30
0.0
 11
-439.63652178943022
 21
56.46569027774337
 31
0.0
  0
LINE
  5
5FC0
  8
0
 10
-441.6865409777833
 20
54.000019643851367
 30
0.0
 11
-441.7560464003908
 21
54.598768279092383
 31
0.0
  0
LINE
  5
5FC1
  8
0
 10
-439.7157215652818
 20
54.364395392702022
 30
0.0
 11
-439.7644939311769
 21
54.78452577961388
 31
0.0
  0
LINE
  5
5FC2
  8
0
 10
-441.7560464003908
 20
55.844122755066621
 30
0.0
 11
-441.6865409777833
 21
56.442871390307573
 31
0.0
  0
LINE
  5
5FC3
  8
0
 10
-439.7644939311769
 20
55.658366924545362
 30
0.0
 11
-439.7157215652818
 21
56.078495641456811
 31
0.0
  0
LINE
  5
5FC4
  8
0
 10
-441.7560464003908
 20
54.598768279092383
 30
0.0
 11
-441.7795165880604
 21
55.221446352079617
 31
0.0
  0
LINE
  5
5FC5
  8
0
 10
-439.7644939311769
 20
54.78452577961388
 30
0.0
 11
-439.7809618065516
 21
55.221446352079617
 31
0.0
  0
LINE
  5
5FC6
  8
0
 10
-439.7809618065516
 20
55.221446352079617
 30
0.0
 11
-439.7644939311769
 21
55.658366924545362
 31
0.0
  0
LINE
  5
5FC7
  8
0
 10
-441.7795165880604
 20
55.221446352079617
 30
0.0
 11
-441.7560464003908
 21
55.844122755066621
 31
0.0
  0
LINE
  5
5FC8
  8
0
 10
-442.40823338305592
 20
52.829192282198157
 30
0.0
 11
-442.3447900623359
 21
52.78736377858786
 31
0.0
  0
LINE
  5
5FC9
  8
0
 10
-442.67388704954533
 20
52.801340013171853
 30
0.0
 11
-442.6134447199513
 21
52.798773222243199
 31
0.0
  0
LINE
  5
5FCA
  8
0
 10
-442.40823338305592
 20
57.613698751960733
 30
0.0
 11
-442.3447900623359
 21
57.655527255571087
 31
0.0
  0
POINT
  5
5FCB
  8
0
 10
-438.06686155767193
 20
55.221446352079617
 30
0.0
1001
PNTFLAG
1000
endpoint
  0
LINE
  5
5FCC
  8
0
 10
-473.09646151159433
 20
13.21984982076901
 30
0.0
 11
-466.41300913367832
 21
19.903302198684969
 31
0.0
  0
LINE
  5
5FCD
  8
0
 10
-466.41300913367837
 20
22.53601944285327
 30
0.0
 11
-466.41300913367832
 21
19.903302198684969
 31
0.0
  0
LINE
  5
5FCE
  8
0
 10
-466.41300913367837
 20
22.53601944285327
 30
0.0
 11
-467.32267175694108
 21
23.445682066116088
 31
0.0
  0
ARC
  5
5FCF
  8
0
 10
-469.59094048141168
 20
24.060057353369189
 30
0.0
 40
2.3500000000000001
 50
344.84469626683892
 51
105.1553216347654
  0
LINE
  5
5FD0
  8
0
 10
-470.20531647736709
 20
26.328325885883149
 30
0.0
 11
-474.41300913367837
 21
30.536025652341781
 31
0.0
  0
LINE
  5
5FD1
  8
0
 10
-474.41300913367837
 20
34.30363479746643
 30
0.0
 11
-474.41300913367837
 21
30.536025652341781
 31
0.0
  0
LINE
  5
5FD2
  8
0
 10
-470.03435416712807
 20
38.68230453685652
 30
0.0
 11
-474.41300913367837
 21
34.30363479746643
 31
0.0
  0
ARC
  5
5FD3
  8
0
 10
-469.59075869557591
 20
40.990057352393251
 30
0.0
 40
2.3500000000000001
 50
259.11933678375618
 51
10.88062670642187
  0
LINE
  5
5FD4
  8
0
 10
-465.34681163642972
 20
43.369849820769097
 30
0.0
 11
-467.28300559737318
 21
41.433651353406958
 31
0.0
  0
LINE
  5
5FD5
  8
0
 10
-465.34681163642972
 20
43.369849820769097
 30
0.0
 11
-435.17920663092792
 21
43.369849820769097
 31
0.0
  0
LINE
  5
5FD6
  8
0
 10
-435.17920663092792
 20
43.369849820769097
 30
0.0
 11
-433.23916832103998
 21
41.429806995515548
 31
0.0
  0
ARC
  5
5FD7
  8
0
 10
-430.93075869780461
 20
40.989642240732557
 30
0.0
 40
2.3500000000000001
 50
169.20450083853379
 51
280.7955358192724
  0
LINE
  5
5FD8
  8
0
 10
-430.49059246610261
 20
38.681232899114782
 30
0.0
 11
-426.11300913367842
 21
34.303634797465747
 31
0.0
  0
LINE
  5
5FD9
  8
0
 10
-426.11300913367842
 20
34.303634797465747
 30
0.0
 11
-426.11300913367847
 21
30.536025652342179
 31
0.0
  0
LINE
  5
5FDA
  8
0
 10
-430.32014904077522
 20
26.328878636031849
 30
0.0
 11
-426.11300913367847
 21
30.536025652342179
 31
0.0
  0
ARC
  5
5FDB
  8
0
 10
-430.93094048364048
 20
24.059642241708499
 30
0.0
 40
2.3500000000000001
 50
74.935203763705204
 51
195.06477833699671
  0
LINE
  5
5FDC
  8
0
 10
-434.11300913367847
 20
22.536019442853899
 30
0.0
 11
-433.20017706877599
 21
23.448851507756672
 31
0.0
  0
LINE
  5
5FDD
  8
0
 10
-434.11300913367847
 20
22.536019442853899
 30
0.0
 11
-434.11300913367847
 21
19.903302198684742
 31
0.0
  0
LINE
  5
5FDE
  8
0
 10
-427.42955675576269
 20
13.21984982076901
 30
0.0
 11
-434.11300913367847
 21
19.903302198684742
 31
0.0
  0
LINE
  5
5FDF
  8
0
 10
-474.72280710832342
 20
13.2198498207689
 30
0.0
 11
-467.56300913367829
 21
20.37964779541403
 31
0.0
  0
LINE
  5
5FE0
  8
0
 10
-467.56300913367841
 20
22.059673846124149
 30
0.0
 11
-467.56300913367829
 21
20.37964779541403
 31
0.0
  0
LINE
  5
5FE1
  8
0
 10
-467.56300913367841
 20
22.059673846124149
 30
0.0
 11
-468.72875022520941
 21
23.22541493765539
 31
0.0
  0
ARC
  5
5FE2
  8
0
 10
-469.59094048141168
 20
24.060057353369189
 30
0.0
 40
1.2
 50
315.93010723545302
 51
134.0699570066229
  0
LINE
  5
5FE3
  8
0
 10
-470.42558386384349
 20
24.922246673740009
 30
0.0
 11
-475.56300913367852
 21
30.05968062478178
 31
0.0
  0
LINE
  5
5FE4
  8
0
 10
-475.56300913367841
 20
34.779979257799937
 30
0.0
 11
-475.56300913367852
 21
30.05968062478178
 31
0.0
  0
LINE
  5
5FE5
  8
0
 10
-470.31200942996742
 20
40.030996677493931
 30
0.0
 11
-475.56300913367841
 21
34.779979257799937
 31
0.0
  0
ARC
  5
5FE6
  8
0
 10
-469.59075869557591
 20
40.990057352393251
 30
0.0
 40
1.2
 50
233.05541811645719
 51
36.944417995166901
  0
LINE
  5
5FE7
  8
0
 10
-465.8231580171107
 20
44.519849820769082
 30
0.0
 11
-468.63169595762088
 21
41.71130534349259
 31
0.0
  0
LINE
  5
5FE8
  8
0
 10
-465.8231580171107
 20
44.519849820769082
 30
0.0
 11
-434.702860250247
 21
44.519849820769139
 31
0.0
  0
LINE
  5
5FE9
  8
0
 10
-434.702860250247
 20
44.519849820769139
 30
0.0
 11
-431.89157265592547
 21
41.70855568328227
 31
0.0
  0
ARC
  5
5FEA
  8
0
 10
-430.93075869780461
 20
40.989642240732557
 30
0.0
 40
1.2
 50
143.19492398790069
 51
306.80523992638427
  0
LINE
  5
5FEB
  8
0
 10
-430.21184250651902
 20
40.028830339314759
 30
0.0
 11
-424.9630091336785
 21
34.779979257799198
 31
0.0
  0
LINE
  5
5FEC
  8
0
 10
-424.9630091336785
 20
34.779979257799198
 30
0.0
 11
-424.9630091336785
 21
30.059680624782231
 31
0.0
  0
LINE
  5
5FED
  8
0
 10
-430.09861331545608
 20
24.924067764874561
 30
0.0
 11
-424.9630091336785
 21
30.059680624782231
 31
0.0
  0
ARC
  5
5FEE
  8
0
 10
-430.93094048364048
 20
24.059642241708499
 30
0.0
 40
1.2
 50
46.08376485174783
 51
223.9161710070297
  0
LINE
  5
5FEF
  8
0
 10
-432.9630091336785
 20
22.059673846124952
 30
0.0
 11
-431.79536693857591
 21
23.22731604122794
 31
0.0
  0
LINE
  5
5FF0
  8
0
 10
-432.9630091336785
 20
22.059673846124952
 30
0.0
 11
-432.96300913367861
 21
20.379647795413799
 31
0.0
  0
LINE
  5
5FF1
  8
0
 10
-425.80321115903371
 20
13.21984982076901
 30
0.0
 11
-432.96300913367861
 21
20.379647795413799
 31
0.0
  0
LINE
  5
5FF2
  8
0
 10
-467.56300913367829
 20
20.37964779541403
 30
0.0
 11
-464.76300913367822
 21
19.219849820769351
 31
0.0
  0
LINE
  5
5FF3
  8
0
 10
-467.56300913367841
 20
22.059673846124149
 30
0.0
 11
-464.76300913367839
 21
23.219471820768831
 31
0.0
  0
LINE
  5
5FF4
  8
0
 10
-467.32267175694091
 20
23.445682066115921
 30
0.0
 11
-468.72875022520913
 21
23.225414937655049
 31
0.0
  0
LINE
  5
5FF5
  8
0
 10
-467.32267175694091
 20
23.445682066115982
 30
0.0
 11
-465.59094048141168
 21
24.060057353369189
 31
0.0
  0
LINE
  5
5FF6
  8
0
 10
-470.20531647736709
 20
26.328325885883149
 30
0.0
 11
-469.60357465937142
 21
28.06003740051279
 31
0.0
  0
LINE
  5
5FF7
  8
0
 10
-470.20531647736709
 20
26.328325885883149
 30
0.0
 11
-470.42558386384388
 21
24.92224667374041
 31
0.0
  0
LINE
  5
5FF8
  8
0
 10
-475.56300913367852
 20
30.05968062478178
 30
0.0
 11
-472.76300913367839
 21
31.21947721362346
 31
0.0
  0
LINE
  5
5FF9
  8
0
 10
-472.76300913367839
 20
33.620184050031469
 30
0.0
 11
-475.56300913367841
 21
34.779979257799937
 31
0.0
  0
LINE
  5
5FFA
  8
0
 10
-470.31200942996782
 20
40.030996677493476
 30
0.0
 11
-470.03435416712819
 21
38.68230453685635
 31
0.0
  0
LINE
  5
5FFB
  8
0
 10
-470.03435416712819
 20
38.68230453685635
 30
0.0
 11
-469.38800529542772
 21
36.995199274973182
 31
0.0
  0
LINE
  5
5FFC
  8
0
 10
-468.63169595762031
 20
41.711305343492938
 30
0.0
 11
-467.28300559737318
 21
41.433651353406958
 31
0.0
  0
LINE
  5
5FFD
  8
0
 10
-467.28300559737318
 20
41.433651353406958
 30
0.0
 11
-465.59590055326692
 21
40.78730523075842
 31
0.0
  0
LINE
  5
5FFE
  8
0
 10
-464.66335813371359
 20
41.71984982076907
 30
0.0
 11
-465.8231580171107
 21
44.519849820769082
 31
0.0
  0
LINE
  5
5FFF
  8
0
 10
-435.862660133644
 20
41.71984982076907
 30
0.0
 11
-434.702860250247
 21
44.519849820769139
 31
0.0
  0
LINE
  5
6000
  8
0
 10
-434.92539593454211
 20
40.782583440220378
 30
0.0
 11
-433.23916832104021
 21
41.429806995515712
 31
0.0
  0
LINE
  5
6001
  8
0
 10
-433.23916832104021
 20
41.429806995515712
 30
0.0
 11
-431.89157265592598
 21
41.708555683282611
 31
0.0
  0
LINE
  5
6002
  8
0
 10
-430.21184250651902
 20
40.028830339314759
 30
0.0
 11
-430.49059246610261
 21
38.681232899114782
 31
0.0
  0
LINE
  5
6003
  8
0
 10
-430.49059246610261
 20
38.681232899114782
 30
0.0
 11
-431.1378187673879
 21
36.995005069776539
 31
0.0
  0
LINE
  5
6004
  8
0
 10
-427.76300913367851
 20
33.620184050030844
 30
0.0
 11
-424.9630091336785
 21
34.779979257799198
 31
0.0
  0
LINE
  5
6005
  8
0
 10
-424.9630091336785
 20
30.059680624782231
 30
0.0
 11
-427.76300913367851
 21
31.219477213623861
 31
0.0
  0
LINE
  5
6006
  8
0
 10
-430.09861331545608
 20
24.924067764874561
 30
0.0
 11
-430.32014904077522
 21
26.328878636031849
 31
0.0
  0
LINE
  5
6007
  8
0
 10
-430.32014904077522
 20
26.328878636031849
 30
0.0
 11
-430.92284695426912
 21
28.059634053547882
 31
0.0
  0
LINE
  5
6008
  8
0
 10
-434.93093229537209
 20
24.051548659075941
 30
0.0
 11
-433.20017706877621
 21
23.448851507756562
 31
0.0
  0
LINE
  5
6009
  8
0
 10
-433.20017706877621
 20
23.448851507756562
 30
0.0
 11
-431.79536693857619
 21
23.227316041227478
 31
0.0
  0
LINE
  5
600A
  8
0
 10
-432.96300913367861
 20
20.379647795413799
 30
0.0
 11
-435.76300913367851
 21
19.219849820769131
 31
0.0
  0
LINE
  5
600B
  8
0
 10
-301.32895133955623
 20
73.719849820769014
 30
0.0
 11
-172.5289513395561
 21
73.719849820769014
 31
0.0
  0
LINE
  5
600C
  8
0
 10
-301.32895133955623
 20
71.71984982076907
 30
0.0
 11
-204.3289513395564
 21
71.71984982076907
 31
0.0
  0
LINE
  5
600D
  8
0
 10
-301.32895133955623
 20
57.719849820769006
 30
0.0
 11
-172.52864085995239
 21
57.719849820769006
 31
0.0
  0
LINE
  5
600E
  8
0
 10
-322.52926181916081
 20
13.21984982076896
 30
0.0
 11
-151.32895133955651
 21
13.21984982076896
 31
0.0
  0
LINE
  5
600F
  8
0
 10
-151.32895133955611
 20
220.86483258368409
 30
0.0
 11
-151.32895133955611
 21
217.16319926595409
 31
0.0
  0
ARC
  5
6010
  8
0
 10
-153.58667314812129
 20
220.82827592300239
 30
0.0
 40
2.2580177488916551
 50
0.927642787995955
 51
74.036977831171299
  0
ARC
  5
6011
  8
0
 10
-153.58667314812129
 20
217.82801822323111
 30
0.0
 40
2.2580177488916551
 50
0.927642787995955
 51
74.036977831171299
  0
ARC
  5
6012
  8
0
 10
-153.58667314812129
 20
214.19949822686411
 30
0.0
 40
2.2580177488916551
 50
285.96302216882867
 51
359.07235721200402
  0
LINE
  5
6013
  8
0
 10
-151.32895133955611
 20
217.86457488391261
 30
0.0
 11
-151.32895133955611
 21
214.16294156618241
 31
0.0
  0
LINE
  5
6014
  8
0
 10
-102.99776787604139
 20
204.51412193749479
 30
0.0
 11
-154.02913652615649
 21
204.51412193749491
 31
0.0
  0
LINE
  5
6015
  8
0
 10
-151.3289513395564
 20
149.86457488783259
 30
0.0
 11
-151.3289513395564
 21
146.16294157010239
 31
0.0
  0
ARC
  5
6016
  8
0
 10
-153.58667314812129
 20
146.19949823078429
 30
0.0
 40
2.2580177488916551
 50
285.96302216882867
 51
359.07235721200402
  0
ARC
  5
6017
  8
0
 10
-153.58667314812129
 20
149.82801822715069
 30
0.0
 40
2.2580177488916551
 50
0.927642787995955
 51
74.036977831171299
  0
ARC
  5
6018
  8
0
 10
-153.58667314812129
 20
143.1997559309018
 30
0.0
 40
2.2580177488916551
 50
285.96302216882867
 51
359.07235721200402
  0
LINE
  5
6019
  8
0
 10
-151.3289513395564
 20
146.86483258795019
 30
0.0
 11
-151.3289513395564
 21
143.16319927021991
 31
0.0
  0
CIRCLE
  5
601A
  8
0
 10
-125.49776787604139
 20
182.01375822700749
 30
0.0
 40
6.9999999999998277
  0
CIRCLE
  5
601B
  8
0
 10
-125.49776787604139
 20
182.01375822700749
 30
0.0
 40
9.9999999999997726
  0
LINE
  5
601C
  8
0
 10
-102.99776787604139
 20
159.51339451651981
 30
0.0
 11
-154.02913652615649
 21
159.51339451651981
 31
0.0
  0
LINE
  5
601D
  8
¤¤¤ß˝u
 10
-139.59142931343541
 20
182.01375822700749
 30
0.0
 11
-111.4041064386472
 21
182.01375822700749
 31
0.0
  0
LINE
  5
601E
  8
0
 10
-102.99776787604139
 20
159.5133945165197
 30
0.0
 11
-102.99776787604139
 21
204.51412193749479
 31
0.0
  0
LINE
  5
601F
  8
¤¤¤ß˝u
 10
-125.49776787604139
 20
167.92009678961341
 30
0.0
 11
-125.49776787604139
 21
196.10741966440159
 31
0.0
  0
LINE
  5
6020
  8
0
 10
-155.46568007355529
 20
141.01383049731271
 30
0.0
 11
-155.46568007355521
 21
223.01383049320791
 31
0.0
  0
LINE
  5
6021
  8
0
 10
-152.96568007355529
 20
141.01375822700811
 30
0.0
 11
-152.96568007355521
 21
223.0137582270072
 31
0.0
  0
ARC
  5
6022
  8
0
 10
-320.27122953099121
 20
217.8280182232312
 30
0.0
 40
2.2580177488916551
 50
105.9630221688287
 51
179.07235721200399
  0
LINE
  5
6023
  8
0
 10
-322.52895133955622
 20
220.86483258368469
 30
0.0
 11
-322.52895133955622
 21
217.1631992659544
 31
0.0
  0
ARC
  5
6024
  8
0
 10
-320.27122953099121
 20
220.82827592300271
 30
0.0
 40
2.2580177488916551
 50
105.9630221688287
 51
179.07235721200399
  0
ARC
  5
6025
  8
0
 10
-320.27122953099121
 20
214.19949822686459
 30
0.0
 40
2.2580177488916551
 50
180.92764278799589
 51
254.03697783117121
  0
LINE
  5
6026
  8
0
 10
-322.52895133955622
 20
217.86457488391301
 30
0.0
 11
-322.52895133955622
 21
214.16294156618289
 31
0.0
  0
LINE
  5
6027
  8
0
 10
-389.7978931690443
 20
204.51412193749539
 30
0.0
 11
-319.82913652775221
 21
204.5141219374955
 31
0.0
  0
LINE
  5
6028
  8
0
  6
CONTINUOUS
 10
-321.83988588274462
 20
188.14709156034141
 30
0.0
 11
-320.89222260555709
 21
188.14709156034141
 31
0.0
  0
LINE
  5
6029
  8
0
  6
CONTINUOUS
 10
-321.83988588274462
 20
185.0804246280934
 30
0.0
 11
-320.89222260555709
 21
185.0804246280934
 31
0.0
  0
LINE
  5
602A
  8
0
  6
CONTINUOUS
 10
-321.83988588274462
 20
178.94709182592231
 30
0.0
 11
-320.89222260555709
 21
178.94709182592231
 31
0.0
  0
LINE
  5
602B
  8
0
  6
CONTINUOUS
 10
-321.83988588274462
 20
175.8804248936745
 30
0.0
 11
-320.89222260555709
 21
175.8804248936745
 31
0.0
  0
LINE
  5
602C
  8
0
  6
CONTINUOUS
 10
-325.57882996801641
 20
176.68042489367471
 30
0.0
 11
-322.19539315487037
 21
176.68042489367471
 31
0.0
  0
ARC
  5
602D
  8
0
  6
CONTINUOUS
 10
-319.46687596949567
 20
177.4137580942174
 30
0.0
 40
2.825346636061326
 50
147.13277999893791
 51
212.86722000106201
  0
ARC
  5
602E
  8
0
  6
CONTINUOUS
 10
-311.66897729937892
 20
182.01375822700791
 30
0.0
 40
10.62324530617823
 50
163.2213499979124
 51
196.7786500020876
  0
LINE
  5
602F
  8
0
  6
CONTINUOUS
 10
-322.29222260555707
 20
177.4137580942174
 30
0.0
 11
-322.29222260555707
 21
186.61375835979831
 31
0.0
  0
ARC
  5
6030
  8
0
  6
CONTINUOUS
 10
-319.46687596949567
 20
186.61375835979831
 30
0.0
 40
2.825346636061326
 50
147.13277999893791
 51
212.86722000106201
  0
LINE
  5
6031
  8
0
  6
CONTINUOUS
 10
-324.68359346608401
 20
173.80036742709891
 30
0.0
 11
-323.9207669415963
 21
175.64199356825509
 31
0.0
  0
ARC
  5
6032
  8
0
 10
-320.27122953099121
 20
149.82801822715109
 30
0.0
 40
2.2580177488916551
 50
105.9630221688287
 51
179.07235721200399
  0
ARC
  5
6033
  8
0
 10
-320.27122953099121
 20
146.19949823078471
 30
0.0
 40
2.2580177488916551
 50
180.92764278799589
 51
254.03697783117121
  0
LINE
  5
6034
  8
0
 10
-322.52895133955622
 20
149.86457488783299
 30
0.0
 11
-322.52895133955622
 21
146.16294157010279
 31
0.0
  0
ARC
  5
6035
  8
0
 10
-320.27122953099121
 20
143.19975593090211
 30
0.0
 40
2.2580177488916551
 50
180.92764278799589
 51
254.03697783117121
  0
LINE
  5
6036
  8
0
 10
-322.52895133955622
 20
146.86483258795059
 30
0.0
 11
-322.52895133955622
 21
143.16319927022039
 31
0.0
  0
LINE
  5
6037
  8
0
  6
CONTINUOUS
 10
-327.16261409028851
 20
174.82729176523509
 30
0.0
 11
-326.39984439893442
 21
176.66878069906949
 31
0.0
  0
LINE
  5
6038
  8
0
  6
CONTINUOUS
 10
-334.59984411231
 20
177.90789330684501
 30
0.0
 11
-333.83707442095567
 21
179.74938224067921
 31
0.0
  0
LINE
  5
6039
  8
0
  6
CONTINUOUS
 10
-332.12076715204353
 20
176.8810260077359
 30
0.0
 11
-331.35799746068938
 21
178.72251494157021
 31
0.0
  0
ARC
  5
603A
  8
0
  6
CONTINUOUS
 10
-332.56570821556249
 20
179.31278812435451
 30
0.0
 40
2.4721783065536602
 50
214.6327799989366
 51
280.36722000106357
  0
ARC
  5
603B
  8
0
  6
CONTINUOUS
 10
-332.28462936089647
 20
169.47354033650669
 30
0.0
 40
9.2953396429059598
 50
50.721349997908128
 51
84.278650002089492
  0
ARC
  5
603C
  8
0
  6
CONTINUOUS
 10
-333.39213378682541
 20
177.31762030191919
 30
0.0
 40
2.4721783065536602
 50
34.632779998936442
 51
100.3672200010636
  0
ARC
  5
603D
  8
0
  6
CONTINUOUS
 10
-327.09030103553721
 20
182.01375822700791
 30
0.0
 40
5.3333333333333321
 50
90.0
 51
210.83520489408471
  0
ARC
  5
603E
  8
0
  6
CONTINUOUS
 10
-331.96717963723648
 20
171.1959062458275
 30
0.0
 40
3.8137986940490149
 50
118.5864858262627
 51
163.58648582626381
  0
LINE
  5
603F
  8
0
  6
CONTINUOUS
 10
-333.5456563054355
 20
174.44273816905789
 30
0.0
 11
-327.87919517269972
 21
172.0956131172189
 31
0.0
  0
LINE
  5
6040
  8
0
  6
CONTINUOUS
 10
-330.8009159678669
 20
166.23247005204479
 30
0.0
 11
-327.94232276048922
 21
169.09106325942241
 31
0.0
  0
LINE
  5
6041
  8
0
  6
CONTINUOUS
 10
-335.62555593889039
 20
168.2309013616098
 30
0.0
 11
-330.8009159678669
 21
166.23247005204479
 31
0.0
  0
LINE
  5
6042
  8
0
  6
CONTINUOUS
 10
-335.62555593889039
 20
168.2309013616098
 30
0.0
 11
-335.62555593889039
 21
172.27356264479121
 31
0.0
  0
LINE
  5
6043
  8
0
  6
CONTINUOUS
 10
-335.62555593889039
 20
172.27356264479121
 30
0.0
 11
-327.94232276048922
 21
169.09106325942241
 31
0.0
  0
ARC
  5
6044
  8
0
  6
CONTINUOUS
 10
-331.29120359901708
 20
170.9159078029578
 30
0.0
 40
3.8137986940490141
 50
331.41351417373698
 51
16.413514173739301
  0
LINE
  5
6045
  8
0
  6
CONTINUOUS
 10
-333.5117698953328
 20
177.02879318621109
 30
0.0
 11
-326.07453944392279
 21
173.94819146674291
 31
0.0
  0
ARC
  5
6046
  8
0
  6
CONTINUOUS
 10
-326.23598219008142
 20
184.07626637029861
 30
0.0
 40
9.2953396429059598
 50
230.7213499979122
 51
264.27865000208948
  0
ARC
  5
6047
  8
0
  6
CONTINUOUS
 10
-336.29785744041533
 20
175.6684360576881
 30
0.0
 40
2.7462314797568039
 50
335.84790116506122
 51
45.847901165057969
  0
CIRCLE
  5
6048
  8
0
 10
-367.2978931690443
 20
182.01375822700811
 30
0.0
 40
6.9999999999998277
  0
CIRCLE
  5
6049
  8
0
 10
-367.2978931690443
 20
182.01375822700811
 30
0.0
 40
9.9999999999997726
  0
LINE
  5
604A
  8
¤¤¤ß˝u
 10
-381.39155460643838
 20
182.01375822700811
 30
0.0
 11
-353.20423173165022
 21
182.01375822700811
 31
0.0
  0
LINE
  5
604B
  8
0
  6
CONTINUOUS
 10
-332.4460721070551
 20
179.60161524006261
 30
0.0
 11
-325.00884165564469
 21
176.52101352059421
 31
0.0
  0
LINE
  5
604C
  8
0
 10
-389.7978931690443
 20
159.51339451652041
 30
0.0
 11
-319.82913652775221
 21
159.51339451652041
 31
0.0
  0
ARC
  5
604D
  8
0
  6
CONTINUOUS
 10
-325.12847776415242
 20
176.23218640488619
 30
0.0
 40
2.4721783065536602
 50
214.6327799989366
 51
280.36722000106357
  0
ARC
  5
604E
  8
0
  6
CONTINUOUS
 10
-325.06639579822991
 20
171.0162123202216
 30
0.0
 40
2.7462314797568039
 50
89.152098834939196
 51
159.15209883493981
  0
ARC
  5
604F
  8
0
  6
CONTINUOUS
 10
-325.95490333541551
 20
174.23701858245099
 30
0.0
 40
2.4721783065536602
 50
34.632779998936442
 51
100.3672200010636
  0
LINE
  5
6050
  8
0
  6
CONTINUOUS
 10
-327.09030103553721
 20
187.3470915603412
 30
0.0
 11
-322.19539315487037
 21
187.3470915603412
 31
0.0
  0
LINE
  5
6051
  8
¤¤¤ß˝u
 10
-367.29789316904441
 20
167.92009678961401
 30
0.0
 11
-367.2978931690443
 21
196.10741966440219
 31
0.0
  0
LINE
  5
6052
  8
0
 10
-320.89222260555709
 20
141.013758227008
 30
0.0
 11
-320.89222260555709
 21
223.01375822700709
 31
0.0
  0
LINE
  5
6053
  8
0
 10
-318.39222260555709
 20
141.01383049731311
 30
0.0
 11
-318.39222260555732
 21
223.01383049320859
 31
0.0
  0
LINE
  5
6054
  8
AM7
 10
-196.92895133955631
 20
145.92724271055101
 30
0.0
 11
-196.92895133955631
 21
158.20086347899351
 31
0.0
  0
CIRCLE
  5
6055
  8
0
 10
-196.92895133955631
 20
152.013758227008
 30
0.0
 40
4.25
  0
ARC
  5
6056
  8
AM4
 10
-196.92895133955631
 20
152.013758227008
 30
0.0
 40
5.0
 50
180.0
 51
90.0
  0
LINE
  5
6057
  8
AM7
 10
-190.61237718925909
 20
152.013758227008
 30
0.0
 11
-202.86191583191649
 21
152.013758227008
 31
0.0
  0
LINE
  5
6058
  8
AM7
 10
-190.61237718925909
 20
212.01375822700749
 30
0.0
 11
-202.86191583191649
 21
212.01375822700749
 31
0.0
  0
LINE
  5
6059
  8
0
 10
-172.5289513395561
 20
225.0137582270074
 30
0.0
 11
-172.5289513395561
 21
139.01375822700749
 31
0.0
  0
ARC
  5
605A
  8
AM4
 10
-196.92895133955631
 20
212.01375822700749
 30
0.0
 40
5.0
 50
180.0
 51
90.0
  0
CIRCLE
  5
605B
  8
0
 10
-196.92895133955631
 20
212.01375822700749
 30
0.0
 40
4.25
  0
LINE
  5
605C
  8
AM7
 10
-196.92895133955631
 20
218.10027374346441
 30
0.0
 11
-196.92895133955631
 21
205.8266529750218
 31
0.0
  0
LINE
  5
605D
  8
AM7
 10
-276.92895133955631
 20
145.92724271055101
 30
0.0
 11
-276.92895133955631
 21
158.20086347899351
 31
0.0
  0
CIRCLE
  5
605E
  8
0
 10
-276.92895133955631
 20
152.013758227008
 30
0.0
 40
4.25
  0
ARC
  5
605F
  8
AM4
 10
-276.92895133955631
 20
152.013758227008
 30
0.0
 40
5.0
 50
180.0
 51
90.0
  0
CIRCLE
  5
6060
  8
0
 10
-276.92895133955631
 20
212.01375822700749
 30
0.0
 40
4.25
  0
ARC
  5
6061
  8
AM4
 10
-276.92895133955631
 20
212.01375822700749
 30
0.0
 40
5.0
 50
180.0
 51
90.0
  0
LINE
  5
6062
  8
AM7
 10
-276.92895133955631
 20
218.10027374346441
 30
0.0
 11
-276.92895133955631
 21
205.8266529750218
 31
0.0
  0
LINE
  5
6063
  8
0
 10
-301.32895133955623
 20
225.0137582270074
 30
0.0
 11
-301.32895133955623
 21
139.01375822700749
 31
0.0
  0
LINE
  5
6064
  8
0
 10
-301.32895133955623
 20
223.01375822700709
 30
0.0
 11
-172.5289513395561
 21
223.01375822700709
 31
0.0
  0
LINE
  5
6065
  8
0
 10
-301.32895133955623
 20
225.0137582270074
 30
0.0
 11
-172.5289513395561
 21
225.0137582270074
 31
0.0
  0
LINE
  5
6066
  8
0
 10
-301.32895133955623
 20
202.58949415829591
 30
0.0
 11
-172.5289513395561
 21
202.58949415829591
 31
0.0
  0
LINE
  5
6067
  8
0
 10
-301.32895133955623
 20
189.93802229571949
 30
0.0
 11
-172.5289513395561
 21
189.93802229571949
 31
0.0
  0
LINE
  5
6068
  8
0
 10
-301.32895133955623
 20
174.08949415829539
 30
0.0
 11
-172.5289513395561
 21
174.08949415829539
 31
0.0
  0
LINE
  5
6069
  8
0
 10
-301.32895133955623
 20
161.43802229571961
 30
0.0
 11
-172.5289513395561
 21
161.43802229571961
 31
0.0
  0
LINE
  5
606A
  8
0
 10
-301.32895133955628
 20
141.013758227008
 30
0.0
 11
-172.5289513395563
 21
141.013758227008
 31
0.0
  0
LINE
  5
606B
  8
0
 10
-301.32895133955623
 20
139.01375822700749
 30
0.0
 11
-172.5289513395561
 21
139.01375822700749
 31
0.0
  0
LINE
  5
606C
  8
AM7
 10
-311.85047805189862
 20
182.01375822700811
 30
0.0
 11
-162.00742462721371
 21
182.0137582270082
 31
0.0
  0
LINE
  5
606D
  8
0
 10
-301.32895133955623
 20
201.58949415829551
 30
0.0
 11
-172.5289513395563
 21
201.58949415829591
 31
0.0
  0
LINE
  5
606E
  8
0
 10
-301.32895133955623
 20
190.93802229571949
 30
0.0
 11
-172.5289513395563
 21
190.93802229571949
 31
0.0
  0
LINE
  5
606F
  8
0
 10
-301.32895133955623
 20
173.08949415829591
 30
0.0
 11
-172.5289513395563
 21
173.08949415829591
 31
0.0
  0
LINE
  5
6070
  8
0
 10
-301.32895133955623
 20
162.43802229571949
 30
0.0
 11
-172.5289513395561
 21
162.43802229571949
 31
0.0
  0
LINE
  5
6071
  8
AM7
 10
-270.61237718925918
 20
212.01375822700749
 30
0.0
 11
-282.86191583191629
 21
212.01375822700749
 31
0.0
  0
LINE
  5
6072
  8
AM7
 10
-270.6123771892594
 20
152.013758227008
 30
0.0
 11
-282.86191583191629
 21
152.013758227008
 31
0.0
  0
LINE
  5
6073
  8
AM7
 10
-236.92895133955619
 20
131.98647346365669
 30
0.0
 11
-236.92895133955619
 21
232.04104299035939
 31
0.0
  0
LINE
  5
607C
  8
¤¤¤ß˝u
 10
-196.92895133955631
 20
74.819209583476663
 30
0.0
 11
-196.92895133955631
 21
46.87679580482591
 31
0.0
  0
ENDSEC
  0
EOF
