  0
SECTION
  2
HEADER
  9
$ACADVER
  1
AC1015
  9
$ACADMAINTVER
 70
    11
  9
$DWGCODEPAGE
  3
ANSI_950
  9
$INSBASE
 10
0.0
 20
0.0
 30
0.0
  9
$EXTMIN
 10
-50.61024549595793
 20
-67.10180995672293
 30
0.0
  9
$EXTMAX
 10
397.6874242696035
 20
217.1041217450193
 30
0.0
  9
$LIMMIN
 10
-10.0
 20
-15.0
  9
$LIMMAX
 10
120.0
 20
90.0
  9
$ORTHOMODE
 70
     1
  9
$REGENMODE
 70
     0
  9
$FILLMODE
 70
     1
  9
$QTEXTMODE
 70
     0
  9
$MIRRTEXT
 70
     0
  9
$LTSCALE
 40
3.0
  9
$ATTMODE
 70
     1
  9
$TEXTSIZE
 40
3.0
  9
$TRACEWID
 40
1.0
  9
$TEXTSTYLE
  7
STANDARD
  9
$CLAYER
  8
0
  9
$CELTYPE
  6
ByLayer
  9
$CECOLOR
 62
   256
  9
$CELTSCALE
 40
1.0
  9
$DISPSILH
 70
     0
  9
$DIMSCALE
 40
1.0
  9
$DIMASZ
 40
3.0
  9
$DIMEXO
 40
1.0
  9
$DIMDLI
 40
6.0
  9
$DIMRND
 40
0.0
  9
$DIMDLE
 40
0.0
  9
$DIMEXE
 40
1.0
  9
$DIMTP
 40
0.0
  9
$DIMTM
 40
0.0
  9
$DIMTXT
 40
3.0
  9
$DIMCEN
 40
1.5
  9
$DIMTSZ
 40
0.0
  9
$DIMTOL
 70
     0
  9
$DIMLIM
 70
     0
  9
$DIMTIH
 70
     1
  9
$DIMTOH
 70
     1
  9
$DIMSE1
 70
     0
  9
$DIMSE2
 70
     0
  9
$DIMTAD
 70
     0
  9
$DIMZIN
 70
     0
  9
$DIMBLK
  1

  9
$DIMASO
 70
     1
  9
$DIMSHO
 70
     0
  9
$DIMPOST
  1

  9
$DIMAPOST
  1

  9
$DIMALT
 70
     0
  9
$DIMALTD
 70
     2
  9
$DIMALTF
 40
25.4
  9
$DIMLFAC
 40
1.0
  9
$DIMTOFL
 70
     1
  9
$DIMTVP
 40
0.0
  9
$DIMTIX
 70
     0
  9
$DIMSOXD
 70
     0
  9
$DIMSAH
 70
     0
  9
$DIMBLK1
  1

  9
$DIMBLK2
  1

  9
$DIMSTYLE
  2
Standard
  9
$DIMCLRD
 70
     0
  9
$DIMCLRE
 70
     0
  9
$DIMCLRT
 70
     0
  9
$DIMTFAC
 40
1.0
  9
$DIMGAP
 40
0.09
  9
$DIMJUST
 70
     0
  9
$DIMSD1
 70
     0
  9
$DIMSD2
 70
     0
  9
$DIMTOLJ
 70
     1
  9
$DIMTZIN
 70
     0
  9
$DIMALTZ
 70
     0
  9
$DIMALTTZ
 70
     0
  9
$DIMUPT
 70
     0
  9
$DIMDEC
 70
     4
  9
$DIMTDEC
 70
     8
  9
$DIMALTU
 70
     2
  9
$DIMALTTD
 70
     2
  9
$DIMTXSTY
  7
STANDARD
  9
$DIMAUNIT
 70
     0
  9
$DIMADEC
 70
     0
  9
$DIMALTRND
 40
0.0
  9
$DIMAZIN
 70
     0
  9
$DIMDSEP
 70
    46
  9
$DIMATFIT
 70
     3
  9
$DIMFRAC
 70
     0
  9
$DIMLDRBLK
  1

  9
$DIMLUNIT
 70
     2
  9
$DIMLWD
 70
    -2
  9
$DIMLWE
 70
    -2
  9
$DIMTMOVE
 70
     2
  9
$LUNITS
 70
     2
  9
$LUPREC
 70
     4
  9
$SKETCHINC
 40
0.5
  9
$FILLETRAD
 40
0.0
  9
$AUNITS
 70
     0
  9
$AUPREC
 70
     0
  9
$MENU
  1
ACAD
  9
$ELEVATION
 40
0.0
  9
$PELEVATION
 40
0.0
  9
$THICKNESS
 40
0.0
  9
$LIMCHECK
 70
     0
  9
$CHAMFERA
 40
0.0
  9
$CHAMFERB
 40
0.0
  9
$CHAMFERC
 40
0.0
  9
$CHAMFERD
 40
0.0
  9
$SKPOLY
 70
     0
  9
$TDCREATE
 40
2444975.333333333
  9
$TDUCREATE
 40
2444974.999999999
  9
$TDUPDATE
 40
2453022.591187962
  9
$TDUUPDATE
 40
2453022.257854629
  9
$TDINDWG
 40
0.0823274653
  9
$TDUSRTIMER
 40
0.0000000000
  9
$USRTIMER
 70
     0
  9
$ANGBASE
 50
0.0
  9
$ANGDIR
 70
     0
  9
$PDMODE
 70
   171
  9
$PDSIZE
 40
0.001
  9
$PLINEWID
 40
0.0
  9
$SPLFRAME
 70
     0
  9
$SPLINETYPE
 70
     6
  9
$SPLINESEGS
 70
     8
  9
$HANDSEED
  5
5FBA
  9
$SURFTAB1
 70
     6
  9
$SURFTAB2
 70
     6
  9
$SURFTYPE
 70
     6
  9
$SURFU
 70
     6
  9
$SURFV
 70
     6
  9
$UCSBASE
  2

  9
$UCSNAME
  2

  9
$UCSORG
 10
0.0
 20
0.0
 30
0.0
  9
$UCSXDIR
 10
1.0
 20
0.0
 30
0.0
  9
$UCSYDIR
 10
0.0
 20
1.0
 30
0.0
  9
$UCSORTHOREF
  2

  9
$UCSORTHOVIEW
 70
     0
  9
$UCSORGTOP
 10
0.0
 20
0.0
 30
0.0
  9
$UCSORGBOTTOM
 10
0.0
 20
0.0
 30
0.0
  9
$UCSORGLEFT
 10
0.0
 20
0.0
 30
0.0
  9
$UCSORGRIGHT
 10
0.0
 20
0.0
 30
0.0
  9
$UCSORGFRONT
 10
0.0
 20
0.0
 30
0.0
  9
$UCSORGBACK
 10
0.0
 20
0.0
 30
0.0
  9
$PUCSBASE
  2

  9
$PUCSNAME
  2

  9
$PUCSORG
 10
0.0
 20
0.0
 30
0.0
  9
$PUCSXDIR
 10
1.0
 20
0.0
 30
0.0
  9
$PUCSYDIR
 10
0.0
 20
1.0
 30
0.0
  9
$PUCSORTHOREF
  2

  9
$PUCSORTHOVIEW
 70
     0
  9
$PUCSORGTOP
 10
0.0
 20
0.0
 30
0.0
  9
$PUCSORGBOTTOM
 10
0.0
 20
0.0
 30
0.0
  9
$PUCSORGLEFT
 10
0.0
 20
0.0
 30
0.0
  9
$PUCSORGRIGHT
 10
0.0
 20
0.0
 30
0.0
  9
$PUCSORGFRONT
 10
0.0
 20
0.0
 30
0.0
  9
$PUCSORGBACK
 10
0.0
 20
0.0
 30
0.0
  9
$USERI1
 70
     0
  9
$USERI2
 70
     0
  9
$USERI3
 70
     0
  9
$USERI4
 70
     0
  9
$USERI5
 70
     0
  9
$USERR1
 40
0.0
  9
$USERR2
 40
0.0
  9
$USERR3
 40
0.0
  9
$USERR4
 40
0.0
  9
$USERR5
 40
0.0
  9
$WORLDVIEW
 70
     1
  9
$SHADEDGE
 70
     3
  9
$SHADEDIF
 70
    70
  9
$TILEMODE
 70
     1
  9
$MAXACTVP
 70
    48
  9
$PINSBASE
 10
0.0
 20
0.0
 30
0.0
  9
$PLIMCHECK
 70
     0
  9
$PEXTMIN
 10
1.000000000000000E+20
 20
1.000000000000000E+20
 30
1.000000000000000E+20
  9
$PEXTMAX
 10
-1.000000000000000E+20
 20
-1.000000000000000E+20
 30
-1.000000000000000E+20
  9
$PLIMMIN
 10
0.0
 20
0.0
  9
$PLIMMAX
 10
12.0
 20
9.0
  9
$UNITMODE
 70
     0
  9
$VISRETAIN
 70
     1
  9
$PLINEGEN
 70
     0
  9
$PSLTSCALE
 70
     0
  9
$TREEDEPTH
 70
  3020
  9
$CMLSTYLE
  2
Standard
  9
$CMLJUST
 70
     0
  9
$CMLSCALE
 40
1.0
  9
$PROXYGRAPHICS
 70
     1
  9
$MEASUREMENT
 70
     0
  9
$CELWEIGHT
370
    -1
  9
$ENDCAPS
280
     0
  9
$JOINSTYLE
280
     0
  9
$LWDISPLAY
290
     0
  9
$INSUNITS
 70
     0
  9
$HYPERLINKBASE
  1

  9
$STYLESHEET
  1

  9
$XEDIT
290
     1
  9
$CEPSNTYPE
380
     0
  9
$PSTYLEMODE
290
     1
  9
$FINGERPRINTGUID
  2
{77095E5F-9CE7-11D7-970D-0040F4541FA8}
  9
$VERSIONGUID
  2
{DD550CCC-1335-4C26-B1B2-612EBD4BC526}
  9
$EXTNAMES
290
     1
  9
$PSVPSCALE
 40
0.0
  9
$OLESTARTUP
290
     0
  0
ENDSEC
  0
SECTION
  2
CLASSES
  0
CLASS
  1
ACDBDICTIONARYWDFLT
  2
AcDbDictionaryWithDefault
  3
AutoCAD 2000
 90
        0
280
     0
281
     0
  0
CLASS
  1
ACDBPLACEHOLDER
  2
AcDbPlaceHolder
  3
AutoCAD 2000
 90
        0
280
     0
281
     0
  0
CLASS
  1
LAYOUT
  2
AcDbLayout
  3
AutoCAD 2000
 90
        0
280
     0
281
     0
  0
CLASS
  1
LONG_TRANSACTION
  2
AcDbLongTransaction
  3
AutoCAD 2000
 90
    32768
280
     0
281
     0
  0
CLASS
  1
LWPOLYLINE
  2
AcDbPolyline
  3
AutoCAD 2000
 90
    32768
280
     0
281
     1
  0
CLASS
  1
HATCH
  2
AcDbHatch
  3
AutoCAD 2000
 90
    32768
280
     0
281
     1
  0
CLASS
  1
XRECORD
  2
AcDbXrecord
  3
AutoCAD 2000
 90
    32768
280
     0
281
     0
  0
CLASS
  1
LONG_TRANSACTION
  2
AcDbLongTransaction
  3
AutoCAD 2000
 90
    32768
280
     0
281
     0
  0
CLASS
  1
LWPOLYLINE
  2
AcDbPolyline
  3
AutoCAD 2000
 90
    32768
280
     0
281
     1
  0
CLASS
  1
HATCH
  2
AcDbHatch
  3
AutoCAD 2000
 90
    32768
280
     0
281
     1
  0
CLASS
  1
XRECORD
  2
AcDbXrecord
  3
AutoCAD 2000
 90
    32768
280
     0
281
     0
  0
CLASS
  1
DICTIONARYVAR
  2
AcDbDictionaryVar
  3
AutoCAD 2000
 90
        0
280
     0
281
     0
  0
CLASS
  1
PLOTSETTINGS
  2
AcDbPlotSettings
  3
AutoCAD 2000
 90
        0
280
     0
281
     0
  0
ENDSEC
  0
SECTION
  2
TABLES
  0
TABLE
  2
VPORT
  5
8
330
0
100
AcDbSymbolTable
 70
     2
  0
VPORT
  5
5F98
330
8
100
AcDbSymbolTableRecord
100
AcDbViewportTableRecord
  2
*Active
 70
     0
 10
0.0
 20
0.0
 11
1.0
 21
1.0
 12
173.5385904305972
 22
75.00115655586679
 13
457.9999999999997
 23
1082.0
 14
10.0
 24
10.0
 15
10.0
 25
10.0
 16
0.0
 26
0.0
 36
1.0
 17
0.0
 27
0.0
 37
0.0
 40
287.7984138307483
 41
1.936974789915966
 42
1.0
 43
0.0
 44
0.0
 50
0.0
 51
0.0
 71
     0
 72
   100
 73
     1
 74
     1
 75
     0
 76
     0
 77
     0
 78
     0
281
     0
 65
     1
110
0.0
120
0.0
130
0.0
111
1.0
121
0.0
131
0.0
112
0.0
122
1.0
132
0.0
 79
     0
146
0.0
  0
ENDTAB
  0
TABLE
  2
LTYPE
  5
5
330
0
100
AcDbSymbolTable
 70
     5
  0
LTYPE
  5
13
330
5
100
AcDbSymbolTableRecord
100
AcDbLinetypeTableRecord
  2
ByBlock
 70
     0
  3

 72
    65
 73
     0
 40
0.0
  0
LTYPE
  5
14
330
5
100
AcDbSymbolTableRecord
100
AcDbLinetypeTableRecord
  2
ByLayer
 70
     0
  3

 72
    65
 73
     0
 40
0.0
  0
LTYPE
  5
15
330
5
100
AcDbSymbolTableRecord
100
AcDbLinetypeTableRecord
  2
CONTINUOUS
 70
     0
  3
連續線 ________________________
 72
    65
 73
     2
 40
200000.0
 49
200000.0
 74
     0
 49
0.0
 74
     0
  0
LTYPE
  5
225
330
5
100
AcDbSymbolTableRecord
100
AcDbLinetypeTableRecord
  2
BYBLOCK
 70
     0
  3
Solid line
 72
    65
 73
     0
 40
0.0
  0
LTYPE
  5
226
330
5
100
AcDbSymbolTableRecord
100
AcDbLinetypeTableRecord
  2
BYLAYER
 70
     0
  3
Solid line
 72
    65
 73
     0
 40
0.0
  0
LTYPE
  5
413C
330
5
100
AcDbSymbolTableRecord
100
AcDbLinetypeTableRecord
  2
CENTER2
 70
     0
  3
Center (.5x) ___ _ ___ _ ___ _ ___ _ ___ _ ___
 72
    65
 73
     4
 40
28.57499999999999
 49
19.05
 74
     0
 49
-3.174999999999999
 74
     0
 49
3.174999999999999
 74
     0
 49
-3.174999999999999
 74
     0
  0
LTYPE
  5
413D
330
5
100
AcDbSymbolTableRecord
100
AcDbLinetypeTableRecord
  2
DASHED2
 70
     0
  3
Dashed (.5x) _ _ _ _ _ _ _ _ _ _ _ _ _ _ _ _ _
 72
    65
 73
     2
 40
9.524999999999998
 49
6.349999999999999
 74
     0
 49
-3.174999999999999
 74
     0
  0
ENDTAB
  0
TABLE
  2
LAYER
  5
2
102
{ACAD_XDICTIONARY
360
43C2
102
}
330
0
100
AcDbSymbolTable
 70
    10
  0
LAYER
  5
10
330
2
100
AcDbSymbolTableRecord
100
AcDbLayerTableRecord
  2
0
 70
     0
 62
     7
  6
CONTINUOUS
370
    -3
390
F
  0
LAYER
  5
413E
330
2
100
AcDbSymbolTableRecord
100
AcDbLayerTableRecord
  2
指線
 70
     0
 62
     3
  6
CONTINUOUS
370
    15
390
F
  0
LAYER
  5
413F
330
2
100
AcDbSymbolTableRecord
100
AcDbLayerTableRecord
  2
中心線
 70
     0
 62
     4
  6
CENTER2
370
    20
390
F
  0
LAYER
  5
4140
330
2
100
AcDbSymbolTableRecord
100
AcDbLayerTableRecord
  2
虛線
 70
     0
 62
     6
  6
DASHED2
290
     0
370
    -3
390
F
  0
LAYER
  5
43B4
330
2
100
AcDbSymbolTableRecord
100
AcDbLayerTableRecord
  2
建構線
 70
     0
 62
     1
  6
CONTINUOUS
370
    -3
390
F
  0
LAYER
  5
5C54
330
2
100
AcDbSymbolTableRecord
100
AcDbLayerTableRecord
  2
AM7
 70
     0
 62
     4
  6
CENTER2
370
    20
390
F
  0
LAYER
  5
5CA7
330
2
100
AcDbSymbolTableRecord
100
AcDbLayerTableRecord
  2
AM3
 70
     0
 62
     6
  6
DASHED2
370
    20
390
F
  0
LAYER
  5
5CA8
330
2
100
AcDbSymbolTableRecord
100
AcDbLayerTableRecord
  2
AM4
 70
     0
 62
     3
  6
CONTINUOUS
370
    15
390
F
  0
LAYER
  5
5CA9
330
2
100
AcDbSymbolTableRecord
100
AcDbLayerTableRecord
  2
AM5
 70
     0
 62
     3
  6
CONTINUOUS
370
    15
390
F
  0
LAYER
  5
5CAA
330
2
100
AcDbSymbolTableRecord
100
AcDbLayerTableRecord
  2
DEFPOINTS
 70
     0
 62
     7
  6
CONTINUOUS
290
     0
370
    -3
390
F
  0
ENDTAB
  0
TABLE
  2
STYLE
  5
3
330
0
100
AcDbSymbolTable
 70
     2
  0
STYLE
  5
11
330
3
100
AcDbSymbolTableRecord
100
AcDbTextStyleTableRecord
  2
STANDARD
 70
     0
 40
0.0
 41
1.0
 50
0.0
 71
     0
 42
3.0
  3

  4

  0
STYLE
  5
5CAB
330
3
100
AcDbSymbolTableRecord
100
AcDbTextStyleTableRecord
  2
型式2
 70
     0
 40
0.0
 41
1.0
 50
0.0
 71
     0
 42
2.5
  3
KAIU.TTF
  4

1001
ACAD
1000
DFKai-SB
1071
    34881
  0
ENDTAB
  0
TABLE
  2
VIEW
  5
6
330
0
100
AcDbSymbolTable
 70
     0
  0
ENDTAB
  0
TABLE
  2
UCS
  5
7
330
0
100
AcDbSymbolTable
 70
     0
  0
ENDTAB
  0
TABLE
  2
APPID
  5
9
330
0
100
AcDbSymbolTable
 70
     4
  0
APPID
  5
12
330
9
100
AcDbSymbolTableRecord
100
AcDbRegAppTableRecord
  2
ACAD
 70
     0
  0
APPID
  5
230
330
9
100
AcDbSymbolTableRecord
100
AcDbRegAppTableRecord
  2
TCAD
 70
     0
  0
APPID
  5
4142
330
9
100
AcDbSymbolTableRecord
100
AcDbRegAppTableRecord
  2
CONTENTBLOCKICON
 70
     0
  0
APPID
  5
5A4E
330
9
100
AcDbSymbolTableRecord
100
AcDbRegAppTableRecord
  2
pntflag
 70
     0
  0
ENDTAB
  0
TABLE
  2
DIMSTYLE
  5
A
330
0
100
AcDbSymbolTable
 70
     3
100
AcDbDimStyleTable
 71
     1
340
3C9D
  0
DIMSTYLE
105
3C9D
330
A
100
AcDbSymbolTableRecord
100
AcDbDimStyleTableRecord
  2
Standard
 70
     0
340
11
  0
DIMSTYLE
105
5CAC
330
A
100
AcDbSymbolTableRecord
100
AcDbDimStyleTableRecord
  2
ISO-25
 70
     0
 41
1.5
 42
0.7
 43
3.75
 44
0.3
 73
     0
 74
     0
 77
     1
 78
     8
140
2.299999999999999
141
2.5
143
0.03937007874016
147
0.5
171
     3
172
     1
176
     3
177
     3
178
     2
271
     2
272
     2
274
     3
283
     0
284
     8
340
11
  0
DIMSTYLE
105
5CAD
330
A
100
AcDbSymbolTableRecord
100
AcDbDimStyleTableRecord
  2
複本 ISO-25
 70
     0
 41
2.0
 42
0.7
 43
3.75
 44
0.3
 73
     0
 74
     0
 77
     1
 78
     8
140
3.0
141
2.5
143
0.03937007874016
147
0.5
171
     3
172
     1
176
     3
177
     3
178
     2
271
     2
272
     2
274
     3
283
     0
284
     8
340
11
  0
ENDTAB
  0
TABLE
  2
BLOCK_RECORD
  5
1
330
0
100
AcDbSymbolTable
 70
     2
  0
BLOCK_RECORD
  5
1E
102
{ACAD_XDICTIONARY
360
3D1E
102
}
330
1
100
AcDbSymbolTableRecord
100
AcDbBlockTableRecord
  2
*Model_Space
340
21
  0
BLOCK_RECORD
  5
1A
102
{ACAD_XDICTIONARY
360
3D20
102
}
330
1
100
AcDbSymbolTableRecord
100
AcDbBlockTableRecord
  2
*Paper_Space
340
1D
  0
BLOCK_RECORD
  5
5A4F
330
1
100
AcDbSymbolTableRecord
100
AcDbBlockTableRecord
  2
34320003_l
340
0
  0
BLOCK_RECORD
  5
5B4C
330
1
100
AcDbSymbolTableRecord
100
AcDbBlockTableRecord
  2
34320003_f
340
0
  0
ENDTAB
  0
ENDSEC
  0
SECTION
  2
BLOCKS
  0
BLOCK
  5
254
330
1E
100
AcDbEntity
  8
0
100
AcDbBlockBegin
  2
*Model_Space
 70
     0
 10
0.0
 20
0.0
 30
0.0
  3
*Model_Space
  1

  0
ENDBLK
  5
255
330
1E
100
AcDbEntity
  8
0
100
AcDbBlockEnd
  0
BLOCK
  5
252
330
1A
100
AcDbEntity
 67
     1
  8
0
100
AcDbBlockBegin
  2
*Paper_Space
 70
     0
 10
0.0
 20
0.0
 30
0.0
  3
*Paper_Space
  1

  0
ENDBLK
  5
253
330
1A
100
AcDbEntity
 67
     1
  8
0
100
AcDbBlockEnd
  0
BLOCK
  5
5ACC
330
5A4F
100
AcDbEntity
  8
0
100
AcDbBlockBegin
  2
34320003_l
 70
     0
 10
0.0
 20
0.0
 30
0.0
  3
34320003_l
  1

  0
LINE
  5
5A50
330
5A4F
100
AcDbEntity
  8
中心線
 48
0.27
100
AcDbLine
 10
-15.0718824999999
 20
0.0000241638749829
 30
0.0
 11
0.9981961107982328
 21
0.0
 31
0.0
  0
ARC
  5
5A51
330
5A4F
100
AcDbEntity
  8
0
 48
0.27
100
AcDbCircle
 10
2.292638749999923
 20
-2.499975836124932
 30
0.0
 40
3.69263874999997
100
AcDbArc
 50
137.3885930045003
 51
222.6114069976007
  0
ARC
  5
5A52
330
5A4F
100
AcDbEntity
  8
0
 48
0.27
100
AcDbCircle
 10
2.292639999999948
 20
2.500024163874925
 30
0.0
 40
3.69263999999997
100
AcDbArc
 50
137.3885980021991
 51
222.6114019998989
  0
LWPOLYLINE
  5
5A53
330
5A4F
100
AcDbEntity
  8
0
 48
0.27
100
AcDbPolyline
 90
       31
 70
     0
 43
0.0
 10
-10.56089624999992
 20
0.0000241638749543
 10
-10.60191874999995
 20
0.2628429138749766
 10
-10.65710249999996
 20
0.3947016638749545
 10
-10.73589374999994
 20
0.516925413874958
 10
-10.83523874999994
 20
0.6220666638749606
 10
-10.94960249999994
 20
0.7044079138749737
 10
-11.07200249999992
 20
0.7610091638748884
 10
-11.23779749999994
 20
0.797185413874928
 10
-11.39155874999994
 20
0.7938616638749352
 10
-11.52521374999993
 20
0.7619791638749263
 10
-11.67046999999993
 20
0.6922691638749257
 10
-11.80868249999993
 20
0.5804079138749785
 10
-11.91896999999991
 20
0.4372204138749681
 10
-11.98976249999991
 20
0.2874216638750226
 10
-12.02457624999991
 20
0.1578516638749505
 10
-12.03910249999994
 20
0.0000241638749543
 10
-11.99807999999994
 20
-0.2627945861249969
 10
-11.94289499999993
 20
-0.3946545861250428
 10
-11.86410499999995
 20
-0.5168770861250494
 10
-11.7647599999999
 20
-0.622018336125052
 10
-11.65039624999993
 20
-0.7043595861250651
 10
-11.52799624999994
 20
-0.7609608361250509
 10
-11.36220124999991
 20
-0.7971383361250873
 10
-11.20843999999992
 20
-0.7938133361250266
 10
-11.07478499999993
 20
-0.7619320861250145
 10
-10.92952874999991
 20
-0.6922220861250139
 10
-10.79131624999992
 20
-0.5803595861250699
 10
-10.68102874999995
 20
-0.4371733361250563
 10
-10.61023624999994
 20
-0.2873745861250398
 10
-10.57542124999992
 20
-0.1578033361249709
 10
-10.56089624999992
 20
0.0000241638749543
  0
ARC
  5
5A54
330
5A4F
100
AcDbEntity
  8
0
 48
0.27
100
AcDbCircle
 10
-6.085424999999986
 20
0.0000241638749827
 30
0.0
 40
4.99999999999996
100
AcDbArc
 50
90.0
 51
131.4096219996001
  0
ARC
  5
5A55
330
5A4F
100
AcDbEntity
  8
0
 48
0.27
100
AcDbCircle
 10
-6.085424999999986
 20
0.0000241638749827
 30
0.0
 40
4.99999999999996
100
AcDbArc
 50
228.5903779973003
 51
270.0
  0
LINE
  5
5A56
330
5A4F
100
AcDbEntity
  8
0
 48
0.27
100
AcDbLine
 10
0.0
 20
5.000024163874982
 30
0.0
 11
-6.085424999999986
 21
5.000024163874982
 31
0.0
  0
LINE
  5
5A57
330
5A4F
100
AcDbEntity
  8
0
 48
0.27
100
AcDbLine
 10
-0.4250050000000272
 20
0.0000241638749827
 30
0.0
 11
0.0
 21
0.0
 31
0.0
  0
LINE
  5
5A58
330
5A4F
100
AcDbEntity
  8
0
 48
0.27
100
AcDbLine
 10
-6.085424999999986
 20
-4.999975836125017
 30
0.0
 11
0.0
 21
-4.999975836125017
 31
0.0
  0
LINE
  5
5A59
330
5A4F
100
AcDbEntity
  8
0
 48
0.27
100
AcDbLine
 10
-1.400000000000005
 20
5.000024163874982
 30
0.0
 11
-1.400000000000005
 21
-4.999975836125017
 31
0.0
  0
LINE
  5
5A5A
330
5A4F
100
AcDbEntity
  8
0
 48
0.27
100
AcDbLine
 10
-10.49472124999994
 20
3.750024163874954
 30
0.0
 11
-5.620001250000001
 21
3.750024163874954
 31
0.0
  0
LINE
  5
5A5B
330
5A4F
100
AcDbEntity
  8
0
 48
0.27
100
AcDbLine
 10
-10.80271249999994
 20
-3.172567086124999
 30
0.0
 11
-10.49472124999994
 21
-3.749975836124974
 31
0.0
  0
LINE
  5
5A5C
330
5A4F
100
AcDbEntity
  8
0
 48
0.27
100
AcDbLine
 10
-10.49472124999994
 20
3.750024163874954
 30
0.0
 11
-10.80271249999994
 21
3.172615413874993
 31
0.0
  0
LINE
  5
5A5D
330
5A4F
100
AcDbEntity
  8
0
 48
0.27
100
AcDbLine
 10
-4.493948749999987
 20
0.0000241638749827
 30
0.0
 11
-3.619743749999997
 21
0.0000241638749827
 31
0.0
  0
LINE
  5
5A5E
330
5A4F
100
AcDbEntity
  8
0
 48
0.27
100
AcDbLine
 10
-5.620001250000001
 20
3.750024163874954
 30
0.0
 11
-3.619743749999997
 21
0.0000241638749827
 31
0.0
  0
LINE
  5
5A5F
330
5A4F
100
AcDbEntity
  8
0
 48
0.27
100
AcDbLine
 10
-5.620001250000001
 20
-3.749975836124974
 30
0.0
 11
-10.49472124999994
 21
-3.749975836124974
 31
0.0
  0
LINE
  5
5A60
330
5A4F
100
AcDbEntity
  8
0
 48
0.27
100
AcDbLine
 10
-3.619743749999997
 20
0.0000241638749827
 30
0.0
 11
-5.620001250000001
 21
-3.749975836124974
 31
0.0
  0
LINE
  5
5A61
330
5A4F
100
AcDbEntity
  8
0
 48
0.27
100
AcDbLine
 10
-10.34337249999995
 20
3.161941663874969
 30
0.0
 11
-9.820288749999974
 21
3.464571663874949
 31
0.0
  0
LINE
  5
5A62
330
5A4F
100
AcDbEntity
  8
0
 48
0.27
100
AcDbLine
 10
-10.34337249999995
 20
-3.161894586124944
 30
0.0
 11
-9.820288749999974
 21
-3.464524586124994
 31
0.0
  0
LINE
  5
5A63
330
5A4F
100
AcDbEntity
  8
0
 48
0.27
100
AcDbLine
 10
-9.820288749999974
 20
3.464571663874949
 30
0.0
 11
-9.170363749999964
 21
3.677969163874905
 31
0.0
  0
LINE
  5
5A64
330
5A4F
100
AcDbEntity
  8
0
 48
0.27
100
AcDbLine
 10
-9.820288749999974
 20
-3.464524586124994
 30
0.0
 11
-9.170363749999964
 21
-3.677920836124926
 31
0.0
  0
LINE
  5
5A65
330
5A4F
100
AcDbEntity
  8
0
 48
0.27
100
AcDbLine
 10
-9.170363749999964
 20
3.677969163874905
 30
0.0
 11
-8.494463749999937
 21
3.750024163874954
 31
0.0
  0
LINE
  5
5A66
330
5A4F
100
AcDbEntity
  8
0
 48
0.27
100
AcDbLine
 10
-9.170363749999964
 20
-3.677920836124926
 30
0.0
 11
-8.494463749999937
 21
-3.749975836124974
 31
0.0
  0
LINE
  5
5A67
330
5A4F
100
AcDbEntity
  8
0
 48
0.27
100
AcDbLine
 10
-8.494463749999937
 20
3.750024163874954
 30
0.0
 11
-7.818563749999967
 21
3.677969163874905
 31
0.0
  0
LINE
  5
5A68
330
5A4F
100
AcDbEntity
  8
0
 48
0.27
100
AcDbLine
 10
-8.494463749999937
 20
-3.749975836124974
 30
0.0
 11
-7.818563749999967
 21
-3.677920836124926
 31
0.0
  0
LINE
  5
5A69
330
5A4F
100
AcDbEntity
  8
0
 48
0.27
100
AcDbLine
 10
-7.818563749999967
 20
3.677969163874905
 30
0.0
 11
-7.168638749999985
 21
3.464571663874949
 31
0.0
  0
LINE
  5
5A6A
330
5A4F
100
AcDbEntity
  8
0
 48
0.27
100
AcDbLine
 10
-7.818563749999967
 20
-3.677920836124926
 30
0.0
 11
-7.168638749999985
 21
-3.464524586124994
 31
0.0
  0
LINE
  5
5A6B
330
5A4F
100
AcDbEntity
  8
0
 48
0.27
100
AcDbLine
 10
-7.168638749999985
 20
3.464571663874949
 30
0.0
 11
-6.569663749999975
 21
3.118035413874977
 31
0.0
  0
LINE
  5
5A6C
330
5A4F
100
AcDbEntity
  8
0
 48
0.27
100
AcDbLine
 10
-7.168638749999985
 20
-3.464524586124994
 30
0.0
 11
-6.569663749999975
 21
-3.117987086124998
 31
0.0
  0
LINE
  5
5A6D
330
5A4F
100
AcDbEntity
  8
0
 48
0.27
100
AcDbLine
 10
-6.569663749999975
 20
3.118035413874977
 30
0.0
 11
-6.044658749999967
 21
2.651674163874986
 31
0.0
  0
LINE
  5
5A6E
330
5A4F
100
AcDbEntity
  8
0
 48
0.27
100
AcDbLine
 10
-6.569663749999975
 20
-3.117987086124998
 30
0.0
 11
-6.044658749999967
 21
-2.651627086125031
 31
0.0
  0
LINE
  5
5A6F
330
5A4F
100
AcDbEntity
  8
0
 48
0.27
100
AcDbLine
 10
-6.494206249999976
 20
3.750024163874954
 30
0.0
 11
-4.493948749999987
 21
0.0000241638749827
 31
0.0
  0
LINE
  5
5A70
330
5A4F
100
AcDbEntity
  8
0
 48
0.27
100
AcDbLine
 10
-4.493948749999987
 20
0.0000241638749827
 30
0.0
 11
-6.494206249999976
 21
-3.749975836124974
 31
0.0
  0
LINE
  5
5A71
330
5A4F
100
AcDbEntity
  8
0
 48
0.27
100
AcDbLine
 10
-6.044658749999967
 20
2.651674163874986
 30
0.0
 11
-5.613797499999975
 21
2.083411663874983
 31
0.0
  0
LINE
  5
5A72
330
5A4F
100
AcDbEntity
  8
0
 48
0.27
100
AcDbLine
 10
-5.613797499999975
 20
-2.083364586125028
 30
0.0
 11
-6.044658749999967
 21
-2.651627086125031
 31
0.0
  0
LINE
  5
5A73
330
5A4F
100
AcDbEntity
  8
0
 48
0.27
100
AcDbLine
 10
-5.613797499999975
 20
2.083411663874983
 30
0.0
 11
-5.293638749999985
 21
1.435086663874969
 31
0.0
  0
LINE
  5
5A74
330
5A4F
100
AcDbEntity
  8
0
 48
0.27
100
AcDbLine
 10
-5.293638749999985
 20
-1.435039586124943
 30
0.0
 11
-5.613797499999975
 21
-2.083364586125028
 31
0.0
  0
LINE
  5
5A75
330
5A4F
100
AcDbEntity
  8
0
 48
0.27
100
AcDbLine
 10
-5.293638749999985
 20
1.435086663874969
 30
0.0
 11
-5.096486249999998
 21
0.7316129138750256
 31
0.0
  0
LINE
  5
5A76
330
5A4F
100
AcDbEntity
  8
0
 48
0.27
100
AcDbLine
 10
-5.096486249999998
 20
-0.7315645861250602
 30
0.0
 11
-5.293638749999985
 21
-1.435039586124943
 31
0.0
  0
LINE
  5
5A77
330
5A4F
100
AcDbEntity
  8
0
 48
0.27
100
AcDbLine
 10
-5.096486249999998
 20
0.7316129138750256
 30
0.0
 11
-5.029916249999985
 21
0.0000241638749827
 31
0.0
  0
LINE
  5
5A78
330
5A4F
100
AcDbEntity
  8
0
 48
0.27
100
AcDbLine
 10
-5.029916249999985
 20
0.0000241638749827
 30
0.0
 11
-5.096486249999998
 21
-0.7315645861250602
 31
0.0
  0
LINE
  5
5A79
330
5A4F
100
AcDbEntity
  8
0
 48
0.27
100
AcDbLine
 10
-12.12433499999991
 20
2.050307913874931
 30
0.0
 11
-12.12062124999992
 21
2.048289163874983
 31
0.0
  0
LINE
  5
5A7A
330
5A4F
100
AcDbEntity
  8
0
 48
0.27
100
AcDbLine
 10
-12.12433499999991
 20
-2.050260836124991
 30
0.0
 11
-12.12062124999992
 21
-2.048240836125003
 31
0.0
  0
LINE
  5
5A7B
330
5A4F
100
AcDbEntity
  8
0
 48
0.27
100
AcDbLine
 10
-13.5152224999999
 20
0.6227016638749916
 30
0.0
 11
-13.5718824999999
 21
0.0000241638749827
 31
0.0
  0
LINE
  5
5A7C
330
5A4F
100
AcDbEntity
  8
0
 48
0.27
100
AcDbLine
 10
-13.34741999999992
 20
1.221449163874979
 30
0.0
 11
-13.5152224999999
 21
0.6227016638749916
 31
0.0
  0
LINE
  5
5A7D
330
5A4F
100
AcDbEntity
  8
0
 48
0.27
100
AcDbLine
 10
-13.5718824999999
 20
0.0000241638749827
 30
0.0
 11
-13.5152224999999
 21
-0.622653336125012
 31
0.0
  0
LINE
  5
5A7E
330
5A4F
100
AcDbEntity
  8
0
 48
0.27
100
AcDbLine
 10
-13.07492374999991
 20
1.773259163874982
 30
0.0
 11
-13.34741999999992
 21
1.221449163874979
 31
0.0
  0
LINE
  5
5A7F
330
5A4F
100
AcDbEntity
  8
0
 48
0.27
100
AcDbLine
 10
-13.5152224999999
 20
-0.622653336125012
 30
0.0
 11
-13.34741999999992
 21
-1.221402086125024
 31
0.0
  0
LINE
  5
5A80
330
5A4F
100
AcDbEntity
  8
0
 48
0.27
100
AcDbLine
 10
-12.70820374999991
 20
2.256924163875027
 30
0.0
 11
-13.07492374999991
 21
1.773259163874982
 31
0.0
  0
LINE
  5
5A81
330
5A4F
100
AcDbEntity
  8
0
 48
0.27
100
AcDbLine
 10
-13.34741999999992
 20
-1.221402086125024
 30
0.0
 11
-13.07492374999991
 21
-1.773210836125016
 31
0.0
  0
LINE
  5
5A82
330
5A4F
100
AcDbEntity
  8
0
 48
0.27
100
AcDbLine
 10
-12.70820374999991
 20
2.256924163875027
 30
0.0
 11
-12.26135624999992
 21
2.653857913874972
 31
0.0
  0
LINE
  5
5A83
330
5A4F
100
AcDbEntity
  8
0
 48
0.27
100
AcDbLine
 10
-13.07492374999991
 20
-1.773210836125016
 30
0.0
 11
-12.70820374999991
 21
-2.256875836125047
 31
0.0
  0
LINE
  5
5A84
330
5A4F
100
AcDbEntity
  8
0
 48
0.27
100
AcDbLine
 10
-13.32934374999993
 20
0.4369441638749976
 30
0.0
 11
-13.36910124999993
 21
0.0000241638749827
 31
0.0
  0
LINE
  5
5A85
330
5A4F
100
AcDbEntity
  8
0
 48
0.27
100
AcDbLine
 10
-13.21159999999991
 20
0.8570741638749979
 30
0.0
 11
-13.32934374999993
 21
0.4369441638749976
 31
0.0
  0
LINE
  5
5A86
330
5A4F
100
AcDbEntity
  8
0
 48
0.27
100
AcDbLine
 10
-13.36910124999993
 20
0.0000241638749827
 30
0.0
 11
-13.32934374999993
 21
-0.4368958361250038
 31
0.0
  0
LINE
  5
5A87
330
5A4F
100
AcDbEntity
  8
0
 48
0.27
100
AcDbLine
 10
-13.02039499999992
 20
1.244267913874963
 30
0.0
 11
-13.21159999999991
 21
0.8570741638749979
 31
0.0
  0
LINE
  5
5A88
330
5A4F
100
AcDbEntity
  8
0
 48
0.27
100
AcDbLine
 10
-13.32934374999993
 20
-0.4368958361250038
 30
0.0
 11
-13.21159999999991
 21
-0.8570258361250182
 31
0.0
  0
LINE
  5
5A89
330
5A4F
100
AcDbEntity
  8
0
 48
0.27
100
AcDbLine
 10
-12.26135624999992
 20
2.653857913874972
 30
0.0
 11
-11.75154999999992
 21
2.948806663874947
 31
0.0
  0
LINE
  5
5A8A
330
5A4F
100
AcDbEntity
  8
0
 48
0.27
100
AcDbLine
 10
-12.70820374999991
 20
-2.256875836125047
 30
0.0
 11
-12.26135624999992
 21
-2.653809586125007
 31
0.0
  0
LINE
  5
5A8B
330
5A4F
100
AcDbEntity
  8
0
 48
0.27
100
AcDbLine
 10
-12.7630749999999
 20
1.58364541387499
 30
0.0
 11
-13.02039499999992
 21
1.244267913874963
 31
0.0
  0
LINE
  5
5A8C
330
5A4F
100
AcDbEntity
  8
0
 48
0.27
100
AcDbLine
 10
-13.21159999999991
 20
-0.8570258361250182
 30
0.0
 11
-13.02039499999992
 21
-1.24421958612497
 31
0.0
  0
LINE
  5
5A8D
330
5A4F
100
AcDbEntity
  8
0
 48
0.27
100
AcDbLine
 10
-11.75154999999992
 20
2.948806663874947
 30
0.0
 11
-11.19837874999991
 21
3.130434163874909
 31
0.0
  0
LINE
  5
5A8E
330
5A4F
100
AcDbEntity
  8
0
 48
0.27
100
AcDbLine
 10
-12.26135624999992
 20
-2.653809586125007
 30
0.0
 11
-11.75154999999992
 21
-2.94875833612501
 31
0.0
  0
LINE
  5
5A8F
330
5A4F
100
AcDbEntity
  8
0
 48
0.27
100
AcDbLine
 10
-12.7630749999999
 20
1.58364541387499
 30
0.0
 11
-12.4495312499999
 21
1.862166663874944
 31
0.0
  0
LINE
  5
5A90
330
5A4F
100
AcDbEntity
  8
0
 48
0.27
100
AcDbLine
 10
-13.02039499999992
 20
-1.24421958612497
 30
0.0
 11
-12.7630749999999
 21
-1.583598336124936
 31
0.0
  0
LINE
  5
5A91
330
5A4F
100
AcDbEntity
  8
0
 48
0.27
100
AcDbLine
 10
-11.19837874999991
 20
3.130434163874909
 30
0.0
 11
-10.62309999999993
 21
3.191762913874967
 31
0.0
  0
LINE
  5
5A92
330
5A4F
100
AcDbEntity
  8
0
 48
0.27
100
AcDbLine
 10
-11.75154999999992
 20
-2.94875833612501
 30
0.0
 11
-11.19837874999991
 21
-3.130387086125026
 31
0.0
  0
LINE
  5
5A93
330
5A4F
100
AcDbEntity
  8
0
 48
0.27
100
AcDbLine
 10
-12.4495312499999
 20
1.862166663874944
 30
0.0
 11
-12.09180999999993
 21
2.069125413874914
 31
0.0
  0
LINE
  5
5A94
330
5A4F
100
AcDbEntity
  8
0
 48
0.27
100
AcDbLine
 10
-12.7630749999999
 20
-1.583598336124936
 30
0.0
 11
-12.4495312499999
 21
-1.862118336124964
 31
0.0
  0
LINE
  5
5A95
330
5A4F
100
AcDbEntity
  8
0
 48
0.27
100
AcDbLine
 10
-9.867276249999946
 20
3.096250413874955
 30
0.0
 11
-9.320146249999936
 21
2.916605413874933
 31
0.0
  0
LINE
  5
5A96
330
5A4F
100
AcDbEntity
  8
0
 48
0.27
100
AcDbLine
 10
-12.09180999999993
 20
2.069125413874914
 30
0.0
 11
-11.70366124999993
 21
2.196570413874965
 31
0.0
  0
LINE
  5
5A97
330
5A4F
100
AcDbEntity
  8
0
 48
0.27
100
AcDbLine
 10
-12.4495312499999
 20
-1.862118336124964
 30
0.0
 11
-12.09180999999993
 21
-2.069078336124974
 31
0.0
  0
LINE
  5
5A98
330
5A4F
100
AcDbEntity
  8
0
 48
0.27
100
AcDbLine
 10
-10.04782124999994
 20
3.130434163874909
 30
0.0
 11
-9.867276249999946
 21
3.096250413874955
 31
0.0
  0
LINE
  5
5A99
330
5A4F
100
AcDbEntity
  8
0
 48
0.27
100
AcDbLine
 10
-10.62309999999993
 20
3.191762913874967
 30
0.0
 11
-10.04782124999994
 21
3.130434163874909
 31
0.0
  0
LINE
  5
5A9A
330
5A4F
100
AcDbEntity
  8
0
 48
0.27
100
AcDbLine
 10
-11.19837874999991
 20
-3.130387086125026
 30
0.0
 11
-10.62309999999993
 21
-3.191714586124973
 31
0.0
  0
LINE
  5
5A9B
330
5A4F
100
AcDbEntity
  8
0
 48
0.27
100
AcDbLine
 10
-9.320146249999936
 20
2.916605413874933
 30
0.0
 11
-8.815907499999951
 21
2.624877913874954
 31
0.0
  0
LINE
  5
5A9C
330
5A4F
100
AcDbEntity
  8
0
 48
0.27
100
AcDbLine
 10
-9.867276249999946
 20
-3.096202086124961
 30
0.0
 11
-9.320146249999936
 21
-2.916557086124953
 31
0.0
  0
LINE
  5
5A9D
330
5A4F
100
AcDbEntity
  8
0
 48
0.27
100
AcDbLine
 10
-8.815907499999951
 20
2.624877913874954
 30
0.0
 11
-8.373938749999936
 21
2.232279163874963
 31
0.0
  0
LINE
  5
5A9E
330
5A4F
100
AcDbEntity
  8
0
 48
0.27
100
AcDbLine
 10
-9.320146249999936
 20
-2.916557086124953
 30
0.0
 11
-8.815907499999951
 21
-2.624829586124988
 31
0.0
  0
LINE
  5
5A9F
330
5A4F
100
AcDbEntity
  8
0
 48
0.27
100
AcDbLine
 10
-11.70366124999993
 20
2.196570413874965
 30
0.0
 11
-11.29999874999994
 21
2.239602913874989
 31
0.0
  0
LINE
  5
5AA0
330
5A4F
100
AcDbEntity
  8
0
 48
0.27
100
AcDbLine
 10
-12.09180999999993
 20
-2.069078336124974
 30
0.0
 11
-11.70366124999993
 21
-2.196523336125011
 31
0.0
  0
LINE
  5
5AA1
330
5A4F
100
AcDbEntity
  8
0
 48
0.27
100
AcDbLine
 10
-10.04782124999994
 20
3.130434163874909
 30
0.0
 11
-9.49464999999995
 21
2.948806663874947
 31
0.0
  0
LINE
  5
5AA2
330
5A4F
100
AcDbEntity
  8
0
 48
0.27
100
AcDbLine
 10
-10.04782124999994
 20
-3.130387086125026
 30
0.0
 11
-9.867276249999946
 21
-3.096202086124961
 31
0.0
  0
LINE
  5
5AA3
330
5A4F
100
AcDbEntity
  8
0
 48
0.27
100
AcDbLine
 10
-10.62309999999993
 20
-3.191714586124973
 30
0.0
 11
-10.04782124999994
 21
-3.130387086125026
 31
0.0
  0
LINE
  5
5AA4
330
5A4F
100
AcDbEntity
  8
0
 48
0.27
100
AcDbLine
 10
-8.373938749999936
 20
2.232279163874963
 30
0.0
 11
-8.011224999999939
 21
1.753895413874957
 31
0.0
  0
LINE
  5
5AA5
330
5A4F
100
AcDbEntity
  8
0
 48
0.27
100
AcDbLine
 10
-8.815907499999951
 20
-2.624829586124988
 30
0.0
 11
-8.373938749999936
 21
-2.232230836125026
 31
0.0
  0
LINE
  5
5AA6
330
5A4F
100
AcDbEntity
  8
0
 48
0.27
100
AcDbLine
 10
-11.29999874999994
 20
2.239602913874989
 30
0.0
 11
-10.89633749999994
 21
2.196570413874965
 31
0.0
  0
LINE
  5
5AA7
330
5A4F
100
AcDbEntity
  8
0
 48
0.27
100
AcDbLine
 10
-11.70366124999993
 20
-2.196523336125011
 30
0.0
 11
-11.29999874999994
 21
-2.239555836124978
 31
0.0
  0
LINE
  5
5AA8
330
5A4F
100
AcDbEntity
  8
0
 48
0.27
100
AcDbLine
 10
-9.49464999999995
 20
2.948806663874947
 30
0.0
 11
-8.98484499999995
 21
2.653857913874972
 31
0.0
  0
LINE
  5
5AA9
330
5A4F
100
AcDbEntity
  8
0
 48
0.27
100
AcDbLine
 10
-10.04782124999994
 20
-3.130387086125026
 30
0.0
 11
-9.49464999999995
 21
-2.94875833612501
 31
0.0
  0
LINE
  5
5AAA
330
5A4F
100
AcDbEntity
  8
0
 48
0.27
100
AcDbLine
 10
-8.011224999999939
 20
1.753895413874957
 30
0.0
 11
-7.74170374999997
 21
1.208111663874973
 31
0.0
  0
LINE
  5
5AAB
330
5A4F
100
AcDbEntity
  8
0
 48
0.27
100
AcDbLine
 10
-8.011224999999939
 20
-1.753847086124977
 30
0.0
 11
-8.373938749999936
 21
-2.232230836125026
 31
0.0
  0
LINE
  5
5AAC
330
5A4F
100
AcDbEntity
  8
0
 48
0.27
100
AcDbLine
 10
-7.74170374999997
 20
1.208111663874973
 30
0.0
 11
-7.575733749999969
 21
0.6159016638749933
 31
0.0
  0
LINE
  5
5AAD
330
5A4F
100
AcDbEntity
  8
0
 48
0.27
100
AcDbLine
 10
-7.74170374999997
 20
-1.208063336124993
 30
0.0
 11
-8.011224999999939
 21
-1.753847086124977
 31
0.0
  0
LINE
  5
5AAE
330
5A4F
100
AcDbEntity
  8
0
 48
0.27
100
AcDbLine
 10
-8.98484499999995
 20
2.653857913874972
 30
0.0
 11
-8.537996249999977
 21
2.256924163875027
 31
0.0
  0
LINE
  5
5AAF
330
5A4F
100
AcDbEntity
  8
0
 48
0.27
100
AcDbLine
 10
-9.49464999999995
 20
-2.94875833612501
 30
0.0
 11
-8.98484499999995
 21
-2.653809586125007
 31
0.0
  0
LINE
  5
5AB0
330
5A4F
100
AcDbEntity
  8
0
 48
0.27
100
AcDbLine
 10
-7.575733749999969
 20
0.6159016638749933
 30
0.0
 11
-7.519692499999948
 21
0.0000241638749827
 31
0.0
  0
LINE
  5
5AB1
330
5A4F
100
AcDbEntity
  8
0
 48
0.27
100
AcDbLine
 10
-7.575733749999969
 20
-0.6158533361250278
 30
0.0
 11
-7.74170374999997
 21
-1.208063336124993
 31
0.0
  0
LINE
  5
5AB2
330
5A4F
100
AcDbEntity
  8
0
 48
0.27
100
AcDbLine
 10
-10.89633749999994
 20
2.196570413874965
 30
0.0
 11
-10.50818874999994
 21
2.069125413874914
 31
0.0
  0
LINE
  5
5AB3
330
5A4F
100
AcDbEntity
  8
0
 48
0.27
100
AcDbLine
 10
-11.29999874999994
 20
-2.239555836124978
 30
0.0
 11
-10.89633749999994
 21
-2.196523336125011
 31
0.0
  0
LINE
  5
5AB4
330
5A4F
100
AcDbEntity
  8
0
 48
0.27
100
AcDbLine
 10
-7.519692499999948
 20
0.0000241638749827
 30
0.0
 11
-7.575733749999969
 21
-0.6158533361250278
 31
0.0
  0
LINE
  5
5AB5
330
5A4F
100
AcDbEntity
  8
0
 48
0.27
100
AcDbLine
 10
-8.537996249999977
 20
2.256924163875027
 30
0.0
 11
-8.171277499999973
 21
1.773259163874982
 31
0.0
  0
LINE
  5
5AB6
330
5A4F
100
AcDbEntity
  8
0
 48
0.27
100
AcDbLine
 10
-8.98484499999995
 20
-2.653809586125007
 30
0.0
 11
-8.537996249999977
 21
-2.256875836125047
 31
0.0
  0
LINE
  5
5AB7
330
5A4F
100
AcDbEntity
  8
0
 48
0.27
100
AcDbLine
 10
-10.50818874999994
 20
2.069125413874914
 30
0.0
 11
-10.15046749999993
 21
1.862166663874944
 31
0.0
  0
LINE
  5
5AB8
330
5A4F
100
AcDbEntity
  8
0
 48
0.27
100
AcDbLine
 10
-10.89633749999994
 20
-2.196523336125011
 30
0.0
 11
-10.50818874999994
 21
-2.069078336124974
 31
0.0
  0
LINE
  5
5AB9
330
5A4F
100
AcDbEntity
  8
0
 48
0.27
100
AcDbLine
 10
-8.171277499999973
 20
1.773259163874982
 30
0.0
 11
-7.89878124999997
 21
1.221449163874979
 31
0.0
  0
LINE
  5
5ABA
330
5A4F
100
AcDbEntity
  8
0
 48
0.27
100
AcDbLine
 10
-8.171277499999973
 20
-1.773210836125016
 30
0.0
 11
-8.537996249999977
 21
-2.256875836125047
 31
0.0
  0
LINE
  5
5ABB
330
5A4F
100
AcDbEntity
  8
0
 48
0.27
100
AcDbLine
 10
-7.89878124999997
 20
1.221449163874979
 30
0.0
 11
-7.73097749999998
 21
0.6227016638749916
 31
0.0
  0
LINE
  5
5ABC
330
5A4F
100
AcDbEntity
  8
0
 48
0.27
100
AcDbLine
 10
-7.89878124999997
 20
-1.221402086125024
 30
0.0
 11
-8.171277499999973
 21
-1.773210836125016
 31
0.0
  0
LINE
  5
5ABD
330
5A4F
100
AcDbEntity
  8
0
 48
0.27
100
AcDbLine
 10
-10.15046749999993
 20
1.862166663874944
 30
0.0
 11
-9.83692374999994
 21
1.58364541387499
 31
0.0
  0
LINE
  5
5ABE
330
5A4F
100
AcDbEntity
  8
0
 48
0.27
100
AcDbLine
 10
-10.50818874999994
 20
-2.069078336124974
 30
0.0
 11
-10.15046749999993
 21
-1.862118336124964
 31
0.0
  0
LINE
  5
5ABF
330
5A4F
100
AcDbEntity
  8
0
 48
0.27
100
AcDbLine
 10
-7.73097749999998
 20
0.6227016638749916
 30
0.0
 11
-7.674317499999972
 21
0.0000241638749827
 31
0.0
  0
LINE
  5
5AC0
330
5A4F
100
AcDbEntity
  8
0
 48
0.27
100
AcDbLine
 10
-7.73097749999998
 20
-0.622653336125012
 30
0.0
 11
-7.89878124999997
 21
-1.221402086125024
 31
0.0
  0
LINE
  5
5AC1
330
5A4F
100
AcDbEntity
  8
0
 48
0.27
100
AcDbLine
 10
-7.674317499999972
 20
0.0000241638749827
 30
0.0
 11
-7.73097749999998
 21
-0.622653336125012
 31
0.0
  0
LINE
  5
5AC2
330
5A4F
100
AcDbEntity
  8
0
 48
0.27
100
AcDbLine
 10
-9.83692374999994
 20
1.58364541387499
 30
0.0
 11
-9.579603749999975
 21
1.244267913874963
 31
0.0
  0
LINE
  5
5AC3
330
5A4F
100
AcDbEntity
  8
0
 48
0.27
100
AcDbLine
 10
-10.15046749999993
 20
-1.862118336124964
 30
0.0
 11
-9.83692374999994
 21
-1.583598336124936
 31
0.0
  0
LINE
  5
5AC4
330
5A4F
100
AcDbEntity
  8
0
 48
0.27
100
AcDbLine
 10
-9.579603749999975
 20
1.244267913874963
 30
0.0
 11
-9.38839874999995
 21
0.8570741638749979
 31
0.0
  0
LINE
  5
5AC5
330
5A4F
100
AcDbEntity
  8
0
 48
0.27
100
AcDbLine
 10
-9.579603749999975
 20
-1.24421958612497
 30
0.0
 11
-9.83692374999994
 21
-1.583598336124936
 31
0.0
  0
LINE
  5
5AC6
330
5A4F
100
AcDbEntity
  8
0
 48
0.27
100
AcDbLine
 10
-9.38839874999995
 20
0.8570741638749979
 30
0.0
 11
-9.270654999999948
 21
0.4369441638749976
 31
0.0
  0
LINE
  5
5AC7
330
5A4F
100
AcDbEntity
  8
0
 48
0.27
100
AcDbLine
 10
-9.38839874999995
 20
-0.8570258361250182
 30
0.0
 11
-9.579603749999975
 21
-1.24421958612497
 31
0.0
  0
LINE
  5
5AC8
330
5A4F
100
AcDbEntity
  8
0
 48
0.27
100
AcDbLine
 10
-9.270654999999948
 20
0.4369441638749976
 30
0.0
 11
-9.230897499999954
 21
0.0000241638749827
 31
0.0
  0
LINE
  5
5AC9
330
5A4F
100
AcDbEntity
  8
0
 48
0.27
100
AcDbLine
 10
-9.270654999999948
 20
-0.4368958361250038
 30
0.0
 11
-9.38839874999995
 21
-0.8570258361250182
 31
0.0
  0
LINE
  5
5ACA
330
5A4F
100
AcDbEntity
  8
0
 48
0.27
100
AcDbLine
 10
-9.230897499999954
 20
0.0000241638749827
 30
0.0
 11
-9.270654999999948
 21
-0.4368958361250038
 31
0.0
  0
POINT
  5
5ACB
330
5A4F
100
AcDbEntity
  8
0
100
AcDbPoint
 10
-13.5718824999999
 20
0.0000241638749827
 30
0.0
1001
pntflag
1000
endpoint
  0
ENDBLK
  5
5ACD
330
5A4F
100
AcDbEntity
  8
0
100
AcDbBlockEnd
  0
BLOCK
  5
5BC9
330
5B4C
100
AcDbEntity
  8
0
100
AcDbBlockBegin
  2
34320003_f
 70
     0
 10
0.0
 20
0.0
 30
0.0
  3
34320003_f
  1

  0
ARC
  5
5B4D
330
5B4C
100
AcDbEntity
  8
0
 48
0.27
100
AcDbCircle
 10
0.0
 20
0.0
 30
0.0
 40
6.562501095937681
100
AcDbArc
 50
30.24329777399997
 51
329.7566907593
  0
LWPOLYLINE
  5
5B4E
330
5B4C
100
AcDbEntity
  8
0
 48
0.27
100
AcDbPolyline
 90
       17
 70
     0
 43
0.0
 10
11.18961152779011
 20
-0.0000000000000089
 10
11.23154691154336
 20
-0.2712965984315565
 10
11.27266065490934
 20
-0.3499269040627835
 10
11.31837357979336
 20
-0.3868539561046227
 10
11.36084503363612
 20
-0.3864698560404587
 10
11.40646109850401
 20
-0.3487144837353197
 10
11.44564098129707
 20
-0.2740019993833567
 10
11.48237431330654
 20
-0.111410746355609
 10
11.48858337534345
 20
-0.0000000000000089
 10
11.44664966159051
 20
0.2712949284312283
 10
11.40553424822419
 20
0.3499252340625086
 10
11.35982132334016
 20
0.38685228610433
 10
11.31735153949772
 20
0.3864681859151638
 10
11.27173380462955
 20
0.3487128136100248
 10
11.23255559183677
 20
0.274000329258044
 10
11.19582058982703
 20
0.1114090763552985
 10
11.18961152779011
 20
-0.0000000000000089
  0
ARC
  5
5B4F
330
5B4C
100
AcDbEntity
  8
0
 48
0.27
100
AcDbCircle
 10
0.0
 20
0.0
 30
0.0
 40
5.0
100
AcDbArc
 50
48.59037799889993
 51
311.4096220031999
  0
LINE
  5
5B50
330
5B4C
100
AcDbEntity
  8
0
 48
0.27
100
AcDbLine
 10
3.608440316359516
 20
3.749999582499912
 30
0.0
 11
2.886751251087457
 21
4.999999999999986
 31
0.0
  0
LINE
  5
5B51
330
5B4C
100
AcDbEntity
  8
0
 48
0.27
100
AcDbLine
 10
-2.886751251087466
 20
4.999999999999986
 30
0.0
 11
2.886751251087457
 21
4.999999999999986
 31
0.0
  0
LINE
  5
5B52
330
5B4C
100
AcDbEntity
  8
0
 48
0.27
100
AcDbLine
 10
-2.886751251087466
 20
4.999999999999986
 30
0.0
 11
-5.773502502174914
 21
0.0
 31
0.0
  0
LINE
  5
5B53
330
5B4C
100
AcDbEntity
  8
0
 48
0.27
100
AcDbLine
 10
-5.773502502174914
 20
0.0
 30
0.0
 11
-2.886751251087466
 21
-5.000001670000297
 31
0.0
  0
LINE
  5
5B54
330
5B4C
100
AcDbEntity
  8
0
 48
0.27
100
AcDbLine
 10
2.886752921087732
 20
-5.000001670000297
 30
0.0
 11
-2.886751251087466
 21
-5.000001670000297
 31
0.0
  0
LINE
  5
5B55
330
5B4C
100
AcDbEntity
  8
0
 48
0.27
100
AcDbLine
 10
3.608440316359516
 20
-3.750001252500222
 30
0.0
 11
2.886752921087732
 21
-5.000001670000297
 31
0.0
  0
LINE
  5
5B56
330
5B4C
100
AcDbEntity
  8
0
 48
0.27
100
AcDbLine
 10
1.62688280043943
 20
-3.750001252500222
 30
0.0
 11
5.394469158626328
 21
-3.750001252500222
 31
0.0
  0
LINE
  5
5B57
330
5B4C
100
AcDbEntity
  8
0
 48
0.27
100
AcDbLine
 10
5.47309278425649
 20
3.394140836446515
 30
0.0
 11
5.394469158626328
 21
3.749999582499912
 31
0.0
  0
LINE
  5
5B58
330
5B4C
100
AcDbEntity
  8
0
 48
0.27
100
AcDbLine
 10
5.394469158626328
 20
-3.750001252500222
 30
0.0
 11
5.47309278425649
 21
-3.394142506446808
 31
0.0
  0
LINE
  5
5B59
330
5B4C
100
AcDbEntity
  8
0
 48
0.27
100
AcDbLine
 10
1.62688280043943
 20
3.749999582499912
 30
0.0
 11
5.394469158626328
 21
3.749999582499912
 31
0.0
  0
LINE
  5
5B5A
330
5B4C
100
AcDbEntity
  8
0
 48
0.27
100
AcDbLine
 10
4.845902369765692
 20
-3.677945738966942
 30
0.0
 11
7.348161045517884
 21
-2.545677019878069
 31
0.0
  0
LINE
  5
5B5B
330
5B4C
100
AcDbEntity
  8
0
 48
0.27
100
AcDbLine
 10
12.17967970063147
 20
-0.43692057246576
 30
0.0
 11
12.19614757600664
 21
0.0
 31
0.0
  0
LINE
  5
5B5C
330
5B4C
100
AcDbEntity
  8
0
 48
0.27
100
AcDbLine
 10
12.13090900473681
 20
-0.8570509593775284
 30
0.0
 11
12.17967970063147
 21
-0.43692057246576
 31
0.0
  0
LINE
  5
5B5D
330
5B4C
100
AcDbEntity
  8
0
 48
0.27
100
AcDbLine
 10
12.19614757600664
 20
0.0
 30
0.0
 11
12.17967970063147
 21
0.4369205724657334
 31
0.0
  0
LINE
  5
5B5E
330
5B4C
100
AcDbEntity
  8
0
 48
0.27
100
AcDbLine
 10
4.565935128511164
 20
-3.750001252500222
 30
0.0
 11
4.845902369765692
 21
-3.677945738966942
 31
0.0
  0
LINE
  5
5B5F
330
5B4C
100
AcDbEntity
  8
0
 48
0.27
100
AcDbLine
 10
4.565935128511164
 20
3.749999582499912
 30
0.0
 11
4.845902369765692
 21
3.677944068966648
 31
0.0
  0
LINE
  5
5B60
330
5B4C
100
AcDbEntity
  8
0
 48
0.27
100
AcDbLine
 10
4.845902369765692
 20
3.677944068966648
 30
0.0
 11
7.348161045517884
 21
2.545675349877776
 31
0.0
  0
LINE
  5
5B61
330
5B4C
100
AcDbEntity
  8
0
 48
0.27
100
AcDbLine
 10
12.05170922888544
 20
-1.244243925663751
 30
0.0
 11
12.13090900473681
 21
-0.8570509593775284
 31
0.0
  0
LINE
  5
5B62
330
5B4C
100
AcDbEntity
  8
0
 48
0.27
100
AcDbLine
 10
12.17967970063147
 20
0.4369205724657334
 30
0.0
 11
12.13090900473681
 21
0.8570492893772179
 31
0.0
  0
LINE
  5
5B63
330
5B4C
100
AcDbEntity
  8
0
 48
0.27
100
AcDbLine
 10
11.94512311408554
 20
-1.583623106215071
 30
0.0
 11
12.05170922888544
 21
-1.244243925663751
 31
0.0
  0
LINE
  5
5B64
330
5B4C
100
AcDbEntity
  8
0
 48
0.27
100
AcDbLine
 10
10.99592987469525
 20
-2.047886597622064
 30
0.0
 11
10.99830294546657
 21
-2.046725947303249
 31
0.0
  0
LINE
  5
5B65
330
5B4C
100
AcDbEntity
  8
0
 48
0.27
100
AcDbLine
 10
12.13090900473681
 20
0.8570492893772179
 30
0.0
 11
12.05170922888544
 21
1.244243925663733
 31
0.0
  0
LINE
  5
5B66
330
5B4C
100
AcDbEntity
  8
0
 48
0.27
100
AcDbLine
 10
4.285967887256634
 20
-3.677945738966942
 30
0.0
 11
4.565935128511164
 21
-3.750001252500222
 31
0.0
  0
LINE
  5
5B67
330
5B4C
100
AcDbEntity
  8
0
 48
0.27
100
AcDbLine
 10
4.285967887256634
 20
3.677944068966648
 30
0.0
 11
4.565935128511164
 21
3.749999582499912
 31
0.0
  0
LINE
  5
5B68
330
5B4C
100
AcDbEntity
  8
0
 48
0.27
100
AcDbLine
 10
11.81524884177155
 20
-1.862144127103073
 30
0.0
 11
11.94512311408554
 21
-1.583623106215071
 31
0.0
  0
LINE
  5
5B69
330
5B4C
100
AcDbEntity
  8
0
 48
0.27
100
AcDbLine
 10
12.05170922888544
 20
1.244243925663733
 30
0.0
 11
11.94512311408554
 21
1.583621436214761
 31
0.0
  0
LINE
  5
5B6A
330
5B4C
100
AcDbEntity
  8
0
 48
0.27
100
AcDbLine
 10
7.348161045517884
 20
-2.545677019878069
 30
0.0
 11
7.649564413727228
 21
-2.422673129836395
 31
0.0
  0
LINE
  5
5B6B
330
5B4C
100
AcDbEntity
  8
0
 48
0.27
100
AcDbLine
 10
7.348161045517884
 20
2.545675349877776
 30
0.0
 11
7.649564413727228
 21
2.422673129836395
 31
0.0
  0
LINE
  5
5B6C
330
5B4C
100
AcDbEntity
  8
0
 48
0.27
100
AcDbLine
 10
11.66707637352675
 20
-2.069102284540088
 30
0.0
 11
11.81524884177155
 21
-1.862144127103073
 31
0.0
  0
LINE
  5
5B6D
330
5B4C
100
AcDbEntity
  8
0
 48
0.27
100
AcDbLine
 10
11.94512311408554
 20
1.583621436214761
 30
0.0
 11
11.81524884177155
 21
1.862142457102798
 31
0.0
  0
LINE
  5
5B6E
330
5B4C
100
AcDbEntity
  8
0
 48
0.27
100
AcDbLine
 10
4.016760459423984
 20
-3.464549729454819
 30
0.0
 11
4.285967887256634
 21
-3.677945738966942
 31
0.0
  0
LINE
  5
5B6F
330
5B4C
100
AcDbEntity
  8
0
 48
0.27
100
AcDbLine
 10
4.016760459423984
 20
3.464548059454518
 30
0.0
 11
4.285967887256634
 21
3.677944068966648
 31
0.0
  0
LINE
  5
5B70
330
5B4C
100
AcDbEntity
  8
0
 48
0.27
100
AcDbLine
 10
7.649564413727228
 20
-2.422673129836395
 30
0.0
 11
7.918219071342568
 21
-2.434082573491797
 31
0.0
  0
LINE
  5
5B71
330
5B4C
100
AcDbEntity
  8
0
 48
0.27
100
AcDbLine
 10
7.649564413727228
 20
2.422673129836395
 30
0.0
 11
7.918219071342568
 21
2.434080903491487
 31
0.0
  0
LINE
  5
5B72
330
5B4C
100
AcDbEntity
  8
0
 48
0.27
100
AcDbLine
 10
9.943206621515521
 20
-3.130411010528642
 30
0.0
 11
11.50630041105215
 21
-2.196548376073592
 31
0.0
  0
LINE
  5
5B73
330
5B4C
100
AcDbEntity
  8
0
 48
0.27
100
AcDbLine
 10
11.50630041105215
 20
-2.196548376073592
 30
0.0
 11
11.66707637352675
 21
-2.069102284540088
 31
0.0
  0
LINE
  5
5B74
330
5B4C
100
AcDbEntity
  8
0
 48
0.27
100
AcDbLine
 10
11.81524884177155
 20
1.862142457102798
 30
0.0
 11
11.66707637352675
 21
2.069100614539778
 31
0.0
  0
LINE
  5
5B75
330
5B4C
100
AcDbEntity
  8
0
 48
0.27
100
AcDbLine
 10
0.7983487703242398
 20
0.0
 30
0.0
 11
1.62688280043943
 21
3.749999582499912
 31
0.0
  0
LINE
  5
5B76
330
5B4C
100
AcDbEntity
  8
0
 48
0.27
100
AcDbLine
 10
0.7983487703242398
 20
0.0
 30
0.0
 11
2.908867068280799
 21
0.0
 31
0.0
  0
LINE
  5
5B77
330
5B4C
100
AcDbEntity
  8
0
 48
0.27
100
AcDbLine
 10
1.62688280043943
 20
-3.750001252500222
 30
0.0
 11
0.7983487703242398
 21
0.0
 31
0.0
  0
LINE
  5
5B78
330
5B4C
100
AcDbEntity
  8
0
 48
0.27
100
AcDbLine
 10
4.016760459423984
 20
-3.464549729454819
 30
0.0
 11
3.768656828615689
 21
-3.118012926458168
 31
0.0
  0
LINE
  5
5B79
330
5B4C
100
AcDbEntity
  8
0
 48
0.27
100
AcDbLine
 10
3.768656828615689
 20
3.118011256457857
 30
0.0
 11
4.016760459423984
 21
3.464548059454518
 31
0.0
  0
LINE
  5
5B7A
330
5B4C
100
AcDbEntity
  8
0
 48
0.27
100
AcDbLine
 10
9.704919253846496
 20
-3.19174011052062
 30
0.0
 11
9.943206621515521
 21
-3.130411010528642
 31
0.0
  0
LINE
  5
5B7B
330
5B4C
100
AcDbEntity
  8
0
 48
0.27
100
AcDbLine
 10
9.253878826772735
 20
-3.156885529199896
 30
0.0
 11
9.704919253846496
 21
-3.19174011052062
 31
0.0
  0
LINE
  5
5B7C
330
5B4C
100
AcDbEntity
  8
0
 48
0.27
100
AcDbLine
 10
7.918219071342568
 20
-2.434082573491797
 30
0.0
 11
8.610653067104051
 21
-2.890603942355873
 31
0.0
  0
LINE
  5
5B7D
330
5B4C
100
AcDbEntity
  8
0
 48
0.27
100
AcDbLine
 10
11.33909828650441
 20
-2.239580950135039
 30
0.0
 11
11.50630041105215
 21
-2.196548376073592
 31
0.0
  0
LINE
  5
5B7E
330
5B4C
100
AcDbEntity
  8
0
 48
0.27
100
AcDbLine
 10
9.943206621515521
 20
3.130411010528614
 30
0.0
 11
11.50630041105215
 21
2.196546706073299
 31
0.0
  0
LINE
  5
5B7F
330
5B4C
100
AcDbEntity
  8
0
 48
0.27
100
AcDbLine
 10
11.50630041105215
 20
2.196546706073299
 30
0.0
 11
11.66707637352675
 21
2.069100614539778
 31
0.0
  0
LINE
  5
5B80
330
5B4C
100
AcDbEntity
  8
0
 48
0.27
100
AcDbLine
 10
9.704919253846496
 20
3.19173844052031
 30
0.0
 11
9.943206621515521
 21
3.130411010528614
 31
0.0
  0
LINE
  5
5B81
330
5B4C
100
AcDbEntity
  8
0
 48
0.27
100
AcDbLine
 10
9.253878826772735
 20
3.156885529074876
 30
0.0
 11
9.704919253846496
 21
3.19173844052031
 31
0.0
  0
LINE
  5
5B82
330
5B4C
100
AcDbEntity
  8
0
 48
0.27
100
AcDbLine
 10
7.679674523630631
 20
-2.253453644576775
 30
0.0
 11
7.854775750622538
 21
-2.392254069881414
 31
0.0
  0
LINE
  5
5B83
330
5B4C
100
AcDbEntity
  8
0
 48
0.27
100
AcDbLine
 10
8.610653067104051
 20
-2.890603942355873
 30
0.0
 11
9.018193319913264
 21
-3.09622776932004
 31
0.0
  0
LINE
  5
5B84
330
5B4C
100
AcDbEntity
  8
0
 48
0.27
100
AcDbLine
 10
9.018193319913264
 20
-3.09622776932004
 30
0.0
 11
9.253878826772735
 21
-3.156885529199896
 31
0.0
  0
LINE
  5
5B85
330
5B4C
100
AcDbEntity
  8
0
 48
0.27
100
AcDbLine
 10
7.918219071342568
 20
2.434080903491487
 30
0.0
 11
8.610653067104051
 21
2.890602272355562
 31
0.0
  0
LINE
  5
5B86
330
5B4C
100
AcDbEntity
  8
0
 48
0.27
100
AcDbLine
 10
7.679674523630631
 20
2.253451974576465
 30
0.0
 11
7.854775750622538
 21
2.392252399881148
 31
0.0
  0
LINE
  5
5B87
330
5B4C
100
AcDbEntity
  8
0
 48
0.27
100
AcDbLine
 10
3.768656828615689
 20
-3.118012926458168
 30
0.0
 11
3.551192697674164
 21
-2.651651914450884
 31
0.0
  0
LINE
  5
5B88
330
5B4C
100
AcDbEntity
  8
0
 48
0.27
100
AcDbLine
 10
3.551192697674164
 20
2.651650244450574
 30
0.0
 11
3.768656828615689
 21
3.118011256457857
 31
0.0
  0
LINE
  5
5B89
330
5B4C
100
AcDbEntity
  8
0
 48
0.27
100
AcDbLine
 10
9.466630216177213
 20
-3.130411010528642
 30
0.0
 11
9.704919253846496
 21
-3.19174011052062
 31
0.0
  0
LINE
  5
5B8A
330
5B4C
100
AcDbEntity
  8
0
 48
0.27
100
AcDbLine
 10
9.018193319913264
 20
3.096226099319756
 30
0.0
 11
9.253878826772735
 21
3.156885529074876
 31
0.0
  0
LINE
  5
5B8B
330
5B4C
100
AcDbEntity
  8
0
 48
0.27
100
AcDbLine
 10
8.610653067104051
 20
2.890602272355562
 30
0.0
 11
9.018193319913264
 21
3.096226099319756
 31
0.0
  0
LINE
  5
5B8C
330
5B4C
100
AcDbEntity
  8
0
 48
0.27
100
AcDbLine
 10
3.737401098395999
 20
-3.750001252500222
 30
0.0
 11
2.908867068280799
 21
0.0
 31
0.0
  0
LINE
  5
5B8D
330
5B4C
100
AcDbEntity
  8
0
 48
0.27
100
AcDbLine
 10
2.908867068280799
 20
0.0
 30
0.0
 11
3.737401098395999
 21
3.749999582499912
 31
0.0
  0
LINE
  5
5B8E
330
5B4C
100
AcDbEntity
  8
0
 48
0.27
100
AcDbLine
 10
7.679674523630631
 20
-2.253453644576775
 30
0.0
 11
7.518299030930933
 21
-2.028055341185253
 31
0.0
  0
LINE
  5
5B8F
330
5B4C
100
AcDbEntity
  8
0
 48
0.27
100
AcDbLine
 10
11.17189616208164
 20
-2.196548376073592
 30
0.0
 11
11.33909828650441
 21
-2.239580950135039
 31
0.0
  0
LINE
  5
5B90
330
5B4C
100
AcDbEntity
  8
0
 48
0.27
100
AcDbLine
 10
11.33909828650441
 20
2.239579280134729
 30
0.0
 11
11.50630041105215
 21
2.196546706073299
 31
0.0
  0
LINE
  5
5B91
330
5B4C
100
AcDbEntity
  8
0
 48
0.27
100
AcDbLine
 10
9.466630216177213
 20
3.130411010528614
 30
0.0
 11
9.704919253846496
 21
3.19173844052031
 31
0.0
  0
LINE
  5
5B92
330
5B4C
100
AcDbEntity
  8
0
 48
0.27
100
AcDbLine
 10
8.399074018145352
 20
2.722887457597185
 30
0.0
 11
8.610653067104051
 21
2.890602272355562
 31
0.0
  0
LINE
  5
5B93
330
5B4C
100
AcDbEntity
  8
0
 48
0.27
100
AcDbLine
 10
7.518299030930933
 20
2.028053671184961
 30
0.0
 11
7.679674523630631
 21
2.253451974576465
 31
0.0
  0
LINE
  5
5B94
330
5B4C
100
AcDbEntity
  8
0
 48
0.27
100
AcDbLine
 10
3.551192697674164
 20
-2.651651914450884
 30
0.0
 11
3.372723079494751
 21
-2.08338913917602
 31
0.0
  0
LINE
  5
5B95
330
5B4C
100
AcDbEntity
  8
0
 48
0.27
100
AcDbLine
 10
3.372723079494751
 20
2.083387469175692
 30
0.0
 11
3.551192697674164
 21
2.651650244450574
 31
0.0
  0
LINE
  5
5B96
330
5B4C
100
AcDbEntity
  8
0
 48
0.27
100
AcDbLine
 10
7.518299030930933
 20
-2.028055341185253
 30
0.0
 11
7.376853324934503
 21
-1.724719782278202
 31
0.0
  0
LINE
  5
5B97
330
5B4C
100
AcDbEntity
  8
0
 48
0.27
100
AcDbLine
 10
9.237499461412408
 20
-2.948783421321848
 30
0.0
 11
9.466630216177213
 21
-3.130411010528642
 31
0.0
  0
LINE
  5
5B98
330
5B4C
100
AcDbEntity
  8
0
 48
0.27
100
AcDbLine
 10
7.376853324934503
 20
1.724718112277909
 30
0.0
 11
7.518299030930933
 21
2.028053671184961
 31
0.0
  0
LINE
  5
5B99
330
5B4C
100
AcDbEntity
  8
0
 48
0.27
100
AcDbLine
 10
11.01111852960676
 20
-2.069102284540088
 30
0.0
 11
11.17189616208164
 21
-2.196548376073592
 31
0.0
  0
LINE
  5
5B9A
330
5B4C
100
AcDbEntity
  8
0
 48
0.27
100
AcDbLine
 10
9.237499461412408
 20
2.948781751321537
 30
0.0
 11
9.466630216177213
 21
3.130411010528614
 31
0.0
  0
LINE
  5
5B9B
330
5B4C
100
AcDbEntity
  8
0
 48
0.27
100
AcDbLine
 10
11.17189616208164
 20
2.196546706073299
 30
0.0
 11
11.33909828650441
 21
2.239579280134729
 31
0.0
  0
LINE
  5
5B9C
330
5B4C
100
AcDbEntity
  8
0
 48
0.27
100
AcDbLine
 10
7.376853324934503
 20
-1.724719782278202
 30
0.0
 11
7.260771587048854
 21
-1.355103571802298
 31
0.0
  0
LINE
  5
5B9D
330
5B4C
100
AcDbEntity
  8
0
 48
0.27
100
AcDbLine
 10
3.372723079494751
 20
-2.08338913917602
 30
0.0
 11
3.240110006348364
 21
-1.435063197780547
 31
0.0
  0
LINE
  5
5B9E
330
5B4C
100
AcDbEntity
  8
0
 48
0.27
100
AcDbLine
 10
3.240110006348364
 20
1.435063197780521
 30
0.0
 11
3.372723079494751
 21
2.083387469175692
 31
0.0
  0
LINE
  5
5B9F
330
5B4C
100
AcDbEntity
  8
0
 48
0.27
100
AcDbLine
 10
7.260771587048854
 20
1.355101901801988
 30
0.0
 11
7.376853324934503
 21
1.724718112277909
 31
0.0
  0
LINE
  5
5BA0
330
5B4C
100
AcDbEntity
  8
0
 48
0.27
100
AcDbLine
 10
9.237499461412408
 20
-2.948783421321848
 30
0.0
 11
9.02633123264729
 21
-2.653834605190386
 31
0.0
  0
LINE
  5
5BA1
330
5B4C
100
AcDbEntity
  8
0
 48
0.27
100
AcDbLine
 10
7.260771587048854
 20
-1.355103571802298
 30
0.0
 11
7.17451605889417
 21
-0.933411734254752
 31
0.0
  0
LINE
  5
5BA2
330
5B4C
100
AcDbEntity
  8
0
 48
0.27
100
AcDbLine
 10
3.240110006348364
 20
-1.435063197780547
 30
0.0
 11
3.158446979710636
 21
-0.7315888285503362
 31
0.0
  0
LINE
  5
5BA3
330
5B4C
100
AcDbEntity
  8
0
 48
0.27
100
AcDbLine
 10
3.158446979710636
 20
0.7315888284253252
 30
0.0
 11
3.240110006348364
 21
1.435063197780521
 31
0.0
  0
LINE
  5
5BA4
330
5B4C
100
AcDbEntity
  8
0
 48
0.27
100
AcDbLine
 10
11.01111852960676
 20
2.069100614539778
 30
0.0
 11
11.17189616208164
 21
2.196546706073299
 31
0.0
  0
LINE
  5
5BA5
330
5B4C
100
AcDbEntity
  8
0
 48
0.27
100
AcDbLine
 10
11.01111852960676
 20
-2.069102284540088
 30
0.0
 11
10.86294606136201
 21
-1.862144127103073
 31
0.0
  0
LINE
  5
5BA6
330
5B4C
100
AcDbEntity
  8
0
 48
0.27
100
AcDbLine
 10
9.02633123264729
 20
2.653832935190075
 30
0.0
 11
9.237499461412408
 21
2.948781751321537
 31
0.0
  0
LINE
  5
5BA7
330
5B4C
100
AcDbEntity
  8
0
 48
0.27
100
AcDbLine
 10
7.17451605889417
 20
0.9334100642544592
 30
0.0
 11
7.260771587048854
 21
1.355101901801988
 31
0.0
  0
LINE
  5
5BA8
330
5B4C
100
AcDbEntity
  8
0
 48
0.27
100
AcDbLine
 10
7.17451605889417
 20
-0.933411734254752
 30
0.0
 11
7.121398351648519
 21
-0.4758499550919679
 31
0.0
  0
LINE
  5
5BA9
330
5B4C
100
AcDbEntity
  8
0
 48
0.27
100
AcDbLine
 10
3.158446979710636
 20
-0.7315888285503362
 30
0.0
 11
3.130871930730615
 21
0.0
 31
0.0
  0
LINE
  5
5BAA
330
5B4C
100
AcDbEntity
  8
0
 48
0.27
100
AcDbLine
 10
3.130871930730615
 20
0.0
 30
0.0
 11
3.158446979710636
 21
0.7315888284253252
 31
0.0
  0
LINE
  5
5BAB
330
5B4C
100
AcDbEntity
  8
0
 48
0.27
100
AcDbLine
 10
7.121398351648519
 20
0.4758482850916396
 30
0.0
 11
7.17451605889417
 21
0.9334100642544592
 31
0.0
  0
LINE
  5
5BAC
330
5B4C
100
AcDbEntity
  8
0
 48
0.27
100
AcDbLine
 10
7.121398351648519
 20
-0.4758499550919679
 30
0.0
 11
7.103464215778523
 21
0.0
 31
0.0
  0
LINE
  5
5BAD
330
5B4C
100
AcDbEntity
  8
0
 48
0.27
100
AcDbLine
 10
7.103464215778523
 20
0.0
 30
0.0
 11
7.121398351648519
 21
0.4758482850916396
 31
0.0
  0
LINE
  5
5BAE
330
5B4C
100
AcDbEntity
  8
0
 48
0.27
100
AcDbLine
 10
9.02633123264729
 20
-2.653834605190386
 30
0.0
 11
8.841240062237087
 21
-2.2569005257774
 31
0.0
  0
LINE
  5
5BAF
330
5B4C
100
AcDbEntity
  8
0
 48
0.27
100
AcDbLine
 10
10.86294606136201
 20
1.862142457102798
 30
0.0
 11
11.01111852960676
 21
2.069100614539778
 31
0.0
  0
LINE
  5
5BB0
330
5B4C
100
AcDbEntity
  8
0
 48
0.27
100
AcDbLine
 10
10.86294606136201
 20
-1.862144127103073
 30
0.0
 11
10.73307178904795
 21
-1.583623106215071
 31
0.0
  0
LINE
  5
5BB1
330
5B4C
100
AcDbEntity
  8
0
 48
0.27
100
AcDbLine
 10
8.841240062237087
 20
2.256900525777382
 30
0.0
 11
9.02633123264729
 21
2.653832935190075
 31
0.0
  0
LINE
  5
5BB2
330
5B4C
100
AcDbEntity
  8
0
 48
0.27
100
AcDbLine
 10
10.73307178904795
 20
1.583621436214761
 30
0.0
 11
10.86294606136201
 21
1.862142457102798
 31
0.0
  0
LINE
  5
5BB3
330
5B4C
100
AcDbEntity
  8
0
 48
0.27
100
AcDbLine
 10
8.841240062237087
 20
-2.2569005257774
 30
0.0
 11
8.689340152744804
 21
-1.773236638130532
 31
0.0
  0
LINE
  5
5BB4
330
5B4C
100
AcDbEntity
  8
0
 48
0.27
100
AcDbLine
 10
10.73307178904795
 20
-1.583623106215071
 30
0.0
 11
10.62648734424835
 21
-1.244243925663751
 31
0.0
  0
LINE
  5
5BB5
330
5B4C
100
AcDbEntity
  8
0
 48
0.27
100
AcDbLine
 10
8.689340152744804
 20
1.773234968005228
 30
0.0
 11
8.841240062237087
 21
2.256900525777382
 31
0.0
  0
LINE
  5
5BB6
330
5B4C
100
AcDbEntity
  8
0
 48
0.27
100
AcDbLine
 10
10.62648734424835
 20
1.244243925663733
 30
0.0
 11
10.73307178904795
 21
1.583621436214761
 31
0.0
  0
LINE
  5
5BB7
330
5B4C
100
AcDbEntity
  8
0
 48
0.27
100
AcDbLine
 10
8.689340152744804
 20
-1.773236638130532
 30
0.0
 11
8.5764681558952
 21
-1.221426708228281
 31
0.0
  0
LINE
  5
5BB8
330
5B4C
100
AcDbEntity
  8
0
 48
0.27
100
AcDbLine
 10
10.62648734424835
 20
-1.244243925663751
 30
0.0
 11
10.54728756839702
 21
-0.8570509593775284
 31
0.0
  0
LINE
  5
5BB9
330
5B4C
100
AcDbEntity
  8
0
 48
0.27
100
AcDbLine
 10
8.5764681558952
 20
1.22142503822797
 30
0.0
 11
8.689340152744804
 21
1.773234968005228
 31
0.0
  0
LINE
  5
5BBA
330
5B4C
100
AcDbEntity
  8
0
 48
0.27
100
AcDbLine
 10
10.54728756839702
 20
0.8570492893772179
 30
0.0
 11
10.62648734424835
 21
1.244243925663733
 31
0.0
  0
LINE
  5
5BBB
330
5B4C
100
AcDbEntity
  8
0
 48
0.27
100
AcDbLine
 10
8.5764681558952
 20
-1.221426708228281
 30
0.0
 11
8.506962733287759
 21
-0.6226780729872436
 31
0.0
  0
LINE
  5
5BBC
330
5B4C
100
AcDbEntity
  8
0
 48
0.27
100
AcDbLine
 10
10.54728756839702
 20
-0.8570509593775284
 30
0.0
 11
10.498515202502
 21
-0.43692057246576
 31
0.0
  0
LINE
  5
5BBD
330
5B4C
100
AcDbEntity
  8
0
 48
0.27
100
AcDbLine
 10
8.506962733287759
 20
0.6226764029869597
 30
0.0
 11
8.5764681558952
 21
1.22142503822797
 31
0.0
  0
LINE
  5
5BBE
330
5B4C
100
AcDbEntity
  8
0
 48
0.27
100
AcDbLine
 10
10.498515202502
 20
0.4369205724657334
 30
0.0
 11
10.54728756839702
 21
0.8570492893772179
 31
0.0
  0
LINE
  5
5BBF
330
5B4C
100
AcDbEntity
  8
0
 48
0.27
100
AcDbLine
 10
8.506962733287759
 20
-0.6226780729872436
 30
0.0
 11
8.483492545618222
 21
0.0
 31
0.0
  0
LINE
  5
5BC0
330
5B4C
100
AcDbEntity
  8
0
 48
0.27
100
AcDbLine
 10
10.498515202502
 20
-0.43692057246576
 30
0.0
 11
10.48204732712691
 21
0.0
 31
0.0
  0
LINE
  5
5BC1
330
5B4C
100
AcDbEntity
  8
0
 48
0.27
100
AcDbLine
 10
10.48204732712691
 20
0.0
 30
0.0
 11
10.498515202502
 21
0.4369205724657334
 31
0.0
  0
LINE
  5
5BC2
330
5B4C
100
AcDbEntity
  8
0
 48
0.27
100
AcDbLine
 10
8.483492545618222
 20
0.0
 30
0.0
 11
8.506962733287759
 21
0.6226764029869597
 31
0.0
  0
LINE
  5
5BC3
330
5B4C
100
AcDbEntity
  8
0
 48
0.27
100
AcDbLine
 10
7.854775750622538
 20
-2.392254069881414
 30
0.0
 11
7.918219071342568
 21
-2.434082573491797
 31
0.0
  0
LINE
  5
5BC4
330
5B4C
100
AcDbEntity
  8
0
 48
0.27
100
AcDbLine
 10
7.589122084133379
 20
-2.420106338907762
 30
0.0
 11
7.649564413727228
 21
-2.422673129836395
 31
0.0
  0
LINE
  5
5BC5
330
5B4C
100
AcDbEntity
  8
0
 48
0.27
100
AcDbLine
 10
7.854775750622538
 20
2.392252399881148
 30
0.0
 11
7.918219071342568
 21
2.434080903491487
 31
0.0
  0
LINE
  5
5BC6
330
5B4C
100
AcDbEntity
  8
中心線
 48
0.27
100
AcDbLine
 10
-0.0000000000000012
 20
-8.062501095937681
 30
0.0
 11
0.0000000000000001
 21
8.062501095937681
 31
0.0
  0
LINE
  5
5BC7
330
5B4C
100
AcDbEntity
  8
中心線
 48
0.27
100
AcDbLine
 10
13.69614757600664
 20
0.0
 30
0.0
 11
-8.062501095937681
 21
0.000000000000001
 31
0.0
  0
POINT
  5
5BC8
330
5B4C
100
AcDbEntity
  8
0
100
AcDbPoint
 10
12.19614757600664
 20
0.0000000000000001
 30
0.0
1001
pntflag
1000
endpoint
  0
ENDBLK
  5
5BCA
330
5B4C
100
AcDbEntity
  8
0
100
AcDbBlockEnd
  0
ENDSEC
  0
SECTION
  2
ENTITIES
  0
MTEXT
  5
413A
330
1E
100
AcDbEntity
  8
0
100
AcDbMText
 10
-50.19409552350566
 20
-28.70796974578121
 30
0.0
 40
7.800000159341863
 41
100.6094999999999
 71
     1
 72
     5
  1
\A1;{\fTimes New Roman|b0|i0|c0|p18;HGH55CA\PC : 11670 kgf\PC\fProxy 1|b0|i0|c0|p0;\H0.7x;\S^ 0;\fTimes New Roman|b0|i0|c0|p18;\H1.429x;: 23230 kgf}
 73
     1
 44
1.0
  0
LINE
  5
587E
330
1E
100
AcDbEntity
  8
0
 48
0.27
100
AcDbLine
 10
397.6874242696035
 20
-12.99788582233168
 30
0.0
 11
97.68742426960352
 21
-12.99788582233168
 31
0.0
  0
LINE
  5
587F
330
1E
100
AcDbEntity
  8
0
 48
0.27
100
AcDbLine
 10
397.6874242696034
 20
7.002114177668367
 30
0.0
 11
343.7342135766297
 21
7.002114177668374
 31
0.0
  0
LINE
  5
5880
330
1E
100
AcDbEntity
  8
0
 48
0.27
100
AcDbLine
 10
397.6874242696034
 20
13.00211417766827
 30
0.0
 11
343.7342135766297
 21
13.00211417766831
 31
0.0
  0
LINE
  5
5881
330
1E
100
AcDbEntity
  8
0
 48
0.27
100
AcDbLine
 10
397.6874242696034
 20
14.49024302686583
 30
0.0
 11
343.7342135766297
 21
14.49024302686586
 31
0.0
  0
LINE
  5
5882
330
1E
100
AcDbEntity
  8
0
 48
0.27
100
AcDbLine
 10
397.6874242696034
 20
18.36795887222121
 30
0.0
 11
343.7342135766297
 21
18.36795887222121
 31
0.0
  0
LINE
  5
5883
330
1E
100
AcDbEntity
  8
0
 48
0.27
100
AcDbLine
 10
397.6874242696034
 20
20.802119727399
 30
0.0
 11
343.7342135766297
 21
20.80211972739897
 31
0.0
  0
LINE
  5
5884
330
1E
100
AcDbEntity
  8
0
 48
0.27
100
AcDbLine
 10
397.6874242696034
 20
23.70209317766835
 30
0.0
 11
343.7342135766297
 21
23.70209317766835
 31
0.0
  0
LINE
  5
5885
330
1E
100
AcDbEntity
  8
0
 48
0.27
100
AcDbLine
 10
397.6874242696034
 20
26.13506501485453
 30
0.0
 11
343.7342135766297
 21
26.13506501485455
 31
0.0
  0
LINE
  5
5886
330
1E
100
AcDbEntity
  8
0
 48
0.27
100
AcDbLine
 10
397.6874242696034
 20
30.01414946612973
 30
0.0
 11
343.7342135766297
 21
30.01414946612971
 31
0.0
  0
LINE
  5
5887
330
1E
100
AcDbEntity
  8
0
 48
0.27
100
AcDbLine
 10
397.6874242696035
 20
-10.69787822632696
 30
0.0
 11
167.9134385163338
 21
-10.69787822632695
 31
0.0
  0
LINE
  5
5888
330
1E
100
AcDbEntity
  8
0
 48
0.27
100
AcDbLine
 10
397.6874242696035
 20
-0.7978868623317652
 30
0.0
 11
168.534951846307
 21
-0.7978868623316587
 31
0.0
  0
LINE
  5
5889
330
1E
100
AcDbEntity
  8
0
 48
0.27
100
AcDbLine
 10
397.6874242696034
 20
31.00211417766838
 30
0.0
 11
343.7342135766297
 21
31.00211417766832
 31
0.0
  0
LINE
  5
588A
330
1E
100
AcDbEntity
  8
中心線
 48
0.27
100
AcDbLine
 10
247.6874242696035
 20
-14.84921539616578
 30
0.0
 11
247.6874242696035
 21
1.405541390684788
 31
0.0
  0
LINE
  5
5899
330
1E
100
AcDbEntity
  8
中心線
 48
0.27
100
AcDbLine
 10
367.6874242696035
 20
-14.84921539616578
 30
0.0
 11
367.6874242696035
 21
33.46265624092308
 31
0.0
  0
LINE
  5
589A
330
1E
100
AcDbEntity
  8
中心線
 48
0.27
100
AcDbLine
 10
127.6874242696035
 20
-14.84921539616578
 30
0.0
 11
127.6874242696035
 21
33.46265624092308
 31
0.0
  0
LINE
  5
589B
330
1E
100
AcDbEntity
  8
0
 48
0.27
100
AcDbLine
 10
397.6874242696035
 20
-12.99788582233168
 30
0.0
 11
397.6874242696034
 21
31.00211417766843
 31
0.0
  0
LINE
  5
589C
330
1E
100
AcDbEntity
  8
0
 48
0.27
100
AcDbLine
 10
97.68742426960352
 20
-12.99788582233168
 30
0.0
 11
97.68742426960352
 21
31.00211417766814
 31
0.0
  0
LINE
  5
589D
330
1E
100
AcDbEntity
  8
0
 48
0.27
100
AcDbLine
 10
139.1874242696037
 20
11.00211417766837
 30
0.0
 11
139.1874242696037
 21
30.60211417766834
 31
0.0
  0
LINE
  5
589E
330
1E
100
AcDbEntity
  8
0
 48
0.27
100
AcDbLine
 10
116.1874242696037
 20
11.00211417766837
 30
0.0
 11
116.1874242696037
 21
30.60211417766834
 31
0.0
  0
LINE
  5
589F
330
1E
100
AcDbEntity
  8
0
 48
0.27
100
AcDbLine
 10
135.6874242696037
 20
10.50211417766837
 30
0.0
 11
119.6874242696037
 21
10.50211417766837
 31
0.0
  0
LINE
  5
58A0
330
1E
100
AcDbEntity
  8
0
 48
0.27
100
AcDbLine
 10
139.1874242696037
 20
11.00211417766837
 30
0.0
 11
116.1874242696037
 21
11.00211417766837
 31
0.0
  0
LINE
  5
58A1
330
1E
100
AcDbEntity
  8
0
 48
0.27
100
AcDbLine
 10
119.6874242696037
 20
-12.49788582233156
 30
0.0
 11
119.6874242696037
 21
10.50211417766837
 31
0.0
  0
LINE
  5
58A2
330
1E
100
AcDbEntity
  8
0
 48
0.27
100
AcDbLine
 10
119.1874242696037
 20
11.00211417766837
 30
0.0
 11
119.6874242696037
 21
10.50211417766837
 31
0.0
  0
LINE
  5
58A3
330
1E
100
AcDbEntity
  8
0
 48
0.27
100
AcDbLine
 10
135.6874242696037
 20
-12.49788582233156
 30
0.0
 11
135.6874242696037
 21
10.50211417766837
 31
0.0
  0
LINE
  5
58A4
330
1E
100
AcDbEntity
  8
0
 48
0.27
100
AcDbLine
 10
135.6874242696037
 20
10.50211417766837
 30
0.0
 11
136.1874242696037
 21
11.00211417766837
 31
0.0
  0
LINE
  5
58A5
330
1E
100
AcDbEntity
  8
0
 48
0.27
100
AcDbLine
 10
139.1874242696037
 20
30.60211417766834
 30
0.0
 11
116.1874242696037
 21
30.60211417766834
 31
0.0
  0
LINE
  5
58A6
330
1E
100
AcDbEntity
  8
0
 48
0.27
100
AcDbLine
 10
139.1874242696037
 20
30.60211417766834
 30
0.0
 11
139.4183643772794
 21
31.0021141776682
 31
0.0
  0
LINE
  5
58A7
330
1E
100
AcDbEntity
  8
0
 48
0.27
100
AcDbLine
 10
115.956484161928
 20
31.00211417766814
 30
0.0
 11
116.1874242696037
 21
30.60211417766834
 31
0.0
  0
LINE
  5
58A8
330
1E
100
AcDbEntity
  8
0
 48
0.27
100
AcDbLine
 10
119.6874242696037
 20
-12.49788582233156
 30
0.0
 11
135.6874242696037
 21
-12.49788582233156
 31
0.0
  0
LINE
  5
58A9
330
1E
100
AcDbEntity
  8
0
 48
0.27
100
AcDbLine
 10
136.1874242696037
 20
-12.99788582233168
 30
0.0
 11
135.6874242696037
 21
-12.49788582233156
 31
0.0
  0
LINE
  5
58AA
330
1E
100
AcDbEntity
  8
0
 48
0.27
100
AcDbLine
 10
119.1874242696035
 20
-12.99788582233162
 30
0.0
 11
119.6874242696037
 21
-12.49788582233156
 31
0.0
  0
LINE
  5
58AB
330
1E
100
AcDbEntity
  8
建構線
 48
0.27
100
AcDbLine
 10
167.7350828838997
 20
31.0021141776682
 30
0.0
 11
166.5893650331106
 21
27.92531372494858
 31
0.0
  0
LINE
  5
58AC
330
1E
100
AcDbEntity
  8
建構線
 48
0.27
100
AcDbLine
 10
166.5893650331106
 20
27.92531372494858
 30
0.0
 11
169.312472494621
 21
21.84294533379239
 31
0.0
  0
LINE
  5
58AD
330
1E
100
AcDbEntity
  8
建構線
 48
0.27
100
AcDbLine
 10
169.312472494621
 20
21.84294533379239
 30
0.0
 11
166.7495474288613
 21
11.43889424294764
 31
0.0
  0
LINE
  5
58AE
330
1E
100
AcDbEntity
  8
建構線
 48
0.27
100
AcDbLine
 10
166.7495474288613
 20
11.43889424294764
 30
0.0
 11
170.1133869985301
 21
3.435777598993759
 31
0.0
  0
LINE
  5
58AF
330
1E
100
AcDbEntity
  8
建構線
 48
0.27
100
AcDbLine
 10
170.1133869985301
 20
3.435777598993759
 30
0.0
 11
167.0699130620813
 21
-4.727400613025729
 31
0.0
  0
LINE
  5
58B0
330
1E
100
AcDbEntity
  8
建構線
 48
0.27
100
AcDbLine
 10
167.0699130620813
 20
-4.727400613025729
 30
0.0
 11
168.2383898984278
 21
-12.99788582233168
 31
0.0
  0
LINE
  5
58B1
330
1E
100
AcDbEntity
  8
虛線
 48
0.27
100
AcDbLine
 10
255.6874242696037
 20
-12.49788582233156
 30
0.0
 11
255.6874242696037
 21
0.0
 31
0.0
  0
LINE
  5
58B2
330
1E
100
AcDbEntity
  8
虛線
 48
0.27
100
AcDbLine
 10
239.6874242696037
 20
-12.49788582233156
 30
0.0
 11
239.6874242696037
 21
0.0
 31
0.0
  0
LINE
  5
58BC
330
1E
100
AcDbEntity
  8
虛線
 48
0.27
100
AcDbLine
 10
239.6874242696037
 20
-12.49788582233156
 30
0.0
 11
255.6874242696037
 21
-12.49788582233156
 31
0.0
  0
LINE
  5
58BD
330
1E
100
AcDbEntity
  8
虛線
 48
0.27
100
AcDbLine
 10
256.1874242696037
 20
-12.99788582233168
 30
0.0
 11
255.6874242696037
 21
-12.49788582233156
 31
0.0
  0
LINE
  5
58BE
330
1E
100
AcDbEntity
  8
虛線
 48
0.27
100
AcDbLine
 10
239.1874242696035
 20
-12.99788582233162
 30
0.0
 11
239.6874242696037
 21
-12.49788582233156
 31
0.0
  0
LINE
  5
58BF
330
1E
100
AcDbEntity
  8
虛線
 48
0.27
100
AcDbLine
 10
375.6874242696036
 20
-12.49788582233156
 30
0.0
 11
375.6874242696036
 21
10.50211417766837
 31
0.0
  0
LINE
  5
58C0
330
1E
100
AcDbEntity
  8
虛線
 48
0.27
100
AcDbLine
 10
359.6874242696036
 20
-12.49788582233156
 30
0.0
 11
359.6874242696036
 21
10.50211417766837
 31
0.0
  0
LINE
  5
58C1
330
1E
100
AcDbEntity
  8
虛線
 48
0.27
100
AcDbLine
 10
356.1874242696036
 20
11.00211417766837
 30
0.0
 11
356.1874242696036
 21
30.60211417766834
 31
0.0
  0
LINE
  5
58C2
330
1E
100
AcDbEntity
  8
虛線
 48
0.27
100
AcDbLine
 10
379.1874242696036
 20
11.00211417766837
 30
0.0
 11
379.1874242696036
 21
30.60211417766834
 31
0.0
  0
LINE
  5
58C3
330
1E
100
AcDbEntity
  8
虛線
 48
0.27
100
AcDbLine
 10
379.1874242696036
 20
11.00211417766837
 30
0.0
 11
356.1874242696036
 21
11.00211417766837
 31
0.0
  0
LINE
  5
58C4
330
1E
100
AcDbEntity
  8
虛線
 48
0.27
100
AcDbLine
 10
375.6874242696036
 20
10.50211417766837
 30
0.0
 11
359.6874242696036
 21
10.50211417766837
 31
0.0
  0
LINE
  5
58C5
330
1E
100
AcDbEntity
  8
虛線
 48
0.27
100
AcDbLine
 10
359.1874242696036
 20
11.00211417766837
 30
0.0
 11
359.6874242696036
 21
10.50211417766837
 31
0.0
  0
LINE
  5
58C6
330
1E
100
AcDbEntity
  8
虛線
 48
0.27
100
AcDbLine
 10
375.6874242696036
 20
10.50211417766837
 30
0.0
 11
376.1874242696036
 21
11.00211417766837
 31
0.0
  0
LINE
  5
58C7
330
1E
100
AcDbEntity
  8
虛線
 48
0.27
100
AcDbLine
 10
379.1874242696036
 20
30.60211417766834
 30
0.0
 11
356.1874242696036
 21
30.60211417766834
 31
0.0
  0
LINE
  5
58C8
330
1E
100
AcDbEntity
  8
虛線
 48
0.27
100
AcDbLine
 10
379.1874242696036
 20
30.60211417766834
 30
0.0
 11
379.4183643772793
 21
31.0021141776682
 31
0.0
  0
LINE
  5
58C9
330
1E
100
AcDbEntity
  8
虛線
 48
0.27
100
AcDbLine
 10
355.9564841619279
 20
31.00211417766814
 30
0.0
 11
356.1874242696036
 21
30.60211417766834
 31
0.0
  0
LINE
  5
58CA
330
1E
100
AcDbEntity
  8
虛線
 48
0.27
100
AcDbLine
 10
359.6874242696036
 20
-12.49788582233156
 30
0.0
 11
375.6874242696036
 21
-12.49788582233156
 31
0.0
  0
LINE
  5
58CB
330
1E
100
AcDbEntity
  8
虛線
 48
0.27
100
AcDbLine
 10
376.1874242696036
 20
-12.99788582233168
 30
0.0
 11
375.6874242696036
 21
-12.49788582233156
 31
0.0
  0
LINE
  5
58CC
330
1E
100
AcDbEntity
  8
虛線
 48
0.27
100
AcDbLine
 10
359.1874242696036
 20
-12.99788582233162
 30
0.0
 11
359.6874242696036
 21
-12.49788582233156
 31
0.0
  0
LINE
  5
58E6
330
1E
100
AcDbEntity
  8
0
 48
0.27
100
AcDbLine
 10
178.0342135766301
 20
30.01414946612966
 30
0.0
 11
167.3671913604312
 21
30.01414946612966
 31
0.0
  0
LINE
  5
58E7
330
1E
100
AcDbEntity
  8
0
 48
0.27
100
AcDbLine
 10
178.0342135766301
 20
31.00211417766823
 30
0.0
 11
97.68742426960352
 21
31.00211417766814
 31
0.0
  0
LINE
  5
58E8
330
1E
100
AcDbEntity
  8
0
 48
0.27
100
AcDbLine
 10
178.0342135766301
 20
26.13506501485455
 30
0.0
 11
167.3908685440628
 21
26.13506501485455
 31
0.0
  0
LINE
  5
58E9
330
1E
100
AcDbEntity
  8
0
 48
0.27
100
AcDbLine
 10
178.0342135766301
 20
23.70209317766836
 30
0.0
 11
168.4801224888123
 21
23.70209317766836
 31
0.0
  0
LINE
  5
58EA
330
1E
100
AcDbEntity
  8
0
 48
0.27
100
AcDbLine
 10
178.0342135766301
 20
20.80211972739893
 30
0.0
 11
169.0560764030968
 21
20.80211972739892
 31
0.0
  0
LINE
  5
58EB
330
1E
100
AcDbEntity
  8
0
 48
0.27
100
AcDbLine
 10
178.0342135766301
 20
18.36795887222121
 30
0.0
 11
168.4564472956123
 21
18.36795887222121
 31
0.0
  0
LINE
  5
58EC
330
1E
100
AcDbEntity
  8
0
 48
0.27
100
AcDbLine
 10
178.0342135766301
 20
14.49024302686591
 30
0.0
 11
167.5012140839357
 21
14.49024302686593
 31
0.0
  0
LINE
  5
58ED
330
1E
100
AcDbEntity
  8
0
 48
0.27
100
AcDbLine
 10
178.0342135766301
 20
13.00211417766836
 30
0.0
 11
167.134629693357
 21
13.00211417766838
 31
0.0
  0
LINE
  5
58EE
330
1E
100
AcDbEntity
  8
0
 48
0.27
100
AcDbLine
 10
178.0342135766301
 20
7.002114177668381
 30
0.0
 11
168.6143979626567
 21
7.002114177668381
 31
0.0
  0
LINE
  5
58EF
330
1E
100
AcDbEntity
  8
虛線
 48
0.27
100
AcDbLine
 10
-11.50165346888523
 20
30.60211417766834
 30
0.0
 11
11.49834653111476
 21
30.60211417766831
 31
0.0
  0
LINE
  5
58F0
330
1E
100
AcDbEntity
  8
虛線
 48
0.27
100
AcDbLine
 10
-11.50165346888529
 20
11.00211417766837
 30
0.0
 11
11.4983465311147
 21
11.00211417766834
 31
0.0
  0
LINE
  5
58F1
330
1E
100
AcDbEntity
  8
0
 48
0.27
100
AcDbLine
 10
-10.80165346888541
 20
-11.99788600233159
 30
0.0
 11
-9.801652595325307
 21
-12.99788582233171
 31
0.0
  0
LINE
  5
58F2
330
1E
100
AcDbEntity
  8
0
 48
0.27
100
AcDbLine
 10
19.48645840280006
 20
30.96775740108316
 30
0.0
 11
-19.48645840269999
 21
30.96775740108322
 31
0.0
  0
SPLINE
  5
58F3
330
1E
100
AcDbEntity
  8
0
 48
0.27
100
AcDbSpline
210
0.0
220
0.0
230
1.0
 70
     8
 71
     3
 72
    14
 73
    10
 74
     8
 42
0.0000000001
 43
0.0000000001
 44
0.0000000001
 40
0.0
 40
0.0
 40
0.0
 40
0.0
 40
1.00337480073276
 40
2.010676408934169
 40
3.010409172923154
 40
4.019215736320203
 40
5.018979127688075
 40
6.025582519230534
 40
7.028797203493663
 40
7.028797203493663
 40
7.028797203493663
 40
7.028797203493663
 10
-24.68344966210001
 20
18.73150760978322
 30
0.0
 10
-24.3504225476408
 20
18.68976125873852
 30
0.0
 10
-23.6830649838575
 20
18.60610517813597
 30
0.0
 10
-22.74301371739081
 20
18.22507767346205
 30
0.0
 10
-21.89609970539984
 20
17.67369405489782
 30
0.0
 10
-21.18121976754071
 20
16.95869272325608
 30
0.0
 10
-20.63010435852171
 20
16.11186867297276
 30
0.0
 10
-20.2492907439294
 20
15.17204749973173
 30
0.0
 10
-20.16567798807206
 20
14.50497428544801
 30
0.0
 10
-20.12394209890003
 20
14.17200004658323
 30
0.0
 11
-24.68344966210001
 21
18.73150760978322
 31
0.0
 11
-23.69420224259993
 21
18.56372640178327
 31
0.0
 11
-22.75654729169996
 21
18.19567786838322
 31
0.0
 11
-21.92013763539994
 21
17.64806077018309
 31
0.0
 11
-21.20686438709985
 21
16.93466609988311
 31
0.0
 11
-20.65937553289999
 21
16.09813588928321
 31
0.0
 11
-20.29168024670006
 21
15.16109236608318
 31
0.0
 11
-20.12394209890003
 21
14.17200004658323
 31
0.0
  0
SPLINE
  5
58F4
330
1E
100
AcDbEntity
  8
0
 48
0.27
100
AcDbSpline
210
0.0
220
0.0
230
1.0
 70
     8
 71
     3
 72
    14
 73
    10
 74
     8
 42
0.0000000001
 43
0.0000000001
 44
0.0000000001
 40
0.0
 40
0.0
 40
0.0
 40
0.0
 40
1.00337480073276
 40
2.010676408934169
 40
3.01040917306153
 40
4.019215736458418
 40
5.018979127771629
 40
6.025582519221103
 40
7.028797203484325
 40
7.028797203484325
 40
7.028797203484325
 40
7.028797203484325
 10
-20.12394209890003
 20
30.32889937098323
 30
0.0
 10
-20.16568844994536
 20
29.99587225652454
 30
0.0
 10
-20.24934453054918
 20
29.32851469274231
 30
0.0
 10
-20.63037203523104
 20
28.38846342622444
 30
0.0
 10
-21.18175565386854
 20
27.54154941423135
 30
0.0
 10
-21.89675698549243
 20
26.82666947630558
 30
0.0
 10
-22.74358103582213
 20
26.27555406745045
 30
0.0
 10
-23.68340220897291
 20
25.89474045278862
 30
0.0
 10
-24.35047542323207
 20
25.81112769694859
 30
0.0
 10
-24.68344966210001
 20
25.76939180778325
 30
0.0
 11
-20.12394209890003
 21
30.32889937098323
 31
0.0
 11
-20.29172330689998
 21
29.33965195148314
 31
0.0
 11
-20.65977184030002
 21
28.40199700058318
 31
0.0
 11
-21.20738893859997
 21
27.56558734418311
 31
0.0
 11
-21.92078360889995
 21
26.85231409588325
 31
0.0
 11
-22.75731381949985
 21
26.30482524178322
 31
0.0
 11
-23.69435734259995
 21
25.93712995558317
 31
0.0
 11
-24.68344966210001
 21
25.76939180778325
 31
0.0
  0
LINE
  5
58F5
330
1E
100
AcDbEntity
  8
0
 48
0.27
100
AcDbLine
 10
-18.96730769230002
 20
6.986908111583176
 30
0.0
 11
-26.50165346888552
 21
-0.5474376651100883
 31
0.0
  0
LINE
  5
58F6
330
1E
100
AcDbEntity
  8
0
 48
0.27
100
AcDbLine
 10
-26.50165346888546
 20
-10.99787722236831
 30
0.0
 11
-26.50165346888551
 21
-0.5474376651100883
 31
0.0
  0
LINE
  5
58F7
330
1E
100
AcDbEntity
  8
0
 48
0.27
100
AcDbLine
 10
-26.50165346888546
 20
-10.99787722236831
 30
0.0
 11
-24.50163817581425
 21
-12.99788582233162
 31
0.0
  0
LINE
  5
58F8
330
1E
100
AcDbEntity
  8
0
 48
0.27
100
AcDbLine
 10
-10.80165364888556
 20
-11.99788582233156
 30
0.0
 11
-18.00165346888535
 21
-11.99788582233153
 31
0.0
  0
LINE
  5
58F9
330
1E
100
AcDbEntity
  8
0
 48
0.27
100
AcDbLine
 10
-18.00165346888535
 20
-11.99788618233159
 30
0.0
 11
-19.00165167962028
 21
-12.99788582233162
 31
0.0
  0
LINE
  5
58FA
330
1E
100
AcDbEntity
  8
0
 48
0.27
100
AcDbLine
 10
-19.00165167962028
 20
-12.99788582233162
 30
0.0
 11
-24.50163817581425
 21
-12.99788582233162
 31
0.0
  0
LINE
  5
58FB
330
1E
100
AcDbEntity
  8
虛線
 48
0.27
100
AcDbLine
 10
-11.50165346888529
 20
11.00211417766837
 30
0.0
 11
-11.50165346888523
 21
30.60211417766834
 31
0.0
  0
LINE
  5
58FC
330
1E
100
AcDbEntity
  8
0
 48
0.27
100
AcDbLine
 10
-18.96730769230002
 20
6.986908111583176
 30
0.0
 11
-18.96730769230002
 21
13.01399130598318
 31
0.0
  0
LINE
  5
58FD
330
1E
100
AcDbEntity
  8
0
 48
0.27
100
AcDbLine
 10
-18.96730769230002
 20
13.01399130598318
 30
0.0
 11
-20.12491879669987
 21
14.17160241048319
 31
0.0
  0
LINE
  5
58FE
330
1E
100
AcDbEntity
  8
0
 48
0.27
100
AcDbLine
 10
-26.46730769230002
 20
20.51399130598318
 30
0.0
 11
-24.68384729829999
 21
18.73053091198315
 31
0.0
  0
LINE
  5
58FF
330
1E
100
AcDbEntity
  8
0
 48
0.27
100
AcDbLine
 10
-24.68384729829999
 20
25.77036850558309
 30
0.0
 11
-26.46730769230002
 21
23.98690811158317
 31
0.0
  0
LINE
  5
5900
330
1E
100
AcDbEntity
  8
0
 48
0.27
100
AcDbLine
 10
-26.46730769230002
 20
23.98690811158317
 30
0.0
 11
-26.46730769230002
 21
20.51399130598318
 31
0.0
  0
LINE
  5
5901
330
1E
100
AcDbEntity
  8
0
 48
0.27
100
AcDbLine
 10
-19.48645840269999
 20
30.96775740108322
 30
0.0
 11
-20.12491879669987
 21
30.32929700708317
 31
0.0
  0
LINE
  5
5902
330
1E
100
AcDbEntity
  8
虛線
 48
0.27
100
AcDbLine
 10
-11.50165346888523
 20
30.60211417766834
 30
0.0
 11
-11.71275768235112
 21
30.96775740108319
 31
0.0
  0
SPLINE
  5
5903
330
1E
100
AcDbEntity
  8
0
 48
0.27
100
AcDbSpline
210
0.0
220
0.0
230
1.0
 70
     8
 71
     3
 72
    14
 73
    10
 74
     8
 42
0.0000000001
 43
0.0000000001
 44
0.0000000001
 40
0.0
 40
0.0
 40
0.0
 40
0.0
 40
1.003374800732536
 40
2.010676408934134
 40
3.010409173061276
 40
4.019215736458486
 40
5.018979127771697
 40
6.025582519220917
 40
7.028797203484383
 40
7.028797203484383
 40
7.028797203484383
 40
7.028797203484383
 10
20.12394209899999
 20
14.17200004658317
 30
0.0
 10
20.16568845004531
 20
14.50502716104179
 30
0.0
 10
20.24934453064912
 20
15.17238472482403
 30
0.0
 10
20.63037203533126
 20
16.11243599134168
 30
0.0
 10
21.18175565396855
 20
16.95935000333501
 30
0.0
 10
21.89675698559255
 20
17.67422994126075
 30
0.0
 10
22.74358103592224
 20
18.22534535011593
 30
0.0
 10
23.68340220907303
 20
18.60615896477768
 30
0.0
 10
24.35047542333219
 20
18.68977172061778
 30
0.0
 10
24.6834496622002
 20
18.73150760978316
 30
0.0
 11
20.12394209899999
 21
14.17200004658317
 31
0.0
 11
20.29172330699994
 21
15.16124746608304
 31
0.0
 11
20.65977184040021
 21
16.09890241698312
 31
0.0
 11
21.20738893869993
 21
16.93531207338307
 31
0.0
 11
21.92078360900013
 21
17.64858532168315
 31
0.0
 11
22.75731381960004
 21
18.19607417578319
 31
0.0
 11
23.69435734269991
 21
18.56376946198312
 31
0.0
 11
24.6834496622002
 21
18.73150760978316
 31
0.0
  0
SPLINE
  5
5904
330
1E
100
AcDbEntity
  8
0
 48
0.27
100
AcDbSpline
210
0.0
220
0.0
230
1.0
 70
     8
 71
     3
 72
    14
 73
    10
 74
     8
 42
0.0000000001
 43
0.0000000001
 44
0.0000000001
 40
0.0
 40
0.0
 40
0.0
 40
0.0
 40
1.003374800732984
 40
2.010676408934182
 40
3.010409172977842
 40
4.019215736304143
 40
5.018979127672206
 40
6.025582519214641
 40
7.028797203477883
 40
7.028797203477883
 40
7.028797203477883
 40
7.028797203477883
 10
24.6834496622002
 20
25.76939180778319
 30
0.0
 10
24.35042254774263
 20
25.8111381588303
 30
0.0
 10
23.68306498396277
 20
25.89479423943765
 30
0.0
 10
22.74301371745309
 20
26.27582174408213
 30
0.0
 10
21.8960997055676
 20
26.82720536278619
 30
0.0
 10
21.18121976760388
 20
27.54220669430372
 30
0.0
 10
20.63010435862846
 20
28.38903074460067
 30
0.0
 10
20.24929074402766
 20
29.32885191783281
 30
0.0
 10
20.16567798817146
 20
29.99592513211776
 30
0.0
 10
20.12394209899999
 20
30.32889937098318
 30
0.0
 11
24.6834496622002
 21
25.76939180778319
 31
0.0
 11
23.69420224269988
 21
25.93717301578314
 31
0.0
 11
22.75654729180014
 21
26.30522154918319
 31
0.0
 11
21.92013763550012
 21
26.85283864748313
 31
0.0
 11
21.20686438720004
 21
27.56623331768307
 31
0.0
 11
20.65937553300018
 21
28.4027635282832
 31
0.0
 11
20.29168024680002
 21
29.33980705148312
 31
0.0
 11
20.12394209899999
 21
30.32889937098318
 31
0.0
  0
LINE
  5
5905
330
1E
100
AcDbEntity
  8
中心線
 48
0.27
100
AcDbLine
 10
-0.0016534688852886
 20
32.96775740108319
 30
0.0
 11
-0.0016534688853511
 21
-14.99788582233156
 31
0.0
  0
LINE
  5
5906
330
1E
100
AcDbEntity
  8
虛線
 48
0.27
100
AcDbLine
 10
-8.001653468885351
 20
-12.49788582233159
 30
0.0
 11
-8.001653468885294
 21
10.50211417766837
 31
0.0
  0
LINE
  5
5907
330
1E
100
AcDbEntity
  8
虛線
 48
0.27
100
AcDbLine
 10
7.998346531114648
 20
-12.49788582233162
 30
0.0
 11
7.998346531114705
 21
10.50211417766834
 31
0.0
  0
LINE
  5
5908
330
1E
100
AcDbEntity
  8
0
 48
0.27
100
AcDbLine
 10
18.96730769240021
 20
6.986908111583119
 30
0.0
 11
26.4983465311147
 21
-0.544130727239363
 31
0.0
  0
LINE
  5
5909
330
1E
100
AcDbEntity
  8
0
 48
0.27
100
AcDbLine
 10
24.49833123804343
 20
-12.99788582233168
 30
0.0
 11
18.99834474184935
 21
-12.99788582233168
 31
0.0
  0
LINE
  5
590A
330
1E
100
AcDbEntity
  8
虛線
 48
0.27
100
AcDbLine
 10
7.998346531114648
 20
-12.49788582233162
 30
0.0
 11
-8.001653468885351
 21
-12.49788582233159
 31
0.0
  0
LINE
  5
590B
330
1E
100
AcDbEntity
  8
0
 48
0.27
100
AcDbLine
 10
9.798345657554946
 20
-12.99788582233171
 30
0.0
 11
-9.801652595325307
 21
-12.99788582233171
 31
0.0
  0
LINE
  5
590C
330
1E
100
AcDbEntity
  8
虛線
 48
0.27
100
AcDbLine
 10
-8.501653468885351
 20
-12.99788582233168
 30
0.0
 11
-8.001653468885351
 21
-12.49788582233159
 31
0.0
  0
LINE
  5
590D
330
1E
100
AcDbEntity
  8
0
 48
0.27
100
AcDbLine
 10
17.99834653111465
 20
-11.99788582233159
 30
0.0
 11
10.79834671111474
 21
-11.99788582233159
 31
0.0
  0
LINE
  5
590E
330
1E
100
AcDbEntity
  8
虛線
 48
0.27
100
AcDbLine
 10
8.498346531114762
 20
-12.99788582233168
 30
0.0
 11
7.998346531114648
 21
-12.49788582233162
 31
0.0
  0
LINE
  5
590F
330
1E
100
AcDbEntity
  8
0
 48
0.27
100
AcDbLine
 10
10.7983465311146
 20
-11.99788600233162
 30
0.0
 11
9.798345657554946
 21
-12.99788582233171
 31
0.0
  0
LINE
  5
5910
330
1E
100
AcDbEntity
  8
0
 48
0.27
100
AcDbLine
 10
17.99834653111465
 20
-11.99788618233165
 30
0.0
 11
18.99834474184935
 21
-12.99788582233168
 31
0.0
  0
LINE
  5
5911
330
1E
100
AcDbEntity
  8
0
 48
0.27
100
AcDbLine
 10
26.4983465311147
 20
-0.544130727239363
 30
0.0
 11
26.49834653111465
 21
-10.99787722236877
 31
0.0
  0
LINE
  5
5912
330
1E
100
AcDbEntity
  8
0
 48
0.27
100
AcDbLine
 10
26.49834653111465
 20
-10.99787722236877
 30
0.0
 11
24.49833123804343
 21
-12.99788582233168
 31
0.0
  0
LINE
  5
5913
330
1E
100
AcDbEntity
  8
虛線
 48
0.27
100
AcDbLine
 10
11.4983465311147
 20
11.00211417766834
 30
0.0
 11
11.49834653111476
 21
30.60211417766831
 31
0.0
  0
LINE
  5
5914
330
1E
100
AcDbEntity
  8
0
 48
0.27
100
AcDbLine
 10
18.96730769240021
 20
13.01399130598312
 30
0.0
 11
20.12491879680005
 21
14.17160241048313
 31
0.0
  0
LINE
  5
5915
330
1E
100
AcDbEntity
  8
虛線
 48
0.27
100
AcDbLine
 10
-8.001653468885294
 20
10.50211417766837
 30
0.0
 11
7.998346531114705
 21
10.50211417766834
 31
0.0
  0
LINE
  5
5916
330
1E
100
AcDbEntity
  8
虛線
 48
0.27
100
AcDbLine
 10
-8.001653468885294
 20
10.50211417766837
 30
0.0
 11
-8.501653468885294
 21
11.00211417766837
 31
0.0
  0
LINE
  5
5917
330
1E
100
AcDbEntity
  8
0
 48
0.27
100
AcDbLine
 10
18.96730769240021
 20
13.01399130598312
 30
0.0
 11
18.96730769240021
 21
6.986908111583119
 31
0.0
  0
LINE
  5
5918
330
1E
100
AcDbEntity
  8
虛線
 48
0.27
100
AcDbLine
 10
8.498346531114705
 20
11.00211417766834
 30
0.0
 11
7.998346531114705
 21
10.50211417766834
 31
0.0
  0
LINE
  5
5919
330
1E
100
AcDbEntity
  8
0
 48
0.27
100
AcDbLine
 10
26.46730769240021
 20
23.98690811158309
 30
0.0
 11
24.68384729840018
 21
25.77036850558303
 31
0.0
  0
LINE
  5
591A
330
1E
100
AcDbEntity
  8
0
 48
0.27
100
AcDbLine
 10
26.46730769240021
 20
20.51399130598309
 30
0.0
 11
26.46730769240021
 21
23.98690811158309
 31
0.0
  0
LINE
  5
591B
330
1E
100
AcDbEntity
  8
0
 48
0.27
100
AcDbLine
 10
24.68384729840018
 20
18.73053091198309
 30
0.0
 11
26.46730769240021
 21
20.51399130598309
 31
0.0
  0
LINE
  5
591C
330
1E
100
AcDbEntity
  8
0
 48
0.27
100
AcDbLine
 10
20.12491879680005
 20
30.32929700708311
 30
0.0
 11
19.48645840280006
 21
30.96775740108316
 31
0.0
  0
LINE
  5
591D
330
1E
100
AcDbEntity
  8
虛線
 48
0.27
100
AcDbLine
 10
11.70945074458059
 20
30.96775740108316
 30
0.0
 11
11.49834653111476
 21
30.60211417766831
 31
0.0
  0
LINE
  5
591E
330
1E
100
AcDbEntity
  8
0
 48
0.27
100
AcDbLine
 10
-9.999539291217146
 20
67.00000000000011
 30
0.0
 11
-10.99953929121714
 21
66.00000000000005
 31
0.0
  0
LINE
  5
591F
330
1E
100
AcDbEntity
  8
0
 48
0.27
100
AcDbLine
 10
-20.70121933079984
 20
33.9004497087831
 30
0.0
 11
20.70121933090014
 21
33.90044970878304
 31
0.0
  0
LINE
  5
5920
330
1E
100
AcDbEntity
  8
0
 48
0.27
100
AcDbLine
 10
19.48645840280006
 20
30.96775740108316
 30
0.0
 11
-19.48645840269999
 21
30.96775740108322
 31
0.0
  0
LINE
  5
5921
330
1E
100
AcDbEntity
  8
0
 48
0.27
100
AcDbLine
 10
-20.18345237789979
 20
32.6504497087831
 30
0.0
 11
20.18345237800009
 21
32.65044970878304
 31
0.0
  0
LINE
  5
5922
330
1E
100
AcDbEntity
  8
0
 48
0.27
100
AcDbLine
 10
-45.49999999999998
 20
55.50044970878326
 30
0.0
 11
45.50000000000024
 21
55.50044970878315
 31
0.0
  0
SPLINE
  5
5923
330
1E
100
AcDbEntity
  8
0
 48
0.27
100
AcDbSpline
210
0.0
220
0.0
230
1.0
 70
     8
 71
     3
 72
    14
 73
    10
 74
     8
 42
0.0000000001
 43
0.0000000001
 44
0.0000000001
 40
0.0
 40
0.0
 40
0.0
 40
0.0
 40
1.00337480073276
 40
2.010676408934169
 40
3.010409172923154
 40
4.019215736320203
 40
5.018979127688075
 40
6.025582519230534
 40
7.028797203493663
 40
7.028797203493663
 40
7.028797203493663
 40
7.028797203493663
 10
-24.68344966210001
 20
18.73150760978322
 30
0.0
 10
-24.3504225476408
 20
18.68976125873852
 30
0.0
 10
-23.6830649838575
 20
18.60610517813597
 30
0.0
 10
-22.74301371739081
 20
18.22507767346205
 30
0.0
 10
-21.89609970539984
 20
17.67369405489782
 30
0.0
 10
-21.18121976754071
 20
16.95869272325608
 30
0.0
 10
-20.63010435852171
 20
16.11186867297276
 30
0.0
 10
-20.2492907439294
 20
15.17204749973173
 30
0.0
 10
-20.16567798807206
 20
14.50497428544801
 30
0.0
 10
-20.12394209890003
 20
14.17200004658323
 30
0.0
 11
-24.68344966210001
 21
18.73150760978322
 31
0.0
 11
-23.69420224259993
 21
18.56372640178327
 31
0.0
 11
-22.75654729169996
 21
18.19567786838322
 31
0.0
 11
-21.92013763539994
 21
17.64806077018309
 31
0.0
 11
-21.20686438709985
 21
16.93466609988311
 31
0.0
 11
-20.65937553289999
 21
16.09813588928321
 31
0.0
 11
-20.29168024670006
 21
15.16109236608318
 31
0.0
 11
-20.12394209890003
 21
14.17200004658323
 31
0.0
  0
SPLINE
  5
5924
330
1E
100
AcDbEntity
  8
0
 48
0.27
100
AcDbSpline
210
0.0
220
0.0
230
1.0
 70
     8
 71
     3
 72
    14
 73
    10
 74
     8
 42
0.0000000001
 43
0.0000000001
 44
0.0000000001
 40
0.0
 40
0.0
 40
0.0
 40
0.0
 40
1.00337480073276
 40
2.010676408934169
 40
3.01040917306153
 40
4.019215736458418
 40
5.018979127771629
 40
6.025582519221103
 40
7.028797203484325
 40
7.028797203484325
 40
7.028797203484325
 40
7.028797203484325
 10
-20.12394209890003
 20
30.32889937098323
 30
0.0
 10
-20.16568844994536
 20
29.99587225652454
 30
0.0
 10
-20.24934453054918
 20
29.32851469274231
 30
0.0
 10
-20.63037203523104
 20
28.38846342622444
 30
0.0
 10
-21.18175565386854
 20
27.54154941423135
 30
0.0
 10
-21.89675698549243
 20
26.82666947630558
 30
0.0
 10
-22.74358103582213
 20
26.27555406745045
 30
0.0
 10
-23.68340220897291
 20
25.89474045278862
 30
0.0
 10
-24.35047542323207
 20
25.81112769694859
 30
0.0
 10
-24.68344966210001
 20
25.76939180778325
 30
0.0
 11
-20.12394209890003
 21
30.32889937098323
 31
0.0
 11
-20.29172330689998
 21
29.33965195148314
 31
0.0
 11
-20.65977184030002
 21
28.40199700058318
 31
0.0
 11
-21.20738893859997
 21
27.56558734418311
 31
0.0
 11
-21.92078360889995
 21
26.85231409588325
 31
0.0
 11
-22.75731381949985
 21
26.30482524178322
 31
0.0
 11
-23.69435734259995
 21
25.93712995558317
 31
0.0
 11
-24.68344966210001
 21
25.76939180778325
 31
0.0
  0
LINE
  5
5925
330
1E
100
AcDbEntity
  8
虛線
 48
0.27
100
AcDbLine
 10
-43.49953929121714
 20
65.40000000000003
 30
0.0
 11
-43.49953929121714
 21
48.70000000000001
 31
0.0
  0
LINE
  5
5926
330
1E
100
AcDbEntity
  8
虛線
 48
0.27
100
AcDbLine
 10
-31.49953929121714
 20
65.4
 30
0.0
 11
-31.49953929121714
 21
48.69999999999993
 31
0.0
  0
LINE
  5
5927
330
1E
100
AcDbEntity
  8
虛線
 48
0.27
100
AcDbLine
 10
-42.64953329121702
 20
65.40000000000003
 30
0.0
 11
-42.64953329121702
 21
43.44999699999999
 31
0.0
  0
LINE
  5
5928
330
1E
100
AcDbEntity
  8
虛線
 48
0.27
100
AcDbLine
 10
-32.34953029121719
 20
65.4
 30
0.0
 11
-32.34953029121719
 21
43.44999699999997
 31
0.0
  0
ARC
  5
5929
330
1E
100
AcDbEntity
  8
0
 48
0.27
100
AcDbCircle
 10
-45.49999999999998
 20
52.50044970878326
 30
0.0
 40
3.0
100
AcDbArc
 50
90.0
 51
180.0
  0
LINE
  5
592A
330
1E
100
AcDbEntity
  8
0
 48
0.27
100
AcDbLine
 10
-49.99953929121669
 20
65.00000000000017
 30
0.0
 11
-49.99953929121715
 21
49.50000000000025
 31
0.0
  0
LINE
  5
592B
330
1E
100
AcDbEntity
  8
中心線
 48
0.27
100
AcDbLine
 10
-37.49953929121714
 20
69.00000000000005
 30
0.0
 11
-37.49953929121714
 21
39.46597600000001
 31
0.0
  0
LINE
  5
592C
330
1E
100
AcDbEntity
  8
0
 48
0.27
100
AcDbLine
 10
-48.99953929121714
 20
48.50000000000012
 30
0.0
 11
-48.9995392912172
 21
2.000000000000056
 31
0.0
  0
LINE
  5
592D
330
1E
100
AcDbEntity
  8
0
 48
0.27
100
AcDbLine
 10
-48.50000000000004
 20
3.000449708783264
 30
0.0
 11
-48.49999999999998
 21
52.50044970878326
 31
0.0
  0
LINE
  5
592E
330
1E
100
AcDbEntity
  8
0
 48
0.27
100
AcDbLine
 10
-18.96730769230002
 20
6.986908111583176
 30
0.0
 11
-25.95376609500003
 21
0.0004497087832362
 31
0.0
  0
LINE
  5
592F
330
1E
100
AcDbEntity
  8
0
 48
0.27
100
AcDbLine
 10
-28.33345237789994
 20
0.0004497087832362
 30
0.0
 11
-20.6499999999999
 21
7.683902086683161
 31
0.0
  0
LINE
  5
5930
330
1E
100
AcDbEntity
  8
0
 48
0.27
100
AcDbLine
 10
-30.10121933079999
 20
0.0004497087832362
 30
0.0
 11
-21.8999999999999
 21
8.201669039683139
 31
0.0
  0
LINE
  5
5931
330
1E
100
AcDbEntity
  8
0
 48
0.27
100
AcDbLine
 10
-46.9995392912172
 20
0.0000000000000568
 30
0.0
 11
-38.94291496419082
 21
0.0000000000000568
 31
0.0
  0
LINE
  5
5932
330
1E
100
AcDbEntity
  8
0
 48
0.27
100
AcDbLine
 10
-25.95376609500003
 20
0.0004497087832362
 30
0.0
 11
-45.50000000000004
 21
0.0004497087832647
 31
0.0
  0
LINE
  5
5933
330
1E
100
AcDbEntity
  8
0
 48
0.27
100
AcDbLine
 10
-46.9995392912172
 20
0.0000000000000568
 30
0.0
 11
-48.9995392912172
 21
2.000000000000056
 31
0.0
  0
LINE
  5
5934
330
1E
100
AcDbEntity
  8
0
 48
0.27
100
AcDbLine
 10
-45.50000000000004
 20
0.0004497087832647
 30
0.0
 11
-48.50000000000004
 21
3.000449708783264
 31
0.0
  0
LINE
  5
5935
330
1E
100
AcDbEntity
  8
0
 48
0.27
100
AcDbLine
 10
-38.94265532470386
 20
0.0004497087832647
 30
0.0
 11
-38.94291496419082
 21
0.0000000000000568
 31
0.0
  0
ARC
  5
5936
330
1E
100
AcDbEntity
  8
0
 48
0.27
100
AcDbCircle
 10
-25.00499999999986
 20
30.6504497087831
 30
0.0
 40
3.209999999999999
100
AcDbArc
 50
263.4284998715998
 51
6.571500128400106
  0
ARC
  5
5937
330
1E
100
AcDbEntity
  8
0
 48
0.27
100
AcDbCircle
 10
-25.00499999999986
 20
30.6504497087831
 30
0.0
 40
1.959999999999999
100
AcDbArc
 50
255.4078960957309
 51
14.59210390236058
  0
ARC
  5
5938
330
1E
100
AcDbEntity
  8
0
 48
0.27
100
AcDbCircle
 10
-45.00000000000004
 20
15.50044970878326
 30
0.0
 40
4.0
100
AcDbArc
 50
270.0
 51
90.0
  0
LINE
  5
5939
330
1E
100
AcDbEntity
  8
0
 48
0.27
100
AcDbLine
 10
-48.50000000000004
 20
11.50044970878326
 30
0.0
 11
-45.00000000000004
 21
11.50044970878326
 31
0.0
  0
LINE
  5
593A
330
1E
100
AcDbEntity
  8
0
 48
0.27
100
AcDbLine
 10
-48.50000000000004
 20
19.50044970878326
 30
0.0
 11
-45.00000000000004
 21
19.50044970878326
 31
0.0
  0
LINE
  5
593B
330
1E
100
AcDbEntity
  8
0
 48
0.27
100
AcDbLine
 10
-24.68384729829999
 20
18.73053091198315
 30
0.0
 11
-25.37236208189987
 21
17.03935941288321
 31
0.0
  0
LINE
  5
593C
330
1E
100
AcDbEntity
  8
0
 48
0.27
100
AcDbLine
 10
-25.97831593355321
 20
15.87754631143641
 30
0.0
 11
-29.3999999999999
 21
19.2992303778831
 31
0.0
  0
LINE
  5
593D
330
1E
100
AcDbEntity
  8
0
 48
0.27
100
AcDbLine
 10
-25.37236208189987
 20
17.03935941288321
 30
0.0
 11
-28.1499999999999
 21
19.81699733088319
 31
0.0
  0
ARC
  5
593E
330
1E
100
AcDbEntity
  8
0
 48
0.27
100
AcDbCircle
 10
-25.00499999999992
 20
13.85044970878314
 30
0.0
 40
3.209999999999999
100
AcDbArc
 50
353.4284998715999
 51
96.57150012840013
  0
ARC
  5
593F
330
1E
100
AcDbEntity
  8
0
 48
0.27
100
AcDbCircle
 10
-25.00499999999992
 20
13.85044970878314
 30
0.0
 40
1.959999999999999
100
AcDbArc
 50
345.4078960973163
 51
104.5921039042721
  0
LINE
  5
5940
330
1E
100
AcDbEntity
  8
0
 48
0.27
100
AcDbLine
 10
-25.37236208189987
 20
17.03935941288321
 30
0.0
 11
-25.73625192288083
 21
15.743688050379
 31
0.0
  0
ARC
  5
5941
330
1E
100
AcDbEntity
  8
0
 48
0.27
100
AcDbCircle
 10
-25.62476254296
 20
16.23109970202963
 30
0.0
 40
0.5
100
AcDbArc
 50
224.9999999999999
 51
284.5921039042721
  0
LINE
  5
5942
330
1E
100
AcDbEntity
  8
0
 48
0.27
100
AcDbLine
 10
-18.96730769230002
 20
13.01399130598318
 30
0.0
 11
-21.8999999999999
 21
11.7992303778831
 31
0.0
  0
LINE
  5
5943
330
1E
100
AcDbEntity
  8
0
 48
0.27
100
AcDbLine
 10
-18.96730769230002
 20
6.986908111583176
 30
0.0
 11
-18.96730769230002
 21
13.01399130598318
 31
0.0
  0
LINE
  5
5944
330
1E
100
AcDbEntity
  8
0
 48
0.27
100
AcDbLine
 10
-20.6499999999999
 20
12.31699733088319
 30
0.0
 11
-21.81609029589985
 21
13.48308762678314
 31
0.0
  0
LINE
  5
5945
330
1E
100
AcDbEntity
  8
0
 48
0.27
100
AcDbLine
 10
-21.8999999999999
 20
11.7992303778831
 30
0.0
 11
-22.97790339734324
 21
12.87713377530954
 31
0.0
  0
LINE
  5
5946
330
1E
100
AcDbEntity
  8
0
 48
0.27
100
AcDbLine
 10
-18.96730769230002
 20
6.986908111583176
 30
0.0
 11
-21.8999999999999
 21
8.201669039683139
 31
0.0
  0
LINE
  5
5947
330
1E
100
AcDbEntity
  8
0
 48
0.27
100
AcDbLine
 10
-20.6499999999999
 20
7.683902086683161
 30
0.0
 11
-20.6499999999999
 21
12.31699733088319
 31
0.0
  0
LINE
  5
5948
330
1E
100
AcDbEntity
  8
0
 48
0.27
100
AcDbLine
 10
-21.8999999999999
 20
8.201669039683139
 30
0.0
 11
-21.8999999999999
 21
11.7992303778831
 31
0.0
  0
LINE
  5
5949
330
1E
100
AcDbEntity
  8
0
 48
0.27
100
AcDbLine
 10
-20.12491879669987
 20
14.17160241048319
 30
0.0
 11
-21.81609029589985
 21
13.48308762678314
 31
0.0
  0
LINE
  5
594A
330
1E
100
AcDbEntity
  8
0
 48
0.27
100
AcDbLine
 10
-18.96730769230002
 20
13.01399130598318
 30
0.0
 11
-20.12491879669987
 21
14.17160241048319
 31
0.0
  0
ARC
  5
594B
330
1E
100
AcDbEntity
  8
0
 48
0.27
100
AcDbCircle
 10
-22.62435000673626
 20
13.23068716588912
 30
0.0
 40
0.5
100
AcDbArc
 50
165.4078960973163
 51
224.9999999977937
  0
LINE
  5
594C
330
1E
100
AcDbEntity
  8
0
 48
0.27
100
AcDbLine
 10
-21.81609029589985
 20
13.48308762678314
 30
0.0
 11
-23.11176165836688
 21
13.1191977858804
 31
0.0
  0
LINE
  5
594D
330
1E
100
AcDbEntity
  8
0
 48
0.27
100
AcDbLine
 10
-24.68384729829999
 20
25.77036850558309
 30
0.0
 11
-25.37236208189987
 21
27.46154000468326
 31
0.0
  0
LINE
  5
594E
330
1E
100
AcDbEntity
  8
0
 48
0.27
100
AcDbLine
 10
-26.46730769230002
 20
20.51399130598318
 30
0.0
 11
-24.68384729829999
 21
18.73053091198315
 31
0.0
  0
LINE
  5
594F
330
1E
100
AcDbEntity
  8
0
 48
0.27
100
AcDbLine
 10
-24.68384729829999
 20
25.77036850558309
 30
0.0
 11
-26.46730769230002
 21
23.98690811158317
 31
0.0
  0
LINE
  5
5950
330
1E
100
AcDbEntity
  8
0
 48
0.27
100
AcDbLine
 10
-26.46730769230002
 20
23.98690811158317
 30
0.0
 11
-29.3999999999999
 21
25.20166903968314
 31
0.0
  0
LINE
  5
5951
330
1E
100
AcDbEntity
  8
0
 48
0.27
100
AcDbLine
 10
-28.1499999999999
 20
19.81699733088319
 30
0.0
 11
-28.1499999999999
 21
24.68390208668316
 31
0.0
  0
LINE
  5
5952
330
1E
100
AcDbEntity
  8
0
 48
0.27
100
AcDbLine
 10
-29.3999999999999
 20
19.2992303778831
 30
0.0
 11
-29.3999999999999
 21
25.20166903968314
 31
0.0
  0
LINE
  5
5953
330
1E
100
AcDbEntity
  8
0
 48
0.27
100
AcDbLine
 10
-26.46730769230002
 20
20.51399130598318
 30
0.0
 11
-29.3999999999999
 21
19.2992303778831
 31
0.0
  0
LINE
  5
5954
330
1E
100
AcDbEntity
  8
0
 48
0.27
100
AcDbLine
 10
-26.46730769230002
 20
23.98690811158317
 30
0.0
 11
-26.46730769230002
 21
20.51399130598318
 31
0.0
  0
LINE
  5
5955
330
1E
100
AcDbEntity
  8
0
 48
0.27
100
AcDbLine
 10
-29.3999999999999
 20
25.20166903968314
 30
0.0
 11
-25.9783159335531
 21
28.62335310613005
 31
0.0
  0
LINE
  5
5956
330
1E
100
AcDbEntity
  8
0
 48
0.27
100
AcDbLine
 10
-25.37236208189987
 20
27.46154000468326
 30
0.0
 11
-25.73625192288083
 21
28.75721136718746
 31
0.0
  0
ARC
  5
5957
330
1E
100
AcDbEntity
  8
0
 48
0.27
100
AcDbCircle
 10
-25.62476254295988
 20
28.26979971553683
 30
0.0
 40
0.5
100
AcDbArc
 50
75.40789609573103
 51
135.0
  0
LINE
  5
5958
330
1E
100
AcDbEntity
  8
0
 48
0.27
100
AcDbLine
 10
-28.1499999999999
 20
24.68390208668316
 30
0.0
 11
-25.37236208189987
 21
27.46154000468326
 31
0.0
  0
LINE
  5
5959
330
1E
100
AcDbEntity
  8
虛線
 48
0.27
100
AcDbLine
 10
-43.49953929121714
 20
48.70000000000001
 30
0.0
 11
-31.49953929121714
 21
48.69999999999993
 31
0.0
  0
LINE
  5
595A
330
1E
100
AcDbEntity
  8
虛線
 48
0.27
100
AcDbLine
 10
-42.64953329121702
 20
43.44999699999999
 30
0.0
 11
-32.34953029121719
 21
43.44999699999997
 31
0.0
  0
LINE
  5
595B
330
1E
100
AcDbEntity
  8
虛線
 48
0.27
100
AcDbLine
 10
-42.649541291217
 20
43.44998200000003
 30
0.0
 11
-37.49953929121714
 21
40.47661600000009
 31
0.0
  0
LINE
  5
595C
330
1E
100
AcDbEntity
  8
0
 48
0.27
100
AcDbLine
 10
-49.99953929121715
 20
49.50000000000025
 30
0.0
 11
-48.99953929121714
 21
48.50000000000012
 31
0.0
  0
LINE
  5
595D
330
1E
100
AcDbEntity
  8
虛線
 48
0.27
100
AcDbLine
 10
-32.34953029121719
 20
43.44999699999997
 30
0.0
 11
-37.49953529121715
 21
40.47663900000003
 31
0.0
  0
LINE
  5
595E
330
1E
100
AcDbEntity
  8
0
 48
0.27
100
AcDbLine
 10
-21.81609029589979
 20
31.0178117907831
 30
0.0
 11
-20.18345237789979
 21
32.6504497087831
 31
0.0
  0
LINE
  5
595F
330
1E
100
AcDbEntity
  8
0
 48
0.27
100
AcDbLine
 10
-20.12491879669987
 20
30.32929700708317
 30
0.0
 11
-21.81609029589979
 21
31.0178117907831
 31
0.0
  0
LINE
  5
5960
330
1E
100
AcDbEntity
  8
0
 48
0.27
100
AcDbLine
 10
-19.48645840269999
 20
30.96775740108322
 30
0.0
 11
-20.70121933079984
 21
33.9004497087831
 31
0.0
  0
LINE
  5
5961
330
1E
100
AcDbEntity
  8
0
 48
0.27
100
AcDbLine
 10
-19.48645840269999
 20
30.96775740108322
 30
0.0
 11
-20.12491879669987
 21
30.32929700708317
 31
0.0
  0
ARC
  5
5962
330
1E
100
AcDbEntity
  8
0
 48
0.27
100
AcDbCircle
 10
-22.62435000673291
 20
31.2702122516637
 30
0.0
 40
0.5
100
AcDbArc
 50
134.9999999999965
 51
194.5921039023605
  0
LINE
  5
5963
330
1E
100
AcDbEntity
  8
0
 48
0.27
100
AcDbLine
 10
-22.97790339732613
 20
31.62376564225692
 30
0.0
 11
-20.70121933079984
 21
33.9004497087831
 31
0.0
  0
LINE
  5
5964
330
1E
100
AcDbEntity
  8
0
 48
0.27
100
AcDbLine
 10
-21.81609029589979
 20
31.0178117907831
 30
0.0
 11
-23.1117616583608
 21
31.38170163168425
 31
0.0
  0
LINE
  5
5965
330
1E
100
AcDbEntity
  8
虛線
 48
0.27
100
AcDbLine
 10
-31.49953929121714
 20
65.4
 30
0.0
 11
-43.49953929121714
 21
65.40000000000003
 31
0.0
  0
LINE
  5
5966
330
1E
100
AcDbEntity
  8
0
 48
0.27
100
AcDbLine
 10
-25.49953929121646
 20
66.99999999999974
 30
0.0
 11
-47.99953929121669
 21
67.00000000000017
 31
0.0
  0
LINE
  5
5967
330
1E
100
AcDbEntity
  8
0
 48
0.27
100
AcDbLine
 10
-47.99953929121669
 20
67.00000000000017
 30
0.0
 11
-49.99953929121669
 21
65.00000000000017
 31
0.0
  0
LINE
  5
5968
330
1E
100
AcDbEntity
  8
虛線
 48
0.27
100
AcDbLine
 10
-45.09953929121706
 20
67.00000000000011
 30
0.0
 11
-43.49953929121714
 21
65.40000000000003
 31
0.0
  0
LINE
  5
5969
330
1E
100
AcDbEntity
  8
0
 48
0.27
100
AcDbLine
 10
-25.49953929121646
 20
66.99999999999974
 30
0.0
 11
-24.49953929121714
 21
66.00000000000008
 31
0.0
  0
LINE
  5
596A
330
1E
100
AcDbEntity
  8
虛線
 48
0.27
100
AcDbLine
 10
-31.49953929121714
 20
65.4
 30
0.0
 11
-29.89953929121769
 21
66.9999999999998
 31
0.0
  0
LINE
  5
596B
330
1E
100
AcDbEntity
  8
0
 48
0.27
100
AcDbLine
 10
-24.49953929121714
 20
66.00000000000008
 30
0.0
 11
-10.99953929121714
 21
66.00000000000005
 31
0.0
  0
SPLINE
  5
596C
330
1E
100
AcDbEntity
  8
0
 48
0.27
100
AcDbSpline
210
0.0
220
0.0
230
1.0
 70
     8
 71
     3
 72
    14
 73
    10
 74
     8
 42
0.0000000001
 43
0.0000000001
 44
0.0000000001
 40
0.0
 40
0.0
 40
0.0
 40
0.0
 40
1.003374800732536
 40
2.010676408934134
 40
3.010409173061276
 40
4.019215736458486
 40
5.018979127771697
 40
6.025582519220917
 40
7.028797203484383
 40
7.028797203484383
 40
7.028797203484383
 40
7.028797203484383
 10
20.12394209899999
 20
14.17200004658317
 30
0.0
 10
20.16568845004531
 20
14.50502716104179
 30
0.0
 10
20.24934453064912
 20
15.17238472482403
 30
0.0
 10
20.63037203533126
 20
16.11243599134168
 30
0.0
 10
21.18175565396855
 20
16.95935000333501
 30
0.0
 10
21.89675698559255
 20
17.67422994126075
 30
0.0
 10
22.74358103592224
 20
18.22534535011593
 30
0.0
 10
23.68340220907303
 20
18.60615896477768
 30
0.0
 10
24.35047542333219
 20
18.68977172061778
 30
0.0
 10
24.6834496622002
 20
18.73150760978316
 30
0.0
 11
20.12394209899999
 21
14.17200004658317
 31
0.0
 11
20.29172330699994
 21
15.16124746608304
 31
0.0
 11
20.65977184040021
 21
16.09890241698312
 31
0.0
 11
21.20738893869993
 21
16.93531207338307
 31
0.0
 11
21.92078360900013
 21
17.64858532168315
 31
0.0
 11
22.75731381960004
 21
18.19607417578319
 31
0.0
 11
23.69435734269991
 21
18.56376946198312
 31
0.0
 11
24.6834496622002
 21
18.73150760978316
 31
0.0
  0
SPLINE
  5
596D
330
1E
100
AcDbEntity
  8
0
 48
0.27
100
AcDbSpline
210
0.0
220
0.0
230
1.0
 70
     8
 71
     3
 72
    14
 73
    10
 74
     8
 42
0.0000000001
 43
0.0000000001
 44
0.0000000001
 40
0.0
 40
0.0
 40
0.0
 40
0.0
 40
1.003374800732984
 40
2.010676408934182
 40
3.010409172977842
 40
4.019215736304143
 40
5.018979127672206
 40
6.025582519214641
 40
7.028797203477883
 40
7.028797203477883
 40
7.028797203477883
 40
7.028797203477883
 10
24.6834496622002
 20
25.76939180778319
 30
0.0
 10
24.35042254774263
 20
25.8111381588303
 30
0.0
 10
23.68306498396277
 20
25.89479423943765
 30
0.0
 10
22.74301371745309
 20
26.27582174408213
 30
0.0
 10
21.8960997055676
 20
26.82720536278619
 30
0.0
 10
21.18121976760388
 20
27.54220669430372
 30
0.0
 10
20.63010435862846
 20
28.38903074460067
 30
0.0
 10
20.24929074402766
 20
29.32885191783281
 30
0.0
 10
20.16567798817146
 20
29.99592513211776
 30
0.0
 10
20.12394209899999
 20
30.32889937098318
 30
0.0
 11
24.6834496622002
 21
25.76939180778319
 31
0.0
 11
23.69420224269988
 21
25.93717301578314
 31
0.0
 11
22.75654729180014
 21
26.30522154918319
 31
0.0
 11
21.92013763550012
 21
26.85283864748313
 31
0.0
 11
21.20686438720004
 21
27.56623331768307
 31
0.0
 11
20.65937553300018
 21
28.4027635282832
 31
0.0
 11
20.29168024680002
 21
29.33980705148312
 31
0.0
 11
20.12394209899999
 21
30.32889937098318
 31
0.0
  0
LINE
  5
596E
330
1E
100
AcDbEntity
  8
虛線
 48
0.27
100
AcDbLine
 10
32.3754607087833
 20
65.39999999999981
 30
0.0
 11
32.3754607087833
 21
43.74999699999995
 31
0.0
  0
LINE
  5
596F
330
1E
100
AcDbEntity
  8
虛線
 48
0.27
100
AcDbLine
 10
31.5004607087833
 20
65.39999999999992
 30
0.0
 11
31.5004607087833
 21
48.99999999999991
 31
0.0
  0
LINE
  5
5970
330
1E
100
AcDbEntity
  8
虛線
 48
0.27
100
AcDbLine
 10
42.62546070878331
 20
65.39999999999981
 30
0.0
 11
42.62546070878331
 21
43.74999699999995
 31
0.0
  0
LINE
  5
5971
330
1E
100
AcDbEntity
  8
虛線
 48
0.27
100
AcDbLine
 10
43.5004607087833
 20
65.39999999999992
 30
0.0
 11
43.50046070878285
 21
48.99999999999986
 31
0.0
  0
ARC
  5
5972
330
1E
100
AcDbEntity
  8
0
 48
0.27
100
AcDbCircle
 10
45.50000000000024
 20
52.50044970878315
 30
0.0
 40
3.0
100
AcDbArc
 50
0.0
 51
90.0
  0
LINE
  5
5973
330
1E
100
AcDbEntity
  8
0
 48
0.27
100
AcDbLine
 10
50.00046070878285
 20
65.04999999999992
 30
0.0
 11
50.00046070878285
 21
37.00000000000002
 31
0.0
  0
LINE
  5
5974
330
1E
100
AcDbEntity
  8
中心線
 48
0.27
100
AcDbLine
 10
37.5004607087833
 20
68.99999999999995
 30
0.0
 11
37.5004607087833
 21
39.46597599999989
 31
0.0
  0
LINE
  5
5975
330
1E
100
AcDbEntity
  8
中心線
 48
0.27
100
AcDbLine
 10
-0.0016534688852374
 20
72.16669543875429
 30
0.0
 11
-0.0016534688852938
 21
28.96775740108319
 31
0.0
  0
LINE
  5
5976
330
1E
100
AcDbEntity
  8
0
 48
0.27
100
AcDbLine
 10
18.96730769240021
 20
6.986908111583119
 30
0.0
 11
25.95376609509999
 21
0.000449708783151
 31
0.0
  0
LINE
  5
5977
330
1E
100
AcDbEntity
  8
0
 48
0.27
100
AcDbLine
 10
28.33345237800013
 20
0.000449708783151
 30
0.0
 11
20.65000000000004
 21
7.683902086683104
 31
0.0
  0
LINE
  5
5978
330
1E
100
AcDbEntity
  8
0
 48
0.27
100
AcDbLine
 10
21.90000000000004
 20
8.201669039683082
 30
0.0
 11
30.10121933089995
 21
0.000449708783151
 31
0.0
  0
LINE
  5
5979
330
1E
100
AcDbEntity
  8
0
 48
0.27
100
AcDbLine
 10
49.00046070878286
 20
36.00000000000003
 30
0.0
 11
49.00046070878279
 21
1.999999999999914
 31
0.0
  0
LINE
  5
597A
330
1E
100
AcDbEntity
  8
0
 48
0.27
100
AcDbLine
 10
48.50000000000024
 20
52.50044970878312
 30
0.0
 11
48.50000000000019
 21
3.000449708783122
 31
0.0
  0
LINE
  5
597B
330
1E
100
AcDbEntity
  8
0
 48
0.27
100
AcDbLine
 10
45.50000000000018
 20
0.000449708783151
 30
0.0
 11
25.95376609509999
 21
0.000449708783151
 31
0.0
  0
LINE
  5
597C
330
1E
100
AcDbEntity
  8
0
 48
0.27
100
AcDbLine
 10
49.00046070878279
 20
1.999999999999914
 30
0.0
 11
47.00046070878279
 21
-0.0000000000000853
 31
0.0
  0
LINE
  5
597D
330
1E
100
AcDbEntity
  8
0
 48
0.27
100
AcDbLine
 10
48.50000000000019
 20
3.000449708783122
 30
0.0
 11
45.50000000000018
 21
0.000449708783151
 31
0.0
  0
LINE
  5
597E
330
1E
100
AcDbEntity
  8
0
 48
0.27
100
AcDbLine
 10
38.94353932611029
 20
-0.0000000000000568
 30
0.0
 11
47.00046070878279
 21
-0.0000000000000853
 31
0.0
  0
LINE
  5
597F
330
1E
100
AcDbEntity
  8
0
 48
0.27
100
AcDbLine
 10
38.94327974005859
 20
0.000449708783151
 30
0.0
 11
38.94353932611029
 21
-0.0000000000000568
 31
0.0
  0
LINE
  5
5980
330
1E
100
AcDbEntity
  8
0
 48
0.27
100
AcDbLine
 10
50.00046070878285
 20
37.00000000000002
 30
0.0
 11
49.00046070878286
 21
36.00000000000003
 31
0.0
  0
ARC
  5
5981
330
1E
100
AcDbEntity
  8
0
 48
0.27
100
AcDbCircle
 10
25.00500000000012
 20
30.65044970878304
 30
0.0
 40
3.209999999999999
100
AcDbArc
 50
173.4284998715998
 51
276.5715001284001
  0
ARC
  5
5982
330
1E
100
AcDbEntity
  8
0
 48
0.27
100
AcDbCircle
 10
25.00500000000012
 20
30.65044970878304
 30
0.0
 40
1.959999999999999
100
AcDbArc
 50
165.4078960957311
 51
284.5921039060625
  0
LINE
  5
5983
330
1E
100
AcDbEntity
  8
0
 48
0.27
100
AcDbLine
 10
18.96730769240021
 20
13.01399130598312
 30
0.0
 11
20.12491879680005
 21
14.17160241048313
 31
0.0
  0
LINE
  5
5984
330
1E
100
AcDbEntity
  8
0
 48
0.27
100
AcDbLine
 10
18.96730769240021
 20
6.986908111583119
 30
0.0
 11
21.90000000000004
 21
8.201669039683082
 31
0.0
  0
LINE
  5
5985
330
1E
100
AcDbEntity
  8
0
 48
0.27
100
AcDbLine
 10
18.96730769240021
 20
13.01399130598312
 30
0.0
 11
21.90000000000004
 21
11.79923037788304
 31
0.0
  0
LINE
  5
5986
330
1E
100
AcDbEntity
  8
0
 48
0.27
100
AcDbLine
 10
18.96730769240021
 20
13.01399130598312
 30
0.0
 11
18.96730769240021
 21
6.986908111583119
 31
0.0
  0
LINE
  5
5987
330
1E
100
AcDbEntity
  8
0
 48
0.27
100
AcDbLine
 10
24.68384729840018
 20
18.73053091198309
 30
0.0
 11
25.37236208200006
 21
17.03935941288315
 31
0.0
  0
LINE
  5
5988
330
1E
100
AcDbEntity
  8
0
 48
0.27
100
AcDbLine
 10
29.40000000000004
 20
19.29923037788302
 30
0.0
 11
25.97831593363248
 21
15.87754631142155
 31
0.0
  0
LINE
  5
5989
330
1E
100
AcDbEntity
  8
0
 48
0.27
100
AcDbLine
 10
28.15000000000004
 20
19.81699733088311
 30
0.0
 11
25.37236208200006
 21
17.03935941288315
 31
0.0
  0
ARC
  5
598A
330
1E
100
AcDbEntity
  8
0
 48
0.27
100
AcDbCircle
 10
45.00000000000018
 20
15.50044970878315
 30
0.0
 40
4.0
100
AcDbArc
 50
90.0
 51
270.0
  0
LINE
  5
598B
330
1E
100
AcDbEntity
  8
0
 48
0.27
100
AcDbLine
 10
22.97790339734702
 20
12.87713377523002
 30
0.0
 11
21.90000000000004
 21
11.79923037788304
 31
0.0
  0
LINE
  5
598C
330
1E
100
AcDbEntity
  8
0
 48
0.27
100
AcDbLine
 10
21.81609029600004
 20
13.48308762678309
 30
0.0
 11
20.65000000000004
 21
12.31699733088314
 31
0.0
  0
LINE
  5
598D
330
1E
100
AcDbEntity
  8
0
 48
0.27
100
AcDbLine
 10
21.90000000000004
 20
11.79923037788304
 30
0.0
 11
21.90000000000004
 21
8.201669039683082
 31
0.0
  0
LINE
  5
598E
330
1E
100
AcDbEntity
  8
0
 48
0.27
100
AcDbLine
 10
20.65000000000004
 20
12.31699733088314
 30
0.0
 11
20.65000000000004
 21
7.683902086683104
 31
0.0
  0
LINE
  5
598F
330
1E
100
AcDbEntity
  8
0
 48
0.27
100
AcDbLine
 10
21.81609029600004
 20
13.48308762678309
 30
0.0
 11
23.11176165840352
 21
13.11919778589819
 31
0.0
  0
ARC
  5
5990
330
1E
100
AcDbEntity
  8
0
 48
0.27
100
AcDbCircle
 10
25.00500000000006
 20
13.85044970878309
 30
0.0
 40
1.959999999999999
100
AcDbArc
 50
75.40789609393745
 51
194.5921039042688
  0
ARC
  5
5991
330
1E
100
AcDbEntity
  8
0
 48
0.27
100
AcDbCircle
 10
22.62435000675368
 20
13.23068716582324
 30
0.0
 40
0.5
100
AcDbArc
 50
314.9999999999954
 51
14.59210390426881
  0
LINE
  5
5992
330
1E
100
AcDbEntity
  8
0
 48
0.27
100
AcDbLine
 10
25.37236208200006
 20
17.03935941288315
 30
0.0
 11
25.73625192298443
 21
15.74368805036596
 31
0.0
  0
ARC
  5
5993
330
1E
100
AcDbEntity
  8
0
 48
0.27
100
AcDbCircle
 10
25.62476254303438
 20
16.23109970201014
 30
0.0
 40
0.5
100
AcDbArc
 50
255.4078960939374
 51
315.0000000007876
  0
ARC
  5
5994
330
1E
100
AcDbEntity
  8
0
 48
0.27
100
AcDbCircle
 10
25.00500000000006
 20
13.85044970878309
 30
0.0
 40
3.209999999999999
100
AcDbArc
 50
83.42849987159985
 51
186.5715001284001
  0
LINE
  5
5995
330
1E
100
AcDbEntity
  8
0
 48
0.27
100
AcDbLine
 10
20.12491879680005
 20
14.17160241048313
 30
0.0
 11
21.81609029600004
 21
13.48308762678309
 31
0.0
  0
LINE
  5
5996
330
1E
100
AcDbEntity
  8
0
 48
0.27
100
AcDbLine
 10
48.50000000000019
 20
11.50044970878312
 30
0.0
 11
45.00000000000018
 21
11.50044970878315
 31
0.0
  0
LINE
  5
5997
330
1E
100
AcDbEntity
  8
0
 48
0.27
100
AcDbLine
 10
29.40000000000004
 20
25.20166903968305
 30
0.0
 11
29.40000000000004
 21
19.29923037788302
 31
0.0
  0
LINE
  5
5998
330
1E
100
AcDbEntity
  8
0
 48
0.27
100
AcDbLine
 10
28.15000000000004
 20
24.68390208668307
 30
0.0
 11
28.15000000000004
 21
19.81699733088311
 31
0.0
  0
LINE
  5
5999
330
1E
100
AcDbEntity
  8
0
 48
0.27
100
AcDbLine
 10
26.46730769240021
 20
23.98690811158309
 30
0.0
 11
24.68384729840018
 21
25.77036850558303
 31
0.0
  0
LINE
  5
599A
330
1E
100
AcDbEntity
  8
0
 48
0.27
100
AcDbLine
 10
26.46730769240021
 20
23.98690811158309
 30
0.0
 11
29.40000000000004
 21
25.20166903968305
 31
0.0
  0
LINE
  5
599B
330
1E
100
AcDbEntity
  8
0
 48
0.27
100
AcDbLine
 10
26.46730769240021
 20
20.51399130598309
 30
0.0
 11
29.40000000000004
 21
19.29923037788302
 31
0.0
  0
LINE
  5
599C
330
1E
100
AcDbEntity
  8
0
 48
0.27
100
AcDbLine
 10
26.46730769240021
 20
20.51399130598309
 30
0.0
 11
26.46730769240021
 21
23.98690811158309
 31
0.0
  0
LINE
  5
599D
330
1E
100
AcDbEntity
  8
0
 48
0.27
100
AcDbLine
 10
24.68384729840018
 20
18.73053091198309
 30
0.0
 11
26.46730769240021
 21
20.51399130598309
 31
0.0
  0
LINE
  5
599E
330
1E
100
AcDbEntity
  8
0
 48
0.27
100
AcDbLine
 10
25.37236208200006
 20
27.4615400046832
 30
0.0
 11
28.15000000000004
 21
24.68390208668307
 31
0.0
  0
LINE
  5
599F
330
1E
100
AcDbEntity
  8
0
 48
0.27
100
AcDbLine
 10
25.9783159336326
 20
28.62335310614452
 30
0.0
 11
29.40000000000004
 21
25.20166903968305
 31
0.0
  0
LINE
  5
59A0
330
1E
100
AcDbEntity
  8
0
 48
0.27
100
AcDbLine
 10
25.37236208200006
 20
27.4615400046832
 30
0.0
 11
25.73625192298443
 21
28.75721136720011
 31
0.0
  0
LINE
  5
59A1
330
1E
100
AcDbEntity
  8
0
 48
0.27
100
AcDbLine
 10
24.68384729840018
 20
25.77036850558303
 30
0.0
 11
25.37236208200006
 21
27.4615400046832
 31
0.0
  0
ARC
  5
59A2
330
1E
100
AcDbEntity
  8
0
 48
0.27
100
AcDbCircle
 10
25.62476254303438
 20
28.2697997155561
 30
0.0
 40
0.5
100
AcDbArc
 50
44.99999999921232
 51
104.5921039060625
  0
LINE
  5
59A3
330
1E
100
AcDbEntity
  8
0
 48
0.27
100
AcDbLine
 10
48.50000000000019
 20
19.50044970878312
 30
0.0
 11
45.00000000000018
 21
19.50044970878315
 31
0.0
  0
LINE
  5
59A4
330
1E
100
AcDbEntity
  8
0
 48
0.27
100
AcDbLine
 10
19.48645840280006
 20
30.96775740108316
 30
0.0
 11
20.70121933090014
 21
33.90044970878304
 31
0.0
  0
LINE
  5
59A5
330
1E
100
AcDbEntity
  8
0
 48
0.27
100
AcDbLine
 10
20.12491879680005
 20
30.32929700708311
 30
0.0
 11
19.48645840280006
 21
30.96775740108316
 31
0.0
  0
LINE
  5
59A8
330
1E
100
AcDbEntity
  8
虛線
 48
0.27
100
AcDbLine
 10
42.62546070878331
 20
43.74999699999995
 30
0.0
 11
37.5004607087833
 21
40.67058632748358
 31
0.0
  0
LINE
  5
59A9
330
1E
100
AcDbEntity
  8
虛線
 48
0.27
100
AcDbLine
 10
32.3754607087833
 20
43.74999699999984
 30
0.0
 11
37.5004607087833
 21
40.67058632748358
 31
0.0
  0
LINE
  5
59AA
330
1E
100
AcDbEntity
  8
0
 48
0.27
100
AcDbLine
 10
21.81609029600009
 20
31.01781179078304
 30
0.0
 11
23.11176165840358
 21
31.38170163166805
 31
0.0
  0
ARC
  5
59AB
330
1E
100
AcDbEntity
  8
0
 48
0.27
100
AcDbCircle
 10
22.62435000675374
 20
31.270212251743
 30
0.0
 40
0.5
100
AcDbArc
 50
345.4078960957307
 51
44.99999999999994
  0
LINE
  5
59AC
330
1E
100
AcDbEntity
  8
0
 48
0.27
100
AcDbLine
 10
20.70121933090014
 20
33.90044970878304
 30
0.0
 11
22.97790339734707
 21
31.62376564233634
 31
0.0
  0
LINE
  5
59AD
330
1E
100
AcDbEntity
  8
0
 48
0.27
100
AcDbLine
 10
20.18345237800009
 20
32.65044970878304
 30
0.0
 11
21.81609029600009
 21
31.01781179078304
 31
0.0
  0
LINE
  5
59AE
330
1E
100
AcDbEntity
  8
0
 48
0.27
100
AcDbLine
 10
20.12491879680005
 20
30.32929700708311
 30
0.0
 11
21.81609029600009
 21
31.01781179078304
 31
0.0
  0
LINE
  5
59AF
330
1E
100
AcDbEntity
  8
虛線
 48
0.27
100
AcDbLine
 10
43.50046070878285
 20
48.99999999999986
 30
0.0
 11
31.5004607087833
 21
48.99999999999991
 31
0.0
  0
LINE
  5
59B0
330
1E
100
AcDbEntity
  8
虛線
 48
0.27
100
AcDbLine
 10
42.62546070878331
 20
43.74999699999995
 30
0.0
 11
32.3754607087833
 21
43.74999699999995
 31
0.0
  0
CIRCLE
  5
59B1
330
1E
100
AcDbEntity
  8
指線
 48
0.27
100
AcDbCircle
 10
41.00000000000001
 20
48.50044970878315
 30
0.0
 40
4.0
  0
CIRCLE
  5
59B2
330
1E
100
AcDbEntity
  8
指線
 48
0.27
100
AcDbCircle
 10
41.00000000000024
 20
48.50044970878315
 30
0.0
 40
4.0
  0
LINE
  5
59B3
330
1E
100
AcDbEntity
  8
0
 48
0.27
100
AcDbLine
 10
50.00046070878285
 20
65.04999999999992
 30
0.0
 11
48.0504607087828
 21
67.00000000000002
 31
0.0
  0
LINE
  5
59B4
330
1E
100
AcDbEntity
  8
0
 48
0.27
100
AcDbLine
 10
11.00046070878285
 20
66.00000000000003
 30
0.0
 11
24.50046070878285
 21
66.00000000000003
 31
0.0
  0
LINE
  5
59B5
330
1E
100
AcDbEntity
  8
0
 48
0.27
100
AcDbLine
 10
10.00046070878285
 20
67.00000000000014
 30
0.0
 11
-9.999539291217146
 21
67.00000000000011
 31
0.0
  0
LINE
  5
59B6
330
1E
100
AcDbEntity
  8
0
 48
0.27
100
AcDbLine
 10
11.00046070878285
 20
66.00000000000003
 30
0.0
 11
10.00046070878285
 21
67.00000000000014
 31
0.0
  0
LINE
  5
59B7
330
1E
100
AcDbEntity
  8
虛線
 48
0.27
100
AcDbLine
 10
31.5004607087833
 20
65.39999999999992
 30
0.0
 11
43.5004607087833
 21
65.39999999999992
 31
0.0
  0
LINE
  5
59B8
330
1E
100
AcDbEntity
  8
0
 48
0.27
100
AcDbLine
 10
48.0504607087828
 20
67.00000000000002
 30
0.0
 11
25.5004607087833
 21
67.00000000000009
 31
0.0
  0
LINE
  5
59B9
330
1E
100
AcDbEntity
  8
0
 48
0.27
100
AcDbLine
 10
25.5004607087833
 20
67.00000000000009
 30
0.0
 11
24.50046070878285
 21
66.00000000000003
 31
0.0
  0
LINE
  5
59BA
330
1E
100
AcDbEntity
  8
虛線
 48
0.27
100
AcDbLine
 10
31.5004607087833
 20
65.39999999999992
 30
0.0
 11
29.90046070878317
 21
67.00000000000006
 31
0.0
  0
LINE
  5
59BB
330
1E
100
AcDbEntity
  8
虛線
 48
0.27
100
AcDbLine
 10
45.10046070878298
 20
67.00000000000006
 30
0.0
 11
43.5004607087833
 21
65.39999999999992
 31
0.0
  0
LINE
  5
59BC
330
1E
100
AcDbEntity
  8
指線
 48
0.27
100
AcDbLine
 10
41.79890994881128
 20
49.29960853059611
 30
0.0
 11
44.91112303207173
 21
49.30016648149258
 31
0.0
  0
LINE
  5
59BD
330
1E
100
AcDbEntity
  8
指線
 48
0.27
100
AcDbLine
 10
41.79915714224798
 20
47.70153823267615
 30
0.0
 11
44.91137022550843
 21
47.70209618357262
 31
0.0
  0
LINE
  5
59BE
330
1E
100
AcDbEntity
  8
指線
 48
0.27
100
AcDbLine
 10
40.20084285775213
 20
49.29936118489013
 30
0.0
 11
37.08222513594606
 21
49.29895473943847
 31
0.0
  0
LINE
  5
59BF
330
1E
100
AcDbEntity
  8
指線
 48
0.27
100
AcDbLine
 10
40.20109005118847
 20
47.70129088697053
 30
0.0
 11
37.08247232938241
 21
47.70088444151852
 31
0.0
  0
LINE
  5
59C0
330
1E
100
AcDbEntity
  8
指線
 48
0.27
100
AcDbLine
 10
41.79915714224798
 20
47.70153823267615
 30
0.0
 11
41.79938313011972
 21
46.24056069285024
 31
0.0
  0
LINE
  5
59C1
330
1E
100
AcDbEntity
  8
指線
 48
0.27
100
AcDbLine
 10
40.20109005118847
 20
47.70129088697053
 30
0.0
 11
40.20131603874082
 21
46.24031334715153
 31
0.0
  0
LINE
  5
59C2
330
1E
100
AcDbEntity
  8
指線
 48
0.27
100
AcDbLine
 10
41.7986839612593
 20
50.76058607041474
 30
0.0
 11
41.79890994881128
 21
49.29960853059611
 31
0.0
  0
LINE
  5
59C3
330
1E
100
AcDbEntity
  8
指線
 48
0.27
100
AcDbLine
 10
40.20061686988039
 20
50.7603387247164
 30
0.0
 11
40.20084285775213
 21
49.29936118489013
 31
0.0
  0
ARC
  5
59C4
330
1E
100
AcDbEntity
  8
指線
 48
0.27
100
AcDbCircle
 10
41.00000000000024
 20
48.50044970878315
 30
0.0
 40
2.397105012956624
100
AcDbArc
 50
199.4791870960465
 51
250.5376787567855
  0
ARC
  5
59C5
330
1E
100
AcDbEntity
  8
指線
 48
0.27
100
AcDbCircle
 10
41.00000000000024
 20
48.50044970878315
 30
0.0
 40
2.397105012956624
100
AcDbArc
 50
19.48100010832753
 51
70.53767875679482
  0
ARC
  5
59C6
330
1E
100
AcDbEntity
  8
指線
 48
0.27
100
AcDbCircle
 10
40.99999999999979
 20
48.50044970878315
 30
0.0
 40
2.397105012956624
100
AcDbArc
 50
109.4623212432051
 51
160.5189998916724
  0
ARC
  5
59C7
330
1E
100
AcDbEntity
  8
指線
 48
0.27
100
AcDbCircle
 10
40.99999999999979
 20
48.50044970878315
 30
0.0
 40
2.397105012956624
100
AcDbArc
 50
289.4623212432144
 51
340.5208129039533
  0
CIRCLE
  5
59C8
330
1E
100
AcDbEntity
  8
指線
 48
0.27
100
AcDbCircle
 10
45.00000000000018
 20
15.50044970878315
 30
0.0
 40
4.0
  0
CIRCLE
  5
59C9
330
1E
100
AcDbEntity
  8
指線
 48
0.27
100
AcDbCircle
 10
44.99999999999995
 20
15.50044970878315
 30
0.0
 40
4.0
  0
LINE
  5
59CA
330
1E
100
AcDbEntity
  8
指線
 48
0.27
100
AcDbLine
 10
44.20109005118841
 20
14.70129088697054
 30
0.0
 11
41.08247232938235
 21
14.70088444151852
 31
0.0
  0
LINE
  5
59CB
330
1E
100
AcDbEntity
  8
指線
 48
0.27
100
AcDbLine
 10
44.20084285775207
 20
16.29936118489013
 30
0.0
 11
41.08222513594601
 21
16.29895473943848
 31
0.0
  0
ARC
  5
59CC
330
1E
100
AcDbEntity
  8
指線
 48
0.27
100
AcDbCircle
 10
44.99999999999973
 20
15.50044970878315
 30
0.0
 40
2.397105012956624
100
AcDbArc
 50
109.4623212432051
 51
160.5189998916724
  0
ARC
  5
59CD
330
1E
100
AcDbEntity
  8
指線
 48
0.27
100
AcDbCircle
 10
45.00000000000018
 20
15.50044970878315
 30
0.0
 40
2.397105012956624
100
AcDbArc
 50
19.48100010832753
 51
70.53767875679482
  0
LINE
  5
59CE
330
1E
100
AcDbEntity
  8
指線
 48
0.27
100
AcDbLine
 10
44.20061686988034
 20
17.7603387247164
 30
0.0
 11
44.20084285775207
 21
16.29936118489013
 31
0.0
  0
LINE
  5
59CF
330
1E
100
AcDbEntity
  8
指線
 48
0.27
100
AcDbLine
 10
45.79868396125924
 20
17.76058607041474
 30
0.0
 11
45.79890994881123
 21
16.2996085305961
 31
0.0
  0
ARC
  5
59D0
330
1E
100
AcDbEntity
  8
指線
 48
0.27
100
AcDbCircle
 10
44.99999999999973
 20
15.50044970878315
 30
0.0
 40
2.397105012956624
100
AcDbArc
 50
289.4623212432144
 51
340.5208129039533
  0
LINE
  5
59D1
330
1E
100
AcDbEntity
  8
指線
 48
0.27
100
AcDbLine
 10
45.79915714224792
 20
14.70153823267615
 30
0.0
 11
48.91137022550837
 21
14.70209618357262
 31
0.0
  0
LINE
  5
59D2
330
1E
100
AcDbEntity
  8
指線
 48
0.27
100
AcDbLine
 10
45.79890994881123
 20
16.2996085305961
 30
0.0
 11
48.91112303207167
 21
16.30016648149258
 31
0.0
  0
ARC
  5
59D3
330
1E
100
AcDbEntity
  8
指線
 48
0.27
100
AcDbCircle
 10
45.00000000000018
 20
15.50044970878315
 30
0.0
 40
2.397105012956624
100
AcDbArc
 50
199.4791870960465
 51
250.5376787567855
  0
LINE
  5
59D4
330
1E
100
AcDbEntity
  8
指線
 48
0.27
100
AcDbLine
 10
44.20109005118841
 20
14.70129088697054
 30
0.0
 11
44.20131603874076
 21
13.24031334715153
 31
0.0
  0
LINE
  5
59D5
330
1E
100
AcDbEntity
  8
指線
 48
0.27
100
AcDbLine
 10
45.79915714224792
 20
14.70153823267615
 30
0.0
 11
45.79938313011967
 21
13.24056069285024
 31
0.0
  0
CIRCLE
  5
59D6
330
1E
100
AcDbEntity
  8
指線
 48
0.27
100
AcDbCircle
 10
-44.99999999999981
 20
15.50044970878326
 30
0.0
 40
4.0
  0
CIRCLE
  5
59D7
330
1E
100
AcDbEntity
  8
指線
 48
0.27
100
AcDbCircle
 10
-45.00000000000004
 20
15.50044970878326
 30
0.0
 40
4.0
  0
LINE
  5
59D8
330
1E
100
AcDbEntity
  8
指線
 48
0.27
100
AcDbLine
 10
-45.79890994881158
 20
14.70129088697065
 30
0.0
 11
-48.91752767061764
 21
14.70088444151864
 31
0.0
  0
LINE
  5
59D9
330
1E
100
AcDbEntity
  8
指線
 48
0.27
100
AcDbLine
 10
-45.79915714224792
 20
16.29936118489024
 30
0.0
 11
-48.91777486405398
 21
16.29895473943859
 31
0.0
  0
ARC
  5
59DA
330
1E
100
AcDbEntity
  8
指線
 48
0.27
100
AcDbCircle
 10
-45.00000000000027
 20
15.50044970878326
 30
0.0
 40
2.397105012956624
100
AcDbArc
 50
109.4623212432051
 51
160.5189998916724
  0
ARC
  5
59DB
330
1E
100
AcDbEntity
  8
指線
 48
0.27
100
AcDbCircle
 10
-44.99999999999981
 20
15.50044970878326
 30
0.0
 40
2.397105012956624
100
AcDbArc
 50
19.48100010832753
 51
70.53767875679482
  0
LINE
  5
59DC
330
1E
100
AcDbEntity
  8
指線
 48
0.27
100
AcDbLine
 10
-45.79938313011966
 20
17.76033872471652
 30
0.0
 11
-45.79915714224792
 21
16.29936118489024
 31
0.0
  0
LINE
  5
59DD
330
1E
100
AcDbEntity
  8
指線
 48
0.27
100
AcDbLine
 10
-44.20131603874075
 20
17.76058607041486
 30
0.0
 11
-44.20109005118876
 21
16.29960853059622
 31
0.0
  0
ARC
  5
59DE
330
1E
100
AcDbEntity
  8
指線
 48
0.27
100
AcDbCircle
 10
-45.00000000000027
 20
15.50044970878326
 30
0.0
 40
2.397105012956624
100
AcDbArc
 50
289.4623212432144
 51
340.5208129039533
  0
LINE
  5
59DF
330
1E
100
AcDbEntity
  8
指線
 48
0.27
100
AcDbLine
 10
-44.20084285775207
 20
14.70153823267626
 30
0.0
 11
-41.08862977449162
 21
14.70209618357274
 31
0.0
  0
LINE
  5
59E0
330
1E
100
AcDbEntity
  8
指線
 48
0.27
100
AcDbLine
 10
-44.20109005118876
 20
16.29960853059622
 30
0.0
 11
-41.08887696792833
 21
16.30016648149269
 31
0.0
  0
ARC
  5
59E1
330
1E
100
AcDbEntity
  8
指線
 48
0.27
100
AcDbCircle
 10
-44.99999999999981
 20
15.50044970878326
 30
0.0
 40
2.397105012956624
100
AcDbArc
 50
199.4791870960465
 51
250.5376787567855
  0
LINE
  5
59E2
330
1E
100
AcDbEntity
  8
指線
 48
0.27
100
AcDbLine
 10
-45.79890994881158
 20
14.70129088697065
 30
0.0
 11
-45.79868396125923
 21
13.24031334715164
 31
0.0
  0
LINE
  5
59E3
330
1E
100
AcDbEntity
  8
指線
 48
0.27
100
AcDbLine
 10
-44.20084285775207
 20
14.70153823267626
 30
0.0
 11
-44.20061686988033
 21
13.24056069285035
 31
0.0
  0
CIRCLE
  5
59E4
330
1E
100
AcDbEntity
  8
指線
 48
0.27
100
AcDbCircle
 10
-40.99999999999998
 20
48.50044970878326
 30
0.0
 40
4.0
  0
LINE
  5
59E5
330
1E
100
AcDbEntity
  8
指線
 48
0.27
100
AcDbLine
 10
-41.79890994881152
 20
47.70129088697065
 30
0.0
 11
-44.91752767061758
 21
47.70088444151864
 31
0.0
  0
LINE
  5
59E6
330
1E
100
AcDbEntity
  8
指線
 48
0.27
100
AcDbLine
 10
-41.79915714224787
 20
49.29936118489024
 30
0.0
 11
-44.91777486405393
 21
49.29895473943859
 31
0.0
  0
ARC
  5
59E7
330
1E
100
AcDbEntity
  8
指線
 48
0.27
100
AcDbCircle
 10
-41.00000000000021
 20
48.50044970878326
 30
0.0
 40
2.397105012956624
100
AcDbArc
 50
109.4623212432051
 51
160.5189998916724
  0
ARC
  5
59E8
330
1E
100
AcDbEntity
  8
指線
 48
0.27
100
AcDbCircle
 10
-40.99999999999975
 20
48.50044970878326
 30
0.0
 40
2.397105012956624
100
AcDbArc
 50
19.48100010832753
 51
70.53767875679482
  0
LINE
  5
59E9
330
1E
100
AcDbEntity
  8
指線
 48
0.27
100
AcDbLine
 10
-41.79938313011961
 20
50.76033872471652
 30
0.0
 11
-41.79915714224787
 21
49.29936118489024
 31
0.0
  0
LINE
  5
59EA
330
1E
100
AcDbEntity
  8
指線
 48
0.27
100
AcDbLine
 10
-40.20131603874069
 20
50.76058607041486
 30
0.0
 11
-40.20109005118871
 21
49.29960853059622
 31
0.0
  0
ARC
  5
59EB
330
1E
100
AcDbEntity
  8
指線
 48
0.27
100
AcDbCircle
 10
-41.00000000000021
 20
48.50044970878326
 30
0.0
 40
2.397105012956624
100
AcDbArc
 50
289.4623212432144
 51
340.5208129039533
  0
LINE
  5
59EC
330
1E
100
AcDbEntity
  8
指線
 48
0.27
100
AcDbLine
 10
-40.20084285775201
 20
47.70153823267626
 30
0.0
 11
-37.08862977449157
 21
47.70209618357274
 31
0.0
  0
LINE
  5
59ED
330
1E
100
AcDbEntity
  8
指線
 48
0.27
100
AcDbLine
 10
-40.20109005118871
 20
49.29960853059622
 30
0.0
 11
-37.08887696792827
 21
49.30016648149269
 31
0.0
  0
ARC
  5
59EE
330
1E
100
AcDbEntity
  8
指線
 48
0.27
100
AcDbCircle
 10
-40.99999999999975
 20
48.50044970878326
 30
0.0
 40
2.397105012956624
100
AcDbArc
 50
199.4791870960465
 51
250.5376787567855
  0
LINE
  5
59EF
330
1E
100
AcDbEntity
  8
指線
 48
0.27
100
AcDbLine
 10
-41.79890994881152
 20
47.70129088697065
 30
0.0
 11
-41.79868396125917
 21
46.24031334715165
 31
0.0
  0
LINE
  5
59F0
330
1E
100
AcDbEntity
  8
指線
 48
0.27
100
AcDbLine
 10
-40.20084285775201
 20
47.70153823267626
 30
0.0
 11
-40.20061686988027
 21
46.24056069285035
 31
0.0
  0
LINE
  5
59F1
330
1E
100
AcDbEntity
  8
0
 48
0.27
100
AcDbLine
 10
202.03421357663
 20
0.0
 30
0.0
 11
319.7342135766299
 21
0.0
 31
0.0
  0
LINE
  5
59F2
330
1E
100
AcDbEntity
  8
0
 48
0.27
100
AcDbLine
 10
202.03421357663
 20
67.00000000000014
 30
0.0
 11
319.7342135766298
 21
67.00000000000011
 31
0.0
  0
LINE
  5
59F3
330
1E
100
AcDbEntity
  8
0
 48
0.27
100
AcDbLine
 10
338.7342135766299
 20
3.000000000000056
 30
0.0
 11
183.0342135766301
 21
3.000000000000056
 31
0.0
  0
LINE
  5
59F4
330
1E
100
AcDbEntity
  8
0
 48
0.27
100
AcDbLine
 10
202.03421357663
 20
65.04999999999992
 30
0.0
 11
319.7342135766298
 21
65.0499999999999
 31
0.0
  0
LINE
  5
59F5
330
1E
100
AcDbEntity
  8
0
 48
0.27
100
AcDbLine
 10
202.03421357663
 20
67.00000000000011
 30
0.0
 11
202.0342135766301
 21
0.0
 31
0.0
  0
LINE
  5
59F6
330
1E
100
AcDbEntity
  8
0
 48
0.27
100
AcDbLine
 10
202.0342135766301
 20
0.0
 30
0.0
 11
202.0342135766301
 21
55.5
 31
0.0
  0
LINE
  5
59F7
330
1E
100
AcDbEntity
  8
0
 48
0.27
100
AcDbLine
 10
183.0342135766301
 20
0.0
 30
0.0
 11
183.0342135766301
 21
55.5
 31
0.0
  0
LINE
  5
59F8
330
1E
100
AcDbEntity
  8
0
 48
0.27
100
AcDbLine
 10
202.0342135766301
 20
0.0
 30
0.0
 11
183.0342135766301
 21
0.0
 31
0.0
  0
CIRCLE
  5
59F9
330
1E
100
AcDbEntity
  8
0
 48
0.27
100
AcDbCircle
 10
191.0342135766301
 20
38.0
 30
0.0
 40
4.549999999999999
  0
CIRCLE
  5
59FA
330
1E
100
AcDbEntity
  8
0
 48
0.27
100
AcDbCircle
 10
191.0342135766301
 20
38.0
 30
0.0
 40
4.25
  0
CIRCLE
  5
59FB
330
1E
100
AcDbEntity
  8
0
 48
0.27
100
AcDbCircle
 10
191.0342135766301
 20
38.0
 30
0.0
 40
3.9375
  0
LINE
  5
59FC
330
1E
100
AcDbEntity
  8
中心線
 48
0.27
100
AcDbLine
 10
191.0342135766301
 20
33.13534057181857
 30
0.0
 11
191.0342135766301
 21
42.86465942818142
 31
0.0
  0
LINE
  5
59FD
330
1E
100
AcDbEntity
  8
中心線
 48
0.27
100
AcDbLine
 10
186.1695541484486
 20
38.0
 30
0.0
 11
195.8988730048115
 21
38.0
 31
0.0
  0
CIRCLE
  5
59FE
330
1E
100
AcDbEntity
  8
0
 48
0.27
100
AcDbCircle
 10
191.0342135766301
 20
38.0
 30
0.0
 40
0.75
  0
LINE
  5
59FF
330
1E
100
AcDbEntity
  8
0
 48
0.27
100
AcDbLine
 10
202.0342135766301
 20
52.5
 30
0.0
 11
183.0342135766301
 21
52.5
 31
0.0
  0
LINE
  5
5A00
330
1E
100
AcDbEntity
  8
0
 48
0.27
100
AcDbLine
 10
202.0342135766301
 20
55.5
 30
0.0
 11
183.0342135766301
 21
55.5
 31
0.0
  0
LINE
  5
5A01
330
1E
100
AcDbEntity
  8
虛線
 48
0.27
100
AcDbLine
 10
217.38421357663
 20
65.4000000000002
 30
0.0
 11
217.38421357663
 21
48.70000000000013
 31
0.0
  0
LINE
  5
5A02
330
1E
100
AcDbEntity
  8
虛線
 48
0.27
100
AcDbLine
 10
218.23420457663
 20
65.4000000000002
 30
0.0
 11
218.23420457663
 21
43.44999700000016
 31
0.0
  0
LINE
  5
5A03
330
1E
100
AcDbEntity
  8
虛線
 48
0.27
100
AcDbLine
 10
304.3842135766299
 20
65.40000000000017
 30
0.0
 11
304.3842135766299
 21
48.70000000000016
 31
0.0
  0
LINE
  5
5A04
330
1E
100
AcDbEntity
  8
虛線
 48
0.27
100
AcDbLine
 10
292.3842135766299
 20
65.40000000000017
 30
0.0
 11
292.3842135766299
 21
48.7000000000001
 31
0.0
  0
LINE
  5
5A05
330
1E
100
AcDbEntity
  8
虛線
 48
0.27
100
AcDbLine
 10
303.5342075766298
 20
65.40000000000017
 30
0.0
 11
303.5342075766298
 21
43.44999700000014
 31
0.0
  0
LINE
  5
5A06
330
1E
100
AcDbEntity
  8
虛線
 48
0.27
100
AcDbLine
 10
293.2342045766299
 20
65.40000000000017
 30
0.0
 11
293.2342045766299
 21
43.44999700000014
 31
0.0
  0
LINE
  5
5A07
330
1E
100
AcDbEntity
  8
虛線
 48
0.27
100
AcDbLine
 10
229.38421357663
 20
65.4000000000002
 30
0.0
 11
229.38421357663
 21
48.70000000000018
 31
0.0
  0
LINE
  5
5A08
330
1E
100
AcDbEntity
  8
虛線
 48
0.27
100
AcDbLine
 10
228.5342075766298
 20
65.4000000000002
 30
0.0
 11
228.5342075766298
 21
43.44999700000016
 31
0.0
  0
LINE
  5
5A09
330
1E
100
AcDbEntity
  8
中心線
 48
0.27
100
AcDbLine
 10
223.38421357663
 20
69.00000000000023
 30
0.0
 11
223.38421357663
 21
39.46597600000018
 31
0.0
  0
LINE
  5
5A0A
330
1E
100
AcDbEntity
  8
中心線
 48
0.27
100
AcDbLine
 10
298.3842135766299
 20
69.00000000000023
 30
0.0
 11
298.3842135766299
 21
39.46597600000015
 31
0.0
  0
LINE
  5
5A0B
330
1E
100
AcDbEntity
  8
0
 48
0.27
100
AcDbLine
 10
319.7342135766298
 20
67.00000000000011
 30
0.0
 11
319.7342135766299
 21
0.0
 31
0.0
  0
LINE
  5
5A0C
330
1E
100
AcDbEntity
  8
0
 48
0.27
100
AcDbLine
 10
338.7342135766299
 20
55.5
 30
0.0
 11
338.7342135766299
 21
0.0
 31
0.0
  0
LINE
  5
5A0D
330
1E
100
AcDbEntity
  8
0
 48
0.27
100
AcDbLine
 10
319.7342135766299
 20
55.5
 30
0.0
 11
319.7342135766299
 21
0.0
 31
0.0
  0
CIRCLE
  5
5A0E
330
1E
100
AcDbEntity
  8
0
 48
0.27
100
AcDbCircle
 10
330.73421357663
 20
38.0
 30
0.0
 40
0.75
  0
LINE
  5
5A0F
330
1E
100
AcDbEntity
  8
中心線
 48
0.27
100
AcDbLine
 10
325.8695541484485
 20
38.0
 30
0.0
 11
335.5988730048114
 21
38.0
 31
0.0
  0
CIRCLE
  5
5A10
330
1E
100
AcDbEntity
  8
0
 48
0.27
100
AcDbCircle
 10
330.73421357663
 20
38.0
 30
0.0
 40
4.549999999999999
  0
CIRCLE
  5
5A11
330
1E
100
AcDbEntity
  8
0
 48
0.27
100
AcDbCircle
 10
330.73421357663
 20
38.0
 30
0.0
 40
4.25
  0
CIRCLE
  5
5A12
330
1E
100
AcDbEntity
  8
0
 48
0.27
100
AcDbCircle
 10
330.73421357663
 20
38.0
 30
0.0
 40
3.9375
  0
LINE
  5
5A13
330
1E
100
AcDbEntity
  8
0
 48
0.27
100
AcDbLine
 10
319.7342135766299
 20
0.0
 30
0.0
 11
338.7342135766299
 21
0.0
 31
0.0
  0
LINE
  5
5A14
330
1E
100
AcDbEntity
  8
0
 48
0.27
100
AcDbLine
 10
319.7342135766299
 20
52.5
 30
0.0
 11
338.7342135766299
 21
52.5
 31
0.0
  0
LINE
  5
5A15
330
1E
100
AcDbEntity
  8
虛線
 48
0.27
100
AcDbLine
 10
228.5342155766298
 20
43.4499820000002
 30
0.0
 11
223.38421357663
 21
40.47661600000026
 31
0.0
  0
LINE
  5
5A16
330
1E
100
AcDbEntity
  8
虛線
 48
0.27
100
AcDbLine
 10
218.23420457663
 20
43.44999700000016
 30
0.0
 11
223.38420957663
 21
40.4766390000002
 31
0.0
  0
LINE
  5
5A17
330
1E
100
AcDbEntity
  8
虛線
 48
0.27
100
AcDbLine
 10
228.5342075766298
 20
43.44999700000016
 30
0.0
 11
218.23420457663
 21
43.44999700000016
 31
0.0
  0
LINE
  5
5A18
330
1E
100
AcDbEntity
  8
虛線
 48
0.27
100
AcDbLine
 10
229.38421357663
 20
48.70000000000018
 30
0.0
 11
217.38421357663
 21
48.70000000000013
 31
0.0
  0
LINE
  5
5A19
330
1E
100
AcDbEntity
  8
虛線
 48
0.27
100
AcDbLine
 10
304.3842135766299
 20
48.70000000000016
 30
0.0
 11
292.3842135766299
 21
48.7000000000001
 31
0.0
  0
LINE
  5
5A1A
330
1E
100
AcDbEntity
  8
虛線
 48
0.27
100
AcDbLine
 10
303.5342075766298
 20
43.44999700000014
 30
0.0
 11
293.2342045766299
 21
43.44999700000014
 31
0.0
  0
LINE
  5
5A1B
330
1E
100
AcDbEntity
  8
虛線
 48
0.27
100
AcDbLine
 10
303.5342155766297
 20
43.44998200000017
 30
0.0
 11
298.3842135766299
 21
40.47661600000023
 31
0.0
  0
LINE
  5
5A1C
330
1E
100
AcDbEntity
  8
虛線
 48
0.27
100
AcDbLine
 10
293.2342045766299
 20
43.44999700000014
 30
0.0
 11
298.3842095766299
 21
40.47663900000017
 31
0.0
  0
LINE
  5
5A1D
330
1E
100
AcDbEntity
  8
中心線
 48
0.27
100
AcDbLine
 10
330.73421357663
 20
33.13534057181857
 30
0.0
 11
330.73421357663
 21
42.86465942818142
 31
0.0
  0
LINE
  5
5A1E
330
1E
100
AcDbEntity
  8
0
 48
0.27
100
AcDbLine
 10
319.7342135766299
 20
55.5
 30
0.0
 11
338.7342135766299
 21
55.5
 31
0.0
  0
LINE
  5
5A1F
330
1E
100
AcDbEntity
  8
虛線
 48
0.27
100
AcDbLine
 10
217.38421357663
 20
65.4000000000002
 30
0.0
 11
229.38421357663
 21
65.4000000000002
 31
0.0
  0
LINE
  5
5A20
330
1E
100
AcDbEntity
  8
虛線
 48
0.27
100
AcDbLine
 10
217.38421357663
 20
65.4000000000002
 30
0.0
 11
215.7842135766305
 21
67.0
 31
0.0
  0
LINE
  5
5A21
330
1E
100
AcDbEntity
  8
虛線
 48
0.27
100
AcDbLine
 10
230.9842135766299
 20
67.00000000000028
 30
0.0
 11
229.38421357663
 21
65.4000000000002
 31
0.0
  0
LINE
  5
5A22
330
1E
100
AcDbEntity
  8
虛線
 48
0.27
100
AcDbLine
 10
292.3842135766299
 20
65.40000000000017
 30
0.0
 11
304.3842135766299
 21
65.40000000000017
 31
0.0
  0
LINE
  5
5A23
330
1E
100
AcDbEntity
  8
虛線
 48
0.27
100
AcDbLine
 10
292.3842135766299
 20
65.40000000000017
 30
0.0
 11
290.7842135766304
 21
66.99999999999997
 31
0.0
  0
LINE
  5
5A24
330
1E
100
AcDbEntity
  8
虛線
 48
0.27
100
AcDbLine
 10
305.9842135766298
 20
67.00000000000025
 30
0.0
 11
304.3842135766299
 21
65.40000000000017
 31
0.0
  0
LINE
  5
5A25
330
1E
100
AcDbEntity
  8
0
100
AcDbLine
 10
178.0342135766301
 20
0.0
 30
0.0
 11
178.0342135766301
 21
27.46109029590007
 31
0.0
  0
LINE
  5
5A26
330
1E
100
AcDbEntity
  8
0
100
AcDbLine
 10
180.83421357663
 20
0.0
 30
0.0
 11
180.83421357663
 21
55.50000000000006
 31
0.0
  0
LINE
  5
5A27
330
1E
100
AcDbEntity
  8
0
100
AcDbLine
 10
183.0342135766301
 20
3.000000000000056
 30
0.0
 11
180.83421357663
 21
3.000000000000056
 31
0.0
  0
LINE
  5
5A28
330
1E
100
AcDbEntity
  8
0
100
AcDbLine
 10
178.0342135766301
 20
0.0
 30
0.0
 11
183.0342135766301
 21
0.0
 31
0.0
  0
LINE
  5
5A29
330
1E
100
AcDbEntity
  8
0
100
AcDbLine
 10
178.0342135766301
 20
27.51226790750007
 30
0.0
 11
178.0342135766301
 21
32.64999999999992
 31
0.0
  0
LINE
  5
5A2A
330
1E
100
AcDbEntity
  8
中心線
100
AcDbLine
 10
177.532634656593
 20
15.50000000000005
 30
0.0
 11
188.177860184522
 21
15.50000000000005
 31
0.0
  0
LINE
  5
5A2B
330
1E
100
AcDbEntity
  8
中心線
100
AcDbLine
 10
179.83421357663
 20
15.50000000000005
 30
0.0
 11
184.0342135766301
 21
15.50000000000005
 31
0.0
  0
LINE
  5
5A2C
330
1E
100
AcDbEntity
  8
中心線
100
AcDbLine
 10
176.9732896122464
 20
15.50000000000005
 30
0.0
 11
184.153786149861
 21
15.50000000000005
 31
0.0
  0
LINE
  5
5A2D
330
1E
100
AcDbEntity
  8
0
100
AcDbLine
 10
179.197484842631
 20
17.3508166588652
 30
0.0
 11
179.197484842631
 21
13.64918334113491
 31
0.0
  0
ARC
  5
5A2E
330
1E
100
AcDbEntity
  8
0
100
AcDbCircle
 10
181.4552066511961
 20
13.68574000181678
 30
0.0
 40
2.258017748891657
100
AcDbArc
 50
180.9276427879958
 51
254.0369778311712
  0
ARC
  5
5A2F
330
1E
100
AcDbEntity
  8
0
100
AcDbCircle
 10
181.4552066511961
 20
17.31425999818333
 30
0.0
 40
2.258017748891657
100
AcDbArc
 50
105.9630221688287
 51
179.072357212004
  0
LINE
  5
5A30
330
1E
100
AcDbEntity
  8
0
100
AcDbLine
 10
178.0342135766301
 20
32.64999999999992
 30
0.0
 11
180.83421357663
 21
33.89999999999992
 31
0.0
  0
LINE
  5
5A31
330
1E
100
AcDbEntity
  8
0
100
AcDbLine
 10
183.0342135766301
 20
55.50000000000006
 30
0.0
 11
180.83421357663
 21
55.50000000000006
 31
0.0
  0
LINE
  5
5A32
330
1E
100
AcDbEntity
  8
中心線
100
AcDbLine
 10
177.532634656593
 20
48.50000000000005
 30
0.0
 11
188.177860184522
 21
48.50000000000005
 31
0.0
  0
LINE
  5
5A33
330
1E
100
AcDbEntity
  8
中心線
100
AcDbLine
 10
179.83421357663
 20
48.50000000000005
 30
0.0
 11
184.0342135766301
 21
48.50000000000005
 31
0.0
  0
LINE
  5
5A34
330
1E
100
AcDbEntity
  8
中心線
100
AcDbLine
 10
180.1212365792613
 20
48.50000000000005
 30
0.0
 11
183.8550948356943
 21
48.50000000000005
 31
0.0
  0
LINE
  5
5A35
330
1E
100
AcDbEntity
  8
0
100
AcDbLine
 10
179.197484842631
 20
50.3508166588652
 30
0.0
 11
179.197484842631
 21
46.64918334113491
 31
0.0
  0
ARC
  5
5A36
330
1E
100
AcDbEntity
  8
0
100
AcDbCircle
 10
181.4552066511961
 20
46.68574000181678
 30
0.0
 40
2.258017748891657
100
AcDbArc
 50
180.9276427879958
 51
254.0369778311712
  0
ARC
  5
5A37
330
1E
100
AcDbEntity
  8
0
100
AcDbCircle
 10
181.4552066511961
 20
50.31425999818333
 30
0.0
 40
2.258017748891657
100
AcDbArc
 50
105.9630221688287
 51
179.072357212004
  0
LINE
  5
5A38
330
1E
100
AcDbEntity
  8
0
100
AcDbLine
 10
343.7342135766297
 20
0.0
 30
0.0
 11
343.7342135766297
 21
27.46109029590007
 31
0.0
  0
LINE
  5
5A39
330
1E
100
AcDbEntity
  8
0
100
AcDbLine
 10
340.9342135766298
 20
0.0
 30
0.0
 11
340.9342135766298
 21
55.50000000000006
 31
0.0
  0
LINE
  5
5A3A
330
1E
100
AcDbEntity
  8
0
100
AcDbLine
 10
338.7342135766297
 20
3.000000000000056
 30
0.0
 11
340.9342135766298
 21
3.000000000000056
 31
0.0
  0
LINE
  5
5A3B
330
1E
100
AcDbEntity
  8
0
100
AcDbLine
 10
343.7342135766297
 20
0.0
 30
0.0
 11
338.7342135766297
 21
0.0
 31
0.0
  0
LINE
  5
5A3C
330
1E
100
AcDbEntity
  8
0
100
AcDbLine
 10
343.7342135766297
 20
27.51226790750007
 30
0.0
 11
343.7342135766297
 21
32.64999999999992
 31
0.0
  0
LINE
  5
5A3D
330
1E
100
AcDbEntity
  8
中心線
100
AcDbLine
 10
344.2357924966668
 20
15.50000000000005
 30
0.0
 11
333.5905669687378
 21
15.50000000000005
 31
0.0
  0
LINE
  5
5A3E
330
1E
100
AcDbEntity
  8
中心線
100
AcDbLine
 10
341.9342135766298
 20
15.50000000000005
 30
0.0
 11
337.7342135766297
 21
15.50000000000005
 31
0.0
  0
LINE
  5
5A3F
330
1E
100
AcDbEntity
  8
中心線
100
AcDbLine
 10
344.7951375410133
 20
15.50000000000005
 30
0.0
 11
337.6146410033988
 21
15.50000000000005
 31
0.0
  0
LINE
  5
5A40
330
1E
100
AcDbEntity
  8
0
100
AcDbLine
 10
342.5709423106288
 20
17.3508166588652
 30
0.0
 11
342.5709423106288
 21
13.64918334113491
 31
0.0
  0
ARC
  5
5A41
330
1E
100
AcDbEntity
  8
0
100
AcDbCircle
 10
340.3132205020637
 20
13.68574000181678
 30
0.0
 40
2.258017748891657
100
AcDbArc
 50
285.9630221688287
 51
359.0723572120041
  0
ARC
  5
5A42
330
1E
100
AcDbEntity
  8
0
100
AcDbCircle
 10
340.3132205020637
 20
17.31425999818333
 30
0.0
 40
2.258017748891657
100
AcDbArc
 50
0.9276427879959051
 51
74.03697783117127
  0
LINE
  5
5A43
330
1E
100
AcDbEntity
  8
0
100
AcDbLine
 10
343.7342135766297
 20
32.64999999999992
 30
0.0
 11
340.9342135766298
 21
33.89999999999992
 31
0.0
  0
LINE
  5
5A44
330
1E
100
AcDbEntity
  8
0
100
AcDbLine
 10
338.7342135766297
 20
55.50000000000006
 30
0.0
 11
340.9342135766298
 21
55.50000000000006
 31
0.0
  0
LINE
  5
5A45
330
1E
100
AcDbEntity
  8
中心線
100
AcDbLine
 10
344.2357924966668
 20
48.50000000000005
 30
0.0
 11
333.5905669687378
 21
48.50000000000005
 31
0.0
  0
LINE
  5
5A46
330
1E
100
AcDbEntity
  8
中心線
100
AcDbLine
 10
341.9342135766298
 20
48.50000000000005
 30
0.0
 11
337.7342135766297
 21
48.50000000000005
 31
0.0
  0
LINE
  5
5A47
330
1E
100
AcDbEntity
  8
中心線
100
AcDbLine
 10
341.6471905739985
 20
48.50000000000005
 30
0.0
 11
337.9133323175655
 21
48.50000000000005
 31
0.0
  0
LINE
  5
5A48
330
1E
100
AcDbEntity
  8
0
100
AcDbLine
 10
342.5709423106288
 20
50.3508166588652
 30
0.0
 11
342.5709423106288
 21
46.64918334113491
 31
0.0
  0
ARC
  5
5A49
330
1E
100
AcDbEntity
  8
0
100
AcDbCircle
 10
340.3132205020637
 20
46.68574000181678
 30
0.0
 40
2.258017748891657
100
AcDbArc
 50
285.9630221688287
 51
359.0723572120041
  0
ARC
  5
5A4A
330
1E
100
AcDbEntity
  8
0
100
AcDbCircle
 10
340.3132205020637
 20
50.31425999818333
 30
0.0
 40
2.258017748891657
100
AcDbArc
 50
0.9276427879959051
 51
74.03697783117127
  0
LINE
  5
5ACF
330
1E
100
AcDbEntity
  8
中心線
 48
0.27
100
AcDbLine
 10
165.7623310766301
 20
45.00047387265816
 30
0.0
 11
181.8324096874283
 21
45.00044970878318
 31
0.0
  0
LWPOLYLINE
  5
5AD2
330
1E
100
AcDbEntity
  8
0
 48
0.27
100
AcDbPolyline
 90
       31
 70
     0
 43
0.0
 10
170.2733173266301
 20
45.00047387265813
 10
170.2322948266301
 20
45.26329262265815
 10
170.1771110766301
 20
45.39515137265813
 10
170.0983198266301
 20
45.51737512265813
 10
169.9989748266301
 20
45.62251637265814
 10
169.8846110766301
 20
45.70485762265815
 10
169.7622110766301
 20
45.76145887265806
 10
169.5964160766301
 20
45.7976351226581
 10
169.4426548266301
 20
45.79431137265811
 10
169.3089998266301
 20
45.7624288726581
 10
169.1637435766301
 20
45.6927188726581
 10
169.0255310766301
 20
45.58085762265815
 10
168.9152435766301
 20
45.43767012265814
 10
168.8444510766301
 20
45.2878713726582
 10
168.8096373266301
 20
45.15830137265813
 10
168.7951110766301
 20
45.00047387265813
 10
168.8361335766301
 20
44.73765512265818
 10
168.8913185766301
 20
44.60579512265813
 10
168.9701085766301
 20
44.48357262265813
 10
169.0694535766301
 20
44.37843137265812
 10
169.1838173266301
 20
44.29609012265811
 10
169.3062173266301
 20
44.23948887265813
 10
169.4720123266301
 20
44.20331137265809
 10
169.6257735766301
 20
44.20663637265815
 10
169.7594285766301
 20
44.23851762265816
 10
169.9046848266301
 20
44.30822762265816
 10
170.0428973266301
 20
44.42009012265811
 10
170.1531848266301
 20
44.56327637265812
 10
170.2239773266301
 20
44.71307512265814
 10
170.2587923266301
 20
44.84264637265821
 10
170.2733173266301
 20
45.00047387265813
  0
ARC
  5
5AD3
330
1E
100
AcDbEntity
  8
0
 48
0.27
100
AcDbCircle
 10
174.74878857663
 20
45.00047387265816
 30
0.0
 40
4.99999999999996
100
AcDbArc
 50
90.0
 51
131.4096219996005
  0
ARC
  5
5AD4
330
1E
100
AcDbEntity
  8
0
 48
0.27
100
AcDbCircle
 10
174.74878857663
 20
45.00047387265816
 30
0.0
 40
4.99999999999996
100
AcDbArc
 50
228.5903779973005
 51
270.0
  0
LINE
  5
5AD5
330
1E
100
AcDbEntity
  8
0
 48
0.27
100
AcDbLine
 10
179.197484842631
 20
50.00047387265817
 30
0.0
 11
174.74878857663
 21
50.00047387265816
 31
0.0
  0
LINE
  5
5AD7
330
1E
100
AcDbEntity
  8
0
 48
0.27
100
AcDbLine
 10
174.74878857663
 20
40.00047387265816
 30
0.0
 11
180.83421357663
 21
40.00047387265816
 31
0.0
  0
LINE
  5
5AD8
330
1E
100
AcDbEntity
  8
0
 48
0.27
100
AcDbLine
 10
179.43421357663
 20
45.67864956552727
 30
0.0
 11
179.43421357663
 21
40.00047387265816
 31
0.0
  0
LINE
  5
5AD9
330
1E
100
AcDbEntity
  8
0
 48
0.27
100
AcDbLine
 10
170.3394923266301
 20
48.75047387265813
 30
0.0
 11
175.21421232663
 21
48.75047387265813
 31
0.0
  0
LINE
  5
5ADA
330
1E
100
AcDbEntity
  8
0
 48
0.27
100
AcDbLine
 10
170.0315010766301
 20
41.82788262265818
 30
0.0
 11
170.3394923266301
 21
41.2504738726582
 31
0.0
  0
LINE
  5
5ADB
330
1E
100
AcDbEntity
  8
0
 48
0.27
100
AcDbLine
 10
170.3394923266301
 20
48.75047387265813
 30
0.0
 11
170.0315010766301
 21
48.17306512265817
 31
0.0
  0
LINE
  5
5ADC
330
1E
100
AcDbEntity
  8
0
 48
0.27
100
AcDbLine
 10
176.3402648266301
 20
45.00047387265816
 30
0.0
 11
177.21446982663
 21
45.00047387265816
 31
0.0
  0
LINE
  5
5ADD
330
1E
100
AcDbEntity
  8
0
 48
0.27
100
AcDbLine
 10
175.21421232663
 20
48.75047387265813
 30
0.0
 11
177.21446982663
 21
45.00047387265816
 31
0.0
  0
LINE
  5
5ADE
330
1E
100
AcDbEntity
  8
0
 48
0.27
100
AcDbLine
 10
175.21421232663
 20
41.2504738726582
 30
0.0
 11
170.3394923266301
 21
41.2504738726582
 31
0.0
  0
LINE
  5
5ADF
330
1E
100
AcDbEntity
  8
0
 48
0.27
100
AcDbLine
 10
177.21446982663
 20
45.00047387265816
 30
0.0
 11
175.21421232663
 21
41.2504738726582
 31
0.0
  0
LINE
  5
5AE0
330
1E
100
AcDbEntity
  8
0
 48
0.27
100
AcDbLine
 10
170.4908410766301
 20
48.16239137265815
 30
0.0
 11
171.0139248266301
 21
48.46502137265813
 31
0.0
  0
LINE
  5
5AE1
330
1E
100
AcDbEntity
  8
0
 48
0.27
100
AcDbLine
 10
170.4908410766301
 20
41.83855512265823
 30
0.0
 11
171.0139248266301
 21
41.53592512265818
 31
0.0
  0
LINE
  5
5AE2
330
1E
100
AcDbEntity
  8
0
 48
0.27
100
AcDbLine
 10
171.0139248266301
 20
48.46502137265813
 30
0.0
 11
171.66384982663
 21
48.67841887265808
 31
0.0
  0
LINE
  5
5AE3
330
1E
100
AcDbEntity
  8
0
 48
0.27
100
AcDbLine
 10
171.0139248266301
 20
41.53592512265818
 30
0.0
 11
171.66384982663
 21
41.32252887265825
 31
0.0
  0
LINE
  5
5AE4
330
1E
100
AcDbEntity
  8
0
 48
0.27
100
AcDbLine
 10
171.66384982663
 20
48.67841887265808
 30
0.0
 11
172.3397498266301
 21
48.75047387265813
 31
0.0
  0
LINE
  5
5AE5
330
1E
100
AcDbEntity
  8
0
 48
0.27
100
AcDbLine
 10
171.66384982663
 20
41.32252887265825
 30
0.0
 11
172.3397498266301
 21
41.2504738726582
 31
0.0
  0
LINE
  5
5AE6
330
1E
100
AcDbEntity
  8
0
 48
0.27
100
AcDbLine
 10
172.3397498266301
 20
48.75047387265813
 30
0.0
 11
173.0156498266301
 21
48.67841887265808
 31
0.0
  0
LINE
  5
5AE7
330
1E
100
AcDbEntity
  8
0
 48
0.27
100
AcDbLine
 10
172.3397498266301
 20
41.2504738726582
 30
0.0
 11
173.0156498266301
 21
41.32252887265825
 31
0.0
  0
LINE
  5
5AE8
330
1E
100
AcDbEntity
  8
0
 48
0.27
100
AcDbLine
 10
173.0156498266301
 20
48.67841887265808
 30
0.0
 11
173.6655748266301
 21
48.46502137265813
 31
0.0
  0
LINE
  5
5AE9
330
1E
100
AcDbEntity
  8
0
 48
0.27
100
AcDbLine
 10
173.0156498266301
 20
41.32252887265825
 30
0.0
 11
173.6655748266301
 21
41.53592512265818
 31
0.0
  0
LINE
  5
5AEA
330
1E
100
AcDbEntity
  8
0
 48
0.27
100
AcDbLine
 10
173.6655748266301
 20
48.46502137265813
 30
0.0
 11
174.2645498266301
 21
48.11848512265815
 31
0.0
  0
LINE
  5
5AEB
330
1E
100
AcDbEntity
  8
0
 48
0.27
100
AcDbLine
 10
173.6655748266301
 20
41.53592512265818
 30
0.0
 11
174.2645498266301
 21
41.88246262265818
 31
0.0
  0
LINE
  5
5AEC
330
1E
100
AcDbEntity
  8
0
 48
0.27
100
AcDbLine
 10
174.2645498266301
 20
48.11848512265815
 30
0.0
 11
174.7895548266301
 21
47.65212387265816
 31
0.0
  0
LINE
  5
5AED
330
1E
100
AcDbEntity
  8
0
 48
0.27
100
AcDbLine
 10
174.2645498266301
 20
41.88246262265818
 30
0.0
 11
174.7895548266301
 21
42.34882262265815
 31
0.0
  0
LINE
  5
5AEE
330
1E
100
AcDbEntity
  8
0
 48
0.27
100
AcDbLine
 10
174.34000732663
 20
48.75047387265813
 30
0.0
 11
176.3402648266301
 21
45.00047387265816
 31
0.0
  0
LINE
  5
5AEF
330
1E
100
AcDbEntity
  8
0
 48
0.27
100
AcDbLine
 10
176.3402648266301
 20
45.00047387265816
 30
0.0
 11
174.34000732663
 21
41.2504738726582
 31
0.0
  0
LINE
  5
5AF0
330
1E
100
AcDbEntity
  8
0
 48
0.27
100
AcDbLine
 10
174.7895548266301
 20
47.65212387265816
 30
0.0
 11
175.2204160766301
 21
47.08386137265816
 31
0.0
  0
LINE
  5
5AF1
330
1E
100
AcDbEntity
  8
0
 48
0.27
100
AcDbLine
 10
175.2204160766301
 20
42.91708512265815
 30
0.0
 11
174.7895548266301
 21
42.34882262265815
 31
0.0
  0
LINE
  5
5AF2
330
1E
100
AcDbEntity
  8
0
 48
0.27
100
AcDbLine
 10
175.2204160766301
 20
47.08386137265816
 30
0.0
 11
175.5405748266301
 21
46.43553637265815
 31
0.0
  0
LINE
  5
5AF3
330
1E
100
AcDbEntity
  8
0
 48
0.27
100
AcDbLine
 10
175.5405748266301
 20
43.56541012265823
 30
0.0
 11
175.2204160766301
 21
42.91708512265815
 31
0.0
  0
LINE
  5
5AF4
330
1E
100
AcDbEntity
  8
0
 48
0.27
100
AcDbLine
 10
175.5405748266301
 20
46.43553637265815
 30
0.0
 11
175.73772732663
 21
45.7320626226582
 31
0.0
  0
LINE
  5
5AF5
330
1E
100
AcDbEntity
  8
0
 48
0.27
100
AcDbLine
 10
175.73772732663
 20
44.26888512265811
 30
0.0
 11
175.5405748266301
 21
43.56541012265823
 31
0.0
  0
LINE
  5
5AF6
330
1E
100
AcDbEntity
  8
0
 48
0.27
100
AcDbLine
 10
175.73772732663
 20
45.7320626226582
 30
0.0
 11
175.80429732663
 21
45.00047387265816
 31
0.0
  0
LINE
  5
5AF7
330
1E
100
AcDbEntity
  8
0
 48
0.27
100
AcDbLine
 10
175.80429732663
 20
45.00047387265816
 30
0.0
 11
175.73772732663
 21
44.26888512265811
 31
0.0
  0
LINE
  5
5AF8
330
1E
100
AcDbEntity
  8
0
 48
0.27
100
AcDbLine
 10
168.7098785766301
 20
47.05075762265811
 30
0.0
 11
168.7135923266301
 21
47.04873887265816
 31
0.0
  0
LINE
  5
5AF9
330
1E
100
AcDbEntity
  8
0
 48
0.27
100
AcDbLine
 10
168.7098785766301
 20
42.95018887265818
 30
0.0
 11
168.7135923266301
 21
42.95220887265817
 31
0.0
  0
LINE
  5
5AFA
330
1E
100
AcDbEntity
  8
0
 48
0.27
100
AcDbLine
 10
167.3189910766301
 20
45.62315137265817
 30
0.0
 11
167.2623310766301
 21
45.00047387265816
 31
0.0
  0
LINE
  5
5AFB
330
1E
100
AcDbEntity
  8
0
 48
0.27
100
AcDbLine
 10
167.4867935766301
 20
46.22189887265816
 30
0.0
 11
167.3189910766301
 21
45.62315137265817
 31
0.0
  0
LINE
  5
5AFC
330
1E
100
AcDbEntity
  8
0
 48
0.27
100
AcDbLine
 10
167.2623310766301
 20
45.00047387265816
 30
0.0
 11
167.3189910766301
 21
44.37779637265816
 31
0.0
  0
LINE
  5
5AFD
330
1E
100
AcDbEntity
  8
0
 48
0.27
100
AcDbLine
 10
167.7592898266301
 20
46.77370887265816
 30
0.0
 11
167.4867935766301
 21
46.22189887265816
 31
0.0
  0
LINE
  5
5AFE
330
1E
100
AcDbEntity
  8
0
 48
0.27
100
AcDbLine
 10
167.3189910766301
 20
44.37779637265816
 30
0.0
 11
167.4867935766301
 21
43.77904762265815
 31
0.0
  0
LINE
  5
5AFF
330
1E
100
AcDbEntity
  8
0
 48
0.27
100
AcDbLine
 10
168.1260098266301
 20
47.2573738726582
 30
0.0
 11
167.7592898266301
 21
46.77370887265816
 31
0.0
  0
LINE
  5
5B00
330
1E
100
AcDbEntity
  8
0
 48
0.27
100
AcDbLine
 10
167.4867935766301
 20
43.77904762265815
 30
0.0
 11
167.7592898266301
 21
43.22723887265816
 31
0.0
  0
LINE
  5
5B01
330
1E
100
AcDbEntity
  8
0
 48
0.27
100
AcDbLine
 10
168.1260098266301
 20
47.2573738726582
 30
0.0
 11
168.5728573266301
 21
47.65430762265815
 31
0.0
  0
LINE
  5
5B02
330
1E
100
AcDbEntity
  8
0
 48
0.27
100
AcDbLine
 10
167.7592898266301
 20
43.22723887265816
 30
0.0
 11
168.1260098266301
 21
42.74357387265813
 31
0.0
  0
LINE
  5
5B03
330
1E
100
AcDbEntity
  8
0
 48
0.27
100
AcDbLine
 10
167.5048698266301
 20
45.43739387265818
 30
0.0
 11
167.4651123266301
 21
45.00047387265816
 31
0.0
  0
LINE
  5
5B04
330
1E
100
AcDbEntity
  8
0
 48
0.27
100
AcDbLine
 10
167.6226135766301
 20
45.85752387265817
 30
0.0
 11
167.5048698266301
 21
45.43739387265818
 31
0.0
  0
LINE
  5
5B05
330
1E
100
AcDbEntity
  8
0
 48
0.27
100
AcDbLine
 10
167.4651123266301
 20
45.00047387265816
 30
0.0
 11
167.5048698266301
 21
44.56355387265817
 31
0.0
  0
LINE
  5
5B06
330
1E
100
AcDbEntity
  8
0
 48
0.27
100
AcDbLine
 10
167.8138185766301
 20
46.24471762265814
 30
0.0
 11
167.6226135766301
 21
45.85752387265817
 31
0.0
  0
LINE
  5
5B07
330
1E
100
AcDbEntity
  8
0
 48
0.27
100
AcDbLine
 10
167.5048698266301
 20
44.56355387265817
 30
0.0
 11
167.6226135766301
 21
44.14342387265816
 31
0.0
  0
LINE
  5
5B08
330
1E
100
AcDbEntity
  8
0
 48
0.27
100
AcDbLine
 10
168.5728573266301
 20
47.65430762265815
 30
0.0
 11
169.0826635766301
 21
47.94925637265812
 31
0.0
  0
LINE
  5
5B09
330
1E
100
AcDbEntity
  8
0
 48
0.27
100
AcDbLine
 10
168.1260098266301
 20
42.74357387265813
 30
0.0
 11
168.5728573266301
 21
42.34664012265817
 31
0.0
  0
LINE
  5
5B0A
330
1E
100
AcDbEntity
  8
0
 48
0.27
100
AcDbLine
 10
168.0711385766301
 20
46.58409512265817
 30
0.0
 11
167.8138185766301
 21
46.24471762265814
 31
0.0
  0
LINE
  5
5B0B
330
1E
100
AcDbEntity
  8
0
 48
0.27
100
AcDbLine
 10
167.6226135766301
 20
44.14342387265816
 30
0.0
 11
167.8138185766301
 21
43.75623012265821
 31
0.0
  0
LINE
  5
5B0C
330
1E
100
AcDbEntity
  8
0
 48
0.27
100
AcDbLine
 10
169.0826635766301
 20
47.94925637265812
 30
0.0
 11
169.6358348266301
 21
48.13088387265809
 31
0.0
  0
LINE
  5
5B0D
330
1E
100
AcDbEntity
  8
0
 48
0.27
100
AcDbLine
 10
168.5728573266301
 20
42.34664012265817
 30
0.0
 11
169.0826635766301
 21
42.05169137265817
 31
0.0
  0
LINE
  5
5B0E
330
1E
100
AcDbEntity
  8
0
 48
0.27
100
AcDbLine
 10
168.0711385766301
 20
46.58409512265817
 30
0.0
 11
168.3846823266302
 21
46.86261637265812
 31
0.0
  0
LINE
  5
5B0F
330
1E
100
AcDbEntity
  8
0
 48
0.27
100
AcDbLine
 10
167.8138185766301
 20
43.75623012265821
 30
0.0
 11
168.0711385766301
 21
43.41685137265824
 31
0.0
  0
LINE
  5
5B10
330
1E
100
AcDbEntity
  8
0
 48
0.27
100
AcDbLine
 10
169.6358348266301
 20
48.13088387265809
 30
0.0
 11
170.2111135766301
 21
48.19221262265815
 31
0.0
  0
LINE
  5
5B11
330
1E
100
AcDbEntity
  8
0
 48
0.27
100
AcDbLine
 10
169.0826635766301
 20
42.05169137265817
 30
0.0
 11
169.6358348266301
 21
41.87006262265815
 31
0.0
  0
LINE
  5
5B12
330
1E
100
AcDbEntity
  8
0
 48
0.27
100
AcDbLine
 10
168.3846823266302
 20
46.86261637265812
 30
0.0
 11
168.7424035766301
 21
47.06957512265809
 31
0.0
  0
LINE
  5
5B13
330
1E
100
AcDbEntity
  8
0
 48
0.27
100
AcDbLine
 10
168.0711385766301
 20
43.41685137265824
 30
0.0
 11
168.3846823266302
 21
43.13833137265821
 31
0.0
  0
LINE
  5
5B14
330
1E
100
AcDbEntity
  8
0
 48
0.27
100
AcDbLine
 10
170.9669373266301
 20
48.09670012265813
 30
0.0
 11
171.5140673266301
 21
47.91705512265811
 31
0.0
  0
LINE
  5
5B15
330
1E
100
AcDbEntity
  8
0
 48
0.27
100
AcDbLine
 10
168.7424035766301
 20
47.06957512265809
 30
0.0
 11
169.1305523266301
 21
47.19702012265814
 31
0.0
  0
LINE
  5
5B16
330
1E
100
AcDbEntity
  8
0
 48
0.27
100
AcDbLine
 10
168.3846823266302
 20
43.13833137265821
 30
0.0
 11
168.7424035766301
 21
42.9313713726582
 31
0.0
  0
LINE
  5
5B17
330
1E
100
AcDbEntity
  8
0
 48
0.27
100
AcDbLine
 10
170.7863923266301
 20
48.13088387265809
 30
0.0
 11
170.9669373266301
 21
48.09670012265813
 31
0.0
  0
LINE
  5
5B18
330
1E
100
AcDbEntity
  8
0
 48
0.27
100
AcDbLine
 10
170.2111135766301
 20
48.19221262265815
 30
0.0
 11
170.7863923266301
 21
48.13088387265809
 31
0.0
  0
LINE
  5
5B19
330
1E
100
AcDbEntity
  8
0
 48
0.27
100
AcDbLine
 10
169.6358348266301
 20
41.87006262265815
 30
0.0
 11
170.2111135766301
 21
41.8087351226582
 31
0.0
  0
LINE
  5
5B1A
330
1E
100
AcDbEntity
  8
0
 48
0.27
100
AcDbLine
 10
171.5140673266301
 20
47.91705512265811
 30
0.0
 11
172.0183060766301
 21
47.62532762265813
 31
0.0
  0
LINE
  5
5B1B
330
1E
100
AcDbEntity
  8
0
 48
0.27
100
AcDbLine
 10
170.9669373266301
 20
41.90424762265822
 30
0.0
 11
171.5140673266301
 21
42.08389262265822
 31
0.0
  0
LINE
  5
5B1C
330
1E
100
AcDbEntity
  8
0
 48
0.27
100
AcDbLine
 10
172.0183060766301
 20
47.62532762265813
 30
0.0
 11
172.4602748266301
 21
47.23272887265814
 31
0.0
  0
LINE
  5
5B1D
330
1E
100
AcDbEntity
  8
0
 48
0.27
100
AcDbLine
 10
171.5140673266301
 20
42.08389262265822
 30
0.0
 11
172.0183060766301
 21
42.37562012265819
 31
0.0
  0
LINE
  5
5B1E
330
1E
100
AcDbEntity
  8
0
 48
0.27
100
AcDbLine
 10
169.1305523266301
 20
47.19702012265814
 30
0.0
 11
169.5342148266301
 21
47.24005262265817
 31
0.0
  0
LINE
  5
5B1F
330
1E
100
AcDbEntity
  8
0
 48
0.27
100
AcDbLine
 10
168.7424035766301
 20
42.9313713726582
 30
0.0
 11
169.1305523266301
 21
42.80392637265816
 31
0.0
  0
LINE
  5
5B20
330
1E
100
AcDbEntity
  8
0
 48
0.27
100
AcDbLine
 10
170.7863923266301
 20
48.13088387265809
 30
0.0
 11
171.3395635766301
 21
47.94925637265812
 31
0.0
  0
LINE
  5
5B21
330
1E
100
AcDbEntity
  8
0
 48
0.27
100
AcDbLine
 10
170.7863923266301
 20
41.87006262265815
 30
0.0
 11
170.9669373266301
 21
41.90424762265822
 31
0.0
  0
LINE
  5
5B22
330
1E
100
AcDbEntity
  8
0
 48
0.27
100
AcDbLine
 10
170.2111135766301
 20
41.8087351226582
 30
0.0
 11
170.7863923266301
 21
41.87006262265815
 31
0.0
  0
LINE
  5
5B23
330
1E
100
AcDbEntity
  8
0
 48
0.27
100
AcDbLine
 10
172.4602748266301
 20
47.23272887265814
 30
0.0
 11
172.8229885766301
 21
46.75434512265813
 31
0.0
  0
LINE
  5
5B24
330
1E
100
AcDbEntity
  8
0
 48
0.27
100
AcDbLine
 10
172.0183060766301
 20
42.37562012265819
 30
0.0
 11
172.4602748266301
 21
42.76821887265815
 31
0.0
  0
LINE
  5
5B25
330
1E
100
AcDbEntity
  8
0
 48
0.27
100
AcDbLine
 10
169.5342148266301
 20
47.24005262265817
 30
0.0
 11
169.9378760766301
 21
47.19702012265814
 31
0.0
  0
LINE
  5
5B26
330
1E
100
AcDbEntity
  8
0
 48
0.27
100
AcDbLine
 10
169.1305523266301
 20
42.80392637265816
 30
0.0
 11
169.5342148266301
 21
42.7608938726582
 31
0.0
  0
LINE
  5
5B27
330
1E
100
AcDbEntity
  8
0
 48
0.27
100
AcDbLine
 10
171.3395635766301
 20
47.94925637265812
 30
0.0
 11
171.8493685766301
 21
47.65430762265815
 31
0.0
  0
LINE
  5
5B28
330
1E
100
AcDbEntity
  8
0
 48
0.27
100
AcDbLine
 10
170.7863923266301
 20
41.87006262265815
 30
0.0
 11
171.3395635766301
 21
42.05169137265817
 31
0.0
  0
LINE
  5
5B29
330
1E
100
AcDbEntity
  8
0
 48
0.27
100
AcDbLine
 10
172.8229885766301
 20
46.75434512265813
 30
0.0
 11
173.0925098266301
 21
46.20856137265815
 31
0.0
  0
LINE
  5
5B2A
330
1E
100
AcDbEntity
  8
0
 48
0.27
100
AcDbLine
 10
172.8229885766301
 20
43.2466026226582
 30
0.0
 11
172.4602748266301
 21
42.76821887265815
 31
0.0
  0
LINE
  5
5B2B
330
1E
100
AcDbEntity
  8
0
 48
0.27
100
AcDbLine
 10
173.0925098266301
 20
46.20856137265815
 30
0.0
 11
173.2584798266301
 21
45.61635137265817
 31
0.0
  0
LINE
  5
5B2C
330
1E
100
AcDbEntity
  8
0
 48
0.27
100
AcDbLine
 10
173.0925098266301
 20
43.79238637265818
 30
0.0
 11
172.8229885766301
 21
43.2466026226582
 31
0.0
  0
LINE
  5
5B2D
330
1E
100
AcDbEntity
  8
0
 48
0.27
100
AcDbLine
 10
171.8493685766301
 20
47.65430762265815
 30
0.0
 11
172.29621732663
 21
47.2573738726582
 31
0.0
  0
LINE
  5
5B2E
330
1E
100
AcDbEntity
  8
0
 48
0.27
100
AcDbLine
 10
171.3395635766301
 20
42.05169137265817
 30
0.0
 11
171.8493685766301
 21
42.34664012265817
 31
0.0
  0
LINE
  5
5B2F
330
1E
100
AcDbEntity
  8
0
 48
0.27
100
AcDbLine
 10
173.2584798266301
 20
45.61635137265817
 30
0.0
 11
173.3145210766301
 21
45.00047387265816
 31
0.0
  0
LINE
  5
5B30
330
1E
100
AcDbEntity
  8
0
 48
0.27
100
AcDbLine
 10
173.2584798266301
 20
44.38459637265815
 30
0.0
 11
173.0925098266301
 21
43.79238637265818
 31
0.0
  0
LINE
  5
5B31
330
1E
100
AcDbEntity
  8
0
 48
0.27
100
AcDbLine
 10
169.9378760766301
 20
47.19702012265814
 30
0.0
 11
170.3260248266301
 21
47.06957512265809
 31
0.0
  0
LINE
  5
5B32
330
1E
100
AcDbEntity
  8
0
 48
0.27
100
AcDbLine
 10
169.5342148266301
 20
42.7608938726582
 30
0.0
 11
169.9378760766301
 21
42.80392637265816
 31
0.0
  0
LINE
  5
5B33
330
1E
100
AcDbEntity
  8
0
 48
0.27
100
AcDbLine
 10
173.3145210766301
 20
45.00047387265816
 30
0.0
 11
173.2584798266301
 21
44.38459637265815
 31
0.0
  0
LINE
  5
5B34
330
1E
100
AcDbEntity
  8
0
 48
0.27
100
AcDbLine
 10
172.29621732663
 20
47.2573738726582
 30
0.0
 11
172.6629360766301
 21
46.77370887265816
 31
0.0
  0
LINE
  5
5B35
330
1E
100
AcDbEntity
  8
0
 48
0.27
100
AcDbLine
 10
171.8493685766301
 20
42.34664012265817
 30
0.0
 11
172.29621732663
 21
42.74357387265813
 31
0.0
  0
LINE
  5
5B36
330
1E
100
AcDbEntity
  8
0
 48
0.27
100
AcDbLine
 10
170.3260248266301
 20
47.06957512265809
 30
0.0
 11
170.6837460766301
 21
46.86261637265812
 31
0.0
  0
LINE
  5
5B37
330
1E
100
AcDbEntity
  8
0
 48
0.27
100
AcDbLine
 10
169.9378760766301
 20
42.80392637265816
 30
0.0
 11
170.3260248266301
 21
42.9313713726582
 31
0.0
  0
LINE
  5
5B38
330
1E
100
AcDbEntity
  8
0
 48
0.27
100
AcDbLine
 10
172.6629360766301
 20
46.77370887265816
 30
0.0
 11
172.9354323266301
 21
46.22189887265816
 31
0.0
  0
LINE
  5
5B39
330
1E
100
AcDbEntity
  8
0
 48
0.27
100
AcDbLine
 10
172.6629360766301
 20
43.22723887265816
 30
0.0
 11
172.29621732663
 21
42.74357387265813
 31
0.0
  0
LINE
  5
5B3A
330
1E
100
AcDbEntity
  8
0
 48
0.27
100
AcDbLine
 10
172.9354323266301
 20
46.22189887265816
 30
0.0
 11
173.1032360766301
 21
45.62315137265817
 31
0.0
  0
LINE
  5
5B3B
330
1E
100
AcDbEntity
  8
0
 48
0.27
100
AcDbLine
 10
172.9354323266301
 20
43.77904762265815
 30
0.0
 11
172.6629360766301
 21
43.22723887265816
 31
0.0
  0
LINE
  5
5B3C
330
1E
100
AcDbEntity
  8
0
 48
0.27
100
AcDbLine
 10
170.6837460766301
 20
46.86261637265812
 30
0.0
 11
170.9972898266301
 21
46.58409512265817
 31
0.0
  0
LINE
  5
5B3D
330
1E
100
AcDbEntity
  8
0
 48
0.27
100
AcDbLine
 10
170.3260248266301
 20
42.9313713726582
 30
0.0
 11
170.6837460766301
 21
43.13833137265821
 31
0.0
  0
LINE
  5
5B3E
330
1E
100
AcDbEntity
  8
0
 48
0.27
100
AcDbLine
 10
173.1032360766301
 20
45.62315137265817
 30
0.0
 11
173.1598960766301
 21
45.00047387265816
 31
0.0
  0
LINE
  5
5B3F
330
1E
100
AcDbEntity
  8
0
 48
0.27
100
AcDbLine
 10
173.1032360766301
 20
44.37779637265816
 30
0.0
 11
172.9354323266301
 21
43.77904762265815
 31
0.0
  0
LINE
  5
5B40
330
1E
100
AcDbEntity
  8
0
 48
0.27
100
AcDbLine
 10
173.1598960766301
 20
45.00047387265816
 30
0.0
 11
173.1032360766301
 21
44.37779637265816
 31
0.0
  0
LINE
  5
5B41
330
1E
100
AcDbEntity
  8
0
 48
0.27
100
AcDbLine
 10
170.9972898266301
 20
46.58409512265817
 30
0.0
 11
171.25460982663
 21
46.24471762265814
 31
0.0
  0
LINE
  5
5B42
330
1E
100
AcDbEntity
  8
0
 48
0.27
100
AcDbLine
 10
170.6837460766301
 20
43.13833137265821
 30
0.0
 11
170.9972898266301
 21
43.41685137265824
 31
0.0
  0
LINE
  5
5B43
330
1E
100
AcDbEntity
  8
0
 48
0.27
100
AcDbLine
 10
171.25460982663
 20
46.24471762265814
 30
0.0
 11
171.4458148266301
 21
45.85752387265817
 31
0.0
  0
LINE
  5
5B44
330
1E
100
AcDbEntity
  8
0
 48
0.27
100
AcDbLine
 10
171.25460982663
 20
43.75623012265821
 30
0.0
 11
170.9972898266301
 21
43.41685137265824
 31
0.0
  0
LINE
  5
5B45
330
1E
100
AcDbEntity
  8
0
 48
0.27
100
AcDbLine
 10
171.4458148266301
 20
45.85752387265817
 30
0.0
 11
171.5635585766301
 21
45.43739387265818
 31
0.0
  0
LINE
  5
5B46
330
1E
100
AcDbEntity
  8
0
 48
0.27
100
AcDbLine
 10
171.4458148266301
 20
44.14342387265816
 30
0.0
 11
171.25460982663
 21
43.75623012265821
 31
0.0
  0
LINE
  5
5B47
330
1E
100
AcDbEntity
  8
0
 48
0.27
100
AcDbLine
 10
171.5635585766301
 20
45.43739387265818
 30
0.0
 11
171.6033160766301
 21
45.00047387265816
 31
0.0
  0
LINE
  5
5B48
330
1E
100
AcDbEntity
  8
0
 48
0.27
100
AcDbLine
 10
171.5635585766301
 20
44.56355387265817
 30
0.0
 11
171.4458148266301
 21
44.14342387265816
 31
0.0
  0
LINE
  5
5B49
330
1E
100
AcDbEntity
  8
0
 48
0.27
100
AcDbLine
 10
171.6033160766301
 20
45.00047387265816
 30
0.0
 11
171.5635585766301
 21
44.56355387265817
 31
0.0
  0
POINT
  5
5B4A
330
1E
100
AcDbEntity
  8
0
100
AcDbPoint
 10
167.2623310766301
 20
45.00047387265816
 30
0.0
1001
pntflag
1000
endpoint
  0
ARC
  5
5B4B
330
1E
100
AcDbEntity
  8
0
 48
0.27
100
AcDbCircle
 10
183.12685232663
 20
42.50047387265825
 30
0.0
 40
3.69263874999997
100
AcDbArc
 50
141.6920247901383
 51
222.6114069976011
  0
ARC
  5
5BCC
330
1E
100
AcDbEntity
  8
0
 48
0.27
100
AcDbCircle
 10
0.0000000000000142
 20
45.0004497087832
 30
0.0
 40
6.562501095937681
100
AcDbArc
 50
30.24329777399993
 51
329.7566907592998
  0
LWPOLYLINE
  5
5BCD
330
1E
100
AcDbEntity
  8
0
 48
0.27
100
AcDbPolyline
 90
       17
 70
     0
 43
0.0
 10
11.18961152779013
 20
45.00044970878319
 10
11.23154691154338
 20
44.72915311035165
 10
11.27266065490935
 20
44.65052280472042
 10
11.31837357979338
 20
44.61359575267858
 10
11.36084503363613
 20
44.61397985274275
 10
11.40646109850403
 20
44.65173522504788
 10
11.44564098129709
 20
44.72644770939985
 10
11.48237431330655
 20
44.88903896242759
 10
11.48858337534346
 20
45.00044970878319
 10
11.44664966159052
 20
45.27174463721443
 10
11.4055342482242
 20
45.35037494284572
 10
11.35982132334018
 20
45.38730199488753
 10
11.31735153949774
 20
45.38691789469837
 10
11.27173380462956
 20
45.34916252239323
 10
11.23255559183678
 20
45.27445003804125
 10
11.19582058982704
 20
45.11185878513851
 10
11.18961152779013
 20
45.00044970878319
  0
ARC
  5
5BCE
330
1E
100
AcDbEntity
  8
0
 48
0.27
100
AcDbCircle
 10
0.0000000000000142
 20
45.0004497087832
 30
0.0
 40
5.0
100
AcDbArc
 50
48.59037799889986
 51
311.4096220031998
  0
LINE
  5
5BCF
330
1E
100
AcDbEntity
  8
0
 48
0.27
100
AcDbLine
 10
3.60844031635953
 20
48.75044929128311
 30
0.0
 11
2.886751251087471
 21
50.00044970878319
 31
0.0
  0
LINE
  5
5BD0
330
1E
100
AcDbEntity
  8
0
 48
0.27
100
AcDbLine
 10
-2.886751251087452
 20
50.00044970878319
 30
0.0
 11
2.886751251087471
 21
50.00044970878319
 31
0.0
  0
LINE
  5
5BD1
330
1E
100
AcDbEntity
  8
0
 48
0.27
100
AcDbLine
 10
-2.886751251087452
 20
50.00044970878319
 30
0.0
 11
-5.7735025021749
 21
45.0004497087832
 31
0.0
  0
LINE
  5
5BD2
330
1E
100
AcDbEntity
  8
0
 48
0.27
100
AcDbLine
 10
-5.7735025021749
 20
45.0004497087832
 30
0.0
 11
-2.886751251087452
 21
40.00044803878291
 31
0.0
  0
LINE
  5
5BD3
330
1E
100
AcDbEntity
  8
0
 48
0.27
100
AcDbLine
 10
2.886752921087746
 20
40.00044803878291
 30
0.0
 11
-2.886751251087452
 21
40.00044803878291
 31
0.0
  0
LINE
  5
5BD4
330
1E
100
AcDbEntity
  8
0
 48
0.27
100
AcDbLine
 10
3.60844031635953
 20
41.25044845628297
 30
0.0
 11
2.886752921087746
 21
40.00044803878291
 31
0.0
  0
LINE
  5
5BD5
330
1E
100
AcDbEntity
  8
0
 48
0.27
100
AcDbLine
 10
1.626882800439444
 20
41.25044845628297
 30
0.0
 11
5.394469158626342
 21
41.25044845628297
 31
0.0
  0
LINE
  5
5BD6
330
1E
100
AcDbEntity
  8
0
 48
0.27
100
AcDbLine
 10
5.473092784256504
 20
48.39459054522972
 30
0.0
 11
5.394469158626342
 21
48.75044929128311
 31
0.0
  0
LINE
  5
5BD7
330
1E
100
AcDbEntity
  8
0
 48
0.27
100
AcDbLine
 10
5.394469158626342
 20
41.25044845628297
 30
0.0
 11
5.473092784256504
 21
41.6063072023364
 31
0.0
  0
LINE
  5
5BD8
330
1E
100
AcDbEntity
  8
0
 48
0.27
100
AcDbLine
 10
1.626882800439444
 20
48.75044929128311
 30
0.0
 11
5.394469158626342
 21
48.75044929128311
 31
0.0
  0
LINE
  5
5BD9
330
1E
100
AcDbEntity
  8
0
 48
0.27
100
AcDbLine
 10
4.845902369765706
 20
41.32250396981627
 30
0.0
 11
7.348161045517898
 21
42.45477268890513
 31
0.0
  0
LINE
  5
5BDA
330
1E
100
AcDbEntity
  8
0
 48
0.27
100
AcDbLine
 10
12.17967970063149
 20
44.56352913631745
 30
0.0
 11
12.19614757600665
 21
45.0004497087832
 31
0.0
  0
LINE
  5
5BDB
330
1E
100
AcDbEntity
  8
0
 48
0.27
100
AcDbLine
 10
12.13090900473683
 20
44.14339874940568
 30
0.0
 11
12.17967970063149
 21
44.56352913631745
 31
0.0
  0
LINE
  5
5BDC
330
1E
100
AcDbEntity
  8
0
 48
0.27
100
AcDbLine
 10
12.19614757600665
 20
45.0004497087832
 30
0.0
 11
12.17967970063149
 21
45.43737028124893
 31
0.0
  0
LINE
  5
5BDD
330
1E
100
AcDbEntity
  8
0
 48
0.27
100
AcDbLine
 10
4.565935128511178
 20
41.25044845628297
 30
0.0
 11
4.845902369765706
 21
41.32250396981627
 31
0.0
  0
LINE
  5
5BDE
330
1E
100
AcDbEntity
  8
0
 48
0.27
100
AcDbLine
 10
4.565935128511178
 20
48.75044929128311
 30
0.0
 11
4.845902369765706
 21
48.67839377774985
 31
0.0
  0
LINE
  5
5BDF
330
1E
100
AcDbEntity
  8
0
 48
0.27
100
AcDbLine
 10
4.845902369765706
 20
48.67839377774985
 30
0.0
 11
7.348161045517898
 21
47.54612505866098
 31
0.0
  0
LINE
  5
5BE0
330
1E
100
AcDbEntity
  8
0
 48
0.27
100
AcDbLine
 10
12.05170922888545
 20
43.75620578311945
 30
0.0
 11
12.13090900473683
 21
44.14339874940568
 31
0.0
  0
LINE
  5
5BE1
330
1E
100
AcDbEntity
  8
0
 48
0.27
100
AcDbLine
 10
12.17967970063149
 20
45.43737028124893
 30
0.0
 11
12.13090900473683
 21
45.85749899816042
 31
0.0
  0
LINE
  5
5BE2
330
1E
100
AcDbEntity
  8
0
 48
0.27
100
AcDbLine
 10
11.94512311408555
 20
43.41682660256814
 30
0.0
 11
12.05170922888545
 21
43.75620578311945
 31
0.0
  0
LINE
  5
5BE3
330
1E
100
AcDbEntity
  8
0
 48
0.27
100
AcDbLine
 10
10.99592987469527
 20
42.95256311116114
 30
0.0
 11
10.99830294546658
 21
42.95372376147995
 31
0.0
  0
LINE
  5
5BE4
330
1E
100
AcDbEntity
  8
0
 48
0.27
100
AcDbLine
 10
12.13090900473683
 20
45.85749899816042
 30
0.0
 11
12.05170922888545
 21
46.24469363444694
 31
0.0
  0
LINE
  5
5BE5
330
1E
100
AcDbEntity
  8
0
 48
0.27
100
AcDbLine
 10
4.285967887256648
 20
41.32250396981627
 30
0.0
 11
4.565935128511178
 21
41.25044845628297
 31
0.0
  0
LINE
  5
5BE6
330
1E
100
AcDbEntity
  8
0
 48
0.27
100
AcDbLine
 10
4.285967887256648
 20
48.67839377774985
 30
0.0
 11
4.565935128511178
 21
48.75044929128311
 31
0.0
  0
LINE
  5
5BE7
330
1E
100
AcDbEntity
  8
0
 48
0.27
100
AcDbLine
 10
11.81524884177157
 20
43.13830558168013
 30
0.0
 11
11.94512311408555
 21
43.41682660256814
 31
0.0
  0
LINE
  5
5BE8
330
1E
100
AcDbEntity
  8
0
 48
0.27
100
AcDbLine
 10
12.05170922888545
 20
46.24469363444694
 30
0.0
 11
11.94512311408555
 21
46.58407114499797
 31
0.0
  0
LINE
  5
5BE9
330
1E
100
AcDbEntity
  8
0
 48
0.27
100
AcDbLine
 10
7.348161045517898
 20
42.45477268890513
 30
0.0
 11
7.649564413727242
 21
42.5777765789468
 31
0.0
  0
LINE
  5
5BEA
330
1E
100
AcDbEntity
  8
0
 48
0.27
100
AcDbLine
 10
7.348161045517898
 20
47.54612505866098
 30
0.0
 11
7.649564413727242
 21
47.4231228386196
 31
0.0
  0
LINE
  5
5BEB
330
1E
100
AcDbEntity
  8
0
 48
0.27
100
AcDbLine
 10
11.66707637352676
 20
42.93134742424312
 30
0.0
 11
11.81524884177157
 21
43.13830558168013
 31
0.0
  0
LINE
  5
5BEC
330
1E
100
AcDbEntity
  8
0
 48
0.27
100
AcDbLine
 10
11.94512311408555
 20
46.58407114499797
 30
0.0
 11
11.81524884177157
 21
46.86259216588601
 31
0.0
  0
LINE
  5
5BED
330
1E
100
AcDbEntity
  8
0
 48
0.27
100
AcDbLine
 10
4.016760459423998
 20
41.53589997932839
 30
0.0
 11
4.285967887256648
 21
41.32250396981627
 31
0.0
  0
LINE
  5
5BEE
330
1E
100
AcDbEntity
  8
0
 48
0.27
100
AcDbLine
 10
4.016760459423998
 20
48.46499776823772
 30
0.0
 11
4.285967887256648
 21
48.67839377774985
 31
0.0
  0
LINE
  5
5BEF
330
1E
100
AcDbEntity
  8
0
 48
0.27
100
AcDbLine
 10
7.649564413727242
 20
42.5777765789468
 30
0.0
 11
7.918219071342583
 21
42.5663671352914
 31
0.0
  0
LINE
  5
5BF0
330
1E
100
AcDbEntity
  8
0
 48
0.27
100
AcDbLine
 10
7.649564413727242
 20
47.4231228386196
 30
0.0
 11
7.918219071342583
 21
47.43453061227469
 31
0.0
  0
LINE
  5
5BF1
330
1E
100
AcDbEntity
  8
0
 48
0.27
100
AcDbLine
 10
9.943206621515535
 20
41.87003869825456
 30
0.0
 11
11.50630041105216
 21
42.80390133270961
 31
0.0
  0
LINE
  5
5BF2
330
1E
100
AcDbEntity
  8
0
 48
0.27
100
AcDbLine
 10
11.50630041105216
 20
42.80390133270961
 30
0.0
 11
11.66707637352676
 21
42.93134742424312
 31
0.0
  0
LINE
  5
5BF3
330
1E
100
AcDbEntity
  8
0
 48
0.27
100
AcDbLine
 10
11.81524884177157
 20
46.86259216588601
 30
0.0
 11
11.66707637352676
 21
47.06955032332298
 31
0.0
  0
LINE
  5
5BF4
330
1E
100
AcDbEntity
  8
0
 48
0.27
100
AcDbLine
 10
0.798348770324254
 20
45.0004497087832
 30
0.0
 11
1.626882800439444
 21
48.75044929128311
 31
0.0
  0
LINE
  5
5BF5
330
1E
100
AcDbEntity
  8
0
 48
0.27
100
AcDbLine
 10
0.798348770324254
 20
45.0004497087832
 30
0.0
 11
2.908867068280813
 21
45.0004497087832
 31
0.0
  0
LINE
  5
5BF6
330
1E
100
AcDbEntity
  8
0
 48
0.27
100
AcDbLine
 10
1.626882800439444
 20
41.25044845628297
 30
0.0
 11
0.798348770324254
 21
45.0004497087832
 31
0.0
  0
LINE
  5
5BF7
330
1E
100
AcDbEntity
  8
0
 48
0.27
100
AcDbLine
 10
4.016760459423998
 20
41.53589997932839
 30
0.0
 11
3.768656828615704
 21
41.88243678232503
 31
0.0
  0
LINE
  5
5BF8
330
1E
100
AcDbEntity
  8
0
 48
0.27
100
AcDbLine
 10
3.768656828615704
 20
48.11846096524106
 30
0.0
 11
4.016760459423998
 21
48.46499776823772
 31
0.0
  0
LINE
  5
5BF9
330
1E
100
AcDbEntity
  8
0
 48
0.27
100
AcDbLine
 10
9.70491925384651
 20
41.80870959826259
 30
0.0
 11
9.943206621515535
 21
41.87003869825456
 31
0.0
  0
LINE
  5
5BFA
330
1E
100
AcDbEntity
  8
0
 48
0.27
100
AcDbLine
 10
9.25387882677275
 20
41.84356417958331
 30
0.0
 11
9.70491925384651
 21
41.80870959826259
 31
0.0
  0
LINE
  5
5BFB
330
1E
100
AcDbEntity
  8
0
 48
0.27
100
AcDbLine
 10
7.918219071342583
 20
42.5663671352914
 30
0.0
 11
8.610653067104065
 21
42.10984576642733
 31
0.0
  0
LINE
  5
5BFC
330
1E
100
AcDbEntity
  8
0
 48
0.27
100
AcDbLine
 10
11.33909828650442
 20
42.76086875864817
 30
0.0
 11
11.50630041105216
 21
42.80390133270961
 31
0.0
  0
LINE
  5
5BFD
330
1E
100
AcDbEntity
  8
0
 48
0.27
100
AcDbLine
 10
9.943206621515535
 20
48.13086071931182
 30
0.0
 11
11.50630041105216
 21
47.1969964148565
 31
0.0
  0
LINE
  5
5BFE
330
1E
100
AcDbEntity
  8
0
 48
0.27
100
AcDbLine
 10
11.50630041105216
 20
47.1969964148565
 30
0.0
 11
11.66707637352676
 21
47.06955032332298
 31
0.0
  0
LINE
  5
5BFF
330
1E
100
AcDbEntity
  8
0
 48
0.27
100
AcDbLine
 10
9.70491925384651
 20
48.19218814930351
 30
0.0
 11
9.943206621515535
 21
48.13086071931182
 31
0.0
  0
LINE
  5
5C00
330
1E
100
AcDbEntity
  8
0
 48
0.27
100
AcDbLine
 10
9.25387882677275
 20
48.15733523785809
 30
0.0
 11
9.70491925384651
 21
48.19218814930351
 31
0.0
  0
LINE
  5
5C01
330
1E
100
AcDbEntity
  8
0
 48
0.27
100
AcDbLine
 10
7.679674523630645
 20
42.74699606420643
 30
0.0
 11
7.854775750622552
 21
42.60819563890179
 31
0.0
  0
LINE
  5
5C02
330
1E
100
AcDbEntity
  8
0
 48
0.27
100
AcDbLine
 10
8.610653067104065
 20
42.10984576642733
 30
0.0
 11
9.018193319913278
 21
41.90422193946317
 31
0.0
  0
LINE
  5
5C03
330
1E
100
AcDbEntity
  8
0
 48
0.27
100
AcDbLine
 10
9.018193319913278
 20
41.90422193946317
 30
0.0
 11
9.25387882677275
 21
41.84356417958331
 31
0.0
  0
LINE
  5
5C04
330
1E
100
AcDbEntity
  8
0
 48
0.27
100
AcDbLine
 10
7.918219071342583
 20
47.43453061227469
 30
0.0
 11
8.610653067104065
 21
47.89105198113877
 31
0.0
  0
LINE
  5
5C05
330
1E
100
AcDbEntity
  8
0
 48
0.27
100
AcDbLine
 10
7.679674523630645
 20
47.25390168335967
 30
0.0
 11
7.854775750622552
 21
47.39270210866435
 31
0.0
  0
LINE
  5
5C06
330
1E
100
AcDbEntity
  8
0
 48
0.27
100
AcDbLine
 10
3.768656828615704
 20
41.88243678232503
 30
0.0
 11
3.551192697674178
 21
42.34879779433232
 31
0.0
  0
LINE
  5
5C07
330
1E
100
AcDbEntity
  8
0
 48
0.27
100
AcDbLine
 10
3.551192697674178
 20
47.65209995323377
 30
0.0
 11
3.768656828615704
 21
48.11846096524106
 31
0.0
  0
LINE
  5
5C08
330
1E
100
AcDbEntity
  8
0
 48
0.27
100
AcDbLine
 10
9.466630216177227
 20
41.87003869825456
 30
0.0
 11
9.70491925384651
 21
41.80870959826259
 31
0.0
  0
LINE
  5
5C09
330
1E
100
AcDbEntity
  8
0
 48
0.27
100
AcDbLine
 10
9.018193319913278
 20
48.09667580810296
 30
0.0
 11
9.25387882677275
 21
48.15733523785809
 31
0.0
  0
LINE
  5
5C0A
330
1E
100
AcDbEntity
  8
0
 48
0.27
100
AcDbLine
 10
8.610653067104065
 20
47.89105198113877
 30
0.0
 11
9.018193319913278
 21
48.09667580810296
 31
0.0
  0
LINE
  5
5C0B
330
1E
100
AcDbEntity
  8
0
 48
0.27
100
AcDbLine
 10
3.737401098396013
 20
41.25044845628297
 30
0.0
 11
2.908867068280813
 21
45.0004497087832
 31
0.0
  0
LINE
  5
5C0C
330
1E
100
AcDbEntity
  8
0
 48
0.27
100
AcDbLine
 10
2.908867068280813
 20
45.0004497087832
 30
0.0
 11
3.737401098396013
 21
48.75044929128311
 31
0.0
  0
LINE
  5
5C0D
330
1E
100
AcDbEntity
  8
0
 48
0.27
100
AcDbLine
 10
7.679674523630645
 20
42.74699606420643
 30
0.0
 11
7.518299030930947
 21
42.97239436759795
 31
0.0
  0
LINE
  5
5C0E
330
1E
100
AcDbEntity
  8
0
 48
0.27
100
AcDbLine
 10
11.17189616208165
 20
42.80390133270961
 30
0.0
 11
11.33909828650442
 21
42.76086875864817
 31
0.0
  0
LINE
  5
5C0F
330
1E
100
AcDbEntity
  8
0
 48
0.27
100
AcDbLine
 10
11.33909828650442
 20
47.24002898891793
 30
0.0
 11
11.50630041105216
 21
47.1969964148565
 31
0.0
  0
LINE
  5
5C10
330
1E
100
AcDbEntity
  8
0
 48
0.27
100
AcDbLine
 10
9.466630216177227
 20
48.13086071931182
 30
0.0
 11
9.70491925384651
 21
48.19218814930351
 31
0.0
  0
LINE
  5
5C11
330
1E
100
AcDbEntity
  8
0
 48
0.27
100
AcDbLine
 10
8.399074018145366
 20
47.7233371663804
 30
0.0
 11
8.610653067104065
 21
47.89105198113877
 31
0.0
  0
LINE
  5
5C12
330
1E
100
AcDbEntity
  8
0
 48
0.27
100
AcDbLine
 10
7.518299030930947
 20
47.02850337996816
 30
0.0
 11
7.679674523630645
 21
47.25390168335967
 31
0.0
  0
LINE
  5
5C13
330
1E
100
AcDbEntity
  8
0
 48
0.27
100
AcDbLine
 10
3.551192697674178
 20
42.34879779433232
 30
0.0
 11
3.372723079494765
 21
42.91706056960719
 31
0.0
  0
LINE
  5
5C14
330
1E
100
AcDbEntity
  8
0
 48
0.27
100
AcDbLine
 10
3.372723079494765
 20
47.08383717795889
 30
0.0
 11
3.551192697674178
 21
47.65209995323377
 31
0.0
  0
LINE
  5
5C15
330
1E
100
AcDbEntity
  8
0
 48
0.27
100
AcDbLine
 10
7.518299030930947
 20
42.97239436759795
 30
0.0
 11
7.376853324934518
 21
43.27572992650501
 31
0.0
  0
LINE
  5
5C16
330
1E
100
AcDbEntity
  8
0
 48
0.27
100
AcDbLine
 10
9.237499461412422
 20
42.05166628746136
 30
0.0
 11
9.466630216177227
 21
41.87003869825456
 31
0.0
  0
LINE
  5
5C17
330
1E
100
AcDbEntity
  8
0
 48
0.27
100
AcDbLine
 10
7.376853324934518
 20
46.72516782106112
 30
0.0
 11
7.518299030930947
 21
47.02850337996816
 31
0.0
  0
LINE
  5
5C18
330
1E
100
AcDbEntity
  8
0
 48
0.27
100
AcDbLine
 10
11.01111852960678
 20
42.93134742424312
 30
0.0
 11
11.17189616208165
 21
42.80390133270961
 31
0.0
  0
LINE
  5
5C19
330
1E
100
AcDbEntity
  8
0
 48
0.27
100
AcDbLine
 10
9.237499461412422
 20
47.94923146010474
 30
0.0
 11
9.466630216177227
 21
48.13086071931182
 31
0.0
  0
LINE
  5
5C1A
330
1E
100
AcDbEntity
  8
0
 48
0.27
100
AcDbLine
 10
11.17189616208165
 20
47.1969964148565
 30
0.0
 11
11.33909828650442
 21
47.24002898891793
 31
0.0
  0
LINE
  5
5C1B
330
1E
100
AcDbEntity
  8
0
 48
0.27
100
AcDbLine
 10
7.376853324934518
 20
43.27572992650501
 30
0.0
 11
7.260771587048868
 21
43.64534613698091
 31
0.0
  0
LINE
  5
5C1C
330
1E
100
AcDbEntity
  8
0
 48
0.27
100
AcDbLine
 10
3.372723079494765
 20
42.91706056960719
 30
0.0
 11
3.240110006348378
 21
43.56538651100265
 31
0.0
  0
LINE
  5
5C1D
330
1E
100
AcDbEntity
  8
0
 48
0.27
100
AcDbLine
 10
3.240110006348378
 20
46.43551290656373
 30
0.0
 11
3.372723079494765
 21
47.08383717795889
 31
0.0
  0
LINE
  5
5C1E
330
1E
100
AcDbEntity
  8
0
 48
0.27
100
AcDbLine
 10
7.260771587048868
 20
46.35555161058519
 30
0.0
 11
7.376853324934518
 21
46.72516782106112
 31
0.0
  0
LINE
  5
5C1F
330
1E
100
AcDbEntity
  8
0
 48
0.27
100
AcDbLine
 10
9.237499461412422
 20
42.05166628746136
 30
0.0
 11
9.026331232647304
 21
42.34661510359282
 31
0.0
  0
LINE
  5
5C20
330
1E
100
AcDbEntity
  8
0
 48
0.27
100
AcDbLine
 10
7.260771587048868
 20
43.64534613698091
 30
0.0
 11
7.174516058894185
 21
44.06703797452845
 31
0.0
  0
LINE
  5
5C21
330
1E
100
AcDbEntity
  8
0
 48
0.27
100
AcDbLine
 10
3.240110006348378
 20
43.56538651100265
 30
0.0
 11
3.15844697971065
 21
44.26886088023286
 31
0.0
  0
LINE
  5
5C22
330
1E
100
AcDbEntity
  8
0
 48
0.27
100
AcDbLine
 10
3.15844697971065
 20
45.73203853720853
 30
0.0
 11
3.240110006348378
 21
46.43551290656373
 31
0.0
  0
LINE
  5
5C23
330
1E
100
AcDbEntity
  8
0
 48
0.27
100
AcDbLine
 10
11.01111852960678
 20
47.06955032332298
 30
0.0
 11
11.17189616208165
 21
47.1969964148565
 31
0.0
  0
LINE
  5
5C24
330
1E
100
AcDbEntity
  8
0
 48
0.27
100
AcDbLine
 10
11.01111852960678
 20
42.93134742424312
 30
0.0
 11
10.86294606136202
 21
43.13830558168013
 31
0.0
  0
LINE
  5
5C25
330
1E
100
AcDbEntity
  8
0
 48
0.27
100
AcDbLine
 10
9.026331232647304
 20
47.65428264397328
 30
0.0
 11
9.237499461412422
 21
47.94923146010474
 31
0.0
  0
LINE
  5
5C26
330
1E
100
AcDbEntity
  8
0
 48
0.27
100
AcDbLine
 10
7.174516058894185
 20
45.93385977303767
 30
0.0
 11
7.260771587048868
 21
46.35555161058519
 31
0.0
  0
LINE
  5
5C27
330
1E
100
AcDbEntity
  8
0
 48
0.27
100
AcDbLine
 10
7.174516058894185
 20
44.06703797452845
 30
0.0
 11
7.121398351648533
 21
44.52459975369124
 31
0.0
  0
LINE
  5
5C28
330
1E
100
AcDbEntity
  8
0
 48
0.27
100
AcDbLine
 10
3.15844697971065
 20
44.26886088023286
 30
0.0
 11
3.130871930730629
 21
45.0004497087832
 31
0.0
  0
LINE
  5
5C29
330
1E
100
AcDbEntity
  8
0
 48
0.27
100
AcDbLine
 10
3.130871930730629
 20
45.0004497087832
 30
0.0
 11
3.15844697971065
 21
45.73203853720853
 31
0.0
  0
LINE
  5
5C2A
330
1E
100
AcDbEntity
  8
0
 48
0.27
100
AcDbLine
 10
7.121398351648533
 20
45.47629799387484
 30
0.0
 11
7.174516058894185
 21
45.93385977303767
 31
0.0
  0
LINE
  5
5C2B
330
1E
100
AcDbEntity
  8
0
 48
0.27
100
AcDbLine
 10
7.121398351648533
 20
44.52459975369124
 30
0.0
 11
7.103464215778537
 21
45.0004497087832
 31
0.0
  0
LINE
  5
5C2C
330
1E
100
AcDbEntity
  8
0
 48
0.27
100
AcDbLine
 10
7.103464215778537
 20
45.0004497087832
 30
0.0
 11
7.121398351648533
 21
45.47629799387484
 31
0.0
  0
LINE
  5
5C2D
330
1E
100
AcDbEntity
  8
0
 48
0.27
100
AcDbLine
 10
9.026331232647304
 20
42.34661510359282
 30
0.0
 11
8.841240062237101
 21
42.7435491830058
 31
0.0
  0
LINE
  5
5C2E
330
1E
100
AcDbEntity
  8
0
 48
0.27
100
AcDbLine
 10
10.86294606136202
 20
46.86259216588601
 30
0.0
 11
11.01111852960678
 21
47.06955032332298
 31
0.0
  0
LINE
  5
5C2F
330
1E
100
AcDbEntity
  8
0
 48
0.27
100
AcDbLine
 10
10.86294606136202
 20
43.13830558168013
 30
0.0
 11
10.73307178904797
 21
43.41682660256814
 31
0.0
  0
LINE
  5
5C30
330
1E
100
AcDbEntity
  8
0
 48
0.27
100
AcDbLine
 10
8.841240062237101
 20
47.25735023456059
 30
0.0
 11
9.026331232647304
 21
47.65428264397328
 31
0.0
  0
LINE
  5
5C31
330
1E
100
AcDbEntity
  8
0
 48
0.27
100
AcDbLine
 10
10.73307178904797
 20
46.58407114499797
 30
0.0
 11
10.86294606136202
 21
46.86259216588601
 31
0.0
  0
LINE
  5
5C32
330
1E
100
AcDbEntity
  8
0
 48
0.27
100
AcDbLine
 10
8.841240062237101
 20
42.7435491830058
 30
0.0
 11
8.689340152744819
 21
43.22721307065267
 31
0.0
  0
LINE
  5
5C33
330
1E
100
AcDbEntity
  8
0
 48
0.27
100
AcDbLine
 10
10.73307178904797
 20
43.41682660256814
 30
0.0
 11
10.62648734424836
 21
43.75620578311945
 31
0.0
  0
LINE
  5
5C34
330
1E
100
AcDbEntity
  8
0
 48
0.27
100
AcDbLine
 10
8.689340152744819
 20
46.77368467678843
 30
0.0
 11
8.841240062237101
 21
47.25735023456059
 31
0.0
  0
LINE
  5
5C35
330
1E
100
AcDbEntity
  8
0
 48
0.27
100
AcDbLine
 10
10.62648734424836
 20
46.24469363444694
 30
0.0
 11
10.73307178904797
 21
46.58407114499797
 31
0.0
  0
LINE
  5
5C36
330
1E
100
AcDbEntity
  8
0
 48
0.27
100
AcDbLine
 10
8.689340152744819
 20
43.22721307065267
 30
0.0
 11
8.576468155895215
 21
43.77902300055493
 31
0.0
  0
LINE
  5
5C37
330
1E
100
AcDbEntity
  8
0
 48
0.27
100
AcDbLine
 10
10.62648734424836
 20
43.75620578311945
 30
0.0
 11
10.54728756839704
 21
44.14339874940568
 31
0.0
  0
LINE
  5
5C38
330
1E
100
AcDbEntity
  8
0
 48
0.27
100
AcDbLine
 10
8.576468155895215
 20
46.22187474701117
 30
0.0
 11
8.689340152744819
 21
46.77368467678843
 31
0.0
  0
LINE
  5
5C39
330
1E
100
AcDbEntity
  8
0
 48
0.27
100
AcDbLine
 10
10.54728756839704
 20
45.85749899816042
 30
0.0
 11
10.62648734424836
 21
46.24469363444694
 31
0.0
  0
LINE
  5
5C3A
330
1E
100
AcDbEntity
  8
0
 48
0.27
100
AcDbLine
 10
8.576468155895215
 20
43.77902300055493
 30
0.0
 11
8.506962733287773
 21
44.37777163579596
 31
0.0
  0
LINE
  5
5C3B
330
1E
100
AcDbEntity
  8
0
 48
0.27
100
AcDbLine
 10
10.54728756839704
 20
44.14339874940568
 30
0.0
 11
10.49851520250202
 21
44.56352913631745
 31
0.0
  0
LINE
  5
5C3C
330
1E
100
AcDbEntity
  8
0
 48
0.27
100
AcDbLine
 10
8.506962733287773
 20
45.62312611177016
 30
0.0
 11
8.576468155895215
 21
46.22187474701117
 31
0.0
  0
LINE
  5
5C3D
330
1E
100
AcDbEntity
  8
0
 48
0.27
100
AcDbLine
 10
10.49851520250202
 20
45.43737028124893
 30
0.0
 11
10.54728756839704
 21
45.85749899816042
 31
0.0
  0
LINE
  5
5C3E
330
1E
100
AcDbEntity
  8
0
 48
0.27
100
AcDbLine
 10
8.506962733287773
 20
44.37777163579596
 30
0.0
 11
8.483492545618236
 21
45.0004497087832
 31
0.0
  0
LINE
  5
5C3F
330
1E
100
AcDbEntity
  8
0
 48
0.27
100
AcDbLine
 10
10.49851520250202
 20
44.56352913631745
 30
0.0
 11
10.48204732712692
 21
45.0004497087832
 31
0.0
  0
LINE
  5
5C40
330
1E
100
AcDbEntity
  8
0
 48
0.27
100
AcDbLine
 10
10.48204732712692
 20
45.0004497087832
 30
0.0
 11
10.49851520250202
 21
45.43737028124893
 31
0.0
  0
LINE
  5
5C41
330
1E
100
AcDbEntity
  8
0
 48
0.27
100
AcDbLine
 10
8.483492545618236
 20
45.0004497087832
 30
0.0
 11
8.506962733287773
 21
45.62312611177016
 31
0.0
  0
LINE
  5
5C42
330
1E
100
AcDbEntity
  8
0
 48
0.27
100
AcDbLine
 10
7.854775750622552
 20
42.60819563890179
 30
0.0
 11
7.918219071342583
 21
42.5663671352914
 31
0.0
  0
LINE
  5
5C43
330
1E
100
AcDbEntity
  8
0
 48
0.27
100
AcDbLine
 10
7.589122084133393
 20
42.58034336987544
 30
0.0
 11
7.649564413727242
 21
42.5777765789468
 31
0.0
  0
LINE
  5
5C44
330
1E
100
AcDbEntity
  8
0
 48
0.27
100
AcDbLine
 10
7.854775750622552
 20
47.39270210866435
 30
0.0
 11
7.918219071342583
 21
47.43453061227469
 31
0.0
  0
LINE
  5
5C46
330
1E
100
AcDbEntity
  8
中心線
 48
0.27
100
AcDbLine
 10
13.69614757600665
 20
45.0004497087832
 30
0.0
 11
-8.062501095937667
 21
45.0004497087832
 31
0.0
  0
POINT
  5
5C47
330
1E
100
AcDbEntity
  8
0
100
AcDbPoint
 10
12.19614757600665
 20
45.0004497087832
 30
0.0
1001
pntflag
1000
endpoint
  0
LINE
  5
5C7B
330
1E
100
AcDbEntity
  8
0
  6
Continuous
100
AcDbLine
 10
179.197484842631
 20
156.1742662433752
 30
0.0
 11
179.197484842631
 21
165.3742665089563
 31
0.0
  0
ARC
  5
5C7C
330
1E
100
AcDbEntity
  8
0
  6
Continuous
100
AcDbCircle
 10
189.8207301488092
 20
160.7742663761657
 30
0.0
 40
10.62324530617823
100
AcDbArc
 50
163.2213499979118
 51
196.7786500020881
  0
ARC
  5
5C7D
330
1E
100
AcDbEntity
  8
0
  6
Continuous
100
AcDbCircle
 10
168.0975736613626
 20
156.078128451077
 30
0.0
 40
2.472178306553662
100
AcDbArc
 50
34.63277999893668
 51
100.3672200010636
  0
ARC
  5
5C7E
330
1E
100
AcDbEntity
  8
0
  6
Continuous
100
AcDbCircle
 10
174.3994064126509
 20
160.7742663761657
 30
0.0
 40
5.333333333333332
100
AcDbArc
 50
90.0
 51
210.8352048940846
  0
LINE
  5
5C7F
330
1E
100
AcDbEntity
  8
0
  6
Continuous
100
AcDbLine
 10
175.9108774801719
 20
155.4409330428324
 30
0.0
 11
179.2943142933177
 21
155.4409330428324
 31
0.0
  0
ARC
  5
5C80
330
1E
100
AcDbEntity
  8
0
  6
Continuous
100
AcDbCircle
 10
175.5348041127728
 20
152.9975267316087
 30
0.0
 40
2.472178306553662
100
AcDbArc
 50
34.63277999893668
 51
100.3672200010636
  0
ARC
  5
5C81
330
1E
100
AcDbEntity
  8
0
  6
Continuous
100
AcDbCircle
 10
176.4233116499584
 20
149.7767204693794
 30
0.0
 40
2.746231479756806
100
AcDbArc
 50
89.1520988349392
 51
159.1520988349398
  0
ARC
  5
5C82
330
1E
100
AcDbEntity
  8
0
  6
Continuous
100
AcDbCircle
 10
176.3612296840358
 20
154.992694554044
 30
0.0
 40
2.472178306553662
100
AcDbArc
 50
214.6327799989367
 51
280.3672200010637
  0
LINE
  5
5C83
330
1E
100
AcDbEntity
  8
0
  6
Continuous
100
AcDbLine
 10
169.043635341133
 20
158.3621233892204
 30
0.0
 11
176.4808657925433
 21
155.281521669752
 31
0.0
  0
LINE
  5
5C84
330
1E
100
AcDbEntity
  8
0
  6
Continuous
100
AcDbLine
 10
167.9779375528552
 20
155.7893013353689
 30
0.0
 11
175.4151680042654
 21
152.7086996159006
 31
0.0
  0
LINE
  5
5C85
330
1E
100
AcDbEntity
  8
0
  6
Continuous
100
AcDbLine
 10
167.9440511427527
 20
153.2032463182158
 30
0.0
 11
173.6105122754885
 21
150.8561212663767
 31
0.0
  0
ARC
  5
5C86
330
1E
100
AcDbEntity
  8
0
  6
Continuous
100
AcDbCircle
 10
169.5225278109516
 20
149.9564143949853
 30
0.0
 40
3.813798694049016
100
AcDbArc
 50
118.5864858262623
 51
163.5864858262639
  0
LINE
  5
5C87
330
1E
100
AcDbEntity
  8
0
  6
Continuous
100
AcDbLine
 10
165.8641515092977
 20
151.034070793949
 30
0.0
 11
173.547384687699
 21
147.8515714085803
 31
0.0
  0
LINE
  5
5C88
330
1E
100
AcDbEntity
  8
0
  6
Continuous
100
AcDbLine
 10
165.8641515092977
 20
146.9914095107677
 30
0.0
 11
165.8641515092977
 21
151.034070793949
 31
0.0
  0
ARC
  5
5C89
330
1E
100
AcDbEntity
  8
0
  6
Continuous
100
AcDbCircle
 10
170.198503849171
 20
149.6764159521156
 30
0.0
 40
3.813798694049015
100
AcDbArc
 50
331.4135141737376
 51
16.41351417373966
  0
ARC
  5
5C8A
330
1E
100
AcDbEntity
  8
0
  6
Continuous
100
AcDbCircle
 10
165.1918500077728
 20
154.4289442068459
 30
0.0
 40
2.746231479756806
100
AcDbArc
 50
335.8479011650611
 51
45.84790116506002
  0
ARC
  5
5C8B
330
1E
100
AcDbEntity
  8
0
  6
Continuous
100
AcDbCircle
 10
168.9239992326257
 20
158.0732962735123
 30
0.0
 40
2.472178306553662
100
AcDbArc
 50
214.6327799989367
 51
280.3672200010637
  0
LINE
  5
5C8C
330
1E
100
AcDbEntity
  8
0
  6
Continuous
100
AcDbLine
 10
166.8898633358782
 20
156.6684014560026
 30
0.0
 11
167.6526330272324
 21
158.509890389837
 31
0.0
  0
ARC
  5
5C8D
330
1E
100
AcDbEntity
  8
0
  6
Continuous
100
AcDbCircle
 10
169.2050780872916
 20
148.2340484856646
 30
0.0
 40
9.295339642905963
100
AcDbArc
 50
50.72134999791018
 51
84.27865000208941
  0
LINE
  5
5C8E
330
1E
100
AcDbEntity
  8
0
  6
Continuous
100
AcDbLine
 10
169.3689402961445
 20
155.6415341568936
 30
0.0
 11
170.1317099874987
 21
157.4830230907281
 31
0.0
  0
ARC
  5
5C8F
330
1E
100
AcDbEntity
  8
0
  6
Continuous
100
AcDbCircle
 10
175.2537252581069
 20
162.8367745194563
 30
0.0
 40
9.295339642905963
100
AcDbArc
 50
230.7213499979124
 51
264.2786500020894
  0
LINE
  5
5C90
330
1E
100
AcDbEntity
  8
0
  6
Continuous
100
AcDbLine
 10
174.3270933578997
 20
153.5877999143929
 30
0.0
 11
175.0898630492539
 21
155.4292888482273
 31
0.0
  0
LINE
  5
5C91
330
1E
100
AcDbEntity
  8
0
  6
Continuous
100
AcDbLine
 10
176.8061139821041
 20
152.5608755762566
 30
0.0
 11
177.5689405065918
 21
154.4025017174129
 31
0.0
  0
ARC
  5
5C92
330
1E
100
AcDbEntity
  8
0
  6
Continuous
100
AcDbCircle
 10
182.0228314786923
 20
156.1742662433752
 30
0.0
 40
2.825346636061327
100
AcDbArc
 50
147.1327799989379
 51
212.867220001062
  0
LINE
  5
5C93
330
1E
100
AcDbEntity
  8
0
  6
Continuous
100
AcDbLine
 10
179.6498215654435
 20
154.6409330428323
 30
0.0
 11
180.83421357663
 21
154.6409330428324
 31
0.0
  0
LINE
  5
5C94
330
1E
100
AcDbEntity
  8
0
  6
Continuous
100
AcDbLine
 10
179.6498215654435
 20
157.7075999750802
 30
0.0
 11
180.83421357663
 21
157.7075999750802
 31
0.0
  0
LINE
  5
5C95
330
1E
100
AcDbEntity
  8
0
  6
Continuous
100
AcDbLine
 10
174.3994064126509
 20
166.1075997094991
 30
0.0
 11
179.2943142933177
 21
166.1075997094991
 31
0.0
  0
ARC
  5
5C96
330
1E
100
AcDbEntity
  8
0
  6
Continuous
100
AcDbCircle
 10
182.0228314786923
 20
165.3742665089563
 30
0.0
 40
2.825346636061327
100
AcDbArc
 50
147.1327799989379
 51
212.867220001062
  0
LINE
  5
5C97
330
1E
100
AcDbEntity
  8
0
  6
Continuous
100
AcDbLine
 10
179.6498215654435
 20
163.8409327772512
 30
0.0
 11
180.83421357663
 21
163.8409327772512
 31
0.0
  0
LINE
  5
5C98
330
1E
100
AcDbEntity
  8
0
  6
Continuous
100
AcDbLine
 10
179.6498215654435
 20
166.9075997094991
 30
0.0
 11
180.83421357663
 21
166.9075997094991
 31
0.0
  0
LINE
  5
5C99
330
1E
100
AcDbEntity
  8
0
  6
Continuous
100
AcDbLine
 10
165.8641515092977
 20
146.9914095107677
 30
0.0
 11
170.6887914803212
 21
144.9929782012025
 31
0.0
  0
LINE
  5
5C9A
330
1E
100
AcDbEntity
  8
0
  6
Continuous
100
AcDbLine
 10
170.6887914803212
 20
144.9929782012025
 30
0.0
 11
173.547384687699
 21
147.8515714085803
 31
0.0
  0
CIRCLE
  5
5D83
330
1E
100
AcDbEntity
  8
0
100
AcDbCircle
 10
223.3842135766299
 20
123.2742663761656
 30
0.0
 40
5.099999999999999
  0
LINE
  5
5D84
330
1E
100
AcDbEntity
  8
AM7
100
AcDbLine
 10
231.1390012338385
 20
123.2742663761656
 30
0.0
 11
215.9498895778638
 21
123.2742663761657
 31
0.0
  0
LINE
  5
5D85
330
1E
100
AcDbEntity
  8
AM7
100
AcDbLine
 10
231.1390012338386
 20
198.2742663761656
 30
0.0
 11
215.9498895778638
 21
198.2742663761657
 31
0.0
  0
ARC
  5
5D86
330
1E
100
AcDbEntity
  8
AM4
100
AcDbCircle
 10
223.38421357663
 20
198.2742663761656
 30
0.0
 40
6.0
100
AcDbArc
 50
180.0
 51
89.99999999999998
  0
CIRCLE
  5
5D87
330
1E
100
AcDbEntity
  8
0
100
AcDbCircle
 10
223.38421357663
 20
198.2742663761656
 30
0.0
 40
5.099999999999999
  0
ARC
  5
5D88
330
1E
100
AcDbEntity
  8
AM4
100
AcDbCircle
 10
223.3842135766299
 20
123.2742663761656
 30
0.0
 40
6.0
100
AcDbArc
 50
180.0
 51
89.99999999999998
  0
LINE
  5
5D89
330
1E
100
AcDbEntity
  8
0
100
AcDbLine
 10
202.0342135766299
 20
171.7742663761657
 30
0.0
 11
319.7342135766298
 21
171.7742663761656
 31
0.0
  0
LINE
  5
5D8A
330
1E
100
AcDbEntity
  8
0
100
AcDbLine
 10
202.0342135766299
 20
185.2742663761657
 30
0.0
 11
319.7342135766298
 21
185.2742663761656
 31
0.0
  0
LINE
  5
5D8B
330
1E
100
AcDbEntity
  8
0
100
AcDbLine
 10
202.0342135766299
 20
210.7742663761657
 30
0.0
 11
319.7342135766298
 21
210.7742663761656
 31
0.0
  0
LINE
  5
5D8C
330
1E
100
AcDbEntity
  8
AM7
100
AcDbLine
 10
174.3279828784989
 20
160.7742663761657
 30
0.0
 11
346.6314287652908
 21
160.7742663761656
 31
0.0
  0
LINE
  5
5D8D
330
1E
100
AcDbEntity
  8
0
100
AcDbLine
 10
202.0342135766299
 20
136.2742663761657
 30
0.0
 11
319.7342135766298
 21
136.2742663761656
 31
0.0
  0
LINE
  5
5D8E
330
1E
100
AcDbEntity
  8
0
100
AcDbLine
 10
202.0342135766299
 20
149.7742663761657
 30
0.0
 11
319.7342135766298
 21
149.7742663761656
 31
0.0
  0
LINE
  5
5D8F
330
1E
100
AcDbEntity
  8
0
100
AcDbLine
 10
202.0342135766299
 20
110.7742663761657
 30
0.0
 11
319.7342135766298
 21
110.7742663761661
 31
0.0
  0
LINE
  5
5D90
330
1E
100
AcDbEntity
  8
0
100
AcDbLine
 10
202.0342135766299
 20
112.7742663761661
 30
0.0
 11
319.7342135766298
 21
112.7742663761661
 31
0.0
  0
LINE
  5
5D91
330
1E
100
AcDbEntity
  8
0
100
AcDbLine
 10
202.0342135766299
 20
135.2742663761666
 30
0.0
 11
319.7342135766298
 21
135.2742663761665
 31
0.0
  0
LINE
  5
5D92
330
1E
100
AcDbEntity
  8
0
100
AcDbLine
 10
202.0342135766299
 20
150.7742663761657
 30
0.0
 11
319.7342135766298
 21
150.7742663761656
 31
0.0
  0
LINE
  5
5D93
330
1E
100
AcDbEntity
  8
0
100
AcDbLine
 10
202.0342135766299
 20
170.7742663761657
 30
0.0
 11
319.7342135766298
 21
170.7742663761656
 31
0.0
  0
LINE
  5
5D94
330
1E
100
AcDbEntity
  8
0
100
AcDbLine
 10
202.0342135766299
 20
186.2742663761661
 30
0.0
 11
319.7342135766298
 21
186.274266376166
 31
0.0
  0
LINE
  5
5D95
330
1E
100
AcDbEntity
  8
0
100
AcDbLine
 10
202.0342135766299
 20
208.8242663761656
 30
0.0
 11
319.7342135766298
 21
208.8242663761656
 31
0.0
  0
LINE
  5
5D96
330
1E
100
AcDbEntity
  8
0
100
AcDbLine
 10
202.0342135766299
 20
210.7742663761657
 30
0.0
 11
202.0342135766299
 21
110.7742663761659
 31
0.0
  0
LINE
  5
5D9E
330
1E
100
AcDbEntity
  8
AM7
100
AcDbLine
 10
223.38421357663
 20
205.8695375648764
 30
0.0
 11
223.38421357663
 21
190.5560790663122
 31
0.0
  0
LINE
  5
5DDB
330
1E
100
AcDbEntity
  8
AM7
100
AcDbLine
 10
223.38421357663
 20
115.6789951874549
 30
0.0
 11
223.38421357663
 21
130.9924536860191
 31
0.0
  0
LINE
  5
5DE4
330
1E
100
AcDbEntity
  8
0
100
AcDbLine
 10
319.7342135766298
 20
210.7742663761656
 30
0.0
 11
319.7342135766298
 21
110.7742663761658
 31
0.0
  0
LINE
  5
5DE5
330
1E
100
AcDbEntity
  8
AM7
100
AcDbLine
 10
260.8842135766299
 20
217.1041217450193
 30
0.0
 11
260.8842135766299
 21
105.0146037519463
 31
0.0
  0
ARC
  5
5DED
330
1E
100
AcDbEntity
  8
AM4
100
AcDbCircle
 10
298.3842135766299
 20
198.2742663761656
 30
0.0
 40
6.0
100
AcDbArc
 50
180.0
 51
89.99999999999998
  0
CIRCLE
  5
5DEE
330
1E
100
AcDbEntity
  8
0
100
AcDbCircle
 10
298.3842135766299
 20
198.2742663761656
 30
0.0
 40
5.099999999999999
  0
LINE
  5
5DEF
330
1E
100
AcDbEntity
  8
AM7
100
AcDbLine
 10
298.3842135766299
 20
205.8695375648763
 30
0.0
 11
298.3842135766299
 21
190.5560790663122
 31
0.0
  0
LINE
  5
5E04
330
1E
100
AcDbEntity
  8
AM7
100
AcDbLine
 10
290.6294259194213
 20
198.2742663761656
 30
0.0
 11
305.8185375753961
 21
198.2742663761656
 31
0.0
  0
LINE
  5
5E13
330
1E
100
AcDbEntity
  8
AM7
100
AcDbLine
 10
290.6294259194213
 20
123.2742663761656
 30
0.0
 11
305.8185375753961
 21
123.2742663761656
 31
0.0
  0
CIRCLE
  5
5E14
330
1E
100
AcDbEntity
  8
0
100
AcDbCircle
 10
298.3842135766298
 20
123.2742663761656
 30
0.0
 40
5.099999999999999
  0
ARC
  5
5E15
330
1E
100
AcDbEntity
  8
AM4
100
AcDbCircle
 10
298.3842135766298
 20
123.2742663761656
 30
0.0
 40
6.0
100
AcDbArc
 50
180.0
 51
89.99999999999998
  0
LINE
  5
5E16
330
1E
100
AcDbEntity
  8
AM7
100
AcDbLine
 10
298.3842135766299
 20
115.6789951874549
 30
0.0
 11
298.3842135766299
 21
130.992453686019
 31
0.0
  0
LINE
  5
5E4E
330
1E
100
AcDbEntity
  8
0
 48
0.27
100
AcDbLine
 10
183.0342135766301
 20
112.2742663761656
 30
0.0
 11
183.0342135766301
 21
209.2742663761658
 31
0.0
  0
LINE
  5
5E4F
330
1E
100
AcDbEntity
  8
0
100
AcDbLine
 10
180.83421357663
 20
112.2742663761656
 30
0.0
 11
180.83421357663
 21
209.2742663761658
 31
0.0
  0
LINE
  5
5E57
330
1E
100
AcDbEntity
  8
0
 48
0.27
100
AcDbLine
 10
202.0342135766299
 20
112.2742663761655
 30
0.0
 11
180.83421357663
 21
112.2742663761656
 31
0.0
  0
LINE
  5
5E58
330
1E
100
AcDbEntity
  8
0
 48
0.27
100
AcDbLine
 10
180.83421357663
 20
209.2742663761658
 30
0.0
 11
202.0342135766299
 21
209.2742663761657
 31
0.0
  0
LINE
  5
5E67
330
1E
100
AcDbEntity
  8
0
 48
0.27
100
AcDbLine
 10
97.68742426960356
 20
134.2742663761656
 30
0.0
 11
97.68742426960351
 21
187.2742663761658
 31
0.0
  0
LINE
  5
5E6A
330
1E
100
AcDbEntity
  8
0
100
AcDbLine
 10
97.68742426960356
 20
134.2742663761656
 30
0.0
 11
180.83421357663
 21
134.2742663761656
 31
0.0
  0
LINE
  5
5E6B
330
1E
100
AcDbEntity
  8
0
100
AcDbLine
 10
97.68742426960351
 20
187.2742663761658
 30
0.0
 11
180.83421357663
 21
187.2742663761658
 31
0.0
  0
LINE
  5
5E6E
330
1E
100
AcDbEntity
  8
0
 48
0.27
100
AcDbLine
 10
397.6874242696034
 20
134.2742663761655
 30
0.0
 11
397.6874242696034
 21
187.2742663761657
 31
0.0
  0
LINE
  5
5E87
330
1E
100
AcDbEntity
  8
中心線
100
AcDbLine
 10
177.5326346565929
 20
115.7742663761659
 30
0.0
 11
188.177860184522
 21
115.7742663761659
 31
0.0
  0
LINE
  5
5E88
330
1E
100
AcDbEntity
  8
0
100
AcDbLine
 10
179.197484842631
 20
117.6250830350311
 30
0.0
 11
179.197484842631
 21
113.9234497173008
 31
0.0
  0
ARC
  5
5E8A
330
1E
100
AcDbEntity
  8
0
100
AcDbCircle
 10
181.4552066511961
 20
113.9600063779827
 30
0.0
 40
2.258017748891657
100
AcDbArc
 50
180.9276427879959
 51
254.0369778311712
  0
LINE
  5
5E8B
330
1E
100
AcDbEntity
  8
中心線
100
AcDbLine
 10
177.532634656593
 20
119.7742663761656
 30
0.0
 11
188.177860184522
 21
119.7742663761656
 31
0.0
  0
LINE
  5
5E8C
330
1E
100
AcDbEntity
  8
0
100
AcDbLine
 10
179.197484842631
 20
121.6250830350307
 30
0.0
 11
179.197484842631
 21
117.9234497173005
 31
0.0
  0
ARC
  5
5E8D
330
1E
100
AcDbEntity
  8
0
100
AcDbCircle
 10
181.4552066511961
 20
121.5885263743489
 30
0.0
 40
2.258017748891657
100
AcDbArc
 50
105.9630221688287
 51
179.072357212004
  0
ARC
  5
5E8E
330
1E
100
AcDbEntity
  8
0
100
AcDbCircle
 10
181.4552066511961
 20
117.9600063779823
 30
0.0
 40
2.258017748891657
100
AcDbArc
 50
180.9276427879959
 51
254.0369778311712
  0
LINE
  5
5E8F
330
1E
100
AcDbEntity
  8
中心線
100
AcDbLine
 10
177.532634656593
 20
205.774266376166
 30
0.0
 11
188.177860184522
 21
205.774266376166
 31
0.0
  0
LINE
  5
5E90
330
1E
100
AcDbEntity
  8
0
100
AcDbLine
 10
179.197484842631
 20
207.6250830350311
 30
0.0
 11
179.197484842631
 21
203.9234497173008
 31
0.0
  0
ARC
  5
5E91
330
1E
100
AcDbEntity
  8
0
100
AcDbCircle
 10
181.4552066511961
 20
207.5885263743492
 30
0.0
 40
2.258017748891657
100
AcDbArc
 50
105.9630221688287
 51
179.072357212004
  0
LINE
  5
5E93
330
1E
100
AcDbEntity
  8
中心線
100
AcDbLine
 10
177.532634656593
 20
201.7742663761658
 30
0.0
 11
188.177860184522
 21
201.7742663761658
 31
0.0
  0
LINE
  5
5E94
330
1E
100
AcDbEntity
  8
0
100
AcDbLine
 10
179.197484842631
 20
203.625083035031
 30
0.0
 11
179.197484842631
 21
199.9234497173007
 31
0.0
  0
ARC
  5
5E95
330
1E
100
AcDbEntity
  8
0
100
AcDbCircle
 10
181.4552066511961
 20
203.5885263743491
 30
0.0
 40
2.258017748891657
100
AcDbArc
 50
105.9630221688287
 51
179.072357212004
  0
ARC
  5
5E96
330
1E
100
AcDbEntity
  8
0
100
AcDbCircle
 10
181.4552066511961
 20
199.9600063779826
 30
0.0
 40
2.258017748891657
100
AcDbArc
 50
180.9276427879959
 51
254.0369778311712
  0
LINE
  5
5EA5
330
1E
100
AcDbEntity
  8
0
 48
0.27
100
AcDbLine
 10
338.7342135766296
 20
112.2742663761656
 30
0.0
 11
338.7342135766296
 21
209.2742663761658
 31
0.0
  0
LINE
  5
5EA6
330
1E
100
AcDbEntity
  8
0
100
AcDbLine
 10
340.9342135766296
 20
112.2742663761656
 30
0.0
 11
340.9342135766296
 21
209.2742663761658
 31
0.0
  0
LINE
  5
5EA7
330
1E
100
AcDbEntity
  8
0
100
AcDbLine
 10
342.5709423106287
 20
121.6250830350307
 30
0.0
 11
342.5709423106287
 21
117.9234497173005
 31
0.0
  0
LINE
  5
5EA8
330
1E
100
AcDbEntity
  8
中心線
100
AcDbLine
 10
344.2357924966667
 20
115.7742663761659
 30
0.0
 11
333.5905669687377
 21
115.7742663761659
 31
0.0
  0
LINE
  5
5EA9
330
1E
100
AcDbEntity
  8
中心線
100
AcDbLine
 10
344.2357924966667
 20
119.7742663761656
 30
0.0
 11
333.5905669687377
 21
119.7742663761656
 31
0.0
  0
LINE
  5
5EAA
330
1E
100
AcDbEntity
  8
0
 48
0.27
100
AcDbLine
 10
319.7342135766298
 20
112.2742663761655
 30
0.0
 11
340.9342135766296
 21
112.2742663761656
 31
0.0
  0
ARC
  5
5EAB
330
1E
100
AcDbEntity
  8
0
100
AcDbCircle
 10
340.3132205020636
 20
113.9600063779827
 30
0.0
 40
2.258017748891657
100
AcDbArc
 50
285.9630221688287
 51
359.0723572120041
  0
ARC
  5
5EAC
330
1E
100
AcDbEntity
  8
0
100
AcDbCircle
 10
340.3132205020636
 20
117.9600063779823
 30
0.0
 40
2.258017748891657
100
AcDbArc
 50
285.9630221688287
 51
359.0723572120041
  0
LINE
  5
5EAD
330
1E
100
AcDbEntity
  8
0
100
AcDbLine
 10
342.5709423106287
 20
117.6250830350311
 30
0.0
 11
342.5709423106287
 21
113.9234497173008
 31
0.0
  0
ARC
  5
5EAE
330
1E
100
AcDbEntity
  8
0
100
AcDbCircle
 10
340.3132205020636
 20
121.5885263743489
 30
0.0
 40
2.258017748891657
100
AcDbArc
 50
0.9276427879959227
 51
74.03697783117128
  0
LINE
  5
5EAF
330
1E
100
AcDbEntity
  8
中心線
100
AcDbLine
 10
344.2357924966667
 20
201.7742663761658
 30
0.0
 11
333.5905669687377
 21
201.7742663761658
 31
0.0
  0
LINE
  5
5EB0
330
1E
100
AcDbEntity
  8
中心線
100
AcDbLine
 10
344.2357924966667
 20
205.774266376166
 30
0.0
 11
333.5905669687377
 21
205.774266376166
 31
0.0
  0
LINE
  5
5EB1
330
1E
100
AcDbEntity
  8
0
 48
0.27
100
AcDbLine
 10
340.9342135766296
 20
209.2742663761658
 30
0.0
 11
319.7342135766298
 21
209.2742663761657
 31
0.0
  0
ARC
  5
5EB2
330
1E
100
AcDbEntity
  8
0
100
AcDbCircle
 10
340.3132205020636
 20
207.5885263743492
 30
0.0
 40
2.258017748891657
100
AcDbArc
 50
0.9276427879959227
 51
74.03697783117128
  0
LINE
  5
5EB3
330
1E
100
AcDbEntity
  8
0
100
AcDbLine
 10
342.5709423106287
 20
203.625083035031
 30
0.0
 11
342.5709423106287
 21
199.9234497173007
 31
0.0
  0
ARC
  5
5EB4
330
1E
100
AcDbEntity
  8
0
100
AcDbCircle
 10
340.3132205020636
 20
199.9600063779826
 30
0.0
 40
2.258017748891657
100
AcDbArc
 50
285.9630221688287
 51
359.0723572120041
  0
ARC
  5
5EB5
330
1E
100
AcDbEntity
  8
0
100
AcDbCircle
 10
340.3132205020636
 20
203.5885263743491
 30
0.0
 40
2.258017748891657
100
AcDbArc
 50
0.9276427879959227
 51
74.03697783117128
  0
LINE
  5
5EB6
330
1E
100
AcDbEntity
  8
0
100
AcDbLine
 10
342.5709423106287
 20
207.6250830350311
 30
0.0
 11
342.5709423106287
 21
203.9234497173008
 31
0.0
  0
LINE
  5
5ECA
330
1E
100
AcDbEntity
  8
中心線
 48
0.27
100
AcDbLine
 10
127.6874242696035
 20
144.7061963726523
 30
0.0
 11
127.6874242696035
 21
176.8423363796791
 31
0.0
  0
LINE
  5
5ECB
330
1E
100
AcDbEntity
  8
中心線
 48
0.27
100
AcDbLine
 10
111.6193542660901
 20
160.7742663761657
 30
0.0
 11
143.7554942731169
 21
160.7742663761657
 31
0.0
  0
LINE
  5
5ECC
330
1E
100
AcDbEntity
  8
0
100
AcDbLine
 10
397.6874242696034
 20
134.2742663761655
 30
0.0
 11
340.9342135766296
 21
134.2742663761655
 31
0.0
  0
LINE
  5
5ECD
330
1E
100
AcDbEntity
  8
0
100
AcDbLine
 10
397.6874242696034
 20
187.2742663761657
 30
0.0
 11
340.9342135766296
 21
187.2742663761657
 31
0.0
  0
CIRCLE
  5
5ECE
330
1E
100
AcDbEntity
  8
0
100
AcDbCircle
 10
127.6874242696035
 20
160.7742663761657
 30
0.0
 40
11.50000000000022
  0
CIRCLE
  5
5ECF
330
1E
100
AcDbEntity
  8
0
100
AcDbCircle
 10
127.6874242696035
 20
160.7742663761657
 30
0.0
 40
8.000000000000227
  0
LINE
  5
5ED2
330
1E
100
AcDbEntity
  8
中心線
 48
0.27
100
AcDbLine
 10
352.3193542660901
 20
160.7742663761656
 30
0.0
 11
383.7554942731169
 21
160.7742663761656
 31
0.0
  0
CIRCLE
  5
5ED3
330
1E
100
AcDbEntity
  8
0
100
AcDbCircle
 10
367.6874242696035
 20
160.7742663761656
 30
0.0
 40
8.000000000000227
  0
CIRCLE
  5
5ED4
330
1E
100
AcDbEntity
  8
0
100
AcDbCircle
 10
367.6874242696035
 20
160.7742663761657
 30
0.0
 40
11.50000000000022
  0
LINE
  5
5ED5
330
1E
100
AcDbEntity
  8
中心線
 48
0.27
100
AcDbLine
 10
367.6874242696035
 20
144.7061963726522
 30
0.0
 11
367.6874242696035
 21
176.842336379679
 31
0.0
  0
LINE
  5
5F2B
330
1E
100
AcDbEntity
  8
0
100
AcDbLine
 10
319.7342135766298
 20
67.00000000000011
 30
0.0
 11
202.03421357663
 21
67.00000000000011
 31
0.0
  0
LINE
  5
5F2C
330
1E
100
AcDbEntity
  8
0
100
AcDbLine
 10
319.7342135766298
 20
67.00000000000011
 30
0.0
 11
202.03421357663
 21
67.00000000000011
 31
0.0
  0
ENDSEC
  0
SECTION
  2
OBJECTS
  0
DICTIONARY
  5
C
330
0
100
AcDbDictionary
281
     1
  3
ACAD_COLOR
350
3D97
  3
ACAD_GROUP
350
D
  3
ACAD_LAYOUT
350
19
  3
ACAD_MATERIAL
350
3D96
  3
ACAD_MLINESTYLE
350
16
  3
ACAD_PLOTSETTINGS
350
18
  3
ACAD_PLOTSTYLENAME
350
E
  3
ACDBHEADERROUNDTRIPXREC
350
5F99
  3
AcDbVariableDictionary
350
3E63
  0
DICTIONARY
  5
43C2
330
2
100
AcDbDictionary
280
     1
281
     1
  3
ACAD_LAYERSTATES
360
43C3
  0
DICTIONARY
  5
3D1E
330
1E
100
AcDbDictionary
280
     1
281
     1
  3
ACAD_LAYOUTSELFREF
360
3D92
  0
DICTIONARY
  5
3D20
330
1A
100
AcDbDictionary
280
     1
281
     1
  3
ACAD_LAYOUTSELFREF
360
3D91
  0
DICTIONARY
  5
3D97
102
{ACAD_REACTORS
330
C
102
}
330
C
100
AcDbDictionary
281
     1
  0
DICTIONARY
  5
D
102
{ACAD_REACTORS
330
C
102
}
330
C
100
AcDbDictionary
281
     1
  3
*A1
350
4143
  3
*A10
350
43C0
  3
*A11
350
43C1
  3
*A12
350
43B7
  3
*A13
350
4148
  3
*A14
350
414C
  3
*A15
350
414F
  3
*A16
350
437E
  3
*A17
350
4149
  3
*A18
350
414A
  3
*A19
350
414B
  3
*A2
350
43BC
  3
*A20
350
5691
  3
*A21
350
4239
  3
*A22
350
423B
  3
*A23
350
43B8
  3
*A24
350
576A
  3
*A25
350
579E
  3
*A26
350
57D9
  3
*A27
350
4235
  3
*A28
350
4240
  3
*A29
350
4373
  3
*A3
350
43BD
  3
*A30
350
4236
  3
*A31
350
4237
  3
*A32
350
4238
  3
*A33
350
423C
  3
*A34
350
4377
  3
*A35
350
4379
  3
*A36
350
423D
  3
*A37
350
423E
  3
*A38
350
423F
  3
*A39
350
4374
  3
*A4
350
437D
  3
*A40
350
437F
  3
*A41
350
4375
  3
*A42
350
4145
  3
*A43
350
4376
  3
*A44
350
437A
  3
*A45
350
43B9
  3
*A46
350
437B
  3
*A47
350
414D
  3
*A48
350
437C
  3
*A49
350
4146
  3
*A5
350
43BE
  3
*A50
350
43B5
  3
*A51
350
423A
  3
*A52
350
43B6
  3
*A53
350
414E
  3
*A54
350
43BA
  3
*A55
350
4241
  3
*A56
350
43BB
  3
*A6
350
4144
  3
*A7
350
4147
  3
*A8
350
4378
  3
*A9
350
43BF
  0
DICTIONARY
  5
19
102
{ACAD_REACTORS
330
C
102
}
330
C
100
AcDbDictionary
281
     1
  3
Model
350
21
  3
配置1
350
1D
  0
DICTIONARY
  5
3D96
102
{ACAD_REACTORS
330
C
102
}
330
C
100
AcDbDictionary
281
     1
  0
DICTIONARY
  5
16
102
{ACAD_REACTORS
330
C
102
}
330
C
100
AcDbDictionary
281
     1
  3
Standard
350
17
  0
DICTIONARY
  5
18
102
{ACAD_REACTORS
330
C
102
}
330
C
100
AcDbDictionary
281
     1
  3
LANSRO
350
4150
  0
ACDBDICTIONARYWDFLT
  5
E
102
{ACAD_REACTORS
330
C
102
}
330
C
100
AcDbDictionary
281
     1
  3
Normal
350
F
100
AcDbDictionaryWithDefault
340
F
  0
DICTIONARY
  5
5F99
102
{ACAD_REACTORS
330
C
102
}
330
C
100
AcDbDictionary
281
     1
  3
CEPSNTYPE
350
5FA3
  3
DIMSTYLEDATA
350
5FA7
  3
FINGERPRINTGUID
350
5FA4
  3
HYPERLINKBASE
350
5F9C
  3
INSUNITS
350
5FA2
  3
LAYOUTDICT
350
5F9E
  3
LWETCUNION
350
5FA1
  3
PLOTSETDICT
350
5F9F
  3
PLOTSTYLNAMDICT
350
5FA0
  3
PSVPSCALE
350
5FA6
  3
PUCSBASE
350
5FAA
  3
PUCSORGBACK
350
5FB0
  3
PUCSORGBOTTOM
350
5FAC
  3
PUCSORGFRONT
350
5FAF
  3
PUCSORGLEFT
350
5FAD
  3
PUCSORGRIGHT
350
5FAE
  3
PUCSORGTOP
350
5FAB
  3
PUCSORTHOREF
350
5FA8
  3
PUCSORTHOVIEW
350
5FA9
  3
STYLESHEET
350
5F9D
  3
TSTACKALIGN
350
5F9A
  3
TSTACKSIZE
350
5F9B
  3
UCSBASE
350
5FB3
  3
UCSORGBACK
350
5FB9
  3
UCSORGBOTTOM
350
5FB5
  3
UCSORGFRONT
350
5FB8
  3
UCSORGLEFT
350
5FB6
  3
UCSORGRIGHT
350
5FB7
  3
UCSORGTOP
350
5FB4
  3
UCSORTHOREF
350
5FB1
  3
UCSORTHOVIEW
350
5FB2
  3
VERSIONGUID
350
5FA5
  0
DICTIONARY
  5
3E63
102
{ACAD_REACTORS
330
C
102
}
330
C
100
AcDbDictionary
281
     1
  3
DIMASSOC
350
3E64
  3
PROJECTNAME
350
3E65
  0
DICTIONARY
  5
43C3
102
{ACAD_REACTORS
330
43C2
102
}
330
43C2
100
AcDbDictionary
281
     1
  0
XRECORD
  5
3D92
102
{ACAD_REACTORS
330
3D1E
102
}
330
3D1E
100
AcDbXrecord
280
     1
340
1E
  0
XRECORD
  5
3D91
102
{ACAD_REACTORS
330
3D20
102
}
330
3D20
100
AcDbXrecord
280
     1
340
1A
  0
GROUP
  5
4143
102
{ACAD_REACTORS
330
D
102
}
330
D
100
AcDbGroup
300

 70
     1
 71
     1
  0
GROUP
  5
43C0
102
{ACAD_REACTORS
330
D
102
}
330
D
100
AcDbGroup
300

 70
     1
 71
     1
  0
GROUP
  5
43C1
102
{ACAD_REACTORS
330
D
102
}
330
D
100
AcDbGroup
300

 70
     1
 71
     1
  0
GROUP
  5
43B7
102
{ACAD_REACTORS
330
D
102
}
330
D
100
AcDbGroup
300

 70
     1
 71
     1
  0
GROUP
  5
4148
102
{ACAD_REACTORS
330
D
102
}
330
D
100
AcDbGroup
300

 70
     1
 71
     1
  0
GROUP
  5
414C
102
{ACAD_REACTORS
330
D
102
}
330
D
100
AcDbGroup
300

 70
     1
 71
     1
  0
GROUP
  5
414F
102
{ACAD_REACTORS
330
D
102
}
330
D
100
AcDbGroup
300

 70
     1
 71
     1
  0
GROUP
  5
437E
102
{ACAD_REACTORS
330
D
102
}
330
D
100
AcDbGroup
300

 70
     1
 71
     1
  0
GROUP
  5
4149
102
{ACAD_REACTORS
330
D
102
}
330
D
100
AcDbGroup
300

 70
     1
 71
     1
  0
GROUP
  5
414A
102
{ACAD_REACTORS
330
D
102
}
330
D
100
AcDbGroup
300

 70
     1
 71
     1
  0
GROUP
  5
414B
102
{ACAD_REACTORS
330
D
102
}
330
D
100
AcDbGroup
300

 70
     1
 71
     1
  0
GROUP
  5
43BC
102
{ACAD_REACTORS
330
D
102
}
330
D
100
AcDbGroup
300

 70
     1
 71
     1
  0
GROUP
  5
5691
102
{ACAD_REACTORS
330
D
102
}
330
D
100
AcDbGroup
300

 70
     1
 71
     1
  0
GROUP
  5
4239
102
{ACAD_REACTORS
330
D
102
}
330
D
100
AcDbGroup
300

 70
     1
 71
     1
  0
GROUP
  5
423B
102
{ACAD_REACTORS
330
D
102
}
330
D
100
AcDbGroup
300

 70
     1
 71
     1
  0
GROUP
  5
43B8
102
{ACAD_REACTORS
330
D
102
}
330
D
100
AcDbGroup
300

 70
     1
 71
     1
  0
GROUP
  5
576A
102
{ACAD_REACTORS
330
D
102
}
330
D
100
AcDbGroup
300

 70
     1
 71
     1
  0
GROUP
  5
579E
102
{ACAD_REACTORS
330
D
102
}
330
D
100
AcDbGroup
300

 70
     1
 71
     1
  0
GROUP
  5
57D9
102
{ACAD_REACTORS
330
D
102
}
330
D
100
AcDbGroup
300

 70
     1
 71
     1
  0
GROUP
  5
4235
102
{ACAD_REACTORS
330
D
102
}
330
D
100
AcDbGroup
300

 70
     1
 71
     1
  0
GROUP
  5
4240
102
{ACAD_REACTORS
330
D
102
}
330
D
100
AcDbGroup
300

 70
     1
 71
     1
  0
GROUP
  5
4373
102
{ACAD_REACTORS
330
D
102
}
330
D
100
AcDbGroup
300

 70
     1
 71
     1
  0
GROUP
  5
43BD
102
{ACAD_REACTORS
330
D
102
}
330
D
100
AcDbGroup
300

 70
     1
 71
     1
  0
GROUP
  5
4236
102
{ACAD_REACTORS
330
D
102
}
330
D
100
AcDbGroup
300

 70
     1
 71
     1
  0
GROUP
  5
4237
102
{ACAD_REACTORS
330
D
102
}
330
D
100
AcDbGroup
300

 70
     1
 71
     1
  0
GROUP
  5
4238
102
{ACAD_REACTORS
330
D
102
}
330
D
100
AcDbGroup
300

 70
     1
 71
     1
  0
GROUP
  5
423C
102
{ACAD_REACTORS
330
D
102
}
330
D
100
AcDbGroup
300

 70
     1
 71
     1
  0
GROUP
  5
4377
102
{ACAD_REACTORS
330
D
102
}
330
D
100
AcDbGroup
300

 70
     1
 71
     1
  0
GROUP
  5
4379
102
{ACAD_REACTORS
330
D
102
}
330
D
100
AcDbGroup
300

 70
     1
 71
     1
  0
GROUP
  5
423D
102
{ACAD_REACTORS
330
D
102
}
330
D
100
AcDbGroup
300

 70
     1
 71
     1
  0
GROUP
  5
423E
102
{ACAD_REACTORS
330
D
102
}
330
D
100
AcDbGroup
300

 70
     1
 71
     1
  0
GROUP
  5
423F
102
{ACAD_REACTORS
330
D
102
}
330
D
100
AcDbGroup
300

 70
     1
 71
     1
  0
GROUP
  5
4374
102
{ACAD_REACTORS
330
D
102
}
330
D
100
AcDbGroup
300

 70
     1
 71
     1
  0
GROUP
  5
437D
102
{ACAD_REACTORS
330
D
102
}
330
D
100
AcDbGroup
300

 70
     1
 71
     1
  0
GROUP
  5
437F
102
{ACAD_REACTORS
330
D
102
}
330
D
100
AcDbGroup
300

 70
     1
 71
     1
  0
GROUP
  5
4375
102
{ACAD_REACTORS
330
D
102
}
330
D
100
AcDbGroup
300

 70
     1
 71
     1
  0
GROUP
  5
4145
102
{ACAD_REACTORS
330
D
102
}
330
D
100
AcDbGroup
300

 70
     1
 71
     1
  0
GROUP
  5
4376
102
{ACAD_REACTORS
330
D
102
}
330
D
100
AcDbGroup
300

 70
     1
 71
     1
  0
GROUP
  5
437A
102
{ACAD_REACTORS
330
D
102
}
330
D
100
AcDbGroup
300

 70
     1
 71
     1
  0
GROUP
  5
43B9
102
{ACAD_REACTORS
330
D
102
}
330
D
100
AcDbGroup
300

 70
     1
 71
     1
  0
GROUP
  5
437B
102
{ACAD_REACTORS
330
D
102
}
330
D
100
AcDbGroup
300

 70
     1
 71
     1
  0
GROUP
  5
414D
102
{ACAD_REACTORS
330
D
102
}
330
D
100
AcDbGroup
300

 70
     1
 71
     1
  0
GROUP
  5
437C
102
{ACAD_REACTORS
330
D
102
}
330
D
100
AcDbGroup
300

 70
     1
 71
     1
  0
GROUP
  5
4146
102
{ACAD_REACTORS
330
D
102
}
330
D
100
AcDbGroup
300

 70
     1
 71
     1
  0
GROUP
  5
43BE
102
{ACAD_REACTORS
330
D
102
}
330
D
100
AcDbGroup
300

 70
     1
 71
     1
  0
GROUP
  5
43B5
102
{ACAD_REACTORS
330
D
102
}
330
D
100
AcDbGroup
300

 70
     1
 71
     1
  0
GROUP
  5
423A
102
{ACAD_REACTORS
330
D
102
}
330
D
100
AcDbGroup
300

 70
     1
 71
     1
  0
GROUP
  5
43B6
102
{ACAD_REACTORS
330
D
102
}
330
D
100
AcDbGroup
300

 70
     1
 71
     1
  0
GROUP
  5
414E
102
{ACAD_REACTORS
330
D
102
}
330
D
100
AcDbGroup
300

 70
     1
 71
     1
  0
GROUP
  5
43BA
102
{ACAD_REACTORS
330
D
102
}
330
D
100
AcDbGroup
300

 70
     1
 71
     1
  0
GROUP
  5
4241
102
{ACAD_REACTORS
330
D
102
}
330
D
100
AcDbGroup
300

 70
     1
 71
     1
  0
GROUP
  5
43BB
102
{ACAD_REACTORS
330
D
102
}
330
D
100
AcDbGroup
300

 70
     1
 71
     1
  0
GROUP
  5
4144
102
{ACAD_REACTORS
330
D
102
}
330
D
100
AcDbGroup
300

 70
     1
 71
     1
  0
GROUP
  5
4147
102
{ACAD_REACTORS
330
D
102
}
330
D
100
AcDbGroup
300

 70
     1
 71
     1
  0
GROUP
  5
4378
102
{ACAD_REACTORS
330
D
102
}
330
D
100
AcDbGroup
300

 70
     1
 71
     1
  0
GROUP
  5
43BF
102
{ACAD_REACTORS
330
D
102
}
330
D
100
AcDbGroup
300

 70
     1
 71
     1
  0
LAYOUT
  5
21
102
{ACAD_XDICTIONARY
360
5F89
102
}
102
{ACAD_REACTORS
330
19
102
}
330
19
100
AcDbPlotSettings
  1

  2
HP 2200
  4

  6

 40
0.0
 41
0.0
 42
0.0
 43
0.0
 44
0.0
 45
0.0
 46
0.0
 47
0.0
 48
0.0
 49
0.0
140
0.0
141
0.0
142
1.0
143
1.0
 70
  1712
 72
     0
 73
     0
 74
     0
  7
AAA.ctb
 75
     0
147
1.0
148
0.0
149
0.0
100
AcDbLayout
  1
Model
 70
     1
 71
     0
 10
0.0
 20
0.0
 11
12.0
 21
9.0
 12
0.0
 22
0.0
 32
0.0
 14
0.0
 24
0.0
 34
0.0
 15
0.0
 25
0.0
 35
0.0
146
0.0
 13
0.0
 23
0.0
 33
0.0
 16
1.0
 26
0.0
 36
0.0
 17
0.0
 27
1.0
 37
0.0
 76
     0
330
1E
  0
LAYOUT
  5
1D
102
{ACAD_XDICTIONARY
360
5F87
102
}
102
{ACAD_REACTORS
330
19
102
}
330
19
100
AcDbPlotSettings
  1

  2
HP 2200
  4

  6

 40
0.0
 41
0.0
 42
0.0
 43
0.0
 44
0.0
 45
0.0
 46
0.0
 47
0.0
 48
0.0
 49
0.0
140
0.0
141
0.0
142
1.0
143
1.0
 70
   688
 72
     0
 73
     0
 74
     5
  7
AAA.ctb
 75
    16
147
1.0
148
0.0
149
0.0
100
AcDbLayout
  1
配置1
 70
     0
 71
     1
 10
0.0
 20
0.0
 11
12.0
 21
9.0
 12
0.0
 22
0.0
 32
0.0
 14
1.000000000000000E+20
 24
1.000000000000000E+20
 34
1.000000000000000E+20
 15
-1.000000000000000E+20
 25
-1.000000000000000E+20
 35
-1.000000000000000E+20
146
0.0
 13
0.0
 23
0.0
 33
0.0
 16
1.0
 26
0.0
 36
0.0
 17
0.0
 27
1.0
 37
0.0
 76
     0
330
1A
  0
MLINESTYLE
  5
17
102
{ACAD_REACTORS
330
16
102
}
330
16
100
AcDbMlineStyle
  2
STANDARD
 70
     0
  3

 62
   256
 51
90.0
 52
90.0
 71
     2
 49
0.5
 62
   256
  6
BYLAYER
 49
-0.5
 62
   256
  6
BYLAYER
  0
PLOTSETTINGS
  5
4150
102
{ACAD_XDICTIONARY
360
5F8B
102
}
102
{ACAD_REACTORS
330
18
102
}
330
18
100
AcDbPlotSettings
  1
LANSRO
  2
\\1260\HP2200
  4
A4
  6

 40
6.043083190917968
 41
6.762742042541503
 42
7.736419677734375
 43
5.027069091796875
 44
209.9733276367187
 45
296.9683227539062
 46
5.15
 47
0.0
 48
0.0
 49
0.0
140
0.0
141
0.0
142
1.0
143
0.8829829263240881
 70
  1716
 72
     1
 73
     1
 74
     0
  7
AAA.ctb
 75
     0
147
1.132524729739748
148
-132.297014905803
149
-71.78507365635891
  0
ACDBPLACEHOLDER
  5
F
102
{ACAD_REACTORS
330
E
102
}
330
E
  0
XRECORD
  5
5FA3
102
{ACAD_REACTORS
330
5F99
102
}
330
5F99
100
AcDbXrecord
280
     1
 90
        0
  0
XRECORD
  5
5FA7
102
{ACAD_REACTORS
330
5F99
102
}
330
5F99
100
AcDbXrecord
280
     1
1000
DSTYLE
1002
{
1070
   279
 70
     2
1002
}
  0
XRECORD
  5
5FA4
102
{ACAD_REACTORS
330
5F99
102
}
330
5F99
100
AcDbXrecord
280
     1
  1
{77095E5F-9CE7-11D7-970D-0040F4541FA8}
  0
XRECORD
  5
5F9C
102
{ACAD_REACTORS
330
5F99
102
}
330
5F99
100
AcDbXrecord
280
     1
  1

  0
XRECORD
  5
5FA2
102
{ACAD_REACTORS
330
5F99
102
}
330
5F99
100
AcDbXrecord
280
     1
 90
        0
  0
XRECORD
  5
5F9E
102
{ACAD_REACTORS
330
5F99
102
}
330
5F99
100
AcDbXrecord
280
     1
340
19
  0
XRECORD
  5
5FA1
102
{ACAD_REACTORS
330
5F99
102
}
330
5F99
100
AcDbXrecord
280
     1
 90
    14877
  0
XRECORD
  5
5F9F
102
{ACAD_REACTORS
330
5F99
102
}
330
5F99
100
AcDbXrecord
280
     1
340
18
  0
XRECORD
  5
5FA0
102
{ACAD_REACTORS
330
5F99
102
}
330
5F99
100
AcDbXrecord
280
     1
340
E
  0
XRECORD
  5
5FA6
102
{ACAD_REACTORS
330
5F99
102
}
330
5F99
100
AcDbXrecord
280
     1
 40
0.0
  0
XRECORD
  5
5FAA
102
{ACAD_REACTORS
330
5F99
102
}
330
5F99
100
AcDbXrecord
280
     1
340
0
  0
XRECORD
  5
5FB0
102
{ACAD_REACTORS
330
5F99
102
}
330
5F99
100
AcDbXrecord
280
     1
 10
0.0
 20
0.0
 30
0.0
  0
XRECORD
  5
5FAC
102
{ACAD_REACTORS
330
5F99
102
}
330
5F99
100
AcDbXrecord
280
     1
 10
0.0
 20
0.0
 30
0.0
  0
XRECORD
  5
5FAF
102
{ACAD_REACTORS
330
5F99
102
}
330
5F99
100
AcDbXrecord
280
     1
 10
0.0
 20
0.0
 30
0.0
  0
XRECORD
  5
5FAD
102
{ACAD_REACTORS
330
5F99
102
}
330
5F99
100
AcDbXrecord
280
     1
 10
0.0
 20
0.0
 30
0.0
  0
XRECORD
  5
5FAE
102
{ACAD_REACTORS
330
5F99
102
}
330
5F99
100
AcDbXrecord
280
     1
 10
0.0
 20
0.0
 30
0.0
  0
XRECORD
  5
5FAB
102
{ACAD_REACTORS
330
5F99
102
}
330
5F99
100
AcDbXrecord
280
     1
 10
0.0
 20
0.0
 30
0.0
  0
XRECORD
  5
5FA8
102
{ACAD_REACTORS
330
5F99
102
}
330
5F99
100
AcDbXrecord
280
     1
340
0
  0
XRECORD
  5
5FA9
102
{ACAD_REACTORS
330
5F99
102
}
330
5F99
100
AcDbXrecord
280
     1
 70
     0
  0
XRECORD
  5
5F9D
102
{ACAD_REACTORS
330
5F99
102
}
330
5F99
100
AcDbXrecord
280
     1
  1

  0
XRECORD
  5
5F9A
102
{ACAD_REACTORS
330
5F99
102
}
330
5F99
100
AcDbXrecord
280
     1
 90
        1
  0
XRECORD
  5
5F9B
102
{ACAD_REACTORS
330
5F99
102
}
330
5F99
100
AcDbXrecord
280
     1
 90
       70
  0
XRECORD
  5
5FB3
102
{ACAD_REACTORS
330
5F99
102
}
330
5F99
100
AcDbXrecord
280
     1
340
0
  0
XRECORD
  5
5FB9
102
{ACAD_REACTORS
330
5F99
102
}
330
5F99
100
AcDbXrecord
280
     1
 10
0.0
 20
0.0
 30
0.0
  0
XRECORD
  5
5FB5
102
{ACAD_REACTORS
330
5F99
102
}
330
5F99
100
AcDbXrecord
280
     1
 10
0.0
 20
0.0
 30
0.0
  0
XRECORD
  5
5FB8
102
{ACAD_REACTORS
330
5F99
102
}
330
5F99
100
AcDbXrecord
280
     1
 10
0.0
 20
0.0
 30
0.0
  0
XRECORD
  5
5FB6
102
{ACAD_REACTORS
330
5F99
102
}
330
5F99
100
AcDbXrecord
280
     1
 10
0.0
 20
0.0
 30
0.0
  0
XRECORD
  5
5FB7
102
{ACAD_REACTORS
330
5F99
102
}
330
5F99
100
AcDbXrecord
280
     1
 10
0.0
 20
0.0
 30
0.0
  0
XRECORD
  5
5FB4
102
{ACAD_REACTORS
330
5F99
102
}
330
5F99
100
AcDbXrecord
280
     1
 10
0.0
 20
0.0
 30
0.0
  0
XRECORD
  5
5FB1
102
{ACAD_REACTORS
330
5F99
102
}
330
5F99
100
AcDbXrecord
280
     1
340
0
  0
XRECORD
  5
5FB2
102
{ACAD_REACTORS
330
5F99
102
}
330
5F99
100
AcDbXrecord
280
     1
 70
     0
  0
XRECORD
  5
5FA5
102
{ACAD_REACTORS
330
5F99
102
}
330
5F99
100
AcDbXrecord
280
     1
  1
{DD550CCC-1335-4C26-B1B2-612EBD4BC526}
  0
DICTIONARYVAR
  5
3E64
102
{ACAD_REACTORS
330
3E63
102
}
330
3E63
100
DictionaryVariables
280
     0
  1
1
  0
DICTIONARYVAR
  5
3E65
102
{ACAD_REACTORS
330
3E63
102
}
330
3E63
100
DictionaryVariables
280
     0
  1

  0
DICTIONARY
  5
5F89
330
21
100
AcDbDictionary
280
     1
281
     1
  3
ACAD_XREC_ROUNDTRIP
360
5F8A
  0
DICTIONARY
  5
5F87
330
1D
100
AcDbDictionary
280
     1
281
     1
  3
ACAD_XREC_ROUNDTRIP
360
5F88
  0
DICTIONARY
  5
5F8B
330
4150
100
AcDbDictionary
280
     1
281
     1
  3
ACAD_XREC_ROUNDTRIP
360
5F8C
  0
XRECORD
  5
5F8A
102
{ACAD_REACTORS
330
5F89
102
}
330
5F89
100
AcDbXrecord
280
     1
102
SHADEPLOT
 70
     0
102
SHADEPLOTRESLEVEL
 70
     2
102
SHADEPLOTCUSTOMDPI
 70
   300
  0
XRECORD
  5
5F88
102
{ACAD_REACTORS
330
5F87
102
}
330
5F87
100
AcDbXrecord
280
     1
102
SHADEPLOT
 70
     0
102
SHADEPLOTRESLEVEL
 70
     2
102
SHADEPLOTCUSTOMDPI
 70
   300
  0
XRECORD
  5
5F8C
102
{ACAD_REACTORS
330
5F8B
102
}
330
5F8B
100
AcDbXrecord
280
     1
102
SHADEPLOT
 70
     0
102
SHADEPLOTRESLEVEL
 70
     2
102
SHADEPLOTCUSTOMDPI
 70
   300
  0
ENDSEC
  0
EOF
