  0
SECTION
  2
HEADER
  9
$ACADVER
  1
AC1015
  9
$ACADMAINTVER
 70
    20
  9
$DWGCODEPAGE
  3
ANSI_950
  9
$INSBASE
 10
0.0
 20
0.0
 30
0.0
  9
$EXTMIN
 10
-25.56763209604742
 20
-57.43668309999396
 30
-0.0015258207003583
  9
$EXTMAX
 10
253.038725436718
 20
132.4332096130182
 30
0.0000000349246037
  9
$LIMMIN
 10
-10.0
 20
-15.0
  9
$LIMMAX
 10
120.0
 20
90.0
  9
$ORTHOMODE
 70
     1
  9
$REGENMODE
 70
     0
  9
$FILLMODE
 70
     1
  9
$QTEXTMODE
 70
     0
  9
$MIRRTEXT
 70
     0
  9
$LTSCALE
 40
2.0
  9
$ATTMODE
 70
     1
  9
$TEXTSIZE
 40
3.0
  9
$TRACEWID
 40
1.0
  9
$TEXTSTYLE
  7
STANDARD
  9
$CLAYER
  8
0
  9
$CELTYPE
  6
ByLayer
  9
$CECOLOR
 62
   256
  9
$CELTSCALE
 40
1.0
  9
$DISPSILH
 70
     0
  9
$DIMSCALE
 40
1.0
  9
$DIMASZ
 40
3.0
  9
$DIMEXO
 40
1.0
  9
$DIMDLI
 40
6.0
  9
$DIMRND
 40
0.0
  9
$DIMDLE
 40
0.0
  9
$DIMEXE
 40
1.0
  9
$DIMTP
 40
0.0
  9
$DIMTM
 40
0.0
  9
$DIMTXT
 40
3.0
  9
$DIMCEN
 40
1.5
  9
$DIMTSZ
 40
0.0
  9
$DIMTOL
 70
     0
  9
$DIMLIM
 70
     0
  9
$DIMTIH
 70
     1
  9
$DIMTOH
 70
     1
  9
$DIMSE1
 70
     0
  9
$DIMSE2
 70
     0
  9
$DIMTAD
 70
     0
  9
$DIMZIN
 70
     0
  9
$DIMBLK
  1

  9
$DIMASO
 70
     1
  9
$DIMSHO
 70
     0
  9
$DIMPOST
  1

  9
$DIMAPOST
  1

  9
$DIMALT
 70
     0
  9
$DIMALTD
 70
     2
  9
$DIMALTF
 40
25.4
  9
$DIMLFAC
 40
1.0
  9
$DIMTOFL
 70
     1
  9
$DIMTVP
 40
0.0
  9
$DIMTIX
 70
     0
  9
$DIMSOXD
 70
     0
  9
$DIMSAH
 70
     0
  9
$DIMBLK1
  1

  9
$DIMBLK2
  1

  9
$DIMSTYLE
  2
Standard
  9
$DIMCLRD
 70
     0
  9
$DIMCLRE
 70
     0
  9
$DIMCLRT
 70
     0
  9
$DIMTFAC
 40
1.0
  9
$DIMGAP
 40
0.09
  9
$DIMJUST
 70
     0
  9
$DIMSD1
 70
     0
  9
$DIMSD2
 70
     0
  9
$DIMTOLJ
 70
     1
  9
$DIMTZIN
 70
     0
  9
$DIMALTZ
 70
     0
  9
$DIMALTTZ
 70
     0
  9
$DIMUPT
 70
     0
  9
$DIMDEC
 70
     8
  9
$DIMTDEC
 70
     8
  9
$DIMALTU
 70
     2
  9
$DIMALTTD
 70
     2
  9
$DIMTXSTY
  7
STANDARD
  9
$DIMAUNIT
 70
     0
  9
$DIMADEC
 70
     0
  9
$DIMALTRND
 40
0.0
  9
$DIMAZIN
 70
     0
  9
$DIMDSEP
 70
    46
  9
$DIMATFIT
 70
     3
  9
$DIMFRAC
 70
     0
  9
$DIMLDRBLK
  1

  9
$DIMLUNIT
 70
     2
  9
$DIMLWD
 70
    -2
  9
$DIMLWE
 70
    -2
  9
$DIMTMOVE
 70
     2
  9
$LUNITS
 70
     2
  9
$LUPREC
 70
     4
  9
$SKETCHINC
 40
0.5
  9
$FILLETRAD
 40
0.0
  9
$AUNITS
 70
     0
  9
$AUPREC
 70
     0
  9
$MENU
  1
ACAD
  9
$ELEVATION
 40
0.0
  9
$PELEVATION
 40
0.0
  9
$THICKNESS
 40
0.0
  9
$LIMCHECK
 70
     0
  9
$CHAMFERA
 40
0.0
  9
$CHAMFERB
 40
0.0
  9
$CHAMFERC
 40
0.0
  9
$CHAMFERD
 40
0.0
  9
$SKPOLY
 70
     0
  9
$TDCREATE
 40
2444975.333333334
  9
$TDUCREATE
 40
2444975.000000000
  9
$TDUPDATE
 40
2454358.427408923
  9
$TDUUPDATE
 40
2454358.094075590
  9
$TDINDWG
 40
0.1143356134
  9
$TDUSRTIMER
 40
0.0000000000
  9
$USRTIMER
 70
     0
  9
$ANGBASE
 50
0.0
  9
$ANGDIR
 70
     0
  9
$PDMODE
 70
   171
  9
$PDSIZE
 40
0.001
  9
$PLINEWID
 40
0.0
  9
$SPLFRAME
 70
     0
  9
$SPLINETYPE
 70
     6
  9
$SPLINESEGS
 70
     8
  9
$HANDSEED
  5
4FAF
  9
$SURFTAB1
 70
     6
  9
$SURFTAB2
 70
     6
  9
$SURFTYPE
 70
     6
  9
$SURFU
 70
     6
  9
$SURFV
 70
     6
  9
$UCSBASE
  2

  9
$UCSNAME
  2

  9
$UCSORG
 10
0.0
 20
0.0
 30
0.0
  9
$UCSXDIR
 10
1.0
 20
0.0
 30
0.0
  9
$UCSYDIR
 10
0.0
 20
1.0
 30
0.0
  9
$UCSORTHOREF
  2

  9
$UCSORTHOVIEW
 70
     0
  9
$UCSORGTOP
 10
0.0
 20
0.0
 30
0.0
  9
$UCSORGBOTTOM
 10
0.0
 20
0.0
 30
0.0
  9
$UCSORGLEFT
 10
0.0
 20
0.0
 30
0.0
  9
$UCSORGRIGHT
 10
0.0
 20
0.0
 30
0.0
  9
$UCSORGFRONT
 10
0.0
 20
0.0
 30
0.0
  9
$UCSORGBACK
 10
0.0
 20
0.0
 30
0.0
  9
$PUCSBASE
  2

  9
$PUCSNAME
  2

  9
$PUCSORG
 10
0.0
 20
0.0
 30
0.0
  9
$PUCSXDIR
 10
1.0
 20
0.0
 30
0.0
  9
$PUCSYDIR
 10
0.0
 20
1.0
 30
0.0
  9
$PUCSORTHOREF
  2

  9
$PUCSORTHOVIEW
 70
     0
  9
$PUCSORGTOP
 10
0.0
 20
0.0
 30
0.0
  9
$PUCSORGBOTTOM
 10
0.0
 20
0.0
 30
0.0
  9
$PUCSORGLEFT
 10
0.0
 20
0.0
 30
0.0
  9
$PUCSORGRIGHT
 10
0.0
 20
0.0
 30
0.0
  9
$PUCSORGFRONT
 10
0.0
 20
0.0
 30
0.0
  9
$PUCSORGBACK
 10
0.0
 20
0.0
 30
0.0
  9
$USERI1
 70
     0
  9
$USERI2
 70
     0
  9
$USERI3
 70
     0
  9
$USERI4
 70
     0
  9
$USERI5
 70
     0
  9
$USERR1
 40
0.0
  9
$USERR2
 40
0.0
  9
$USERR3
 40
0.0
  9
$USERR4
 40
0.0
  9
$USERR5
 40
0.0
  9
$WORLDVIEW
 70
     1
  9
$SHADEDGE
 70
     3
  9
$SHADEDIF
 70
    70
  9
$TILEMODE
 70
     1
  9
$MAXACTVP
 70
    48
  9
$PINSBASE
 10
0.0
 20
0.0
 30
0.0
  9
$PLIMCHECK
 70
     0
  9
$PEXTMIN
 10
1.000000000000000E+20
 20
1.000000000000000E+20
 30
1.000000000000000E+20
  9
$PEXTMAX
 10
-1.000000000000000E+20
 20
-1.000000000000000E+20
 30
-1.000000000000000E+20
  9
$PLIMMIN
 10
0.0
 20
0.0
  9
$PLIMMAX
 10
12.0
 20
9.0
  9
$UNITMODE
 70
     0
  9
$VISRETAIN
 70
     1
  9
$PLINEGEN
 70
     0
  9
$PSLTSCALE
 70
     0
  9
$TREEDEPTH
 70
  3020
  9
$CMLSTYLE
  2
Standard
  9
$CMLJUST
 70
     0
  9
$CMLSCALE
 40
1.0
  9
$PROXYGRAPHICS
 70
     1
  9
$MEASUREMENT
 70
     0
  9
$CELWEIGHT
370
    -1
  9
$ENDCAPS
280
     0
  9
$JOINSTYLE
280
     0
  9
$LWDISPLAY
290
     0
  9
$INSUNITS
 70
     0
  9
$HYPERLINKBASE
  1

  9
$STYLESHEET
  1

  9
$XEDIT
290
     1
  9
$CEPSNTYPE
380
     0
  9
$PSTYLEMODE
290
     1
  9
$FINGERPRINTGUID
  2
{77095E5F-9CE7-11D7-970D-0040F4541FA8}
  9
$VERSIONGUID
  2
{435E69A9-9F0A-49DA-82EB-E09901149AE2}
  9
$EXTNAMES
290
     1
  9
$PSVPSCALE
 40
0.0
  9
$OLESTARTUP
290
     0
  0
ENDSEC
  0
SECTION
  2
CLASSES
  0
CLASS
  1
ACDBDICTIONARYWDFLT
  2
AcDbDictionaryWithDefault
  3
ObjectDBX Classes
 90
        0
280
     0
281
     0
  0
CLASS
  1
ACDBPLACEHOLDER
  2
AcDbPlaceHolder
  3
ObjectDBX Classes
 90
        0
280
     0
281
     0
  0
CLASS
  1
LAYOUT
  2
AcDbLayout
  3
ObjectDBX Classes
 90
        0
280
     0
281
     0
  0
CLASS
  1
DICTIONARYVAR
  2
AcDbDictionaryVar
  3
ObjectDBX Classes
 90
        0
280
     0
281
     0
  0
CLASS
  1
PLOTSETTINGS
  2
AcDbPlotSettings
  3
ObjectDBX Classes
 90
        0
280
     0
281
     0
  0
CLASS
  1
TABLESTYLE
  2
AcDbTableStyle
  3
ObjectDBX Classes
 90
     4095
280
     0
281
     0
  0
CLASS
  1
MATERIAL
  2
AcDbMaterial
  3
ObjectDBX Classes
 90
     1024
280
     0
281
     0
  0
CLASS
  1
VISUALSTYLE
  2
AcDbVisualStyle
  3
ObjectDBX Classes
 90
     4095
280
     0
281
     0
  0
CLASS
  1
SORTENTSTABLE
  2
AcDbSortentsTable
  3
ObjectDBX Classes
 90
        0
280
     0
281
     0
  0
ENDSEC
  0
SECTION
  2
TABLES
  0
TABLE
  2
VPORT
  5
8
330
0
100
AcDbSymbolTable
 70
     1
  0
VPORT
  5
4F2A
330
8
100
AcDbSymbolTableRecord
100
AcDbViewportTableRecord
  2
*Active
 70
     0
 10
0.0
 20
0.0
 11
1.0
 21
1.0
 12
113.7355466703352
 22
37.49826325651217
 13
457.9999999999997
 23
1082.0
 14
10.0
 24
10.0
 15
10.0
 25
10.0
 16
0.0
 26
0.0
 36
1.0
 17
0.0
 27
0.0
 37
0.0
 40
191.9602034584766
 41
1.981617647058823
 42
1.0
 43
0.0
 44
0.0
 50
0.0
 51
0.0
 71
     0
 72
 20000
 73
     1
 74
     1
 75
     0
 76
     0
 77
     0
 78
     0
281
     0
 65
     1
110
0.0
120
0.0
130
0.0
111
1.0
121
0.0
131
0.0
112
0.0
122
1.0
132
0.0
 79
     0
146
0.0
  0
ENDTAB
  0
TABLE
  2
LTYPE
  5
5
330
0
100
AcDbSymbolTable
 70
     6
  0
LTYPE
  5
13
330
5
100
AcDbSymbolTableRecord
100
AcDbLinetypeTableRecord
  2
ByBlock
 70
     0
  3

 72
    65
 73
     0
 40
0.0
  0
LTYPE
  5
14
330
5
100
AcDbSymbolTableRecord
100
AcDbLinetypeTableRecord
  2
ByLayer
 70
     0
  3

 72
    65
 73
     0
 40
0.0
  0
LTYPE
  5
15
330
5
100
AcDbSymbolTableRecord
100
AcDbLinetypeTableRecord
  2
CONTINUOUS
 70
     0
  3
連續線 ________________________
 72
    65
 73
     2
 40
200000.0
 49
200000.0
 74
     0
 49
0.0
 74
     0
  0
LTYPE
  5
225
330
5
100
AcDbSymbolTableRecord
100
AcDbLinetypeTableRecord
  2
BYBLOCK
 70
     0
  3
Solid line
 72
    65
 73
     0
 40
0.0
  0
LTYPE
  5
226
330
5
100
AcDbSymbolTableRecord
100
AcDbLinetypeTableRecord
  2
BYLAYER
 70
     0
  3
Solid line
 72
    65
 73
     0
 40
0.0
  0
LTYPE
  5
413C
330
5
100
AcDbSymbolTableRecord
100
AcDbLinetypeTableRecord
  2
CENTER2
 70
     0
  3
Center (.5x) ___ _ ___ _ ___ _ ___ _ ___ _ ___
 72
    65
 73
     4
 40
28.575
 49
19.05
 74
     0
 49
-3.174999999999999
 74
     0
 49
3.174999999999999
 74
     0
 49
-3.174999999999999
 74
     0
  0
LTYPE
  5
413D
330
5
100
AcDbSymbolTableRecord
100
AcDbLinetypeTableRecord
  2
DASHED2
 70
     0
  3
Dashed (.5x) _ _ _ _ _ _ _ _ _ _ _ _ _ _ _ _ _
 72
    65
 73
     2
 40
9.524999999999998
 49
6.349999999999999
 74
     0
 49
-3.174999999999999
 74
     0
  0
ENDTAB
  0
TABLE
  2
LAYER
  5
2
102
{ACAD_XDICTIONARY
360
43C2
102
}
330
0
100
AcDbSymbolTable
 70
     8
  0
LAYER
  5
10
330
2
100
AcDbSymbolTableRecord
100
AcDbLayerTableRecord
  2
0
 70
     0
 62
     7
  6
CONTINUOUS
370
    -3
390
F
  0
LAYER
  5
413E
330
2
100
AcDbSymbolTableRecord
100
AcDbLayerTableRecord
  2
指線
 70
     0
 62
     3
  6
CONTINUOUS
370
    15
390
F
  0
LAYER
  5
413F
330
2
100
AcDbSymbolTableRecord
100
AcDbLayerTableRecord
  2
中心線
 70
     0
 62
     4
  6
CENTER2
370
    20
390
F
  0
LAYER
  5
4140
330
2
100
AcDbSymbolTableRecord
100
AcDbLayerTableRecord
  2
虛線
 70
     0
 62
     6
  6
DASHED2
290
     0
370
    -3
390
F
  0
LAYER
  5
43B4
330
2
100
AcDbSymbolTableRecord
100
AcDbLayerTableRecord
  2
建構線
 70
     0
 62
     1
  6
CONTINUOUS
370
    -3
390
F
  0
LAYER
  5
4741
330
2
100
AcDbSymbolTableRecord
100
AcDbLayerTableRecord
  2
AM4
 70
     0
 62
     3
  6
CONTINUOUS
370
    15
390
F
  0
LAYER
  5
4743
330
2
100
AcDbSymbolTableRecord
100
AcDbLayerTableRecord
  2
中心
 70
     0
 62
     4
  6
CENTER2
370
    20
390
F
  0
LAYER
  5
4744
330
2
100
AcDbSymbolTableRecord
100
AcDbLayerTableRecord
  2
Defpoints
 70
     1
 62
     7
  6
CONTINUOUS
290
     0
370
    -3
390
F
  0
ENDTAB
  0
TABLE
  2
STYLE
  5
3
330
0
100
AcDbSymbolTable
 70
     1
  0
STYLE
  5
11
330
3
100
AcDbSymbolTableRecord
100
AcDbTextStyleTableRecord
  2
STANDARD
 70
     0
 40
0.0
 41
1.0
 50
0.0
 71
     0
 42
3.0
  3

  4

  0
ENDTAB
  0
TABLE
  2
VIEW
  5
6
330
0
100
AcDbSymbolTable
 70
     0
  0
ENDTAB
  0
TABLE
  2
UCS
  5
7
330
0
100
AcDbSymbolTable
 70
     0
  0
ENDTAB
  0
TABLE
  2
APPID
  5
9
330
0
100
AcDbSymbolTable
 70
     5
  0
APPID
  5
12
330
9
100
AcDbSymbolTableRecord
100
AcDbRegAppTableRecord
  2
ACAD
 70
     0
  0
APPID
  5
230
330
9
100
AcDbSymbolTableRecord
100
AcDbRegAppTableRecord
  2
TCAD
 70
     0
  0
APPID
  5
4142
330
9
100
AcDbSymbolTableRecord
100
AcDbRegAppTableRecord
  2
CONTENTBLOCKICON
 70
     0
  0
APPID
  5
44BA
330
9
100
AcDbSymbolTableRecord
100
AcDbRegAppTableRecord
  2
pntflag
 70
     0
  0
APPID
  5
4F4D
330
9
100
AcDbSymbolTableRecord
100
AcDbRegAppTableRecord
  2
ACAD_EXEMPT_FROM_CAD_STANDARDS
 70
     0
  0
ENDTAB
  0
TABLE
  2
DIMSTYLE
  5
A
330
0
100
AcDbSymbolTable
 70
     2
100
AcDbDimStyleTable
 71
     1
340
3C9D
  0
DIMSTYLE
105
3C9D
330
A
100
AcDbSymbolTableRecord
100
AcDbDimStyleTableRecord
  2
Standard
 70
     0
271
     8
272
     8
340
11
  0
ENDTAB
  0
TABLE
  2
BLOCK_RECORD
  5
1
330
0
100
AcDbSymbolTable
 70
     3
  0
BLOCK_RECORD
  5
1E
102
{ACAD_XDICTIONARY
360
3D1E
102
}
330
1
100
AcDbSymbolTableRecord
100
AcDbBlockTableRecord
  2
*Model_Space
340
21
  0
BLOCK_RECORD
  5
1A
102
{ACAD_XDICTIONARY
360
3D20
102
}
330
1
100
AcDbSymbolTableRecord
100
AcDbBlockTableRecord
  2
*Paper_Space
340
1D
  0
BLOCK_RECORD
  5
46F2
330
1
100
AcDbSymbolTableRecord
100
AcDbBlockTableRecord
  2
A$C02B53278
340
0
102
{BLKREFS
331
476D
331
4771
331
477F
331
4782
102
}
  0
BLOCK_RECORD
  5
4807
330
1
100
AcDbSymbolTableRecord
100
AcDbBlockTableRecord
  2
A$C382D1F4C
340
0
  0
ENDTAB
  0
ENDSEC
  0
SECTION
  2
BLOCKS
  0
BLOCK
  5
254
330
1E
100
AcDbEntity
  8
0
100
AcDbBlockBegin
  2
*Model_Space
 70
     0
 10
0.0
 20
0.0
 30
0.0
  3
*Model_Space
  1

  0
ENDBLK
  5
255
330
1E
100
AcDbEntity
  8
0
100
AcDbBlockEnd
  0
BLOCK
  5
252
330
1A
100
AcDbEntity
 67
     1
  8
0
100
AcDbBlockBegin
  2
*Paper_Space
 70
     0
 10
0.0
 20
0.0
 30
0.0
  3
*Paper_Space
  1

  0
ENDBLK
  5
253
330
1A
100
AcDbEntity
 67
     1
  8
0
100
AcDbBlockEnd
  0
BLOCK
  5
46F7
330
46F2
100
AcDbEntity
  8
0
100
AcDbBlockBegin
  2
A$C02B53278
 70
     0
 10
0.0
 20
0.0
 30
0.0
  3
A$C02B53278
  1

  0
LINE
  5
46F3
330
46F2
100
AcDbEntity
  8
中心
100
AcDbLine
 10
-3.5
 20
0.0
 30
0.0
 11
3.5
 21
0.0
 31
0.0
  0
ARC
  5
46F4
330
46F2
100
AcDbEntity
  8
AM4
100
AcDbCircle
 10
0.0
 20
0.0
 30
0.0
 40
2.999999999999886
100
AcDbArc
 50
266.1774462707259
 51
183.8225537292741
  0
LINE
  5
46F5
330
46F2
100
AcDbEntity
  8
中心
100
AcDbLine
 10
0.0
 20
-3.5
 30
0.0
 11
0.0
 21
3.5
 31
0.0
  0
CIRCLE
  5
46F6
330
46F2
100
AcDbEntity
  8
0
100
AcDbCircle
 10
0.0
 20
0.0
 30
0.0
 40
2.499999999999914
  0
ENDBLK
  5
46F8
330
46F2
100
AcDbEntity
  8
0
100
AcDbBlockEnd
  0
BLOCK
  5
480C
330
4807
100
AcDbEntity
  8
0
100
AcDbBlockBegin
  2
A$C382D1F4C
 70
     0
 10
0.0
 20
0.0
 30
0.0
  3
A$C382D1F4C
  1

  0
LINE
  5
4808
330
4807
100
AcDbEntity
  8
中心線
100
AcDbLine
 10
-0.000000157106598
 20
2.15321552588864
 30
0.0
 11
5.751636817274373
 21
2.15321552588864
 31
0.0
  0
ARC
  5
4809
330
4807
100
AcDbEntity
  8
0
100
AcDbCircle
 10
2.119373458758758
 20
1.172967163905752
 30
0.0
 40
1.220011576012179
100
AcDbArc
 50
180.9276427879975
 51
254.0369778311712
  0
LINE
  5
480A
330
4807
100
AcDbEntity
  8
0
100
AcDbLine
 10
0.89952177990628
 20
3.15321552588864
 30
0.0
 11
0.89952177990628
 21
1.15321552588864
 31
0.0
  0
ARC
  5
480B
330
4807
100
AcDbEntity
  8
0
100
AcDbCircle
 10
2.119373458758758
 20
3.133463887871528
 30
0.0
 40
1.220011576012179
100
AcDbArc
 50
105.9630221688287
 51
179.0723572120024
  0
ENDBLK
  5
480D
330
4807
100
AcDbEntity
  8
0
100
AcDbBlockEnd
  0
ENDSEC
  0
SECTION
  2
ENTITIES
  0
MTEXT
  5
413A
330
1E
100
AcDbEntity
  8
0
100
AcDbMText
 10
-25.14217112419988
 20
-19.03704931544797
 30
0.0
 40
7.800000159341863
 41
100.6095
 71
     1
 72
     5
  1
\A1;{\fTimes New Roman|b0|i0|c0|p18;HG\fTimes New Roman|b0|i0|c238|p18;L\fTimes New Roman|b0|i0|c0|p18;25HA\PC : 3340 kgf\PC\fProxy 1|b0|i0|c0|p2;\H0.7x;\S^ 0;\fTimes New Roman|b0|i0|c0|p18;\H1.429x;: 7750 kgf}
 73
     1
 44
1.0
1001
ACAD
1000
MTEXTBEGIN
1070
    73
1070
     1
1070
    44
1040
1.0
1070
    74
1070
     0
1000
MTEXTEND
  0
LINE
  5
426D
330
1E
100
AcDbEntity
  8
0
 48
0.27
100
AcDbLine
 10
-23.87786952453621
 20
1.500000000003666
 30
0.0
 11
-23.87786952452461
 21
28.00000000000366
 31
0.0
  0
LINE
  5
426E
330
1E
100
AcDbEntity
  8
0
 48
0.27
100
AcDbLine
 10
22.52213047547536
 20
27.99999999998338
 30
0.0
 11
22.52213047546377
 21
1.499999999983373
 31
0.0
  0
ARC
  5
426F
330
1E
100
AcDbEntity
  8
0
 48
0.27
100
AcDbCircle
 10
-11.3686195409613
 20
16.6079692831361
 30
0.0
 40
0.5
100
AcDbArc
 50
135.0000137315019
 51
205.7922836031187
  0
LINE
  5
4270
330
1E
100
AcDbEntity
  8
0
 48
0.27
100
AcDbLine
 10
-9.18656837679768
 20
16.39999999999725
 30
0.0
 11
-9.735401532957837
 21
17.72499999999746
 31
0.0
  0
LINE
  5
4271
330
1E
100
AcDbEntity
  8
0
 48
0.27
100
AcDbLine
 10
-9.735401532957837
 20
17.72499999999746
 30
0.0
 11
-10.95008113033989
 21
16.51031982039549
 31
0.0
  0
LINE
  5
4272
330
1E
100
AcDbEntity
  8
0
 48
0.27
100
AcDbLine
 10
-11.72217301628717
 20
16.96152258899678
 30
0.0
 11
-10.95008113033927
 21
16.51031982039524
 31
0.0
  0
LINE
  5
4273
330
1E
100
AcDbEntity
  8
0
 48
0.27
100
AcDbLine
 10
7.830829327738257
 20
16.3999999999898
 30
0.0
 11
8.379662483899551
 21
17.72499999998953
 31
0.0
  0
ARC
  5
4274
330
1E
100
AcDbEntity
  8
0
 48
0.27
100
AcDbCircle
 10
10.01288049190211
 20
16.60796928312677
 30
0.0
 40
0.5
100
AcDbArc
 50
334.2077163968308
 51
44.99998626844742
  0
LINE
  5
4275
330
1E
100
AcDbEntity
  8
0
 48
0.27
100
AcDbLine
 10
10.36643396722826
 20
16.96152258898715
 30
0.0
 11
9.594342081279961
 21
16.51031982038626
 31
0.0
  0
LINE
  5
4276
330
1E
100
AcDbEntity
  8
0
 48
0.27
100
AcDbLine
 10
8.379662483899551
 20
17.72499999998953
 30
0.0
 11
9.594342081280586
 21
16.51031982038651
 31
0.0
  0
LINE
  5
4277
330
1E
100
AcDbEntity
  8
0
 48
0.27
100
AcDbLine
 10
22.82213047547046
 20
1.799999999989807
 30
0.0
 11
22.82213047547557
 21
13.49999999998792
 31
0.0
  0
LINE
  5
4278
330
1E
100
AcDbEntity
  8
0
 48
0.27
100
AcDbLine
 10
-24.17786952452957
 20
1.799999999997282
 30
0.0
 11
-24.17786952452072
 21
22.00000000001196
 31
0.0
  0
LINE
  5
4279
330
1E
100
AcDbEntity
  8
0
 48
0.27
100
AcDbLine
 10
7.022130475465047
 20
4.398648986679319
 30
0.0
 11
11.42078005644555
 21
-0.0000000000117666
 31
0.0
  0
LINE
  5
427A
330
1E
100
AcDbEntity
  8
0
 48
0.27
100
AcDbLine
 10
8.25183546637362
 20
9.00984272431566
 30
0.0
 11
7.022130475466553
 21
7.780138132221679
 31
0.0
  0
LINE
  5
427B
330
1E
100
AcDbEntity
  8
0
 48
0.27
100
AcDbLine
 10
7.022130475466553
 20
7.780138132221679
 30
0.0
 11
8.347130475466286
 21
7.23130503621536
 31
0.0
  0
LINE
  5
427C
330
1E
100
AcDbEntity
  8
0
 48
0.27
100
AcDbLine
 10
7.022130475465047
 20
4.398648986679319
 30
0.0
 11
8.347130475465291
 21
4.947482009256333
 31
0.0
  0
ARC
  5
427D
330
1E
100
AcDbEntity
  8
0
 48
0.27
100
AcDbCircle
 10
10.76919748996698
 20
8.757278985488511
 30
0.0
 40
2.53
100
AcDbArc
 50
95.72922242478901
 51
174.2707590208204
  0
ARC
  5
427E
330
1E
100
AcDbEntity
  8
0
 48
0.27
100
AcDbCircle
 10
10.76919748997025
 20
16.24247701448851
 30
0.0
 40
2.53
100
AcDbArc
 50
186.0063102577856
 51
263.9936732034379
  0
LINE
  5
427F
330
1E
100
AcDbEntity
  8
0
 48
0.27
100
AcDbLine
 10
7.830829327738257
 20
16.3999999999898
 30
0.0
 11
8.253086235861871
 21
15.97774288946939
 31
0.0
  0
LINE
  5
4280
330
1E
100
AcDbEntity
  8
0
 48
0.27
100
AcDbLine
 10
-8.377869524534986
 20
4.398648986686055
 30
0.0
 11
-12.77651910551924
 21
-0.0000000000011937
 31
0.0
  0
LINE
  5
4281
330
1E
100
AcDbEntity
  8
0
 48
0.27
100
AcDbLine
 10
-9.607574515439466
 20
9.009842724323448
 30
0.0
 11
-8.37786952453348
 21
7.780138132228415
 31
0.0
  0
LINE
  5
4282
330
1E
100
AcDbEntity
  8
0
 48
0.27
100
AcDbLine
 10
-8.37786952453348
 20
7.780138132228415
 30
0.0
 11
-9.702869524533724
 21
7.231305036223233
 31
0.0
  0
LINE
  5
4283
330
1E
100
AcDbEntity
  8
0
 48
0.27
100
AcDbLine
 10
-8.377869524534986
 20
4.398648986686055
 30
0.0
 11
-9.702869524534719
 21
4.947482009264206
 31
0.0
  0
LINE
  5
4284
330
1E
100
AcDbEntity
  8
0
 48
0.27
100
AcDbLine
 10
-9.186568376797737
 20
16.39999999999725
 30
0.0
 11
7.830829327738257
 21
16.3999999999898
 31
0.0
  0
LINE
  5
4285
330
1E
100
AcDbEntity
  8
0
 48
0.27
100
AcDbLine
 10
-10.56786952453458
 20
5.305776774947275
 30
0.0
 11
-12.55549659481951
 21
3.318149973208676
 31
0.0
  0
LINE
  5
4286
330
1E
100
AcDbEntity
  8
0
 48
0.27
100
AcDbLine
 10
-9.702869524534719
 20
4.947482009264206
 30
0.0
 11
-10.56786952453458
 21
5.305776774947275
 31
0.0
  0
LINE
  5
4287
330
1E
100
AcDbEntity
  8
0
 48
0.27
100
AcDbLine
 10
-9.702869524533724
 20
7.231305036223233
 30
0.0
 11
-9.702869524534719
 21
4.947482009264206
 31
0.0
  0
LINE
  5
4288
330
1E
100
AcDbEntity
  8
0
 48
0.27
100
AcDbLine
 10
-14.17786952453019
 20
0.0000000000058549
 30
0.0
 11
-18.17786952453031
 21
0.0000000000075886
 31
0.0
  0
LINE
  5
4289
330
1E
100
AcDbEntity
  8
0
 48
0.27
100
AcDbLine
 10
-22.37786952453683
 20
0.0000000000029843
 30
0.0
 11
-12.77651910551924
 21
-0.0000000000011937
 31
0.0
  0
LINE
  5
428A
330
1E
100
AcDbEntity
  8
0
 48
0.27
100
AcDbLine
 10
-24.17786952452957
 20
1.799999999997282
 30
0.0
 11
-22.37786952453683
 21
0.0000000000029843
 31
0.0
  0
LINE
  5
428B
330
1E
100
AcDbEntity
  8
0
 48
0.27
100
AcDbLine
 10
-9.702869524534719
 20
4.947482009264206
 30
0.0
 11
-12.55112973247105
 21
2.099222186153383
 31
0.0
  0
LINE
  5
428C
330
1E
100
AcDbEntity
  8
0
 48
0.27
100
AcDbLine
 10
-14.37709203856369
 20
0.2732601267646544
 30
0.0
 11
-14.65035220224862
 21
-0.0000000000003979
 31
0.0
  0
LINE
  5
428D
330
1E
100
AcDbEntity
  8
0
 48
0.27
100
AcDbLine
 10
-15.59601982502889
 20
0.277627153801177
 30
0.0
 11
-15.87364701633984
 21
0.0000000000001421
 31
0.0
  0
ARC
  5
428E
330
1E
100
AcDbEntity
  8
0
 48
0.27
100
AcDbCircle
 10
-12.12493653903306
 20
8.757278985498516
 30
0.0
 40
2.53
100
AcDbArc
 50
5.729240979127214
 51
84.27077757515858
  0
LINE
  5
428F
330
1E
100
AcDbEntity
  8
0
 48
0.27
100
AcDbLine
 10
-11.87237361541406
 20
11.27464109088046
 30
0.0
 11
-12.40164374727539
 21
9.930078252596985
 31
0.0
  0
LINE
  5
4290
330
1E
100
AcDbEntity
  8
0
 48
0.27
100
AcDbLine
 10
-13.40286952453203
 20
10.93130402985491
 30
0.0
 11
-12.40164374727493
 21
9.93007825259653
 31
0.0
  0
LINE
  5
4291
330
1E
100
AcDbEntity
  8
0
 48
0.27
100
AcDbLine
 10
-14.26786952453048
 20
14.41582570159645
 30
0.0
 11
-14.26786952453221
 21
10.57300929840264
 31
0.0
  0
LINE
  5
4292
330
1E
100
AcDbEntity
  8
0
 48
0.27
100
AcDbLine
 10
-13.40286952453203
 20
10.93130402985491
 30
0.0
 11
-14.26786952453221
 21
10.57300929840264
 31
0.0
  0
LINE
  5
4293
330
1E
100
AcDbEntity
  8
0
 48
0.27
100
AcDbLine
 10
-12.851315111074
 20
9.156454884942604
 30
0.0
 11
-12.40164374727493
 21
9.93007825259653
 31
0.0
  0
ARC
  5
4294
330
1E
100
AcDbEntity
  8
0
 48
0.27
100
AcDbCircle
 10
-12.49776172048052
 20
9.510008275535625
 30
0.0
 40
0.5
100
AcDbArc
 50
224.9999999999646
 51
296.3491143007122
  0
LINE
  5
4295
330
1E
100
AcDbEntity
  8
0
 48
0.27
100
AcDbLine
 10
-14.26786952453221
 20
10.57300929840264
 30
0.0
 11
-12.851315111074
 21
9.156454884942604
 31
0.0
  0
ARC
  5
4296
330
1E
100
AcDbEntity
  8
0
 48
0.27
100
AcDbCircle
 10
-12.12493653903306
 20
8.757278985498516
 30
0.0
 40
1.205
100
AcDbArc
 50
346.7245850711628
 51
103.2754386934386
  0
LINE
  5
4297
330
1E
100
AcDbEntity
  8
0
 48
0.27
100
AcDbLine
 10
-10.95213715716514
 20
8.480572263699258
 30
0.0
 11
-9.607574515439466
 21
9.009842724323448
 31
0.0
  0
LINE
  5
4298
330
1E
100
AcDbEntity
  8
0
 48
0.27
100
AcDbLine
 10
-10.95213715716514
 20
8.480572263699258
 30
0.0
 11
-9.702869524533724
 21
7.231305036223233
 31
0.0
  0
LINE
  5
4299
330
1E
100
AcDbEntity
  8
0
 48
0.27
100
AcDbLine
 10
-9.702869524533724
 20
7.231305036223233
 30
0.0
 11
-10.56786952453387
 21
6.873010222604733
 31
0.0
  0
ARC
  5
429A
330
1E
100
AcDbEntity
  8
0
 48
0.27
100
AcDbCircle
 10
-11.37220706725239
 20
8.384454170989187
 30
0.0
 40
0.5
100
AcDbArc
 50
153.6509136296525
 51
225.0000092909186
  0
LINE
  5
429B
330
1E
100
AcDbEntity
  8
0
 48
0.27
100
AcDbLine
 10
-11.82026032426435
 20
8.606373703435053
 30
0.0
 11
-10.95213715716514
 21
8.480572263699258
 31
0.0
  0
LINE
  5
429C
330
1E
100
AcDbEntity
  8
0
 48
0.27
100
AcDbLine
 10
-10.56786952453387
 20
6.873010222604733
 30
0.0
 11
-10.56786952453458
 21
5.305776774947275
 31
0.0
  0
LINE
  5
429D
330
1E
100
AcDbEntity
  8
0
 48
0.27
100
AcDbLine
 10
-10.95213715716514
 20
8.480572263699258
 30
0.0
 11
-11.72576040051442
 21
8.030900723064718
 31
0.0
  0
LINE
  5
429E
330
1E
100
AcDbEntity
  8
0
 48
0.27
100
AcDbLine
 10
-11.72576040051444
 20
8.030900723064718
 30
0.0
 11
-10.56786952453387
 21
6.873010222604733
 31
0.0
  0
ARC
  5
429F
330
1E
100
AcDbEntity
  8
0
 48
0.27
100
AcDbCircle
 10
-12.12493653903306
 20
8.757278985498516
 30
0.0
 40
0.3400000000000003
100
AcDbArc
 50
333.6509136296542
 51
116.34911430071
  0
LINE
  5
42A0
330
1E
100
AcDbEntity
  8
0
 48
0.27
100
AcDbLine
 10
-12.27584196961882
 20
9.061955126703765
 30
0.0
 11
-12.40164374727689
 21
9.930078252593148
 31
0.0
  0
LINE
  5
42A1
330
1E
100
AcDbEntity
  8
0
 48
0.27
100
AcDbLine
 10
-12.07786952453094
 20
13.50869799999847
 30
0.0
 11
-13.40286952453067
 21
14.05753097014337
 31
0.0
  0
LINE
  5
42A2
330
1E
100
AcDbEntity
  8
0
 48
0.27
100
AcDbLine
 10
-12.07786952453182
 20
11.48013699999856
 30
0.0
 11
-13.40286952453203
 21
10.93130402985491
 31
0.0
  0
LINE
  5
42A3
330
1E
100
AcDbEntity
  8
0
 48
0.27
100
AcDbLine
 10
-12.39277897353446
 20
15.06762152113887
 30
0.0
 11
-13.40286952453067
 21
14.05753097014337
 31
0.0
  0
LINE
  5
42A4
330
1E
100
AcDbEntity
  8
0
 48
0.27
100
AcDbLine
 10
-12.84398194263454
 20
15.8397132834915
 30
0.0
 11
-12.39277897353446
 21
15.06762152113887
 31
0.0
  0
ARC
  5
42A5
330
1E
100
AcDbEntity
  8
0
 48
0.27
100
AcDbCircle
 10
-12.49042855204135
 20
15.48615989289814
 30
0.0
 40
0.5
100
AcDbArc
 50
64.20773576216268
 51
134.9999999999836
  0
LINE
  5
42A6
330
1E
100
AcDbEntity
  8
0
 48
0.27
100
AcDbLine
 10
-13.40286952453067
 20
14.05753097014337
 30
0.0
 11
-14.26786952453048
 21
14.41582570159645
 31
0.0
  0
LINE
  5
42A7
330
1E
100
AcDbEntity
  8
0
 48
0.27
100
AcDbLine
 10
-12.84398194263451
 20
15.83971328349148
 30
0.0
 11
-14.26786952453048
 21
14.41582570159645
 31
0.0
  0
LINE
  5
42A8
330
1E
100
AcDbEntity
  8
0
 48
0.27
100
AcDbLine
 10
-13.40286952453067
 20
14.05753097014337
 30
0.0
 11
-13.40286952453203
 21
10.93130402985491
 31
0.0
  0
ARC
  5
42A9
330
1E
100
AcDbEntity
  8
0
 48
0.27
100
AcDbCircle
 10
-12.12493653902979
 20
16.24247701449852
 30
0.0
 40
2.53
100
AcDbArc
 50
276.0063267965098
 51
353.993689742162
  0
LINE
  5
42AA
330
1E
100
AcDbEntity
  8
0
 48
0.27
100
AcDbLine
 10
-9.18656837679768
 20
16.39999999999725
 30
0.0
 11
-9.608825284921636
 21
15.97774288947718
 31
0.0
  0
ARC
  5
42AB
330
1E
100
AcDbEntity
  8
0
 48
0.27
100
AcDbCircle
 10
-12.12493653902979
 20
16.24247701449852
 30
0.0
 40
1.205
100
AcDbArc
 50
257.1572584101224
 51
12.84275970207395
  0
LINE
  5
42AC
330
1E
100
AcDbEntity
  8
0
 48
0.27
100
AcDbLine
 10
-9.608825284921749
 20
15.97774288947707
 30
0.0
 11
-10.95008113033989
 21
16.51031982039549
 31
0.0
  0
LINE
  5
42AD
330
1E
100
AcDbEntity
  8
0
 48
0.27
100
AcDbLine
 10
-10.95008113033927
 20
16.51031982039524
 30
0.0
 11
-11.81880823028743
 21
16.3904143613282
 31
0.0
  0
ARC
  5
42AE
330
1E
100
AcDbEntity
  8
0
 48
0.27
100
AcDbCircle
 10
-12.12493653902979
 20
16.24247701449852
 30
0.0
 40
0.3400000000000003
100
AcDbArc
 50
244.2077357621642
 51
25.79228360311681
  0
LINE
  5
42AF
330
1E
100
AcDbEntity
  8
0
 48
0.27
100
AcDbLine
 10
-11.86020168772208
 20
13.72636583680722
 30
0.0
 11
-12.39277897353457
 21
15.06762152113836
 31
0.0
  0
LINE
  5
42B0
330
1E
100
AcDbEntity
  8
0
 48
0.27
100
AcDbLine
 10
-11.86020168772216
 20
13.72636583680713
 30
0.0
 11
-12.07786952453094
 21
13.50869799999847
 31
0.0
  0
LINE
  5
42B1
330
1E
100
AcDbEntity
  8
0
 48
0.27
100
AcDbLine
 10
-12.07786952453182
 20
11.48013699999856
 30
0.0
 11
-11.87237361541409
 21
11.27464109088058
 31
0.0
  0
LINE
  5
42B2
330
1E
100
AcDbEntity
  8
0
 48
0.27
100
AcDbLine
 10
-12.07786952453094
 20
13.50869799999847
 30
0.0
 11
-12.07786952453182
 21
11.48013699999856
 31
0.0
  0
LINE
  5
42B3
330
1E
100
AcDbEntity
  8
0
 48
0.27
100
AcDbLine
 10
-12.39277897353446
 20
15.06762152113887
 30
0.0
 11
-12.27287378239177
 21
15.93634865575512
 31
0.0
  0
LINE
  5
42B4
330
1E
100
AcDbEntity
  8
0
 48
0.27
100
AcDbLine
 10
-8.37786952453348
 20
7.780138132228415
 30
0.0
 11
-8.377869524534986
 21
4.398648986686055
 31
0.0
  0
LINE
  5
42B5
330
1E
100
AcDbEntity
  8
0
 48
0.27
100
AcDbLine
 10
7.022130475466553
 20
7.780138132221679
 30
0.0
 11
7.022130475465047
 21
4.398648986679319
 31
0.0
  0
LINE
  5
42B6
330
1E
100
AcDbEntity
  8
0
 48
0.27
100
AcDbLine
 10
9.212130475465443
 20
5.305776774938635
 30
0.0
 11
11.19975754574864
 21
3.318149973198245
 31
0.0
  0
LINE
  5
42B7
330
1E
100
AcDbEntity
  8
0
 48
0.27
100
AcDbLine
 10
8.347130475466286
 20
7.23130503621536
 30
0.0
 11
8.347130475465291
 21
4.947482009256333
 31
0.0
  0
LINE
  5
42B8
330
1E
100
AcDbEntity
  8
0
 48
0.27
100
AcDbLine
 10
8.347130475465291
 20
4.947482009256333
 30
0.0
 11
9.212130475465443
 21
5.305776774938635
 31
0.0
  0
LINE
  5
42B9
330
1E
100
AcDbEntity
  8
0
 48
0.27
100
AcDbLine
 10
21.02213047546314
 20
-0.000000000015973
 30
0.0
 11
11.42078005644555
 21
-0.0000000000117666
 31
0.0
  0
LINE
  5
42BA
330
1E
100
AcDbEntity
  8
0
 48
0.27
100
AcDbLine
 10
12.8221304754698
 20
-0.0000000000059401
 30
0.0
 11
16.82213047546969
 21
-0.0000000000077023
 31
0.0
  0
LINE
  5
42BB
330
1E
100
AcDbEntity
  8
0
 48
0.27
100
AcDbLine
 10
8.347130475465291
 20
4.947482009256333
 30
0.0
 11
11.19539068339915
 21
2.099222186142952
 31
0.0
  0
LINE
  5
42BC
330
1E
100
AcDbEntity
  8
0
 48
0.27
100
AcDbLine
 10
13.02135298949017
 20
0.2732601267527173
 30
0.0
 11
13.29461315317493
 21
-0.0000000000126192
 31
0.0
  0
LINE
  5
42BD
330
1E
100
AcDbEntity
  8
0
 48
0.27
100
AcDbLine
 10
14.24028077595542
 20
0.2776271537881598
 30
0.0
 11
14.51790796726615
 21
-0.0000000000131308
 31
0.0
  0
LINE
  5
42BE
330
1E
100
AcDbEntity
  8
0
 48
0.27
100
AcDbLine
 10
21.02213047546314
 20
-0.000000000015973
 30
0.0
 11
22.82213047547046
 21
1.799999999989807
 31
0.0
  0
LINE
  5
42BF
330
1E
100
AcDbEntity
  8
0
 48
0.27
100
AcDbLine
 10
12.04713047546789
 20
10.9313040298438
 30
0.0
 11
11.04590469820988
 21
9.93007825258627
 31
0.0
  0
LINE
  5
42C0
330
1E
100
AcDbEntity
  8
0
 48
0.27
100
AcDbLine
 10
10.5166345663502
 20
11.27464109087068
 30
0.0
 11
11.04590469821033
 21
9.930078252586724
 31
0.0
  0
LINE
  5
42C1
330
1E
100
AcDbEntity
  8
0
 48
0.27
100
AcDbLine
 10
12.04713047546789
 20
10.9313040298438
 30
0.0
 11
12.91213047546773
 21
10.57300929839076
 31
0.0
  0
LINE
  5
42C2
330
1E
100
AcDbEntity
  8
0
 48
0.27
100
AcDbLine
 10
12.91213047546935
 20
14.41582570158456
 30
0.0
 11
12.91213047546773
 21
10.57300929839076
 31
0.0
  0
LINE
  5
42C3
330
1E
100
AcDbEntity
  8
0
 48
0.27
100
AcDbLine
 10
12.91213047546773
 20
10.57300929839076
 30
0.0
 11
11.49557606200827
 21
9.156454884931974
 31
0.0
  0
ARC
  5
42C4
330
1E
100
AcDbEntity
  8
0
 48
0.27
100
AcDbCircle
 10
11.14202267141507
 20
9.510008275525308
 30
0.0
 40
0.5
100
AcDbArc
 50
243.6508856992393
 51
314.999999999986
  0
LINE
  5
42C5
330
1E
100
AcDbEntity
  8
0
 48
0.27
100
AcDbLine
 10
11.49557606200827
 20
9.156454884931974
 30
0.0
 11
11.04590469820988
 21
9.93007825258627
 31
0.0
  0
ARC
  5
42C6
330
1E
100
AcDbEntity
  8
0
 48
0.27
100
AcDbCircle
 10
10.76919748996698
 20
8.757278985488511
 30
0.0
 40
1.205
100
AcDbArc
 50
76.72456130651126
 51
193.2754149287869
  0
ARC
  5
42C7
330
1E
100
AcDbEntity
  8
0
 48
0.27
100
AcDbCircle
 10
10.01646801818597
 20
8.384454170979836
 30
0.0
 40
0.5
100
AcDbArc
 50
314.9999907090307
 51
26.34908637029662
  0
LINE
  5
42C8
330
1E
100
AcDbEntity
  8
0
 48
0.27
100
AcDbLine
 10
10.46452127519811
 20
8.606373703425333
 30
0.0
 11
9.596398108098782
 21
8.480572263690277
 31
0.0
  0
LINE
  5
42C9
330
1E
100
AcDbEntity
  8
0
 48
0.27
100
AcDbLine
 10
9.596398108098782
 20
8.480572263690277
 30
0.0
 11
8.25183546637362
 21
9.00984272431566
 31
0.0
  0
LINE
  5
42CA
330
1E
100
AcDbEntity
  8
0
 48
0.27
100
AcDbLine
 10
9.212130475466153
 20
6.873010222596093
 30
0.0
 11
9.212130475465443
 21
5.305776774938635
 31
0.0
  0
LINE
  5
42CB
330
1E
100
AcDbEntity
  8
0
 48
0.27
100
AcDbLine
 10
8.347130475466286
 20
7.23130503621536
 30
0.0
 11
9.212130475466153
 21
6.873010222596093
 31
0.0
  0
LINE
  5
42CC
330
1E
100
AcDbEntity
  8
0
 48
0.27
100
AcDbLine
 10
9.596398108098782
 20
8.480572263690277
 30
0.0
 11
10.37002135144772
 21
8.030900723055054
 31
0.0
  0
LINE
  5
42CD
330
1E
100
AcDbEntity
  8
0
 48
0.27
100
AcDbLine
 10
10.37002135144774
 20
8.030900723055054
 30
0.0
 11
9.212130475466153
 21
6.873010222596093
 31
0.0
  0
LINE
  5
42CE
330
1E
100
AcDbEntity
  8
0
 48
0.27
100
AcDbLine
 10
9.596398108098782
 20
8.480572263690277
 30
0.0
 11
8.347130475466286
 21
7.23130503621536
 31
0.0
  0
ARC
  5
42CF
330
1E
100
AcDbEntity
  8
0
 48
0.27
100
AcDbCircle
 10
10.76919748996698
 20
8.757278985488511
 30
0.0
 40
0.3400000000000003
100
AcDbArc
 50
63.65088569923926
 51
206.3490863702949
  0
LINE
  5
42D0
330
1E
100
AcDbEntity
  8
0
 48
0.27
100
AcDbLine
 10
10.92010292055298
 20
9.061955126693646
 30
0.0
 11
11.04590469821184
 21
9.930078252582887
 31
0.0
  0
LINE
  5
42D1
330
1E
100
AcDbEntity
  8
0
 48
0.27
100
AcDbLine
 10
11.48824289357458
 20
15.83971328348084
 30
0.0
 11
12.91213047546935
 21
14.41582570158456
 31
0.0
  0
LINE
  5
42D2
330
1E
100
AcDbEntity
  8
0
 48
0.27
100
AcDbLine
 10
12.0471304754692
 20
14.05753097013226
 30
0.0
 11
12.91213047546935
 21
14.41582570158456
 31
0.0
  0
LINE
  5
42D3
330
1E
100
AcDbEntity
  8
0
 48
0.27
100
AcDbLine
 10
11.0370399244739
 20
15.06762152112864
 30
0.0
 11
12.0471304754692
 21
14.05753097013226
 31
0.0
  0
LINE
  5
42D4
330
1E
100
AcDbEntity
  8
0
 48
0.27
100
AcDbLine
 10
10.72213047546901
 20
13.50869799998853
 30
0.0
 11
12.0471304754692
 21
14.05753097013226
 31
0.0
  0
LINE
  5
42D5
330
1E
100
AcDbEntity
  8
0
 48
0.27
100
AcDbLine
 10
10.72213047546813
 20
11.48013699998861
 30
0.0
 11
12.04713047546789
 21
10.9313040298438
 31
0.0
  0
ARC
  5
42D6
330
1E
100
AcDbEntity
  8
0
 48
0.27
100
AcDbCircle
 10
11.13468950298113
 20
15.48615989288783
 30
0.0
 40
0.5
100
AcDbArc
 50
44.99999999996568
 51
115.792264237787
  0
LINE
  5
42D7
330
1E
100
AcDbEntity
  8
0
 48
0.27
100
AcDbLine
 10
11.4882428935746
 20
15.83971328348087
 30
0.0
 11
11.0370399244739
 21
15.06762152112864
 31
0.0
  0
LINE
  5
42D8
330
1E
100
AcDbEntity
  8
0
 48
0.27
100
AcDbLine
 10
12.0471304754692
 20
14.05753097013226
 30
0.0
 11
12.04713047546789
 21
10.9313040298438
 31
0.0
  0
LINE
  5
42D9
330
1E
100
AcDbEntity
  8
0
 48
0.27
100
AcDbLine
 10
8.253086235861985
 20
15.97774288946928
 30
0.0
 11
9.594342081280586
 21
16.51031982038651
 31
0.0
  0
LINE
  5
42DA
330
1E
100
AcDbEntity
  8
0
 48
0.27
100
AcDbLine
 10
9.594342081279961
 20
16.51031982038626
 30
0.0
 11
10.46306918122801
 21
16.39041436131847
 31
0.0
  0
ARC
  5
42DB
330
1E
100
AcDbEntity
  8
0
 48
0.27
100
AcDbCircle
 10
10.76919748997025
 20
16.24247701448851
 30
0.0
 40
1.205
100
AcDbArc
 50
167.1572402978759
 51
282.8427415898277
  0
LINE
  5
42DC
330
1E
100
AcDbEntity
  8
0
 48
0.27
100
AcDbLine
 10
10.50446263866033
 20
13.72636583679747
 30
0.0
 11
11.03703992447401
 21
15.06762152112813
 31
0.0
  0
LINE
  5
42DD
330
1E
100
AcDbEntity
  8
0
 48
0.27
100
AcDbLine
 10
10.50446263866041
 20
13.72636583679738
 30
0.0
 11
10.72213047546901
 21
13.50869799998853
 31
0.0
  0
LINE
  5
42DE
330
1E
100
AcDbEntity
  8
0
 48
0.27
100
AcDbLine
 10
10.72213047546813
 20
11.48013699998861
 30
0.0
 11
10.51663456635023
 21
11.2746410908708
 31
0.0
  0
LINE
  5
42DF
330
1E
100
AcDbEntity
  8
0
 48
0.27
100
AcDbLine
 10
10.72213047546901
 20
13.50869799998853
 30
0.0
 11
10.72213047546813
 21
11.48013699998861
 31
0.0
  0
ARC
  5
42E0
330
1E
100
AcDbEntity
  8
0
 48
0.27
100
AcDbCircle
 10
10.76919748997025
 20
16.24247701448851
 30
0.0
 40
0.3400000000000003
100
AcDbArc
 50
154.2077163968325
 51
295.7922642377848
  0
LINE
  5
42E1
330
1E
100
AcDbEntity
  8
0
 48
0.27
100
AcDbLine
 10
11.0370399244739
 20
15.06762152112864
 30
0.0
 11
10.91713473333195
 21
15.936348655745
 31
0.0
  0
LINE
  5
42E2
330
1E
100
AcDbEntity
  8
0
 48
0.27
100
AcDbLine
 10
-10.09369638584724
 20
18.58999999999767
 30
0.0
 11
8.737957336789804
 21
18.58999999998943
 31
0.0
  0
LINE
  5
42E3
330
1E
100
AcDbEntity
  8
0
 48
0.27
100
AcDbLine
 10
-9.735401532957808
 20
17.72499999999749
 30
0.0
 11
8.379662483899551
 21
17.72499999998953
 31
0.0
  0
LINE
  5
42E4
330
1E
100
AcDbEntity
  8
0
 48
0.27
100
AcDbLine
 10
-22.37786952452399
 20
29.50000000000299
 30
0.0
 11
21.02213047547602
 21
29.49999999998403
 31
0.0
  0
LINE
  5
42E5
330
1E
100
AcDbEntity
  8
0
 48
0.27
100
AcDbLine
 10
12.32213047548454
 20
29.99999999999426
 30
0.0
 11
4.322130475484541
 21
29.99999999999776
 31
0.0
  0
LINE
  5
42E6
330
1E
100
AcDbEntity
  8
0
 48
0.27
100
AcDbLine
 10
-13.67786952451546
 20
30.0000000000056
 30
0.0
 11
-5.677869524515458
 21
30.00000000000213
 31
0.0
  0
LINE
  5
42E7
330
1E
100
AcDbEntity
  8
中心線
 48
0.27
100
AcDbLine
 10
-18.17786952451483
 20
31.50000000000759
 30
0.0
 11
-18.17786952452103
 21
17.2622867597361
 31
0.0
  0
LINE
  5
42E8
330
1E
100
AcDbEntity
  8
0
 48
0.27
100
AcDbLine
 10
-24.67786952451876
 20
22.50000000001043
 30
0.0
 11
-24.67786952451592
 21
29.00000000001043
 31
0.0
  0
LINE
  5
42E9
330
1E
100
AcDbEntity
  8
0
 48
0.27
100
AcDbLine
 10
-22.37786952452396
 20
29.50000000000299
 30
0.0
 11
-23.87786952452461
 21
28.00000000000366
 31
0.0
  0
LINE
  5
42EA
330
1E
100
AcDbEntity
  8
虛線
 48
0.27
100
AcDbLine
 10
-21.17786952451647
 20
29.70000000000889
 30
0.0
 11
-21.17786952451871
 21
24.55000000000891
 31
0.0
  0
LINE
  5
42EB
330
1E
100
AcDbEntity
  8
虛線
 48
0.27
100
AcDbLine
 10
-15.17786952451646
 20
29.70000000000627
 30
0.0
 11
-15.17786952451871
 21
24.55000000000629
 31
0.0
  0
LINE
  5
42EC
330
1E
100
AcDbEntity
  8
虛線
 48
0.27
100
AcDbLine
 10
-20.67786952451646
 20
29.70000000000867
 30
0.0
 11
-20.67786952452002
 21
21.55000000000871
 31
0.0
  0
LINE
  5
42ED
330
1E
100
AcDbEntity
  8
虛線
 48
0.27
100
AcDbLine
 10
-15.67786952451646
 20
29.70000000000649
 30
0.0
 11
-15.67786952452002
 21
21.55000000000649
 31
0.0
  0
LINE
  5
42EE
330
1E
100
AcDbEntity
  8
虛線
 48
0.27
100
AcDbLine
 10
-15.67786952452002
 20
21.55000000000649
 30
0.0
 11
-18.17786952452064
 21
20.10662432703353
 31
0.0
  0
LINE
  5
42EF
330
1E
100
AcDbEntity
  8
虛線
 48
0.27
100
AcDbLine
 10
-15.67786952452002
 20
21.55000000000649
 30
0.0
 11
-20.67786952452002
 21
21.55000000000871
 31
0.0
  0
LINE
  5
42F0
330
1E
100
AcDbEntity
  8
虛線
 48
0.27
100
AcDbLine
 10
-15.17786952451871
 20
24.55000000000629
 30
0.0
 11
-21.17786952451871
 21
24.55000000000891
 31
0.0
  0
LINE
  5
42F1
330
1E
100
AcDbEntity
  8
虛線
 48
0.27
100
AcDbLine
 10
-18.17786952452064
 20
20.10662432703353
 30
0.0
 11
-20.67786952452002
 21
21.55000000000871
 31
0.0
  0
LINE
  5
42F2
330
1E
100
AcDbEntity
  8
0
 48
0.27
100
AcDbLine
 10
-24.67786952451876
 20
22.50000000001043
 30
0.0
 11
-24.17786952451896
 21
22.0000000000102
 31
0.0
  0
LINE
  5
42F3
330
1E
100
AcDbEntity
  8
0
 48
0.27
100
AcDbLine
 10
-10.09369638584729
 20
18.58999999999764
 30
0.0
 11
-11.72217301628714
 21
16.96152258899676
 31
0.0
  0
LINE
  5
42F4
330
1E
100
AcDbEntity
  8
0
 48
0.27
100
AcDbLine
 10
-9.735401532957837
 20
17.72499999999746
 30
0.0
 11
-10.09369638584729
 21
18.58999999999764
 31
0.0
  0
LINE
  5
42F5
330
1E
100
AcDbEntity
  8
0
 48
0.27
100
AcDbLine
 10
-23.17786952451526
 20
30.50000000000978
 30
0.0
 11
-14.17786952451526
 21
30.50000000000586
 31
0.0
  0
LINE
  5
42F7
330
1E
100
AcDbEntity
  8
0
 48
0.27
100
AcDbLine
 10
-23.17786952451526
 20
30.50000000000978
 30
0.0
 11
-24.67786952451592
 21
29.00000000001043
 31
0.0
  0
LINE
  5
42F8
330
1E
100
AcDbEntity
  8
虛線
 48
0.27
100
AcDbLine
 10
-21.9778695245151
 20
30.50000000000927
 30
0.0
 11
-21.1778695245156
 21
29.70000000000889
 31
0.0
  0
LINE
  5
42F9
330
1E
100
AcDbEntity
  8
虛線
 48
0.27
100
AcDbLine
 10
-14.37786952451542
 20
30.50000000000594
 30
0.0
 11
-15.1778695245156
 21
29.70000000000627
 31
0.0
  0
LINE
  5
42FA
330
1E
100
AcDbEntity
  8
0
 48
0.27
100
AcDbLine
 10
-13.67786952451546
 20
30.0000000000056
 30
0.0
 11
-14.17786952451526
 21
30.50000000000586
 31
0.0
  0
LINE
  5
42FB
330
1E
100
AcDbEntity
  8
0
 48
0.27
100
AcDbLine
 10
-5.927869524526187
 20
24.49999999999582
 30
0.0
 11
-5.92786952452397
 21
29.49999999999585
 31
0.0
  0
LINE
  5
42FD
330
1E
100
AcDbEntity
  8
0
 48
0.27
100
AcDbLine
 10
4.572130475474842
 20
26.82094795717715
 30
0.0
 11
4.572130475476029
 21
29.49999999999125
 31
0.0
  0
LINE
  5
4300
330
1E
100
AcDbEntity
  8
0
 48
0.27
100
AcDbLine
 10
-5.177869524515259
 20
30.50000000000191
 30
0.0
 11
3.82213047548474
 21
30.49999999999798
 31
0.0
  0
LINE
  5
4301
330
1E
100
AcDbEntity
  8
0
 48
0.27
100
AcDbLine
 10
-5.177869524515259
 20
30.50000000000191
 30
0.0
 11
-5.677869524515458
 21
30.00000000000213
 31
0.0
  0
LINE
  5
4302
330
1E
100
AcDbEntity
  8
0
 48
0.27
100
AcDbLine
 10
3.82213047548474
 20
30.49999999999798
 30
0.0
 11
4.322130475484541
 21
29.99999999999776
 31
0.0
  0
LINE
  5
4303
330
1E
100
AcDbEntity
  8
中心線
 48
0.27
100
AcDbLine
 10
16.82213047548517
 20
31.4999999999923
 30
0.0
 11
16.82213047547897
 21
17.26228675972081
 31
0.0
  0
LINE
  5
4304
330
1E
100
AcDbEntity
  8
0
 48
0.27
100
AcDbLine
 10
23.32213047547755
 20
13.99999999998945
 30
0.0
 11
23.32213047548409
 21
28.99999999998946
 31
0.0
  0
LINE
  5
4305
330
1E
100
AcDbEntity
  8
0
 48
0.27
100
AcDbLine
 10
22.52213047547536
 20
27.99999999998338
 30
0.0
 11
21.02213047547602
 21
29.49999999998403
 31
0.0
  0
LINE
  5
430D
330
1E
100
AcDbEntity
  8
0
 48
0.27
100
AcDbLine
 10
8.379662483899551
 20
17.72499999998953
 30
0.0
 11
8.737957336789804
 21
18.58999999998943
 31
0.0
  0
LINE
  5
430E
330
1E
100
AcDbEntity
  8
0
 48
0.27
100
AcDbLine
 10
8.737957336789804
 20
18.58999999998943
 30
0.0
 11
10.36643396722823
 21
16.96152258898712
 31
0.0
  0
LINE
  5
4310
330
1E
100
AcDbEntity
  8
0
 48
0.27
100
AcDbLine
 10
23.32213047547755
 20
13.99999999998945
 30
0.0
 11
22.82213047547732
 21
13.49999999998968
 31
0.0
  0
LINE
  5
4311
330
1E
100
AcDbEntity
  8
0
 48
0.27
100
AcDbLine
 10
12.82213047548474
 20
30.49999999999406
 30
0.0
 11
21.82213047548474
 21
30.49999999999014
 31
0.0
  0
LINE
  5
4313
330
1E
100
AcDbEntity
  8
0
 48
0.27
100
AcDbLine
 10
12.32213047548454
 20
29.99999999999426
 30
0.0
 11
12.82213047548474
 21
30.49999999999406
 31
0.0
  0
LINE
  5
4316
330
1E
100
AcDbEntity
  8
0
 48
0.27
100
AcDbLine
 10
21.82213047548474
 20
30.49999999999014
 30
0.0
 11
23.32213047548409
 21
28.99999999998946
 31
0.0
  0
LINE
  5
431F
330
1E
100
AcDbEntity
  8
指線
 48
0.27
100
AcDbLine
 10
-15.48835293150487
 20
3.203332480139366
 30
0.0
 11
-17.44771337219268
 21
3.203683750083023
 31
0.0
  0
LINE
  5
4320
330
1E
100
AcDbEntity
  8
指線
 48
0.27
100
AcDbLine
 10
-15.48850855743026
 20
2.197233077748116
 30
0.0
 11
-17.44786899811806
 21
2.197584347691773
 31
0.0
  0
LINE
  5
4321
330
1E
100
AcDbEntity
  8
指線
 48
0.27
100
AcDbLine
 10
-14.48225554806157
 20
3.203176758349599
 30
0.0
 11
-12.5188629299272
 21
3.202920871905469
 31
0.0
  0
LINE
  5
4322
330
1E
100
AcDbEntity
  8
指線
 48
0.27
100
AcDbLine
 10
-14.48241117398672
 20
2.197077355958583
 30
0.0
 11
-12.51901855585236
 21
2.196821469514219
 31
0.0
  0
LINE
  5
4323
330
1E
100
AcDbEntity
  8
指線
 48
0.27
100
AcDbLine
 10
-15.48850855743026
 20
2.197233077748116
 30
0.0
 11
-15.48865083293778
 21
1.27744335908612
 31
0.0
  0
LINE
  5
4324
330
1E
100
AcDbEntity
  8
指線
 48
0.27
100
AcDbLine
 10
-14.48241117398672
 20
2.197077355958583
 30
0.0
 11
-14.48255344929317
 21
1.277287637300929
 31
0.0
  0
LINE
  5
4325
330
1E
100
AcDbEntity
  8
指線
 48
0.27
100
AcDbLine
 10
-15.48821065619865
 20
4.123122198796792
 30
0.0
 11
-15.48835293150487
 21
3.203332480139366
 31
0.0
  0
LINE
  5
4326
330
1E
100
AcDbEntity
  8
指線
 48
0.27
100
AcDbLine
 10
-14.48211327255403
 20
4.122966477011829
 30
0.0
 11
-14.48225554806157
 21
3.203176758349599
 31
0.0
  0
LINE
  5
432F
330
1E
100
AcDbEntity
  8
指線
 48
0.27
100
AcDbLine
 10
13.11164706849515
 20
3.20333248012686
 30
0.0
 11
11.15228662780734
 21
3.203683750070517
 31
0.0
  0
LINE
  5
4330
330
1E
100
AcDbEntity
  8
指線
 48
0.27
100
AcDbLine
 10
13.11149144256976
 20
2.19723307773561
 30
0.0
 11
11.15213100188196
 21
2.197584347679267
 31
0.0
  0
LINE
  5
4331
330
1E
100
AcDbEntity
  8
指線
 48
0.27
100
AcDbLine
 10
14.11774445193845
 20
3.203176758337093
 30
0.0
 11
16.08113707007281
 21
3.202920871892963
 31
0.0
  0
LINE
  5
4332
330
1E
100
AcDbEntity
  8
指線
 48
0.27
100
AcDbLine
 10
14.1175888260133
 20
2.197077355946078
 30
0.0
 11
16.08098144414766
 21
2.196821469501713
 31
0.0
  0
LINE
  5
4333
330
1E
100
AcDbEntity
  8
指線
 48
0.27
100
AcDbLine
 10
13.11149144256976
 20
2.19723307773561
 30
0.0
 11
13.11134916706223
 21
1.277443359073615
 31
0.0
  0
LINE
  5
4334
330
1E
100
AcDbEntity
  8
指線
 48
0.27
100
AcDbLine
 10
14.1175888260133
 20
2.197077355946078
 30
0.0
 11
14.11744655070685
 21
1.277287637288424
 31
0.0
  0
LINE
  5
4335
330
1E
100
AcDbEntity
  8
指線
 48
0.27
100
AcDbLine
 10
13.11178934380137
 20
4.123122198784287
 30
0.0
 11
13.11164706849515
 21
3.20333248012686
 31
0.0
  0
LINE
  5
4336
330
1E
100
AcDbEntity
  8
指線
 48
0.27
100
AcDbLine
 10
14.11788672744598
 20
4.122966476999323
 30
0.0
 11
14.11774445193845
 21
3.203176758337093
 31
0.0
  0
ARC
  5
4341
330
1E
100
AcDbEntity
  8
指線
 48
0.27
100
AcDbCircle
 10
-14.98314258618506
 20
2.700298170687716
 30
0.0
 40
1.508492115360205
100
AcDbArc
 50
199.4740415212037
 51
250.4208853925178
  0
ARC
  5
4342
330
1E
100
AcDbEntity
  8
指線
 48
0.27
100
AcDbCircle
 10
-14.98314258618506
 20
2.700298170687716
 30
0.0
 40
1.508492115360205
100
AcDbArc
 50
289.3809415722937
 51
340.5082247682504
  0
ARC
  5
4343
330
1E
100
AcDbEntity
  8
指線
 48
0.27
100
AcDbCircle
 10
-14.98314258618506
 20
2.700298170687716
 30
0.0
 40
1.508492115360205
100
AcDbArc
 50
19.46831212368987
 51
70.60133311813122
  0
ARC
  5
4344
330
1E
100
AcDbEntity
  8
指線
 48
0.27
100
AcDbCircle
 10
-14.98314258618506
 20
2.700298170687716
 30
0.0
 40
1.508492115360205
100
AcDbArc
 50
109.5613892979122
 51
160.5139541657128
  0
CIRCLE
  5
4345
330
1E
100
AcDbEntity
  8
指線
 48
0.27
100
AcDbCircle
 10
-14.98314258618506
 20
2.700298170687716
 30
0.0
 40
2.512096663740535
  0
ARC
  5
4346
330
1E
100
AcDbEntity
  8
指線
 48
0.27
100
AcDbCircle
 10
13.61685741381496
 20
2.70029817067521
 30
0.0
 40
1.508492115360205
100
AcDbArc
 50
199.4740415212037
 51
250.4208853925178
  0
ARC
  5
4347
330
1E
100
AcDbEntity
  8
指線
 48
0.27
100
AcDbCircle
 10
13.61685741381496
 20
2.70029817067521
 30
0.0
 40
1.508492115360205
100
AcDbArc
 50
289.3809415722937
 51
340.5082247682504
  0
ARC
  5
4348
330
1E
100
AcDbEntity
  8
指線
 48
0.27
100
AcDbCircle
 10
13.61685741381496
 20
2.70029817067521
 30
0.0
 40
1.508492115360205
100
AcDbArc
 50
19.46831212368987
 51
70.60133311813122
  0
ARC
  5
4349
330
1E
100
AcDbEntity
  8
指線
 48
0.27
100
AcDbCircle
 10
13.61685741381496
 20
2.70029817067521
 30
0.0
 40
1.508492115360205
100
AcDbArc
 50
109.5613892979122
 51
160.5139541657128
  0
CIRCLE
  5
434A
330
1E
100
AcDbEntity
  8
指線
 48
0.27
100
AcDbCircle
 10
13.61685741381496
 20
2.70029817067521
 30
0.0
 40
2.512096663740535
  0
LINE
  5
434B
330
1E
100
AcDbEntity
  8
中心線
 48
0.27
100
AcDbLine
 10
-0.677869524541336
 20
-10.34663117638539
 30
0.0
 11
-0.6778695245292497
 21
17.39999999999352
 31
0.0
  0
LINE
  5
434C
330
1E
100
AcDbEntity
  8
0
 62
     0
 48
0.27
100
AcDbLine
 10
9.322130475450876
 20
-5.500000000003865
 30
0.0
 11
-10.67786952454912
 21
-5.499999999980616
 31
0.0
  0
LINE
  5
434D
330
1E
100
AcDbEntity
  8
0
 48
0.27
100
AcDbLine
 10
7.022130475465047
 20
4.398648986679319
 30
0.0
 11
10.82213047545795
 21
0.5986495000939414
 31
0.0
  0
LINE
  5
434E
330
1E
100
AcDbEntity
  8
0
 48
0.27
100
AcDbLine
 10
8.25183546637362
 20
9.00984272431566
 30
0.0
 11
7.022130475466553
 21
7.780138132221679
 31
0.0
  0
ARC
  5
434F
330
1E
100
AcDbEntity
  8
0
 48
0.27
100
AcDbCircle
 10
10.76919748996698
 20
8.757278985488511
 30
0.0
 40
2.53
100
AcDbArc
 50
95.72922242478901
 51
174.2707590208204
  0
ARC
  5
4350
330
1E
100
AcDbEntity
  8
0
 48
0.27
100
AcDbCircle
 10
10.76919748997025
 20
16.24247701448851
 30
0.0
 40
2.53
100
AcDbArc
 50
186.0063102577856
 51
263.9936732034379
  0
LINE
  5
4351
330
1E
100
AcDbEntity
  8
0
 48
0.27
100
AcDbLine
 10
7.830829327738257
 20
16.3999999999898
 30
0.0
 11
8.253086235861871
 21
15.97774288946939
 31
0.0
  0
LINE
  5
4352
330
1E
100
AcDbEntity
  8
0
 48
0.27
100
AcDbLine
 10
-8.377869524534986
 20
4.398648986686055
 30
0.0
 11
-12.17786952454204
 21
0.5986495000930745
 31
0.0
  0
LINE
  5
4353
330
1E
100
AcDbEntity
  8
0
 48
0.27
100
AcDbLine
 10
-9.607574515439466
 20
9.009842724323448
 30
0.0
 11
-8.37786952453348
 21
7.780138132228415
 31
0.0
  0
LINE
  5
4354
330
1E
100
AcDbEntity
  8
0
 48
0.27
100
AcDbLine
 10
-9.186568376797737
 20
16.39999999999725
 30
0.0
 11
7.830829327738257
 21
16.3999999999898
 31
0.0
  0
LINE
  5
4355
330
1E
100
AcDbEntity
  8
0
 62
     0
 48
0.27
100
AcDbLine
 10
-12.17786952454204
 20
0.5986495001269248
 30
0.0
 11
-12.17786952454739
 21
-3.999999999978882
 31
0.0
  0
LINE
  5
4356
330
1E
100
AcDbEntity
  8
0
 62
     0
 48
0.27
100
AcDbLine
 10
-12.17786952454739
 20
-3.999999999978882
 30
0.0
 11
-10.67786952454912
 21
-5.499999999980616
 31
0.0
  0
ARC
  5
4357
330
1E
100
AcDbEntity
  8
0
 48
0.27
100
AcDbCircle
 10
-12.12493653903306
 20
8.757278985498516
 30
0.0
 40
2.53
100
AcDbArc
 50
5.729240979127214
 51
84.27077757515858
  0
ARC
  5
4358
330
1E
100
AcDbEntity
  8
0
 48
0.27
100
AcDbCircle
 10
-12.12493653902979
 20
16.24247701449852
 30
0.0
 40
2.53
100
AcDbArc
 50
276.0063267965098
 51
353.993689742162
  0
LINE
  5
4359
330
1E
100
AcDbEntity
  8
0
 48
0.27
100
AcDbLine
 10
-9.18656837679768
 20
16.39999999999725
 30
0.0
 11
-9.608825284921636
 21
15.97774288947718
 31
0.0
  0
LINE
  5
435A
330
1E
100
AcDbEntity
  8
0
 48
0.27
100
AcDbLine
 10
-11.86020168772216
 20
13.72636583680713
 30
0.0
 11
-12.07786952453094
 21
13.50869799999847
 31
0.0
  0
LINE
  5
435B
330
1E
100
AcDbEntity
  8
0
 48
0.27
100
AcDbLine
 10
-12.07786952453182
 20
11.48013699999856
 30
0.0
 11
-11.87237361541409
 21
11.27464109088058
 31
0.0
  0
LINE
  5
435C
330
1E
100
AcDbEntity
  8
0
 48
0.27
100
AcDbLine
 10
-12.07786952453094
 20
13.50869799999847
 30
0.0
 11
-12.07786952453182
 21
11.48013699999856
 31
0.0
  0
LINE
  5
435D
330
1E
100
AcDbEntity
  8
虛線
 62
     6
 48
0.27
100
AcDbLine
 10
-4.177869524548611
 20
-4.999999999988119
 30
0.0
 11
-4.177869524534429
 21
7.200000000011755
 31
0.0
  0
LINE
  5
435E
330
1E
100
AcDbEntity
  8
虛線
 62
     6
 48
0.27
100
AcDbLine
 10
2.822130475451388
 20
-4.999999999996262
 30
0.0
 11
2.82213047546557
 21
7.200000000003683
 31
0.0
  0
LINE
  5
435F
330
1E
100
AcDbEntity
  8
0
 48
0.27
100
AcDbLine
 10
-8.37786952453348
 20
7.780138132228415
 30
0.0
 11
-8.377869524534986
 21
4.398648986686055
 31
0.0
  0
LINE
  5
4360
330
1E
100
AcDbEntity
  8
0
 48
0.27
100
AcDbLine
 10
7.022130475466553
 20
7.780138132221679
 30
0.0
 11
7.022130475465047
 21
4.398648986679319
 31
0.0
  0
LINE
  5
4361
330
1E
100
AcDbEntity
  8
虛線
 62
     6
 48
0.27
100
AcDbLine
 10
-4.177869524548611
 20
-4.999999999988119
 30
0.0
 11
2.822130475451388
 21
-4.999999999996262
 31
0.0
  0
LINE
  5
4362
330
1E
100
AcDbEntity
  8
虛線
 62
     6
 48
0.27
100
AcDbLine
 10
-4.677869524549237
 20
-5.499999999987593
 30
0.0
 11
-4.177869524548611
 21
-4.999999999988119
 31
0.0
  0
LINE
  5
4363
330
1E
100
AcDbEntity
  8
虛線
 62
     6
 48
0.27
100
AcDbLine
 10
2.822130475451388
 20
-4.999999999996262
 30
0.0
 11
3.322130475450876
 21
-5.499999999996902
 31
0.0
  0
LINE
  5
4364
330
1E
100
AcDbEntity
  8
虛線
 62
     6
 48
0.27
100
AcDbLine
 10
-4.177869524534429
 20
7.200000000011812
 30
0.0
 11
2.82213047546557
 21
7.200000000003683
 31
0.0
  0
LINE
  5
4365
330
1E
100
AcDbEntity
  8
虛線
 62
     6
 48
0.27
100
AcDbLine
 10
-6.177869524534031
 20
7.500000000014154
 30
0.0
 11
4.822130475465996
 21
7.500000000001023
 31
0.0
  0
LINE
  5
4366
330
1E
100
AcDbEntity
  8
虛線
 62
     6
 48
0.27
100
AcDbLine
 10
-6.177869524524027
 20
16.10000000001418
 30
0.0
 11
4.822130475475916
 21
16.10000000000139
 31
0.0
  0
LINE
  5
4367
330
1E
100
AcDbEntity
  8
虛線
 62
     6
 48
0.27
100
AcDbLine
 10
-6.177869524534031
 20
7.500000000014154
 30
0.0
 11
-6.177869524524083
 21
16.10000000001418
 31
0.0
  0
LINE
  5
4368
330
1E
100
AcDbEntity
  8
虛線
 62
     1
 48
0.27
100
AcDbLine
 10
-4.477869524534099
 20
7.500000000012107
 30
0.0
 11
-4.177869524534429
 21
7.200000000011755
 31
0.0
  0
LINE
  5
4369
330
1E
100
AcDbEntity
  8
虛線
 62
     6
 48
0.27
100
AcDbLine
 10
-6.177869524524083
 20
16.10000000001418
 30
0.0
 11
-6.351074605269985
 21
16.39999999999602
 31
0.0
  0
LINE
  5
436A
330
1E
100
AcDbEntity
  8
虛線
 62
     6
 48
0.27
100
AcDbLine
 10
4.822130475465968
 20
7.500000000001364
 30
0.0
 11
4.822130475475916
 21
16.10000000000139
 31
0.0
  0
LINE
  5
436B
330
1E
100
AcDbEntity
  8
虛線
 62
     1
 48
0.27
100
AcDbLine
 10
2.82213047546557
 20
7.200000000003683
 30
0.0
 11
3.122130475465922
 21
7.500000000003325
 31
0.0
  0
LINE
  5
436C
330
1E
100
AcDbEntity
  8
虛線
 62
     6
 48
0.27
100
AcDbLine
 10
4.822130475476029
 20
16.10000000000139
 30
0.0
 11
4.995335556227416
 21
16.39999999999102
 31
0.0
  0
LINE
  5
436D
330
1E
100
AcDbEntity
  8
0
 62
     0
 48
0.27
100
AcDbLine
 10
10.82213047545795
 20
0.5986495001002084
 30
0.0
 11
10.82213047545261
 21
-4.000000000005613
 31
0.0
  0
LINE
  5
436E
330
1E
100
AcDbEntity
  8
0
 62
     0
 48
0.27
100
AcDbLine
 10
10.82213047545261
 20
-4.000000000005613
 30
0.0
 11
9.322130475450876
 21
-5.500000000003865
 31
0.0
  0
LINE
  5
436F
330
1E
100
AcDbEntity
  8
0
 48
0.27
100
AcDbLine
 10
10.50446263866041
 20
13.72636583679738
 30
0.0
 11
10.72213047546901
 21
13.50869799998853
 31
0.0
  0
LINE
  5
4370
330
1E
100
AcDbEntity
  8
0
 48
0.27
100
AcDbLine
 10
10.72213047546813
 20
11.48013699998861
 30
0.0
 11
10.51663456635023
 21
11.2746410908708
 31
0.0
  0
LINE
  5
4371
330
1E
100
AcDbEntity
  8
0
 48
0.27
100
AcDbLine
 10
10.72213047546901
 20
13.50869799998853
 30
0.0
 11
10.72213047546813
 21
11.48013699998861
 31
0.0
  0
LINE
  5
4427
330
1E
100
AcDbEntity
  8
0
 48
0.27
100
AcDbLine
 10
116.0079649411722
 20
0.5986495001021411
 30
0.0
 11
108.6090548212379
 21
0.5986495001021411
 31
0.0
  0
LINE
  5
4428
330
1E
100
AcDbEntity
  8
0
 48
0.27
100
AcDbLine
 10
152.4264222687744
 20
-4.000000000003637
 30
0.0
 11
108.5405297296304
 21
-4.000000000003637
 31
0.0
  0
LINE
  5
4429
330
1E
100
AcDbEntity
  8
0
 48
0.27
100
AcDbLine
 10
116.0079649411722
 20
16.49999999999619
 30
0.0
 11
72.42642226877427
 21
16.49999999999622
 31
0.0
  0
LINE
  5
442A
330
1E
100
AcDbEntity
  8
0
 48
0.27
100
AcDbLine
 10
116.0079649411722
 20
4.298649000109385
 30
0.0
 11
108.8950921514646
 21
4.298649000109378
 31
0.0
  0
LINE
  5
442B
330
1E
100
AcDbEntity
  8
0
 48
0.27
100
AcDbLine
 10
116.0079649411722
 20
7.880138099795011
 30
0.0
 11
108.8838897770805
 21
7.880138099795004
 31
0.0
  0
LINE
  5
442C
330
1E
100
AcDbEntity
  8
0
 48
0.27
100
AcDbLine
 10
116.0079649411722
 20
9.125222738373679
 30
0.0
 11
108.4235555706805
 21
9.125222738373679
 31
0.0
  0
LINE
  5
442D
330
1E
100
AcDbEntity
  8
0
 48
0.27
100
AcDbLine
 10
116.0079649411722
 20
11.15926108360642
 30
0.0
 11
108.7274194349288
 21
11.15926108360642
 31
0.0
  0
LINE
  5
442E
330
1E
100
AcDbEntity
  8
0
 48
0.27
100
AcDbLine
 10
116.0079649411722
 20
11.58013699999633
 30
0.0
 11
108.790293855474
 21
11.58013699999631
 31
0.0
  0
LINE
  5
442F
330
1E
100
AcDbEntity
  8
0
 48
0.27
100
AcDbLine
 10
116.0079649411722
 20
13.40869799999635
 30
0.0
 11
108.1301656672743
 21
13.40869799999635
 31
0.0
  0
LINE
  5
4430
330
1E
100
AcDbEntity
  8
0
 48
0.27
100
AcDbLine
 10
116.0079649411722
 20
13.84251259878234
 30
0.0
 11
108.2948559152463
 21
13.84251259878235
 31
0.0
  0
LINE
  5
4431
330
1E
100
AcDbEntity
  8
0
 48
0.27
100
AcDbLine
 10
116.0079649411722
 20
15.86159610740523
 30
0.0
 11
109.0613662278122
 21
15.86159610740523
 31
0.0
  0
LINE
  5
4432
330
1E
100
AcDbEntity
  8
0
 48
0.27
100
AcDbLine
 10
148.426422268774
 20
-5.500000000003822
 30
0.0
 11
72.42642226877433
 21
-5.500000000003836
 31
0.0
  0
LINE
  5
4433
330
1E
100
AcDbEntity
  8
0
 48
0.27
100
AcDbLine
 10
72.42642226877427
 20
-5.500000000003836
 30
0.0
 11
72.42642226877427
 21
16.49999999999622
 31
0.0
  0
LINE
  5
4442
330
1E
100
AcDbEntity
  8
中心線
 48
0.27
100
AcDbLine
 10
152.4264222687743
 20
-6.000000000003694
 30
0.0
 11
152.4264222687743
 21
1.071822973999303
 31
0.0
  0
LINE
  5
4443
330
1E
100
AcDbEntity
  8
中心線
 48
0.27
100
AcDbLine
 10
233.0264222687743
 20
-6.000000000003694
 30
0.0
 11
233.0264222687743
 21
16.9999999999963
 31
0.0
  0
LINE
  5
4444
330
1E
100
AcDbEntity
  8
0
 48
0.27
100
AcDbLine
 10
253.0264222687743
 20
-5.500000000003851
 30
0.0
 11
253.0264222687744
 21
16.49999999999622
 31
0.0
  0
LINE
  5
4445
330
1E
100
AcDbEntity
  8
0
 48
0.27
100
AcDbLine
 10
253.0264222687743
 20
-5.500000000003851
 30
0.0
 11
253.0264222687744
 21
16.49999999999622
 31
0.0
  0
LINE
  5
4446
330
1E
100
AcDbEntity
  8
0
 48
0.27
100
AcDbLine
 10
253.0264222687744
 20
16.49999999999636
 30
0.0
 11
219.6079649411723
 21
16.49999999999636
 31
0.0
  0
LINE
  5
4447
330
1E
100
AcDbEntity
  8
0
 48
0.27
100
AcDbLine
 10
253.0264222687744
 20
15.8615961074052
 30
0.0
 11
219.6079649411723
 21
15.8615961074052
 31
0.0
  0
LINE
  5
4448
330
1E
100
AcDbEntity
  8
0
 48
0.27
100
AcDbLine
 10
253.0264222687744
 20
13.84251259878232
 30
0.0
 11
219.6079649411723
 21
13.84251259878232
 31
0.0
  0
LINE
  5
4449
330
1E
100
AcDbEntity
  8
0
 48
0.27
100
AcDbLine
 10
253.0264222687744
 20
13.40869799999637
 30
0.0
 11
219.6079649411723
 21
13.40869799999637
 31
0.0
  0
LINE
  5
444A
330
1E
100
AcDbEntity
  8
0
 48
0.27
100
AcDbLine
 10
253.0264222687744
 20
11.15926108360642
 30
0.0
 11
219.6079649411723
 21
11.15926108360641
 31
0.0
  0
LINE
  5
444B
330
1E
100
AcDbEntity
  8
0
 48
0.27
100
AcDbLine
 10
253.0264222687744
 20
11.58013699999634
 30
0.0
 11
219.6079649411723
 21
11.58013699999634
 31
0.0
  0
LINE
  5
444C
330
1E
100
AcDbEntity
  8
0
 48
0.27
100
AcDbLine
 10
253.0264222687744
 20
9.125222738373679
 30
0.0
 11
219.6079649411723
 21
9.125222738373679
 31
0.0
  0
LINE
  5
444D
330
1E
100
AcDbEntity
  8
0
 48
0.27
100
AcDbLine
 10
253.0264222687743
 20
-4.000000000003637
 30
0.0
 11
146.3682635315
 21
-4.000000000003637
 31
0.0
  0
LINE
  5
444E
330
1E
100
AcDbEntity
  8
0
 48
0.27
100
AcDbLine
 10
253.0264222687743
 20
-5.500000000003694
 30
0.0
 11
146.2213264819464
 21
-5.500000000003694
 31
0.0
  0
LINE
  5
444F
330
1E
100
AcDbEntity
  8
0
 48
0.27
100
AcDbLine
 10
253.0264222687743
 20
7.880138099795225
 30
0.0
 11
219.6079649411723
 21
7.880138099795125
 31
0.0
  0
LINE
  5
4450
330
1E
100
AcDbEntity
  8
0
 48
0.27
100
AcDbLine
 10
253.0264222687743
 20
4.298649000109406
 30
0.0
 11
219.6079649411723
 21
4.298649000109396
 31
0.0
  0
LINE
  5
4451
330
1E
100
AcDbEntity
  8
0
 48
0.27
100
AcDbLine
 10
253.0264222687743
 20
0.5986495001021695
 30
0.0
 11
219.6079649411723
 21
0.5986495001021695
 31
0.0
  0
LINE
  5
4452
330
1E
100
AcDbEntity
  8
0
 48
0.27
100
AcDbLine
 10
97.92642226877427
 20
7.499999999996219
 30
0.0
 11
97.92642226877422
 21
16.09999999999624
 31
0.0
  0
LINE
  5
4453
330
1E
100
AcDbEntity
  8
0
 48
0.27
100
AcDbLine
 10
86.92642226877428
 20
7.499999999996219
 30
0.0
 11
86.92642226877422
 21
16.09999999999624
 31
0.0
  0
LINE
  5
4454
330
1E
100
AcDbEntity
  8
中心線
 48
0.27
100
AcDbLine
 10
92.42642226877427
 20
17.49999999999622
 30
0.0
 11
92.42642226877427
 21
-6.00000000000378
 31
0.0
  0
LINE
  5
4455
330
1E
100
AcDbEntity
  8
0
 48
0.27
100
AcDbLine
 10
88.92642226877422
 20
7.199999999996208
 30
0.0
 11
95.92642226877421
 21
7.199999999996208
 31
0.0
  0
LINE
  5
4456
330
1E
100
AcDbEntity
  8
0
 48
0.27
100
AcDbLine
 10
88.92642226877422
 20
-5.000000000003723
 30
0.0
 11
95.92642226877421
 21
-5.000000000003723
 31
0.0
  0
LINE
  5
4457
330
1E
100
AcDbEntity
  8
0
 48
0.27
100
AcDbLine
 10
86.92642226877428
 20
7.499999999996219
 30
0.0
 11
97.92642226877433
 21
7.499999999995878
 31
0.0
  0
LINE
  5
4458
330
1E
100
AcDbEntity
  8
0
 48
0.27
100
AcDbLine
 10
88.92642226877422
 20
-5.000000000003723
 30
0.0
 11
88.92642226877422
 21
7.199999999996151
 31
0.0
  0
LINE
  5
4459
330
1E
100
AcDbEntity
  8
0
 48
0.27
100
AcDbLine
 10
88.42642226877416
 20
-5.50000000000378
 30
0.0
 11
88.92642226877422
 21
-5.000000000003723
 31
0.0
  0
LINE
  5
445A
330
1E
100
AcDbEntity
  8
0
 48
0.27
100
AcDbLine
 10
88.6264222687742
 20
7.499999999996163
 30
0.0
 11
88.92642226877422
 21
7.199999999996151
 31
0.0
  0
LINE
  5
445B
330
1E
100
AcDbEntity
  8
0
 48
0.27
100
AcDbLine
 10
95.92642226877421
 20
-5.000000000003723
 30
0.0
 11
95.92642226877421
 21
7.199999999996208
 31
0.0
  0
LINE
  5
445C
330
1E
100
AcDbEntity
  8
0
 48
0.27
100
AcDbLine
 10
95.92642226877421
 20
-5.000000000003723
 30
0.0
 11
96.42642226877427
 21
-5.50000000000378
 31
0.0
  0
LINE
  5
445D
330
1E
100
AcDbEntity
  8
0
 48
0.27
100
AcDbLine
 10
95.92642226877421
 20
7.199999999996208
 30
0.0
 11
96.22642226877424
 21
7.499999999996219
 31
0.0
  0
LINE
  5
445E
330
1E
100
AcDbEntity
  8
0
 48
0.27
100
AcDbLine
 10
86.92642226877428
 20
16.09999999999624
 30
0.0
 11
97.92642226877422
 21
16.09999999999624
 31
0.0
  0
LINE
  5
445F
330
1E
100
AcDbEntity
  8
0
 48
0.27
100
AcDbLine
 10
86.92642226877428
 20
16.09999999999641
 30
0.0
 11
86.69548216109843
 21
16.49999999999645
 31
0.0
  0
LINE
  5
4460
330
1E
100
AcDbEntity
  8
0
 48
0.27
100
AcDbLine
 10
97.9264222687744
 20
16.09999999999641
 30
0.0
 11
98.1573623764503
 21
16.49999999999645
 31
0.0
  0
LINE
  5
4461
330
1E
100
AcDbEntity
  8
建構線
 48
0.27
100
AcDbLine
 10
109.3037252808991
 20
16.49999999999619
 30
0.0
 11
108.1301656672743
 21
13.40869799999623
 31
0.0
  0
LINE
  5
4462
330
1E
100
AcDbEntity
  8
建構線
 48
0.27
100
AcDbLine
 10
108.1301656672743
 20
13.40869799999623
 30
0.0
 11
108.790293855474
 21
11.58013699999625
 31
0.0
  0
LINE
  5
4463
330
1E
100
AcDbEntity
  8
建構線
 48
0.27
100
AcDbLine
 10
108.790293855474
 20
11.58013699999625
 30
0.0
 11
108.4235555706806
 21
9.125222738373537
 31
0.0
  0
LINE
  5
4464
330
1E
100
AcDbEntity
  8
建構線
 48
0.27
100
AcDbLine
 10
108.4235555706806
 20
9.125222738373537
 30
0.0
 11
109.3770736622863
 21
6.546203599757831
 31
0.0
  0
LINE
  5
4465
330
1E
100
AcDbEntity
  8
建構線
 48
0.27
100
AcDbLine
 10
109.3770736622863
 20
6.546203599757831
 30
0.0
 11
108.2768612226679
 21
1.415742215378912
 31
0.0
  0
LINE
  5
4466
330
1E
100
AcDbEntity
  8
建構線
 48
0.27
100
AcDbLine
 10
108.2768612226679
 20
1.415742215378912
 30
0.0
 11
109.2303781068928
 21
-0.9296121302417361
 31
0.0
  0
LINE
  5
4467
330
1E
100
AcDbEntity
  8
建構線
 48
0.27
100
AcDbLine
 10
109.2303781068928
 20
-0.9296121302417361
 30
0.0
 11
108.2035128412807
 21
-5.500000000003829
 31
0.0
  0
LINE
  5
446E
330
1E
100
AcDbEntity
  8
虛線
 48
0.27
100
AcDbLine
 10
148.9264222687742
 20
-5.000000000003623
 30
0.0
 11
148.9264222687742
 21
-0.0000000000000284
 31
0.0
  0
LINE
  5
446F
330
1E
100
AcDbEntity
  8
虛線
 48
0.27
100
AcDbLine
 10
148.9264222687742
 20
-5.000000000003623
 30
0.0
 11
155.9264222687742
 21
-5.000000000003623
 31
0.0
  0
LINE
  5
4470
330
1E
100
AcDbEntity
  8
虛線
 48
0.27
100
AcDbLine
 10
155.9264222687742
 20
-5.000000000003623
 30
0.0
 11
155.9264222687742
 21
-0.0000000000000284
 31
0.0
  0
LINE
  5
4475
330
1E
100
AcDbEntity
  8
虛線
 48
0.27
100
AcDbLine
 10
148.4264222687742
 20
-5.500000000003637
 30
0.0
 11
148.9264222687743
 21
-5.000000000003581
 31
0.0
  0
LINE
  5
4476
330
1E
100
AcDbEntity
  8
虛線
 48
0.27
100
AcDbLine
 10
155.9264222687742
 20
-5.000000000003581
 30
0.0
 11
156.4264222687743
 21
-5.500000000003637
 31
0.0
  0
LINE
  5
4477
330
1E
100
AcDbEntity
  8
虛線
 48
0.27
100
AcDbLine
 10
236.5264222687742
 20
-5.000000000003637
 30
0.0
 11
236.5264222687742
 21
7.199999999996293
 31
0.0
  0
LINE
  5
4478
330
1E
100
AcDbEntity
  8
虛線
 48
0.27
100
AcDbLine
 10
229.5264222687742
 20
-5.000000000003637
 30
0.0
 11
229.5264222687742
 21
7.199999999996236
 31
0.0
  0
LINE
  5
4479
330
1E
100
AcDbEntity
  8
虛線
 48
0.27
100
AcDbLine
 10
229.5264222687742
 20
7.199999999996293
 30
0.0
 11
236.5264222687742
 21
7.199999999996293
 31
0.0
  0
LINE
  5
447A
330
1E
100
AcDbEntity
  8
虛線
 48
0.27
100
AcDbLine
 10
227.5264222687743
 20
7.499999999996305
 30
0.0
 11
238.5264222687743
 21
7.499999999995964
 31
0.0
  0
LINE
  5
447B
330
1E
100
AcDbEntity
  8
虛線
 48
0.27
100
AcDbLine
 10
229.2264222687742
 20
7.499999999996276
 30
0.0
 11
229.5264222687742
 21
7.199999999996265
 31
0.0
  0
LINE
  5
447C
330
1E
100
AcDbEntity
  8
虛線
 48
0.27
100
AcDbLine
 10
238.5264222687743
 20
7.499999999996305
 30
0.0
 11
238.5264222687742
 21
16.09999999999633
 31
0.0
  0
LINE
  5
447D
330
1E
100
AcDbEntity
  8
虛線
 48
0.27
100
AcDbLine
 10
227.5264222687743
 20
7.499999999996305
 30
0.0
 11
227.5264222687742
 21
16.09999999999633
 31
0.0
  0
LINE
  5
447E
330
1E
100
AcDbEntity
  8
虛線
 48
0.27
100
AcDbLine
 10
229.5264222687742
 20
-5.000000000003637
 30
0.0
 11
236.5264222687742
 21
-5.000000000003637
 31
0.0
  0
LINE
  5
447F
330
1E
100
AcDbEntity
  8
虛線
 48
0.27
100
AcDbLine
 10
227.5264222687742
 20
16.09999999999635
 30
0.0
 11
238.5264222687741
 21
16.09999999999635
 31
0.0
  0
LINE
  5
4480
330
1E
100
AcDbEntity
  8
虛線
 48
0.27
100
AcDbLine
 10
236.5264222687742
 20
7.199999999996322
 30
0.0
 11
236.8264222687742
 21
7.499999999996333
 31
0.0
  0
LINE
  5
4481
330
1E
100
AcDbEntity
  8
虛線
 48
0.27
100
AcDbLine
 10
236.5264222687743
 20
-5.000000000003595
 30
0.0
 11
237.0264222687743
 21
-5.500000000003652
 31
0.0
  0
LINE
  5
4482
330
1E
100
AcDbEntity
  8
虛線
 48
0.27
100
AcDbLine
 10
229.0264222687742
 20
-5.500000000003652
 30
0.0
 11
229.5264222687743
 21
-5.000000000003595
 31
0.0
  0
LINE
  5
4483
330
1E
100
AcDbEntity
  8
虛線
 48
0.27
100
AcDbLine
 10
229.2264222687742
 20
7.499999999996276
 30
0.0
 11
229.5264222687742
 21
7.199999999996265
 31
0.0
  0
LINE
  5
4484
330
1E
100
AcDbEntity
  8
虛線
 48
0.27
100
AcDbLine
 10
227.5264222687742
 20
16.09999999999658
 30
0.0
 11
227.2954821610984
 21
16.49999999999662
 31
0.0
  0
LINE
  5
4485
330
1E
100
AcDbEntity
  8
虛線
 48
0.27
100
AcDbLine
 10
238.5264222687743
 20
16.09999999999658
 30
0.0
 11
238.7573623764502
 21
16.49999999999662
 31
0.0
  0
LINE
  5
4499
330
1E
100
AcDbEntity
  8
0
100
AcDbLine
 10
117.5079649411723
 20
29.49999999999997
 30
0.0
 11
117.5079649411723
 21
-0.0000000000000284
 31
0.0
  0
LINE
  5
449A
330
1E
100
AcDbEntity
  8
0
100
AcDbLine
 10
116.0079649411722
 20
16.72397459621555
 30
0.0
 11
116.0079649411722
 21
0.0
 31
0.0
  0
LINE
  5
449B
330
1E
100
AcDbEntity
  8
中心線
100
AcDbLine
 10
115.7241151448011
 20
2.700000000006099
 30
0.0
 11
121.4757521191821
 21
2.700000000006099
 31
0.0
  0
LINE
  5
449C
330
1E
100
AcDbEntity
  8
0
100
AcDbLine
 10
116.623637081814
 20
3.700000000006099
 30
0.0
 11
116.623637081814
 21
1.700000000006099
 31
0.0
  0
LINE
  5
449D
330
1E
100
AcDbEntity
  8
0
100
AcDbLine
 10
116.0079649411722
 20
0.0
 30
0.0
 11
119.0079649411722
 21
0.0
 31
0.0
  0
ARC
  5
449E
330
1E
100
AcDbEntity
  8
0
100
AcDbCircle
 10
117.8434887606665
 20
1.719751638023211
 30
0.0
 40
1.220011576012179
100
AcDbArc
 50
180.9276427879976
 51
254.0369778311712
  0
LINE
  5
449F
330
1E
100
AcDbEntity
  8
0
100
AcDbLine
 10
119.0079649411722
 20
1.499999999983401
 30
0.0
 11
117.5079649411723
 21
1.499999999983401
 31
0.0
  0
ARC
  5
44A0
330
1E
100
AcDbEntity
  8
0
100
AcDbCircle
 10
117.8434887606665
 20
3.680248361988986
 30
0.0
 40
1.220011576012179
100
AcDbArc
 50
105.9630221688287
 51
179.0723572120024
  0
LINE
  5
44A1
330
1E
100
AcDbEntity
  8
0
100
AcDbLine
 10
117.5079649411723
 20
17.59
 30
0.0
 11
116.0079649411722
 21
16.72397459621555
 31
0.0
  0
LINE
  5
44A6
330
1E
100
AcDbEntity
  8
0
100
AcDbLine
 10
119.0079649411722
 20
29.49999999999997
 30
0.0
 11
117.5079649411723
 21
29.49999999999997
 31
0.0
  0
LINE
  5
44A7
330
1E
100
AcDbEntity
  8
0
100
AcDbLine
 10
117.5079649411723
 20
27.99999999999997
 30
0.0
 11
119.0079649411722
 21
27.99999999999997
 31
0.0
  0
LINE
  5
44A8
330
1E
100
AcDbEntity
  8
0
100
AcDbLine
 10
218.1079649411723
 20
29.49999999999997
 30
0.0
 11
218.1079649411723
 21
-0.000000000000032
 31
0.0
  0
LINE
  5
44A9
330
1E
100
AcDbEntity
  8
0
100
AcDbLine
 10
219.6079649411723
 20
16.72397459621555
 30
0.0
 11
219.6079649411723
 21
-0.0000000000000036
 31
0.0
  0
LINE
  5
44AA
330
1E
100
AcDbEntity
  8
中心線
100
AcDbLine
 10
219.8918147375435
 20
2.700000000006092
 30
0.0
 11
214.1401777631625
 21
2.700000000006095
 31
0.0
  0
LINE
  5
44AB
330
1E
100
AcDbEntity
  8
0
100
AcDbLine
 10
218.9922928005306
 20
3.700000000006095
 30
0.0
 11
218.9922928005306
 21
1.700000000006095
 31
0.0
  0
LINE
  5
44AC
330
1E
100
AcDbEntity
  8
0
100
AcDbLine
 10
216.6079649411723
 20
1.499999999983398
 30
0.0
 11
218.1079649411723
 21
1.499999999983398
 31
0.0
  0
LINE
  5
44AD
330
1E
100
AcDbEntity
  8
0
100
AcDbLine
 10
219.6079649411723
 20
-0.0000000000000036
 30
0.0
 11
216.6079649411723
 21
-0.0000000000000036
 31
0.0
  0
ARC
  5
44AE
330
1E
100
AcDbEntity
  8
0
100
AcDbCircle
 10
217.7724411216781
 20
1.719751638023208
 30
0.0
 40
1.220011576012179
100
AcDbArc
 50
285.9630221688287
 51
359.0723572120024
  0
ARC
  5
44AF
330
1E
100
AcDbEntity
  8
0
100
AcDbCircle
 10
217.7724411216781
 20
3.680248361988983
 30
0.0
 40
1.220011576012179
100
AcDbArc
 50
0.9276427879975949
 51
74.03697783117127
  0
LINE
  5
44B0
330
1E
100
AcDbEntity
  8
0
100
AcDbLine
 10
218.1079649411723
 20
17.59
 30
0.0
 11
219.6079649411723
 21
16.72397459621555
 31
0.0
  0
LINE
  5
44B4
330
1E
100
AcDbEntity
  8
0
100
AcDbLine
 10
216.6079649411723
 20
29.49999999999997
 30
0.0
 11
218.1079649411723
 21
29.49999999999997
 31
0.0
  0
LINE
  5
44B5
330
1E
100
AcDbEntity
  8
0
100
AcDbLine
 10
218.1079649411723
 20
27.99999999999997
 30
0.0
 11
216.6079649411723
 21
27.99999999999997
 31
0.0
  0
LINE
  5
45BB
330
1E
100
AcDbEntity
  8
中心線
 48
0.27
100
AcDbLine
 10
102.507966700189
 20
24.49999999999333
 30
0.0
 11
116.7397286053947
 21
24.49999999999333
 31
0.0
  0
ARC
  5
45BC
330
1E
100
AcDbEntity
  8
0
 48
0.27
100
AcDbCircle
 10
116.6995819411722
 20
22.50001933109338
 30
0.0
 40
2.954110999999976
100
AcDbArc
 50
137.3885930045003
 51
222.6114069976006
  0
ARC
  5
45BD
330
1E
100
AcDbEntity
  8
0
 48
0.27
100
AcDbCircle
 10
116.6995829411722
 20
26.50001933109326
 30
0.0
 40
2.954111999999976
100
AcDbArc
 50
137.388598002199
 51
222.6114019998988
  0
LWPOLYLINE
  5
45BE
330
1E
100
AcDbEntity
  8
0
 48
0.27
100
AcDbPolyline
 90
       31
 70
     0
 43
0.0
 10
106.4167539411723
 20
24.50001933109329
 10
106.3839359411723
 20
24.71027433109331
 10
106.3397889411722
 20
24.81576133109329
 10
106.2767559411722
 20
24.9135403310933
 10
106.1972799411723
 20
24.9976533310933
 10
106.1057889411723
 20
25.06352633109331
 10
106.0078689411723
 20
25.10880733109324
 10
105.8752329411723
 20
25.13774833109327
 10
105.7522239411723
 20
25.13508933109328
 10
105.6452999411723
 20
25.10958333109327
 10
105.5290949411723
 20
25.05381533109327
 10
105.4185249411723
 20
24.96432633109331
 10
105.3302949411723
 20
24.8497763310933
 10
105.2736609411723
 20
24.72993733109335
 10
105.2458099411723
 20
24.62628133109329
 10
105.2341889411723
 20
24.50001933109329
 10
105.2670069411723
 20
24.28976433109333
 10
105.3111549411723
 20
24.1842763310933
 10
105.3741869411723
 20
24.08649833109329
 10
105.4536629411723
 20
24.00238533109329
 10
105.5451539411723
 20
23.93651233109328
 10
105.6430739411723
 20
23.89123133109329
 10
105.7757099411723
 20
23.86228933109326
 10
105.8987189411723
 20
23.86494933109331
 10
106.0056429411723
 20
23.89045433109332
 10
106.1218479411723
 20
23.94622233109332
 10
106.2324179411723
 20
24.03571233109327
 10
106.3206479411723
 20
24.15026133109329
 10
106.3772819411723
 20
24.2701003310933
 10
106.4051339411723
 20
24.37375733109335
 10
106.4167539411723
 20
24.50001933109329
  0
ARC
  5
45BF
330
1E
100
AcDbEntity
  8
0
 48
0.27
100
AcDbCircle
 10
109.9971309411722
 20
24.50001933109332
 30
0.0
 40
3.999999999999968
100
AcDbArc
 50
90.0
 51
131.4096219995999
  0
ARC
  5
45C0
330
1E
100
AcDbEntity
  8
0
 48
0.27
100
AcDbCircle
 10
109.9971309411722
 20
24.50001933109332
 30
0.0
 40
3.999999999999968
100
AcDbArc
 50
228.5903779973006
 51
270.0
  0
LINE
  5
45C1
330
1E
100
AcDbEntity
  8
0
 48
0.27
100
AcDbLine
 10
117.5079649411723
 20
28.50001933109332
 30
0.0
 11
109.9971309411722
 21
28.50001933109332
 31
0.0
  0
LINE
  5
45C2
330
1E
100
AcDbEntity
  8
0
 48
0.27
100
AcDbLine
 10
114.5254669411722
 20
24.50001933109332
 30
0.0
 11
117.5079649411723
 21
24.50001933109332
 31
0.0
  0
LINE
  5
45C3
330
1E
100
AcDbEntity
  8
0
 48
0.27
100
AcDbLine
 10
109.9971309411722
 20
20.50001933109332
 30
0.0
 11
117.5079649411723
 21
20.50001933109332
 31
0.0
  0
LINE
  5
45C4
330
1E
100
AcDbEntity
  8
0
 48
0.27
100
AcDbLine
 10
113.7454709411722
 20
28.50001933109332
 30
0.0
 11
113.7454709411722
 21
20.50001933109332
 31
0.0
  0
LINE
  5
45C5
330
1E
100
AcDbEntity
  8
0
 48
0.27
100
AcDbLine
 10
106.4696939411723
 20
27.50001933109329
 30
0.0
 11
110.3694699411722
 21
27.50001933109329
 31
0.0
  0
LINE
  5
45C6
330
1E
100
AcDbEntity
  8
0
 48
0.27
100
AcDbLine
 10
106.2233009411723
 20
21.96194633109332
 30
0.0
 11
106.4696939411723
 21
21.50001933109335
 31
0.0
  0
LINE
  5
45C7
330
1E
100
AcDbEntity
  8
0
 48
0.27
100
AcDbLine
 10
106.4696939411723
 20
27.50001933109329
 30
0.0
 11
106.2233009411723
 21
27.03809233109332
 31
0.0
  0
LINE
  5
45C8
330
1E
100
AcDbEntity
  8
0
 48
0.27
100
AcDbLine
 10
111.2703119411722
 20
24.50001933109332
 30
0.0
 11
111.9696759411722
 21
24.50001933109332
 31
0.0
  0
LINE
  5
45C9
330
1E
100
AcDbEntity
  8
0
 48
0.27
100
AcDbLine
 10
110.3694699411722
 20
27.50001933109329
 30
0.0
 11
111.9696759411722
 21
24.50001933109332
 31
0.0
  0
LINE
  5
45CA
330
1E
100
AcDbEntity
  8
0
 48
0.27
100
AcDbLine
 10
110.3694699411722
 20
21.50001933109335
 30
0.0
 11
106.4696939411723
 21
21.50001933109335
 31
0.0
  0
LINE
  5
45CB
330
1E
100
AcDbEntity
  8
0
 48
0.27
100
AcDbLine
 10
111.9696759411722
 20
24.50001933109332
 30
0.0
 11
110.3694699411722
 21
21.50001933109335
 31
0.0
  0
LINE
  5
45CC
330
1E
100
AcDbEntity
  8
0
 48
0.27
100
AcDbLine
 10
106.5907729411722
 20
27.02955333109331
 30
0.0
 11
107.0092399411722
 21
27.27165733109329
 31
0.0
  0
LINE
  5
45CD
330
1E
100
AcDbEntity
  8
0
 48
0.27
100
AcDbLine
 10
106.5907729411722
 20
21.97048433109337
 30
0.0
 11
107.0092399411722
 21
21.72838033109333
 31
0.0
  0
LINE
  5
45CE
330
1E
100
AcDbEntity
  8
0
 48
0.27
100
AcDbLine
 10
107.0092399411722
 20
27.27165733109329
 30
0.0
 11
107.5291799411723
 21
27.44237533109326
 31
0.0
  0
LINE
  5
45CF
330
1E
100
AcDbEntity
  8
0
 48
0.27
100
AcDbLine
 10
107.0092399411722
 20
21.72838033109333
 30
0.0
 11
107.5291799411723
 21
21.55766333109339
 31
0.0
  0
LINE
  5
45D0
330
1E
100
AcDbEntity
  8
0
 48
0.27
100
AcDbLine
 10
107.5291799411723
 20
27.44237533109326
 30
0.0
 11
108.0698999411723
 21
27.50001933109329
 31
0.0
  0
LINE
  5
45D1
330
1E
100
AcDbEntity
  8
0
 48
0.27
100
AcDbLine
 10
107.5291799411723
 20
21.55766333109339
 30
0.0
 11
108.0698999411723
 21
21.50001933109335
 31
0.0
  0
LINE
  5
45D2
330
1E
100
AcDbEntity
  8
0
 48
0.27
100
AcDbLine
 10
108.0698999411723
 20
27.50001933109329
 30
0.0
 11
108.6106199411722
 21
27.44237533109326
 31
0.0
  0
LINE
  5
45D3
330
1E
100
AcDbEntity
  8
0
 48
0.27
100
AcDbLine
 10
108.0698999411723
 20
21.50001933109335
 30
0.0
 11
108.6106199411722
 21
21.55766333109339
 31
0.0
  0
LINE
  5
45D4
330
1E
100
AcDbEntity
  8
0
 48
0.27
100
AcDbLine
 10
108.6106199411722
 20
27.44237533109326
 30
0.0
 11
109.1305599411722
 21
27.27165733109329
 31
0.0
  0
LINE
  5
45D5
330
1E
100
AcDbEntity
  8
0
 48
0.27
100
AcDbLine
 10
108.6106199411722
 20
21.55766333109339
 30
0.0
 11
109.1305599411722
 21
21.72838033109333
 31
0.0
  0
LINE
  5
45D6
330
1E
100
AcDbEntity
  8
0
 48
0.27
100
AcDbLine
 10
109.1305599411722
 20
27.27165733109329
 30
0.0
 11
109.6097399411722
 21
26.99442833109331
 31
0.0
  0
LINE
  5
45D7
330
1E
100
AcDbEntity
  8
0
 48
0.27
100
AcDbLine
 10
109.1305599411722
 20
21.72838033109333
 30
0.0
 11
109.6097399411722
 21
22.00561033109333
 31
0.0
  0
LINE
  5
45D8
330
1E
100
AcDbEntity
  8
0
 48
0.27
100
AcDbLine
 10
109.6097399411722
 20
26.99442833109331
 30
0.0
 11
110.0297439411722
 21
26.62133933109332
 31
0.0
  0
LINE
  5
45D9
330
1E
100
AcDbEntity
  8
0
 48
0.27
100
AcDbLine
 10
109.6097399411722
 20
22.00561033109333
 30
0.0
 11
110.0297439411722
 21
22.3786983310933
 31
0.0
  0
LINE
  5
45DA
330
1E
100
AcDbEntity
  8
0
 48
0.27
100
AcDbLine
 10
109.6701059411723
 20
27.50001933109329
 30
0.0
 11
111.2703119411722
 21
24.50001933109332
 31
0.0
  0
LINE
  5
45DB
330
1E
100
AcDbEntity
  8
0
 48
0.27
100
AcDbLine
 10
111.2703119411722
 20
24.50001933109332
 30
0.0
 11
109.6701059411723
 21
21.50001933109335
 31
0.0
  0
LINE
  5
45DC
330
1E
100
AcDbEntity
  8
0
 48
0.27
100
AcDbLine
 10
110.0297439411722
 20
26.62133933109332
 30
0.0
 11
110.3744329411722
 21
26.16672933109331
 31
0.0
  0
LINE
  5
45DD
330
1E
100
AcDbEntity
  8
0
 48
0.27
100
AcDbLine
 10
110.3744329411722
 20
22.8333083310933
 30
0.0
 11
110.0297439411722
 21
22.3786983310933
 31
0.0
  0
LINE
  5
45DE
330
1E
100
AcDbEntity
  8
0
 48
0.27
100
AcDbLine
 10
110.3744329411722
 20
26.16672933109331
 30
0.0
 11
110.6305599411722
 21
25.64806933109331
 31
0.0
  0
LINE
  5
45DF
330
1E
100
AcDbEntity
  8
0
 48
0.27
100
AcDbLine
 10
110.6305599411722
 20
23.35196833109337
 30
0.0
 11
110.3744329411722
 21
22.8333083310933
 31
0.0
  0
LINE
  5
45E0
330
1E
100
AcDbEntity
  8
0
 48
0.27
100
AcDbLine
 10
110.6305599411722
 20
25.64806933109331
 30
0.0
 11
110.7882819411722
 21
25.08529033109335
 31
0.0
  0
LINE
  5
45E1
330
1E
100
AcDbEntity
  8
0
 48
0.27
100
AcDbLine
 10
110.7882819411722
 20
23.91474833109329
 30
0.0
 11
110.6305599411722
 21
23.35196833109337
 31
0.0
  0
LINE
  5
45E2
330
1E
100
AcDbEntity
  8
0
 48
0.27
100
AcDbLine
 10
110.7882819411722
 20
25.08529033109335
 30
0.0
 11
110.8415379411722
 21
24.50001933109332
 31
0.0
  0
LINE
  5
45E3
330
1E
100
AcDbEntity
  8
0
 48
0.27
100
AcDbLine
 10
110.8415379411722
 20
24.50001933109332
 30
0.0
 11
110.7882819411722
 21
23.91474833109329
 31
0.0
  0
LINE
  5
45E4
330
1E
100
AcDbEntity
  8
0
 48
0.27
100
AcDbLine
 10
105.1660029411723
 20
26.14024633109327
 30
0.0
 11
105.1689739411723
 21
26.13863133109332
 31
0.0
  0
LINE
  5
45E5
330
1E
100
AcDbEntity
  8
0
 48
0.27
100
AcDbLine
 10
105.1660029411723
 20
22.85979133109334
 30
0.0
 11
105.1689739411723
 21
22.86140733109332
 31
0.0
  0
LINE
  5
45E6
330
1E
100
AcDbEntity
  8
0
 48
0.27
100
AcDbLine
 10
104.0532929411723
 20
24.99816133109332
 30
0.0
 11
104.0079649411723
 21
24.50001933109332
 31
0.0
  0
LINE
  5
45E7
330
1E
100
AcDbEntity
  8
0
 48
0.27
100
AcDbLine
 10
104.1875349411723
 20
25.47715933109331
 30
0.0
 11
104.0532929411723
 21
24.99816133109332
 31
0.0
  0
LINE
  5
45E8
330
1E
100
AcDbEntity
  8
0
 48
0.27
100
AcDbLine
 10
104.0079649411723
 20
24.50001933109332
 30
0.0
 11
104.0532929411723
 21
24.00187733109332
 31
0.0
  0
LINE
  5
45E9
330
1E
100
AcDbEntity
  8
0
 48
0.27
100
AcDbLine
 10
104.4055319411723
 20
25.91860733109332
 30
0.0
 11
104.1875349411723
 21
25.47715933109331
 31
0.0
  0
LINE
  5
45EA
330
1E
100
AcDbEntity
  8
0
 48
0.27
100
AcDbLine
 10
104.0532929411723
 20
24.00187733109332
 30
0.0
 11
104.1875349411723
 21
23.5228783310933
 31
0.0
  0
LINE
  5
45EB
330
1E
100
AcDbEntity
  8
0
 48
0.27
100
AcDbLine
 10
104.6989079411723
 20
26.30553933109335
 30
0.0
 11
104.4055319411723
 21
25.91860733109332
 31
0.0
  0
LINE
  5
45EC
330
1E
100
AcDbEntity
  8
0
 48
0.27
100
AcDbLine
 10
104.1875349411723
 20
23.5228783310933
 30
0.0
 11
104.4055319411723
 21
23.08143133109332
 31
0.0
  0
LINE
  5
45ED
330
1E
100
AcDbEntity
  8
0
 48
0.27
100
AcDbLine
 10
104.6989079411723
 20
26.30553933109335
 30
0.0
 11
105.0563859411723
 21
26.62308633109331
 31
0.0
  0
LINE
  5
45EE
330
1E
100
AcDbEntity
  8
0
 48
0.27
100
AcDbLine
 10
104.4055319411723
 20
23.08143133109332
 30
0.0
 11
104.6989079411723
 21
22.69449933109329
 31
0.0
  0
LINE
  5
45EF
330
1E
100
AcDbEntity
  8
0
 48
0.27
100
AcDbLine
 10
104.2019959411723
 20
24.84955533109332
 30
0.0
 11
104.1701899411723
 21
24.50001933109332
 31
0.0
  0
LINE
  5
45F0
330
1E
100
AcDbEntity
  8
0
 48
0.27
100
AcDbLine
 10
104.2961909411723
 20
25.18565933109333
 30
0.0
 11
104.2019959411723
 21
24.84955533109332
 31
0.0
  0
LINE
  5
45F1
330
1E
100
AcDbEntity
  8
0
 48
0.27
100
AcDbLine
 10
104.1701899411723
 20
24.50001933109332
 30
0.0
 11
104.2019959411723
 21
24.15048333109332
 31
0.0
  0
LINE
  5
45F2
330
1E
100
AcDbEntity
  8
0
 48
0.27
100
AcDbLine
 10
104.4491549411723
 20
25.49541433109329
 30
0.0
 11
104.2961909411723
 21
25.18565933109333
 31
0.0
  0
LINE
  5
45F3
330
1E
100
AcDbEntity
  8
0
 48
0.27
100
AcDbLine
 10
104.2019959411723
 20
24.15048333109332
 30
0.0
 11
104.2961909411723
 21
23.81437933109332
 31
0.0
  0
LINE
  5
45F4
330
1E
100
AcDbEntity
  8
0
 48
0.27
100
AcDbLine
 10
105.0563859411723
 20
26.62308633109331
 30
0.0
 11
105.4642309411723
 21
26.85904533109329
 31
0.0
  0
LINE
  5
45F5
330
1E
100
AcDbEntity
  8
0
 48
0.27
100
AcDbLine
 10
104.6989079411723
 20
22.69449933109329
 30
0.0
 11
105.0563859411723
 21
22.37695233109333
 31
0.0
  0
LINE
  5
45F6
330
1E
100
AcDbEntity
  8
0
 48
0.27
100
AcDbLine
 10
104.6550109411723
 20
25.76691633109332
 30
0.0
 11
104.4491549411723
 21
25.49541433109329
 31
0.0
  0
LINE
  5
45F7
330
1E
100
AcDbEntity
  8
0
 48
0.27
100
AcDbLine
 10
104.2961909411723
 20
23.81437933109332
 30
0.0
 11
104.4491549411723
 21
23.50462433109335
 31
0.0
  0
LINE
  5
45F8
330
1E
100
AcDbEntity
  8
0
 48
0.27
100
AcDbLine
 10
105.4642309411723
 20
26.85904533109329
 30
0.0
 11
105.9067679411723
 21
27.00434733109325
 31
0.0
  0
LINE
  5
45F9
330
1E
100
AcDbEntity
  8
0
 48
0.27
100
AcDbLine
 10
105.0563859411723
 20
22.37695233109333
 30
0.0
 11
105.4642309411723
 21
22.14099333109332
 31
0.0
  0
LINE
  5
45FA
330
1E
100
AcDbEntity
  8
0
 48
0.27
100
AcDbLine
 10
104.6550109411723
 20
25.76691633109332
 30
0.0
 11
104.9058459411723
 21
25.98973333109328
 31
0.0
  0
LINE
  5
45FB
330
1E
100
AcDbEntity
  8
0
 48
0.27
100
AcDbLine
 10
104.4491549411723
 20
23.50462433109335
 30
0.0
 11
104.6550109411723
 21
23.23312133109338
 31
0.0
  0
LINE
  5
45FC
330
1E
100
AcDbEntity
  8
0
 48
0.27
100
AcDbLine
 10
105.9067679411723
 20
27.00434733109325
 30
0.0
 11
106.3669909411723
 21
27.0534103310933
 31
0.0
  0
LINE
  5
45FD
330
1E
100
AcDbEntity
  8
0
 48
0.27
100
AcDbLine
 10
105.4642309411723
 20
22.14099333109332
 30
0.0
 11
105.9067679411723
 21
21.99569033109331
 31
0.0
  0
LINE
  5
45FE
330
1E
100
AcDbEntity
  8
0
 48
0.27
100
AcDbLine
 10
104.9058459411723
 20
25.98973333109328
 30
0.0
 11
105.1920229411723
 21
26.15530033109326
 31
0.0
  0
LINE
  5
45FF
330
1E
100
AcDbEntity
  8
0
 48
0.27
100
AcDbLine
 10
104.6550109411723
 20
23.23312133109338
 30
0.0
 11
104.9058459411723
 21
23.01030533109336
 31
0.0
  0
LINE
  5
4600
330
1E
100
AcDbEntity
  8
0
 48
0.27
100
AcDbLine
 10
106.9716499411722
 20
26.97700033109329
 30
0.0
 11
107.4093539411723
 21
26.83328433109327
 31
0.0
  0
LINE
  5
4601
330
1E
100
AcDbEntity
  8
0
 48
0.27
100
AcDbLine
 10
105.1920229411723
 20
26.15530033109326
 30
0.0
 11
105.5025419411723
 21
26.25725633109329
 31
0.0
  0
LINE
  5
4602
330
1E
100
AcDbEntity
  8
0
 48
0.27
100
AcDbLine
 10
104.9058459411723
 20
23.01030533109336
 30
0.0
 11
105.1920229411723
 21
22.84473733109335
 31
0.0
  0
LINE
  5
4603
330
1E
100
AcDbEntity
  8
0
 48
0.27
100
AcDbLine
 10
106.8272139411723
 20
27.00434733109325
 30
0.0
 11
106.9716499411722
 21
26.97700033109329
 31
0.0
  0
LINE
  5
4604
330
1E
100
AcDbEntity
  8
0
 48
0.27
100
AcDbLine
 10
106.3669909411723
 20
27.0534103310933
 30
0.0
 11
106.8272139411723
 21
27.00434733109325
 31
0.0
  0
LINE
  5
4605
330
1E
100
AcDbEntity
  8
0
 48
0.27
100
AcDbLine
 10
105.9067679411723
 20
21.99569033109331
 30
0.0
 11
106.3669909411723
 21
21.94662833109334
 31
0.0
  0
LINE
  5
4606
330
1E
100
AcDbEntity
  8
0
 48
0.27
100
AcDbLine
 10
107.4093539411723
 20
26.83328433109327
 30
0.0
 11
107.8127449411723
 21
26.5999023310933
 31
0.0
  0
LINE
  5
4607
330
1E
100
AcDbEntity
  8
0
 48
0.27
100
AcDbLine
 10
106.9716499411722
 20
22.02303833109335
 30
0.0
 11
107.4093539411723
 21
22.16675433109337
 31
0.0
  0
LINE
  5
4608
330
1E
100
AcDbEntity
  8
0
 48
0.27
100
AcDbLine
 10
107.8127449411723
 20
26.5999023310933
 30
0.0
 11
108.1663199411723
 21
26.2858233310933
 31
0.0
  0
LINE
  5
4609
330
1E
100
AcDbEntity
  8
0
 48
0.27
100
AcDbLine
 10
107.4093539411723
 20
22.16675433109337
 30
0.0
 11
107.8127449411723
 21
22.40013633109334
 31
0.0
  0
LINE
  5
460A
330
1E
100
AcDbEntity
  8
0
 48
0.27
100
AcDbLine
 10
105.5025419411723
 20
26.25725633109329
 30
0.0
 11
105.8254719411723
 21
26.29168233109332
 31
0.0
  0
LINE
  5
460B
330
1E
100
AcDbEntity
  8
0
 48
0.27
100
AcDbLine
 10
105.1920229411723
 20
22.84473733109335
 30
0.0
 11
105.5025419411723
 21
22.74278133109332
 31
0.0
  0
LINE
  5
460C
330
1E
100
AcDbEntity
  8
0
 48
0.27
100
AcDbLine
 10
106.8272139411723
 20
27.00434733109325
 30
0.0
 11
107.2697509411723
 21
26.85904533109329
 31
0.0
  0
LINE
  5
460D
330
1E
100
AcDbEntity
  8
0
 48
0.27
100
AcDbLine
 10
106.8272139411723
 20
21.99569033109331
 30
0.0
 11
106.9716499411722
 21
22.02303833109335
 31
0.0
  0
LINE
  5
460E
330
1E
100
AcDbEntity
  8
0
 48
0.27
100
AcDbLine
 10
106.3669909411723
 20
21.94662833109334
 30
0.0
 11
106.8272139411723
 21
21.99569033109331
 31
0.0
  0
LINE
  5
460F
330
1E
100
AcDbEntity
  8
0
 48
0.27
100
AcDbLine
 10
108.1663199411723
 20
26.2858233310933
 30
0.0
 11
108.4564909411723
 21
25.9031163310933
 31
0.0
  0
LINE
  5
4610
330
1E
100
AcDbEntity
  8
0
 48
0.27
100
AcDbLine
 10
107.8127449411723
 20
22.40013633109334
 30
0.0
 11
108.1663199411723
 21
22.71421533109331
 31
0.0
  0
LINE
  5
4611
330
1E
100
AcDbEntity
  8
0
 48
0.27
100
AcDbLine
 10
105.8254719411723
 20
26.29168233109332
 30
0.0
 11
106.1484009411723
 21
26.25725633109329
 31
0.0
  0
LINE
  5
4612
330
1E
100
AcDbEntity
  8
0
 48
0.27
100
AcDbLine
 10
105.5025419411723
 20
22.74278133109332
 30
0.0
 11
105.8254719411723
 21
22.70835533109335
 31
0.0
  0
LINE
  5
4613
330
1E
100
AcDbEntity
  8
0
 48
0.27
100
AcDbLine
 10
107.2697509411723
 20
26.85904533109329
 30
0.0
 11
107.6775949411723
 21
26.62308633109331
 31
0.0
  0
LINE
  5
4614
330
1E
100
AcDbEntity
  8
0
 48
0.27
100
AcDbLine
 10
106.8272139411723
 20
21.99569033109331
 30
0.0
 11
107.2697509411723
 21
22.14099333109332
 31
0.0
  0
LINE
  5
4615
330
1E
100
AcDbEntity
  8
0
 48
0.27
100
AcDbLine
 10
108.4564909411723
 20
25.9031163310933
 30
0.0
 11
108.6721079411723
 21
25.46648933109331
 31
0.0
  0
LINE
  5
4616
330
1E
100
AcDbEntity
  8
0
 48
0.27
100
AcDbLine
 10
108.4564909411723
 20
23.09692233109335
 30
0.0
 11
108.1663199411723
 21
22.71421533109331
 31
0.0
  0
LINE
  5
4617
330
1E
100
AcDbEntity
  8
0
 48
0.27
100
AcDbLine
 10
108.6721079411723
 20
25.46648933109331
 30
0.0
 11
108.8048839411722
 21
24.99272133109333
 31
0.0
  0
LINE
  5
4618
330
1E
100
AcDbEntity
  8
0
 48
0.27
100
AcDbLine
 10
108.6721079411723
 20
23.53354933109333
 30
0.0
 11
108.4564909411723
 21
23.09692233109335
 31
0.0
  0
LINE
  5
4619
330
1E
100
AcDbEntity
  8
0
 48
0.27
100
AcDbLine
 10
107.6775949411723
 20
26.62308633109331
 30
0.0
 11
108.0350739411722
 21
26.30553933109335
 31
0.0
  0
LINE
  5
461A
330
1E
100
AcDbEntity
  8
0
 48
0.27
100
AcDbLine
 10
107.2697509411723
 20
22.14099333109332
 30
0.0
 11
107.6775949411723
 21
22.37695233109333
 31
0.0
  0
LINE
  5
461B
330
1E
100
AcDbEntity
  8
0
 48
0.27
100
AcDbLine
 10
108.8048839411722
 20
24.99272133109333
 30
0.0
 11
108.8497169411723
 21
24.50001933109332
 31
0.0
  0
LINE
  5
461C
330
1E
100
AcDbEntity
  8
0
 48
0.27
100
AcDbLine
 10
108.8048839411722
 20
24.00731733109331
 30
0.0
 11
108.6721079411723
 21
23.53354933109333
 31
0.0
  0
LINE
  5
461D
330
1E
100
AcDbEntity
  8
0
 48
0.27
100
AcDbLine
 10
106.1484009411723
 20
26.25725633109329
 30
0.0
 11
106.4589199411723
 21
26.15530033109326
 31
0.0
  0
LINE
  5
461E
330
1E
100
AcDbEntity
  8
0
 48
0.27
100
AcDbLine
 10
105.8254719411723
 20
22.70835533109335
 30
0.0
 11
106.1484009411723
 21
22.74278133109332
 31
0.0
  0
LINE
  5
461F
330
1E
100
AcDbEntity
  8
0
 48
0.27
100
AcDbLine
 10
108.8497169411723
 20
24.50001933109332
 30
0.0
 11
108.8048839411722
 21
24.00731733109331
 31
0.0
  0
LINE
  5
4620
330
1E
100
AcDbEntity
  8
0
 48
0.27
100
AcDbLine
 10
108.0350739411722
 20
26.30553933109335
 30
0.0
 11
108.3284489411722
 21
25.91860733109332
 31
0.0
  0
LINE
  5
4621
330
1E
100
AcDbEntity
  8
0
 48
0.27
100
AcDbLine
 10
107.6775949411723
 20
22.37695233109333
 30
0.0
 11
108.0350739411722
 21
22.69449933109329
 31
0.0
  0
LINE
  5
4622
330
1E
100
AcDbEntity
  8
0
 48
0.27
100
AcDbLine
 10
106.4589199411723
 20
26.15530033109326
 30
0.0
 11
106.7450969411723
 21
25.98973333109328
 31
0.0
  0
LINE
  5
4623
330
1E
100
AcDbEntity
  8
0
 48
0.27
100
AcDbLine
 10
106.1484009411723
 20
22.74278133109332
 30
0.0
 11
106.4589199411723
 21
22.84473733109335
 31
0.0
  0
LINE
  5
4624
330
1E
100
AcDbEntity
  8
0
 48
0.27
100
AcDbLine
 10
108.3284489411722
 20
25.91860733109332
 30
0.0
 11
108.5464459411722
 21
25.47715933109331
 31
0.0
  0
LINE
  5
4625
330
1E
100
AcDbEntity
  8
0
 48
0.27
100
AcDbLine
 10
108.3284489411722
 20
23.08143133109332
 30
0.0
 11
108.0350739411722
 21
22.69449933109329
 31
0.0
  0
LINE
  5
4626
330
1E
100
AcDbEntity
  8
0
 48
0.27
100
AcDbLine
 10
108.5464459411722
 20
25.47715933109331
 30
0.0
 11
108.6806889411722
 21
24.99816133109332
 31
0.0
  0
LINE
  5
4627
330
1E
100
AcDbEntity
  8
0
 48
0.27
100
AcDbLine
 10
108.5464459411722
 20
23.5228783310933
 30
0.0
 11
108.3284489411722
 21
23.08143133109332
 31
0.0
  0
LINE
  5
4628
330
1E
100
AcDbEntity
  8
0
 48
0.27
100
AcDbLine
 10
106.7450969411723
 20
25.98973333109328
 30
0.0
 11
106.9959319411723
 21
25.76691633109332
 31
0.0
  0
LINE
  5
4629
330
1E
100
AcDbEntity
  8
0
 48
0.27
100
AcDbLine
 10
106.4589199411723
 20
22.84473733109335
 30
0.0
 11
106.7450969411723
 21
23.01030533109336
 31
0.0
  0
LINE
  5
462A
330
1E
100
AcDbEntity
  8
0
 48
0.27
100
AcDbLine
 10
108.6806889411722
 20
24.99816133109332
 30
0.0
 11
108.7260169411722
 21
24.50001933109332
 31
0.0
  0
LINE
  5
462B
330
1E
100
AcDbEntity
  8
0
 48
0.27
100
AcDbLine
 10
108.6806889411722
 20
24.00187733109332
 30
0.0
 11
108.5464459411722
 21
23.5228783310933
 31
0.0
  0
LINE
  5
462C
330
1E
100
AcDbEntity
  8
0
 48
0.27
100
AcDbLine
 10
108.7260169411722
 20
24.50001933109332
 30
0.0
 11
108.6806889411722
 21
24.00187733109332
 31
0.0
  0
LINE
  5
462D
330
1E
100
AcDbEntity
  8
0
 48
0.27
100
AcDbLine
 10
106.9959319411723
 20
25.76691633109332
 30
0.0
 11
107.2017879411722
 21
25.49541433109329
 31
0.0
  0
LINE
  5
462E
330
1E
100
AcDbEntity
  8
0
 48
0.27
100
AcDbLine
 10
106.7450969411723
 20
23.01030533109336
 30
0.0
 11
106.9959319411723
 21
23.23312133109338
 31
0.0
  0
LINE
  5
462F
330
1E
100
AcDbEntity
  8
0
 48
0.27
100
AcDbLine
 10
107.2017879411722
 20
25.49541433109329
 30
0.0
 11
107.3547519411722
 21
25.18565933109333
 31
0.0
  0
LINE
  5
4630
330
1E
100
AcDbEntity
  8
0
 48
0.27
100
AcDbLine
 10
107.2017879411722
 20
23.50462433109335
 30
0.0
 11
106.9959319411723
 21
23.23312133109338
 31
0.0
  0
LINE
  5
4631
330
1E
100
AcDbEntity
  8
0
 48
0.27
100
AcDbLine
 10
107.3547519411722
 20
25.18565933109333
 30
0.0
 11
107.4489469411723
 21
24.84955533109332
 31
0.0
  0
LINE
  5
4632
330
1E
100
AcDbEntity
  8
0
 48
0.27
100
AcDbLine
 10
107.3547519411722
 20
23.81437933109332
 30
0.0
 11
107.2017879411722
 21
23.50462433109335
 31
0.0
  0
LINE
  5
4633
330
1E
100
AcDbEntity
  8
0
 48
0.27
100
AcDbLine
 10
107.4489469411723
 20
24.84955533109332
 30
0.0
 11
107.4807529411723
 21
24.50001933109332
 31
0.0
  0
LINE
  5
4634
330
1E
100
AcDbEntity
  8
0
 48
0.27
100
AcDbLine
 10
107.4489469411723
 20
24.15048333109332
 30
0.0
 11
107.3547519411722
 21
23.81437933109332
 31
0.0
  0
LINE
  5
4635
330
1E
100
AcDbEntity
  8
0
 48
0.27
100
AcDbLine
 10
107.4807529411723
 20
24.50001933109332
 30
0.0
 11
107.4489469411723
 21
24.15048333109332
 31
0.0
  0
POINT
  5
4636
330
1E
100
AcDbEntity
  8
0
100
AcDbPoint
 10
104.0079649411723
 20
24.50001933109332
 30
0.0
1001
pntflag
1000
endpoint
  0
LWPOLYLINE
  5
4638
330
1E
100
AcDbEntity
  8
0
 48
0.27
100
AcDbPolyline
 90
       17
 70
     0
 43
0.0
 10
8.273818202773803
 20
24.49999999999351
 10
8.307366504173835
 20
24.2829627574935
 10
8.340257493373819
 20
24.22005852349353
 10
8.376827827173791
 20
24.19051688679351
 10
8.410804984573807
 20
24.19082416679353
 10
8.44729783037382
 20
24.22102845959352
 10
8.478641731373834
 20
24.2807984370935
 10
8.508028392073832
 20
24.41087141779351
 10
8.512995640873832
 20
24.49999999999351
 10
8.479448675473825
 20
24.7170359064935
 10
8.446556350273787
 20
24.77994014049352
 10
8.409986016473816
 20
24.80948177719352
 10
8.376010195073824
 20
24.8091744970935
 10
8.339516013273815
 20
24.77897020429351
 10
8.308173448273798
 20
24.71920022679351
 10
8.278785451573803
 20
24.58912724619351
 10
8.273818202773803
 20
24.49999999999351
  0
ARC
  5
4639
330
1E
100
AcDbEntity
  8
0
 48
0.27
100
AcDbCircle
 10
-0.6778695245261872
 20
24.49999999999352
 30
0.0
 40
3.999999331999998
100
AcDbArc
 50
48.59037799889998
 51
311.4096220032
  0
LINE
  5
463A
330
1E
100
AcDbEntity
  8
0
 48
0.27
100
AcDbLine
 10
2.208882246473798
 20
27.4999991649935
 30
0.0
 11
1.63153109067381
 21
28.49999933199351
 31
0.0
  0
LINE
  5
463B
330
1E
100
AcDbEntity
  8
0
 48
0.27
100
AcDbLine
 10
-2.987270139726192
 20
28.49999933199351
 30
0.0
 11
1.63153109067381
 21
28.49999933199351
 31
0.0
  0
LINE
  5
463C
330
1E
100
AcDbEntity
  8
0
 48
0.27
100
AcDbLine
 10
-2.987270139726192
 20
28.49999933199351
 30
0.0
 11
-5.296670754926182
 21
24.49999999999352
 31
0.0
  0
LINE
  5
463D
330
1E
100
AcDbEntity
  8
0
 48
0.27
100
AcDbLine
 10
-5.296670754926182
 20
24.49999999999352
 30
0.0
 11
-2.987270139726192
 21
20.49999933199351
 31
0.0
  0
LINE
  5
463E
330
1E
100
AcDbEntity
  8
0
 48
0.27
100
AcDbLine
 10
1.631532426673807
 20
20.49999933199351
 30
0.0
 11
-2.987270139726192
 21
20.49999933199351
 31
0.0
  0
LINE
  5
463F
330
1E
100
AcDbEntity
  8
0
 48
0.27
100
AcDbLine
 10
2.208882246473798
 20
21.49999949899351
 30
0.0
 11
1.631532426673807
 21
20.49999933199351
 31
0.0
  0
LINE
  5
4640
330
1E
100
AcDbEntity
  8
0
 48
0.27
100
AcDbLine
 10
0.6236364984738146
 20
21.49999949899351
 30
0.0
 11
3.637705081673793
 21
21.49999949899351
 31
0.0
  0
LINE
  5
4641
330
1E
100
AcDbEntity
  8
0
 48
0.27
100
AcDbLine
 10
3.700603971673807
 20
27.21531221569352
 30
0.0
 11
3.637705081673793
 21
27.4999991649935
 31
0.0
  0
LINE
  5
4642
330
1E
100
AcDbEntity
  8
0
 48
0.27
100
AcDbLine
 10
3.637705081673793
 20
21.49999949899351
 30
0.0
 11
3.700603971673807
 21
21.78468644829351
 31
0.0
  0
LINE
  5
4643
330
1E
100
AcDbEntity
  8
0
 48
0.27
100
AcDbLine
 10
0.6236364984738146
 20
27.4999991649935
 30
0.0
 11
3.637705081673793
 21
27.4999991649935
 31
0.0
  0
LINE
  5
4644
330
1E
100
AcDbEntity
  8
0
 48
0.27
100
AcDbLine
 10
3.198851723873808
 20
21.55764390019352
 30
0.0
 11
5.200658330173801
 21
22.46345872419352
 31
0.0
  0
LINE
  5
4645
330
1E
100
AcDbEntity
  8
0
 48
0.27
100
AcDbLine
 10
9.06587260877378
 20
24.1504636003935
 30
0.0
 11
9.079046906873806
 21
24.49999999999352
 31
0.0
  0
LINE
  5
4646
330
1E
100
AcDbEntity
  8
0
 48
0.27
100
AcDbLine
 10
9.02685605857382
 20
23.8143593469935
 30
0.0
 11
9.06587260877378
 21
24.1504636003935
 31
0.0
  0
LINE
  5
4647
330
1E
100
AcDbEntity
  8
0
 48
0.27
100
AcDbLine
 10
9.079046906873806
 20
24.49999999999352
 30
0.0
 11
9.06587260877378
 21
24.84953639959352
 31
0.0
  0
LINE
  5
4648
330
1E
100
AcDbEntity
  8
0
 48
0.27
100
AcDbLine
 10
2.974877968273808
 20
21.49999949899351
 30
0.0
 11
3.198851723873808
 21
21.55764390019352
 31
0.0
  0
LINE
  5
4649
330
1E
100
AcDbEntity
  8
0
 48
0.27
100
AcDbLine
 10
2.974877968273808
 20
27.4999991649935
 30
0.0
 11
3.198851723873808
 21
27.44235476379351
 31
0.0
  0
LINE
  5
464A
330
1E
100
AcDbEntity
  8
0
 48
0.27
100
AcDbLine
 10
3.198851723873808
 20
27.44235476379351
 30
0.0
 11
5.200658330173801
 21
26.53653993979351
 31
0.0
  0
LINE
  5
464B
330
1E
100
AcDbEntity
  8
0
 48
0.27
100
AcDbLine
 10
8.963496248473809
 20
23.50460502569351
 30
0.0
 11
9.02685605857382
 21
23.8143593469935
 31
0.0
  0
LINE
  5
464C
330
1E
100
AcDbEntity
  8
0
 48
0.27
100
AcDbLine
 10
9.06587260877378
 20
24.84953639959352
 30
0.0
 11
9.02685605857382
 21
25.18563931699351
 31
0.0
  0
LINE
  5
464D
330
1E
100
AcDbEntity
  8
0
 48
0.27
100
AcDbLine
 10
8.878227370873794
 20
23.23310172659351
 30
0.0
 11
8.963496248473809
 21
23.50460502569351
 31
0.0
  0
LINE
  5
464E
330
1E
100
AcDbEntity
  8
0
 48
0.27
100
AcDbLine
 10
8.118872906173784
 20
22.86169099549352
 30
0.0
 11
8.120771362473796
 21
22.86261951559351
 31
0.0
  0
LINE
  5
464F
330
1E
100
AcDbEntity
  8
0
 48
0.27
100
AcDbLine
 10
9.02685605857382
 20
25.18563931699351
 30
0.0
 11
8.963496248473809
 21
25.49539497429352
 31
0.0
  0
LINE
  5
4650
330
1E
100
AcDbEntity
  8
0
 48
0.27
100
AcDbLine
 10
2.750904212673809
 20
21.55764390019352
 30
0.0
 11
2.974877968273808
 21
21.49999949899351
 31
0.0
  0
LINE
  5
4651
330
1E
100
AcDbEntity
  8
0
 48
0.27
100
AcDbLine
 10
2.750904212673809
 20
27.44235476379351
 30
0.0
 11
2.974877968273808
 21
27.4999991649935
 31
0.0
  0
LINE
  5
4652
330
1E
100
AcDbEntity
  8
0
 48
0.27
100
AcDbLine
 10
8.774327970373811
 20
23.01028494709352
 30
0.0
 11
8.878227370873794
 21
23.23310172659351
 31
0.0
  0
LINE
  5
4653
330
1E
100
AcDbEntity
  8
0
 48
0.27
100
AcDbLine
 10
8.963496248473809
 20
25.49539497429352
 30
0.0
 11
8.878227370873794
 21
25.7668969373935
 31
0.0
  0
LINE
  5
4654
330
1E
100
AcDbEntity
  8
0
 48
0.27
100
AcDbLine
 10
5.200658330173801
 20
22.46345872419352
 30
0.0
 11
5.441780984473787
 21
22.56186181979353
 31
0.0
  0
LINE
  5
4655
330
1E
100
AcDbEntity
  8
0
 48
0.27
100
AcDbLine
 10
5.200658330173801
 20
26.53653993979351
 30
0.0
 11
5.441780984473787
 21
26.43813818019351
 31
0.0
  0
LINE
  5
4656
330
1E
100
AcDbEntity
  8
0
 48
0.27
100
AcDbLine
 10
8.655790015573806
 20
22.84471844879352
 30
0.0
 11
8.774327970373811
 21
23.01028494709352
 31
0.0
  0
LINE
  5
4657
330
1E
100
AcDbEntity
  8
0
 48
0.27
100
AcDbLine
 10
8.878227370873794
 20
25.7668969373935
 30
0.0
 11
8.774327970373811
 21
25.98971371689353
 31
0.0
  0
LINE
  5
4658
330
1E
100
AcDbEntity
  8
0
 48
0.27
100
AcDbLine
 10
2.535538306373801
 20
21.72836067929351
 30
0.0
 11
2.750904212673809
 21
21.55764390019352
 31
0.0
  0
LINE
  5
4659
330
1E
100
AcDbEntity
  8
0
 48
0.27
100
AcDbLine
 10
2.535538306373801
 20
27.27163798469351
 30
0.0
 11
2.750904212673809
 21
27.44235476379351
 31
0.0
  0
LINE
  5
465A
330
1E
100
AcDbEntity
  8
0
 48
0.27
100
AcDbLine
 10
5.441780984473787
 20
22.56186181979353
 30
0.0
 11
5.656704674673797
 21
22.55273426639352
 31
0.0
  0
LINE
  5
465B
330
1E
100
AcDbEntity
  8
0
 48
0.27
100
AcDbLine
 10
5.441780984473787
 20
26.43813818019351
 30
0.0
 11
5.656704674673797
 21
26.4472643975935
 31
0.0
  0
LINE
  5
465C
330
1E
100
AcDbEntity
  8
0
 48
0.27
100
AcDbLine
 10
7.276694444273822
 20
21.99567160979352
 30
0.0
 11
8.527169267073794
 21
22.74276159259351
 31
0.0
  0
LINE
  5
465D
330
1E
100
AcDbEntity
  8
0
 48
0.27
100
AcDbLine
 10
8.527169267073794
 20
22.74276159259351
 30
0.0
 11
8.655790015573806
 21
22.84471844879352
 31
0.0
  0
LINE
  5
465E
330
1E
100
AcDbEntity
  8
0
 48
0.27
100
AcDbLine
 10
8.774327970373811
 20
25.98971371689353
 30
0.0
 11
8.655790015573806
 21
26.1552802151935
 31
0.0
  0
LINE
  5
465F
330
1E
100
AcDbEntity
  8
0
 48
0.27
100
AcDbLine
 10
-0.0391906149261914
 20
24.49999999999352
 30
0.0
 11
0.6236364984738146
 21
27.4999991649935
 31
0.0
  0
LINE
  5
4660
330
1E
100
AcDbEntity
  8
0
 48
0.27
100
AcDbLine
 10
-0.0391906149261914
 20
24.49999999999352
 30
0.0
 11
1.649223741473811
 21
24.49999999999352
 31
0.0
  0
LINE
  5
4661
330
1E
100
AcDbEntity
  8
0
 48
0.27
100
AcDbLine
 10
0.6236364984738146
 20
21.49999949899351
 30
0.0
 11
-0.0391906149261914
 21
24.49999999999352
 31
0.0
  0
LINE
  5
4662
330
1E
100
AcDbEntity
  8
0
 48
0.27
100
AcDbLine
 10
2.535538306373801
 20
21.72836067929351
 30
0.0
 11
2.337055434873811
 21
22.00559007539351
 31
0.0
  0
LINE
  5
4663
330
1E
100
AcDbEntity
  8
0
 48
0.27
100
AcDbLine
 10
2.337055434873811
 20
26.9944085885935
 30
0.0
 11
2.535538306373801
 21
27.27163798469351
 31
0.0
  0
LINE
  5
4664
330
1E
100
AcDbEntity
  8
0
 48
0.27
100
AcDbLine
 10
7.086064581973793
 20
21.9466083379935
 30
0.0
 11
7.276694444273822
 21
21.99567160979352
 31
0.0
  0
LINE
  5
4665
330
1E
100
AcDbEntity
  8
0
 48
0.27
100
AcDbLine
 10
6.725232300573786
 20
21.97449199839351
 30
0.0
 11
7.086064581973793
 21
21.9466083379935
 31
0.0
  0
LINE
  5
4666
330
1E
100
AcDbEntity
  8
0
 48
0.27
100
AcDbLine
 10
5.656704674673797
 20
22.55273426639352
 30
0.0
 11
6.210651778773801
 21
22.18751723229351
 31
0.0
  0
LINE
  5
4667
330
1E
100
AcDbEntity
  8
0
 48
0.27
100
AcDbLine
 10
8.393407589773808
 20
22.7083355390935
 30
0.0
 11
8.527169267073794
 21
22.74276159259351
 31
0.0
  0
LINE
  5
4668
330
1E
100
AcDbEntity
  8
0
 48
0.27
100
AcDbLine
 10
7.276694444273822
 20
27.0043283901935
 30
0.0
 11
8.527169267073794
 21
26.25723707139352
 31
0.0
  0
LINE
  5
4669
330
1E
100
AcDbEntity
  8
0
 48
0.27
100
AcDbLine
 10
8.527169267073794
 20
26.25723707139352
 30
0.0
 11
8.655790015573806
 21
26.1552802151935
 31
0.0
  0
LINE
  5
466A
330
1E
100
AcDbEntity
  8
0
 48
0.27
100
AcDbLine
 10
7.086064581973793
 20
27.05339032599351
 30
0.0
 11
7.276694444273822
 21
27.0043283901935
 31
0.0
  0
LINE
  5
466B
330
1E
100
AcDbEntity
  8
0
 48
0.27
100
AcDbLine
 10
6.725232300573786
 20
27.02550800149352
 30
0.0
 11
7.086064581973793
 21
27.05339032599351
 31
0.0
  0
LINE
  5
466C
330
1E
100
AcDbEntity
  8
0
 48
0.27
100
AcDbLine
 10
5.465869068373798
 20
22.69723738539351
 30
0.0
 11
5.6059500265738
 21
22.58619706369353
 31
0.0
  0
LINE
  5
466D
330
1E
100
AcDbEntity
  8
0
 48
0.27
100
AcDbLine
 10
6.210651778773801
 20
22.18751723229351
 30
0.0
 11
6.536683926573793
 21
22.02301819819352
 31
0.0
  0
LINE
  5
466E
330
1E
100
AcDbEntity
  8
0
 48
0.27
100
AcDbLine
 10
6.536683926573793
 20
22.02301819819352
 30
0.0
 11
6.725232300573786
 21
21.97449199839351
 31
0.0
  0
LINE
  5
466F
330
1E
100
AcDbEntity
  8
0
 48
0.27
100
AcDbLine
 10
5.656704674673797
 20
26.4472643975935
 30
0.0
 11
6.210651778773801
 21
26.81248143169351
 31
0.0
  0
LINE
  5
4670
330
1E
100
AcDbEntity
  8
0
 48
0.27
100
AcDbLine
 10
5.465869068373798
 20
26.30276127859351
 30
0.0
 11
5.6059500265738
 21
26.41380160029352
 31
0.0
  0
LINE
  5
4671
330
1E
100
AcDbEntity
  8
0
 48
0.27
100
AcDbLine
 10
2.337055434873811
 20
22.00559007539351
 30
0.0
 11
2.163084159173799
 21
22.37867882269351
 31
0.0
  0
LINE
  5
4672
330
1E
100
AcDbEntity
  8
0
 48
0.27
100
AcDbLine
 10
2.163084159173799
 20
26.62131984129351
 30
0.0
 11
2.337055434873811
 21
26.9944085885935
 31
0.0
  0
LINE
  5
4673
330
1E
100
AcDbEntity
  8
0
 48
0.27
100
AcDbLine
 10
6.895433383673783
 20
21.99567160979352
 30
0.0
 11
7.086064581973793
 21
21.9466083379935
 31
0.0
  0
LINE
  5
4674
330
1E
100
AcDbEntity
  8
0
 48
0.27
100
AcDbLine
 10
6.536683926573793
 20
26.97698046579352
 30
0.0
 11
6.725232300573786
 21
27.02550800149352
 31
0.0
  0
LINE
  5
4675
330
1E
100
AcDbEntity
  8
0
 48
0.27
100
AcDbLine
 10
6.210651778773801
 20
26.81248143169351
 30
0.0
 11
6.536683926573793
 21
26.97698046579352
 31
0.0
  0
LINE
  5
4676
330
1E
100
AcDbEntity
  8
0
 48
0.27
100
AcDbLine
 10
2.312050854873824
 20
21.49999949899351
 30
0.0
 11
1.649223741473811
 21
24.49999999999352
 31
0.0
  0
LINE
  5
4677
330
1E
100
AcDbEntity
  8
0
 48
0.27
100
AcDbLine
 10
1.649223741473811
 20
24.49999999999352
 30
0.0
 11
2.312050854873824
 21
27.4999991649935
 31
0.0
  0
LINE
  5
4678
330
1E
100
AcDbEntity
  8
0
 48
0.27
100
AcDbLine
 10
5.465869068373798
 20
22.69723738539351
 30
0.0
 11
5.336768695773805
 21
22.87755599799351
 31
0.0
  0
LINE
  5
4679
330
1E
100
AcDbEntity
  8
0
 48
0.27
100
AcDbLine
 10
8.259645912573795
 20
22.74276159259351
 30
0.0
 11
8.393407589773808
 21
22.7083355390935
 31
0.0
  0
LINE
  5
467A
330
1E
100
AcDbEntity
  8
0
 48
0.27
100
AcDbLine
 10
8.393407589773808
 20
26.29166312489351
 30
0.0
 11
8.527169267073794
 21
26.25723707139352
 31
0.0
  0
LINE
  5
467B
330
1E
100
AcDbEntity
  8
0
 48
0.27
100
AcDbLine
 10
6.895433383673783
 20
27.0043283901935
 30
0.0
 11
7.086064581973793
 21
27.05339032599351
 31
0.0
  0
LINE
  5
467C
330
1E
100
AcDbEntity
  8
0
 48
0.27
100
AcDbLine
 10
6.041388567873802
 20
26.67830960229351
 30
0.0
 11
6.210651778773801
 21
26.81248143169351
 31
0.0
  0
LINE
  5
467D
330
1E
100
AcDbEntity
  8
0
 48
0.27
100
AcDbLine
 10
5.336768695773805
 20
26.12244266599352
 30
0.0
 11
5.465869068373798
 21
26.30276127859351
 31
0.0
  0
LINE
  5
467E
330
1E
100
AcDbEntity
  8
0
 48
0.27
100
AcDbLine
 10
2.163084159173799
 20
22.37867882269351
 30
0.0
 11
2.020308488473808
 21
22.83328896699349
 31
0.0
  0
LINE
  5
467F
330
1E
100
AcDbEntity
  8
0
 48
0.27
100
AcDbLine
 10
2.020308488473808
 20
26.16670969699351
 30
0.0
 11
2.163084159173799
 21
26.62131984129351
 31
0.0
  0
LINE
  5
4680
330
1E
100
AcDbEntity
  8
0
 48
0.27
100
AcDbLine
 10
5.336768695773805
 20
22.87755599799351
 30
0.0
 11
5.223612149873808
 21
23.12022440459352
 31
0.0
  0
LINE
  5
4681
330
1E
100
AcDbEntity
  8
0
 48
0.27
100
AcDbLine
 10
6.712128810473807
 20
22.14097365689351
 30
0.0
 11
6.895433383673783
 21
21.99567160979352
 31
0.0
  0
LINE
  5
4682
330
1E
100
AcDbEntity
  8
0
 48
0.27
100
AcDbLine
 10
5.223612149873808
 20
25.87977425939351
 30
0.0
 11
5.336768695773805
 21
26.12244266599352
 31
0.0
  0
LINE
  5
4683
330
1E
100
AcDbEntity
  8
0
 48
0.27
100
AcDbLine
 10
8.131023828073786
 20
22.84471844879352
 30
0.0
 11
8.259645912573795
 21
22.74276159259351
 31
0.0
  0
LINE
  5
4684
330
1E
100
AcDbEntity
  8
0
 48
0.27
100
AcDbLine
 10
6.712128810473807
 20
26.85902500709351
 30
0.0
 11
6.895433383673783
 21
27.0043283901935
 31
0.0
  0
LINE
  5
4685
330
1E
100
AcDbEntity
  8
0
 48
0.27
100
AcDbLine
 10
8.259645912573795
 20
26.25723707139352
 30
0.0
 11
8.393407589773808
 21
26.29166312489351
 31
0.0
  0
LINE
  5
4686
330
1E
100
AcDbEntity
  8
0
 48
0.27
100
AcDbLine
 10
5.223612149873808
 20
23.12022440459352
 30
0.0
 11
5.130746775073809
 21
23.41591732359352
 31
0.0
  0
LINE
  5
4687
330
1E
100
AcDbEntity
  8
0
 48
0.27
100
AcDbLine
 10
2.020308488473808
 20
22.83328896699349
 30
0.0
 11
1.914218047673806
 21
23.35194963349353
 31
0.0
  0
LINE
  5
4688
330
1E
100
AcDbEntity
  8
0
 48
0.27
100
AcDbLine
 10
1.914218047673806
 20
25.6480503664935
 30
0.0
 11
2.020308488473808
 21
26.16670969699351
 31
0.0
  0
LINE
  5
4689
330
1E
100
AcDbEntity
  8
0
 48
0.27
100
AcDbLine
 10
5.130746775073809
 20
25.5840813403935
 30
0.0
 11
5.223612149873808
 21
25.87977425939351
 31
0.0
  0
LINE
  5
468A
330
1E
100
AcDbEntity
  8
0
 48
0.27
100
AcDbLine
 10
6.712128810473807
 20
22.14097365689351
 30
0.0
 11
6.543194255673789
 21
22.37693267039352
 31
0.0
  0
LINE
  5
468B
330
1E
100
AcDbEntity
  8
0
 48
0.27
100
AcDbLine
 10
5.130746775073809
 20
23.41591732359352
 30
0.0
 11
5.061742364073801
 21
23.75327073729353
 31
0.0
  0
LINE
  5
468C
330
1E
100
AcDbEntity
  8
0
 48
0.27
100
AcDbLine
 10
1.914218047673806
 20
23.35194963349353
 30
0.0
 11
1.848887637273804
 21
23.91472903489352
 31
0.0
  0
LINE
  5
468D
330
1E
100
AcDbEntity
  8
0
 48
0.27
100
AcDbLine
 10
1.848887637273804
 20
25.08527096499352
 30
0.0
 11
1.914218047673806
 21
25.6480503664935
 31
0.0
  0
LINE
  5
468E
330
1E
100
AcDbEntity
  8
0
 48
0.27
100
AcDbLine
 10
8.131023828073786
 20
26.1552802151935
 30
0.0
 11
8.259645912573795
 21
26.25723707139352
 31
0.0
  0
LINE
  5
468F
330
1E
100
AcDbEntity
  8
0
 48
0.27
100
AcDbLine
 10
8.131023828073786
 20
22.84471844879352
 30
0.0
 11
8.012485873273824
 21
23.01028494709352
 31
0.0
  0
LINE
  5
4690
330
1E
100
AcDbEntity
  8
0
 48
0.27
100
AcDbLine
 10
6.543194255673789
 20
26.6230659935935
 30
0.0
 11
6.712128810473807
 21
26.85902500709351
 31
0.0
  0
LINE
  5
4691
330
1E
100
AcDbEntity
  8
0
 48
0.27
100
AcDbLine
 10
5.061742364073801
 20
25.2467279266935
 30
0.0
 11
5.130746775073809
 21
25.5840813403935
 31
0.0
  0
LINE
  5
4692
330
1E
100
AcDbEntity
  8
0
 48
0.27
100
AcDbLine
 10
5.061742364073801
 20
23.75327073729353
 30
0.0
 11
5.019248205373806
 21
24.1193200994935
 31
0.0
  0
LINE
  5
4693
330
1E
100
AcDbEntity
  8
0
 48
0.27
100
AcDbLine
 10
1.848887637273804
 20
23.91472903489352
 30
0.0
 11
1.826827601773814
 21
24.49999999999352
 31
0.0
  0
LINE
  5
4694
330
1E
100
AcDbEntity
  8
0
 48
0.27
100
AcDbLine
 10
1.826827601773814
 20
24.49999999999352
 30
0.0
 11
1.848887637273804
 21
25.08527096499352
 31
0.0
  0
LINE
  5
4695
330
1E
100
AcDbEntity
  8
0
 48
0.27
100
AcDbLine
 10
5.019248205373806
 20
24.8806785644935
 30
0.0
 11
5.061742364073801
 21
25.2467279266935
 31
0.0
  0
LINE
  5
4696
330
1E
100
AcDbEntity
  8
0
 48
0.27
100
AcDbLine
 10
5.019248205373806
 20
24.1193200994935
 30
0.0
 11
5.00490089907381
 21
24.49999999999352
 31
0.0
  0
LINE
  5
4697
330
1E
100
AcDbEntity
  8
0
 48
0.27
100
AcDbLine
 10
5.00490089907381
 20
24.49999999999352
 30
0.0
 11
5.019248205373806
 21
24.8806785644935
 31
0.0
  0
LINE
  5
4698
330
1E
100
AcDbEntity
  8
0
 48
0.27
100
AcDbLine
 10
6.543194255673789
 20
22.37693267039352
 30
0.0
 11
6.395121344073807
 21
22.69447988089351
 31
0.0
  0
LINE
  5
4699
330
1E
100
AcDbEntity
  8
0
 48
0.27
100
AcDbLine
 10
8.012485873273824
 20
25.98971371689353
 30
0.0
 11
8.131023828073786
 21
26.1552802151935
 31
0.0
  0
LINE
  5
469A
330
1E
100
AcDbEntity
  8
0
 48
0.27
100
AcDbLine
 10
8.012485873273824
 20
23.01028494709352
 30
0.0
 11
7.908586472773784
 21
23.23310172659351
 31
0.0
  0
LINE
  5
469B
330
1E
100
AcDbEntity
  8
0
 48
0.27
100
AcDbLine
 10
6.395121344073807
 20
26.30552011909351
 30
0.0
 11
6.543194255673789
 21
26.6230659935935
 31
0.0
  0
LINE
  5
469C
330
1E
100
AcDbEntity
  8
0
 48
0.27
100
AcDbLine
 10
7.908586472773784
 20
25.7668969373935
 30
0.0
 11
8.012485873273824
 21
25.98971371689353
 31
0.0
  0
LINE
  5
469D
330
1E
100
AcDbEntity
  8
0
 48
0.27
100
AcDbLine
 10
6.395121344073807
 20
22.69447988089351
 30
0.0
 11
6.273601436773809
 21
23.08141092639351
 31
0.0
  0
LINE
  5
469E
330
1E
100
AcDbEntity
  8
0
 48
0.27
100
AcDbLine
 10
7.908586472773784
 20
23.23310172659351
 30
0.0
 11
7.82331893117378
 21
23.50460502569351
 31
0.0
  0
LINE
  5
469F
330
1E
100
AcDbEntity
  8
0
 48
0.27
100
AcDbLine
 10
6.273601436773809
 20
25.91858773749351
 30
0.0
 11
6.395121344073807
 21
26.30552011909351
 31
0.0
  0
LINE
  5
46A0
330
1E
100
AcDbEntity
  8
0
 48
0.27
100
AcDbLine
 10
7.82331893117378
 20
25.49539497429352
 30
0.0
 11
7.908586472773784
 21
25.7668969373935
 31
0.0
  0
LINE
  5
46A1
330
1E
100
AcDbEntity
  8
0
 48
0.27
100
AcDbLine
 10
6.273601436773809
 20
23.08141092639351
 30
0.0
 11
6.183303854373825
 21
23.5228587965935
 31
0.0
  0
LINE
  5
46A2
330
1E
100
AcDbEntity
  8
0
 48
0.27
100
AcDbLine
 10
7.82331893117378
 20
23.50460502569351
 30
0.0
 11
7.759959121073812
 21
23.8143593469935
 31
0.0
  0
LINE
  5
46A3
330
1E
100
AcDbEntity
  8
0
 48
0.27
100
AcDbLine
 10
6.183303854373825
 20
25.47713986739351
 30
0.0
 11
6.273601436773809
 21
25.91858773749351
 31
0.0
  0
LINE
  5
46A4
330
1E
100
AcDbEntity
  8
0
 48
0.27
100
AcDbLine
 10
7.759959121073812
 20
25.18563931699351
 30
0.0
 11
7.82331893117378
 21
25.49539497429352
 31
0.0
  0
LINE
  5
46A5
330
1E
100
AcDbEntity
  8
0
 48
0.27
100
AcDbLine
 10
6.183303854373825
 20
23.5228587965935
 30
0.0
 11
6.127699525573795
 21
24.00185762479352
 31
0.0
  0
LINE
  5
46A6
330
1E
100
AcDbEntity
  8
0
 48
0.27
100
AcDbLine
 10
7.759959121073812
 20
23.8143593469935
 30
0.0
 11
7.720941234873784
 21
24.1504636003935
 31
0.0
  0
LINE
  5
46A7
330
1E
100
AcDbEntity
  8
0
 48
0.27
100
AcDbLine
 10
6.127699525573795
 20
24.99814103919352
 30
0.0
 11
6.183303854373825
 21
25.47713986739351
 31
0.0
  0
LINE
  5
46A8
330
1E
100
AcDbEntity
  8
0
 48
0.27
100
AcDbLine
 10
7.720941234873784
 20
24.84953639959352
 30
0.0
 11
7.759959121073812
 21
25.18563931699351
 31
0.0
  0
LINE
  5
46A9
330
1E
100
AcDbEntity
  8
0
 48
0.27
100
AcDbLine
 10
6.127699525573795
 20
24.00185762479352
 30
0.0
 11
6.108923378573784
 21
24.49999999999352
 31
0.0
  0
LINE
  5
46AA
330
1E
100
AcDbEntity
  8
0
 48
0.27
100
AcDbLine
 10
7.720941234873784
 20
24.1504636003935
 30
0.0
 11
7.707766936773815
 21
24.49999999999352
 31
0.0
  0
LINE
  5
46AB
330
1E
100
AcDbEntity
  8
0
 48
0.27
100
AcDbLine
 10
7.707766936773815
 20
24.49999999999352
 30
0.0
 11
7.720941234873784
 21
24.84953639959352
 31
0.0
  0
LINE
  5
46AC
330
1E
100
AcDbEntity
  8
0
 48
0.27
100
AcDbLine
 10
6.108923378573784
 20
24.49999999999352
 30
0.0
 11
6.127699525573795
 21
24.99814103919352
 31
0.0
  0
LINE
  5
46AD
330
1E
100
AcDbEntity
  8
0
 48
0.27
100
AcDbLine
 10
5.6059500265738
 20
22.58619706369353
 30
0.0
 11
5.656704674673797
 21
22.55273426639352
 31
0.0
  0
LINE
  5
46AE
330
1E
100
AcDbEntity
  8
0
 48
0.27
100
AcDbLine
 10
5.393427128873803
 20
22.56391525219352
 30
0.0
 11
5.441780984473787
 21
22.56186181979353
 31
0.0
  0
LINE
  5
46AF
330
1E
100
AcDbEntity
  8
0
 48
0.27
100
AcDbLine
 10
5.6059500265738
 20
26.41380160029352
 30
0.0
 11
5.656704674673797
 21
26.4472643975935
 31
0.0
  0
LINE
  5
46B0
330
1E
100
AcDbEntity
  8
中心線
 48
0.27
100
AcDbLine
 10
-0.6778695245261872
 20
17.74999999999352
 30
0.0
 11
-0.6778695245261872
 21
35.56675827044136
 31
0.0
  0
LINE
  5
46B1
330
1E
100
AcDbEntity
  8
中心線
 48
0.27
100
AcDbLine
 10
10.5790469068738
 20
24.49999999999352
 30
0.0
 11
-7.427869524526183
 21
24.49999999999352
 31
0.0
  0
POINT
  5
46B2
330
1E
100
AcDbEntity
  8
0
100
AcDbPoint
 10
9.079046906873806
 20
24.49999999999352
 30
0.0
1001
pntflag
1000
endpoint
  0
LINE
  5
46B4
330
1E
100
AcDbEntity
  8
0
 48
0.27
100
AcDbLine
 10
119.0079649411722
 20
-0.0000000000000284
 30
0.0
 11
119.0079649411722
 21
29.49999999999997
 31
0.0
  0
LINE
  5
46B5
330
1E
100
AcDbEntity
  8
0
 48
0.27
100
AcDbLine
 10
128.5079649411723
 20
30.5
 30
0.0
 11
128.5079649411723
 21
0.0
 31
0.0
  0
LINE
  5
46B6
330
1E
100
AcDbEntity
  8
0
 48
0.27
100
AcDbLine
 10
207.1079649411723
 20
30.5
 30
0.0
 11
207.1079649411723
 21
-0.0000000000000284
 31
0.0
  0
LINE
  5
46B7
330
1E
100
AcDbEntity
  8
0
 48
0.27
100
AcDbLine
 10
216.6079649411723
 20
-0.0000000000000284
 30
0.0
 11
216.6079649411723
 21
29.49999999999997
 31
0.0
  0
LINE
  5
46BB
330
1E
100
AcDbEntity
  8
0
 48
0.27
100
AcDbLine
 10
128.5079649411723
 20
28.99999999999995
 30
0.0
 11
207.1079649411723
 21
28.99999999999995
 31
0.0
  0
LINE
  5
46BC
330
1E
100
AcDbEntity
  8
0
 48
0.27
100
AcDbLine
 10
207.1079649411723
 20
30.5
 30
0.0
 11
128.5079649411723
 21
30.5
 31
0.0
  0
LINE
  5
46BD
330
1E
100
AcDbEntity
  8
0
 48
0.27
100
AcDbLine
 10
119.0079649411722
 20
29.49999999999997
 30
0.0
 11
128.5079649411722
 21
29.49999999999997
 31
0.0
  0
LINE
  5
46BE
330
1E
100
AcDbEntity
  8
0
 48
0.27
100
AcDbLine
 10
119.0079649411722
 20
27.99999999999997
 30
0.0
 11
128.5079649411722
 21
27.99999999999997
 31
0.0
  0
CIRCLE
  5
46BF
330
1E
100
AcDbEntity
  8
0
 48
0.27
100
AcDbCircle
 10
124.3079649411723
 20
21.5
 30
0.0
 40
2.1986552691
  0
CIRCLE
  5
46C0
330
1E
100
AcDbEntity
  8
0
 48
0.27
100
AcDbCircle
 10
124.3079649411723
 20
21.5
 30
0.0
 40
2.5
  0
CIRCLE
  5
46C1
330
1E
100
AcDbEntity
  8
0
 48
0.27
100
AcDbCircle
 10
124.3079649411723
 20
21.5
 30
0.0
 40
2.75
  0
LINE
  5
46C2
330
1E
100
AcDbEntity
  8
中心線
 48
0.27
100
AcDbLine
 10
124.3079649411723
 20
18.38629739016426
 30
0.0
 11
124.3079649411723
 21
24.61370260983574
 31
0.0
  0
LINE
  5
46C3
330
1E
100
AcDbEntity
  8
中心線
 48
0.27
100
AcDbLine
 10
121.2077207436066
 20
21.5
 30
0.0
 11
127.408209138738
 21
21.5
 31
0.0
  0
CIRCLE
  5
46C4
330
1E
100
AcDbEntity
  8
0
 48
0.27
100
AcDbCircle
 10
124.3079649411723
 20
21.5
 30
0.0
 40
0.75
  0
LINE
  5
46C5
330
1E
100
AcDbEntity
  8
中心線
 48
0.27
100
AcDbLine
 10
142.8079649411723
 20
31.5
 30
0.0
 11
142.8079649411723
 21
17.26228675972851
 31
0.0
  0
LINE
  5
46D0
330
1E
100
AcDbEntity
  8
中心線
 48
0.27
100
AcDbLine
 10
192.8079649411723
 20
31.5
 30
0.0
 11
192.8079649411723
 21
17.26228675972851
 31
0.0
  0
CIRCLE
  5
46D5
330
1E
100
AcDbEntity
  8
0
 48
0.27
100
AcDbCircle
 10
211.2886415327991
 20
21.49999999999997
 30
0.0
 40
2.75
  0
LINE
  5
46D6
330
1E
100
AcDbEntity
  8
0
 48
0.27
100
AcDbLine
 10
207.1079649411723
 20
29.49999999999997
 30
0.0
 11
216.6079649411723
 21
29.49999999999997
 31
0.0
  0
LINE
  5
46D7
330
1E
100
AcDbEntity
  8
0
 48
0.27
100
AcDbLine
 10
207.1079649411723
 20
27.99999999999997
 30
0.0
 11
216.6079649411723
 21
27.99999999999997
 31
0.0
  0
LINE
  5
46D8
330
1E
100
AcDbEntity
  8
中心線
 48
0.27
100
AcDbLine
 10
208.1883973352334
 20
21.49999999999997
 30
0.0
 11
214.3888857303648
 21
21.49999999999997
 31
0.0
  0
CIRCLE
  5
46DB
330
1E
100
AcDbEntity
  8
0
 48
0.27
100
AcDbCircle
 10
211.2886415327991
 20
21.49999999999997
 30
0.0
 40
2.1986552691
  0
CIRCLE
  5
46DC
330
1E
100
AcDbEntity
  8
0
 48
0.27
100
AcDbCircle
 10
211.2886415327991
 20
21.49999999999997
 30
0.0
 40
2.5
  0
LINE
  5
46DD
330
1E
100
AcDbEntity
  8
中心線
 48
0.27
100
AcDbLine
 10
211.2886415327991
 20
18.38629739016423
 30
0.0
 11
211.2886415327991
 21
24.61370260983571
 31
0.0
  0
CIRCLE
  5
46DE
330
1E
100
AcDbEntity
  8
0
 48
0.27
100
AcDbCircle
 10
211.2886415327991
 20
21.49999999999997
 30
0.0
 40
0.75
  0
LINE
  5
46E0
330
1E
100
AcDbEntity
  8
0
 48
0.27
100
AcDbLine
 10
216.6079649411723
 20
1.499999999983401
 30
0.0
 11
119.0079649411722
 21
1.499999999983401
 31
0.0
  0
LINE
  5
46E1
330
1E
100
AcDbEntity
  8
0
 48
0.27
100
AcDbLine
 10
216.6079649411723
 20
-0.0000000000000284
 30
0.0
 11
119.0079649411722
 21
-0.0000000000000284
 31
0.0
  0
INSERT
  5
476D
330
1E
100
AcDbEntity
  8
0
100
AcDbBlockReference
  2
A$C02B53278
 10
192.8079649411856
 20
89.82741515531756
 30
0.0
 41
-1.0
 50
89.99999999999998
  0
LINE
  5
476E
330
1E
100
AcDbEntity
  8
中心線
 48
0.27
100
AcDbLine
 10
167.8079649411856
 20
132.4274151553175
 30
0.0
 11
167.8079649411856
 21
82.22741515531765
 31
0.0
  0
LINE
  5
476F
330
1E
100
AcDbEntity
  8
0
100
AcDbLine
 10
207.1079649411856
 20
131.3274151553175
 30
0.0
 11
207.1079649411856
 21
83.32741515531756
 31
0.0
  0
LINE
  5
4770
330
1E
100
AcDbEntity
  8
0
100
AcDbLine
 10
128.5079649411855
 20
131.3274151553175
 30
0.0
 11
128.5079649411855
 21
83.32741515531756
 31
0.0
  0
INSERT
  5
4771
330
1E
100
AcDbEntity
  8
0
100
AcDbBlockReference
  2
A$C02B53278
 10
142.8079649411856
 20
89.82741515531756
 30
0.0
 50
270.0
  0
LINE
  5
4773
330
1E
100
AcDbEntity
  8
中心線
 48
0.27
100
AcDbLine
 10
222.4252528970028
 20
107.3274151553176
 30
0.0
 11
112.7958965557506
 21
107.3274151553176
 31
0.0
  0
LINE
  5
4774
330
1E
100
AcDbEntity
  8
0
100
AcDbLine
 10
128.5079649411855
 20
111.8274151553175
 30
0.0
 11
207.1079649411856
 21
111.8274151553175
 31
0.0
  0
LINE
  5
4775
330
1E
100
AcDbEntity
  8
0
100
AcDbLine
 10
128.5079649411855
 20
112.3274151553175
 30
0.0
 11
207.1079649411856
 21
112.3274151553175
 31
0.0
  0
LINE
  5
4776
330
1E
100
AcDbEntity
  8
0
100
AcDbLine
 10
128.5079649411855
 20
120.3274151553175
 30
0.0
 11
207.1079649411856
 21
120.3274151553175
 31
0.0
  0
LINE
  5
4777
330
1E
100
AcDbEntity
  8
0
100
AcDbLine
 10
128.5079649411855
 20
120.8274151553175
 30
0.0
 11
207.1079649411856
 21
120.8274151553175
 31
0.0
  0
LINE
  5
4778
330
1E
100
AcDbEntity
  8
0
100
AcDbLine
 10
128.5079649411855
 20
129.8274151553175
 30
0.0
 11
207.1079649411856
 21
129.8274151553175
 31
0.0
  0
LINE
  5
4779
330
1E
100
AcDbEntity
  8
0
100
AcDbLine
 10
128.5079649411855
 20
131.3274151553175
 30
0.0
 11
207.1079649411856
 21
131.3274151553175
 31
0.0
  0
LINE
  5
477A
330
1E
100
AcDbEntity
  8
0
100
AcDbLine
 10
128.5079649411855
 20
93.82741515531757
 30
0.0
 11
207.1079649411856
 21
93.82741515531757
 31
0.0
  0
LINE
  5
477B
330
1E
100
AcDbEntity
  8
0
100
AcDbLine
 10
128.5079649411855
 20
94.32741515531757
 30
0.0
 11
207.1079649411856
 21
94.32741515531757
 31
0.0
  0
LINE
  5
477C
330
1E
100
AcDbEntity
  8
0
100
AcDbLine
 10
128.5079649411855
 20
102.3274151553175
 30
0.0
 11
207.1079649411856
 21
102.3274151553175
 31
0.0
  0
LINE
  5
477D
330
1E
100
AcDbEntity
  8
0
100
AcDbLine
 10
128.5079649411855
 20
102.8274151553175
 30
0.0
 11
207.1079649411856
 21
102.8274151553175
 31
0.0
  0
INSERT
  5
477F
330
1E
100
AcDbEntity
  8
0
100
AcDbBlockReference
  2
A$C02B53278
 10
142.8079649411856
 20
124.8274151553175
 30
0.0
 50
270.0
  0
INSERT
  5
4782
330
1E
100
AcDbEntity
  8
0
100
AcDbBlockReference
  2
A$C02B53278
 10
192.8079649411856
 20
124.8274151553175
 30
0.0
 41
-1.0
 50
89.99999999999998
  0
LINE
  5
4787
330
1E
100
AcDbEntity
  8
0
100
AcDbLine
 10
128.5079649411855
 20
84.82741515531756
 30
0.0
 11
207.1079649411856
 21
84.82741515531756
 31
0.0
  0
LINE
  5
4788
330
1E
100
AcDbEntity
  8
0
100
AcDbLine
 10
207.1079649411856
 20
83.32741515531756
 30
0.0
 11
128.5079649411855
 21
83.32741515531756
 31
0.0
  0
LINE
  5
47D0
330
1E
100
AcDbEntity
  8
0
100
AcDbLine
 10
72.42642226877427
 20
95.82741515530154
 30
0.0
 11
106.5528569289773
 21
95.82741515531393
 31
0.0
  0
ARC
  5
47D1
330
1E
100
AcDbEntity
  8
0
  6
Continuous
100
AcDbCircle
 10
106.489253167426
 20
99.21402616943659
 30
0.0
 40
2.860349020536762
100
AcDbArc
 50
118.5864858262621
 51
163.5864858262621
  0
LINE
  5
47D2
330
1E
100
AcDbEntity
  8
0
  6
Continuous
100
AcDbLine
 10
103.7454709411856
 20
96.99027250627345
 30
0.0
 11
107.3639509194532
 21
95.49144902409949
 31
0.0
  0
LINE
  5
47D3
330
1E
100
AcDbEntity
  8
0
  6
Continuous
100
AcDbLine
 10
103.7454709411856
 20
100.0222684686594
 30
0.0
 11
109.5078958249865
 21
97.63539392963281
 31
0.0
  0
LINE
  5
47D4
330
1E
100
AcDbEntity
  8
0
100
AcDbLine
 10
72.42642226880096
 20
118.8274151553171
 30
0.0
 11
116.0764580918588
 21
118.8274151553171
 31
0.0
  0
LINE
  5
47D5
330
1E
100
AcDbEntity
  8
中心線
 48
0.27
100
AcDbLine
 10
92.42642226874886
 20
114.3292995306947
 30
0.0
 11
92.42642226874888
 21
100.3255307799313
 31
0.0
  0
CIRCLE
  5
47D6
330
1E
100
AcDbEntity
  8
0
100
AcDbCircle
 10
92.42642226874886
 20
107.327415155313
 30
0.0
 40
5.499999999961204
  0
LINE
  5
47D7
330
1E
100
AcDbEntity
  8
0
 62
     0
 48
0.27
100
AcDbLine
 10
72.42642226877427
 20
95.82741515531797
 30
0.0
 11
72.42642226880096
 21
118.8274151553171
 31
0.0
  0
LINE
  5
47D8
330
1E
100
AcDbEntity
  8
0
  6
Continuous
100
AcDbLine
 10
103.7454709411856
 20
96.99027250627345
 30
0.0
 11
103.7454709411856
 21
100.0222684686594
 31
0.0
  0
LINE
  5
47D9
330
1E
100
AcDbEntity
  8
中心線
 48
0.27
100
AcDbLine
 10
99.30561821218901
 20
107.3274151553129
 30
0.0
 11
85.54722632530872
 21
107.327415155313
 31
0.0
  0
CIRCLE
  5
47DA
330
1E
100
AcDbEntity
  8
0
100
AcDbCircle
 10
92.42642226874886
 20
107.327415155313
 30
0.0
 40
3.499999999961232
  0
LINE
  5
47DB
330
1E
100
AcDbEntity
  8
0
  6
Continuous
100
AcDbLine
 10
110.0926773276371
 20
101.9375653089923
 30
0.0
 11
110.6647545961527
 21
103.3186820093681
 31
0.0
  0
ARC
  5
47DC
330
1E
100
AcDbEntity
  8
0
  6
Continuous
100
AcDbCircle
 10
110.9984603937919
 20
101.4948604219042
 30
0.0
 40
1.854133729915247
100
AcDbArc
 50
34.63277999893705
 51
100.367220001062
  0
ARC
  5
47DD
330
1E
100
AcDbEntity
  8
0
  6
Continuous
100
AcDbCircle
 10
115.8644809182316
 20
103.877415055729
 30
0.0
 40
2.119009977045996
100
AcDbArc
 50
147.1327799989379
 51
212.8672200010621
  0
ARC
  5
47DE
330
1E
100
AcDbEntity
  8
0
  6
Continuous
100
AcDbCircle
 10
103.2412448150419
 20
102.568423528332
 30
0.0
 40
2.059673609817605
100
AcDbArc
 50
335.8479011650597
 51
45.84790116506007
  0
ARC
  5
47DF
330
1E
100
AcDbEntity
  8
0
  6
Continuous
100
AcDbCircle
 10
106.0403567336815
 20
105.3016875783318
 30
0.0
 40
1.854133729915247
100
AcDbArc
 50
214.6327799989371
 51
280.367220001062
  0
ARC
  5
47E0
330
1E
100
AcDbEntity
  8
0
  6
Continuous
100
AcDbCircle
 10
110.7876512527924
 20
108.8742962627899
 30
0.0
 40
6.971504732179473
100
AcDbArc
 50
230.721349997913
 51
264.2786500020894
  0
LINE
  5
47E1
330
1E
100
AcDbEntity
  8
0
  6
Continuous
100
AcDbLine
 10
105.3308104738537
 20
103.5886913747243
 30
0.0
 11
110.9087333124114
 21
101.2782400851231
 31
0.0
  0
LINE
  5
47E2
330
1E
100
AcDbEntity
  8
0
  6
Continuous
100
AcDbLine
 10
106.1300838150621
 20
105.5183079151129
 30
0.0
 11
111.7080066536198
 21
103.2078566255117
 31
0.0
  0
LINE
  5
47E3
330
1E
100
AcDbEntity
  8
0
100
AcDbLine
 10
117.5079649411857
 20
130.5274151553219
 30
0.0
 11
117.5079649411856
 21
84.12741515532189
 31
0.0
  0
LINE
  5
47E4
330
1E
100
AcDbEntity
  8
0
 48
0.27
100
AcDbLine
 10
119.0079649411856
 20
84.12741515532124
 30
0.0
 11
119.0079649411856
 21
130.5274151553212
 31
0.0
  0
LINE
  5
47E5
330
1E
100
AcDbEntity
  8
0
 48
0.27
100
AcDbLine
 10
128.5079649411855
 20
84.1274151553171
 30
0.0
 11
117.5079649411856
 21
84.12741515532189
 31
0.0
  0
LINE
  5
47E6
330
1E
100
AcDbEntity
  8
0
100
AcDbLine
 10
107.6999170506681
 20
95.82741515531436
 30
0.0
 11
116.0764580918591
 21
95.82741515531738
 31
0.0
  0
LINE
  5
47E7
330
1E
100
AcDbEntity
  8
0
  6
Continuous
100
AcDbLine
 10
114.084723483295
 20
102.7274151553219
 30
0.0
 11
117.5079649411856
 21
102.7274151553219
 31
0.0
  0
LINE
  5
47E8
330
1E
100
AcDbEntity
  8
0
  6
Continuous
100
AcDbLine
 10
107.3639509194532
 20
95.49144902409949
 30
0.0
 11
109.5078958249865
 21
97.63539392963281
 31
0.0
  0
ARC
  5
47E9
330
1E
100
AcDbEntity
  8
0
  6
Continuous
100
AcDbCircle
 10
106.9962351960906
 20
99.0040273372843
 30
0.0
 40
2.860349020536762
100
AcDbArc
 50
331.4135141737375
 51
16.41351417373786
  0
LINE
  5
47EA
330
1E
100
AcDbEntity
  8
0
  6
Continuous
100
AcDbLine
 10
105.3053956662768
 20
101.6491501118595
 30
0.0
 11
109.5552415158287
 21
99.88880632298009
 31
0.0
  0
ARC
  5
47EB
330
1E
100
AcDbEntity
  8
0
  6
Continuous
100
AcDbCircle
 10
111.6648410466811
 20
99.07925572523218
 30
0.0
 40
2.059673609817604
100
AcDbArc
 50
89.15209883494084
 51
159.1520988349398
  0
ARC
  5
47EC
330
1E
100
AcDbEntity
  8
0
  6
Continuous
100
AcDbCircle
 10
111.6182795722392
 20
102.9912362887306
 30
0.0
 40
1.854133729915247
100
AcDbArc
 50
214.6327799989371
 51
280.367220001062
  0
LINE
  5
47ED
330
1E
100
AcDbEntity
  8
0
  6
Continuous
100
AcDbLine
 10
111.9519427957903
 20
101.1673720553901
 30
0.0
 11
112.5240626891562
 21
102.5485916612573
 31
0.0
  0
LINE
  5
47EF
330
1E
100
AcDbEntity
  8
0
  6
Continuous
100
AcDbLine
 10
114.084723483295
 20
111.9274151553219
 30
0.0
 11
117.5079649411856
 21
111.9274151553219
 31
0.0
  0
LINE
  5
47F0
330
1E
100
AcDbEntity
  8
0
  6
Continuous
100
AcDbLine
 10
114.084723483295
 20
109.6274149561361
 30
0.0
 11
117.5079649411856
 21
109.6274149561361
 31
0.0
  0
LINE
  5
47F1
330
1E
100
AcDbEntity
  8
0
  6
Continuous
100
AcDbLine
 10
114.084723483295
 20
105.0274153545077
 30
0.0
 11
117.5079649411856
 21
105.0274153545077
 31
0.0
  0
ARC
  5
47F2
330
1E
100
AcDbEntity
  8
0
  6
Continuous
100
AcDbCircle
 10
121.7129049208193
 20
107.3274151553219
 30
0.0
 40
7.96743397963368
100
AcDbArc
 50
163.2213499979121
 51
196.7786500020879
  0
LINE
  5
47F3
330
1E
100
AcDbEntity
  8
0
  6
Continuous
100
AcDbLine
 10
113.7454709411856
 20
103.877415055729
 30
0.0
 11
113.7454709411856
 21
110.7774152549148
 31
0.0
  0
ARC
  5
47F4
330
1E
100
AcDbEntity
  8
0
  6
Continuous
100
AcDbCircle
 10
110.1469121187005
 20
107.3274151553219
 30
0.0
 40
4.0
100
AcDbArc
 50
90.0
 51
210.8352048940848
  0
ARC
  5
47F5
330
1E
100
AcDbEntity
  8
0
  6
Continuous
100
AcDbCircle
 10
106.251165874681
 20
97.92225173744609
 30
0.0
 40
6.971504732179473
100
AcDbArc
 50
50.72134999791305
 51
84.27865000208782
  0
ARC
  5
47F6
330
1E
100
AcDbEntity
  8
0
  6
Continuous
100
AcDbCircle
 10
105.4205375552343
 20
103.8053117115054
 30
0.0
 40
1.854133729915247
100
AcDbArc
 50
34.63277999893705
 51
100.367220001062
  0
LINE
  5
47F7
330
1E
100
AcDbEntity
  8
0
  6
Continuous
100
AcDbLine
 10
106.3740625313207
 20
103.4778659908678
 30
0.0
 11
106.9461397998363
 21
104.8589826912436
 31
0.0
  0
LINE
  5
47F8
330
1E
100
AcDbEntity
  8
0
  6
Continuous
100
AcDbLine
 10
104.514754811121
 20
104.2480164651996
 30
0.0
 11
105.0868320796366
 21
105.6291331655754
 31
0.0
  0
LINE
  5
47F9
330
1E
100
AcDbEntity
  8
0
  6
Continuous
100
AcDbLine
 10
111.2805154193412
 20
103.3274151553219
 30
0.0
 11
113.8180930292006
 21
103.3274151553219
 31
0.0
  0
ARC
  5
47FA
330
1E
100
AcDbEntity
  8
0
  6
Continuous
100
AcDbCircle
 10
115.8644809182316
 20
110.7774152549148
 30
0.0
 40
2.119009977045996
100
AcDbArc
 50
147.1327799989379
 51
212.8672200010621
  0
LINE
  5
47FB
330
1E
100
AcDbEntity
  8
0
  6
Continuous
100
AcDbLine
 10
110.1469121187005
 20
111.3274151553219
 30
0.0
 11
113.8180930292006
 21
111.3274151553219
 31
0.0
  0
LINE
  5
47FC
330
1E
100
AcDbEntity
  8
0
 48
0.27
100
AcDbLine
 10
117.5079649411857
 20
130.5274151553219
 30
0.0
 11
128.5079649411855
 21
130.527415155317
 31
0.0
  0
LINE
  5
47FE
330
1E
100
AcDbEntity
  8
0
100
AcDbLine
 10
253.0264222687744
 20
118.8274151553171
 30
0.0
 11
219.5394717905124
 21
118.8274151553172
 31
0.0
  0
LINE
  5
47FF
330
1E
100
AcDbEntity
  8
中心線
 48
0.27
100
AcDbLine
 10
233.0264222688265
 20
114.3292995306947
 30
0.0
 11
233.0264222688265
 21
100.3255307799313
 31
0.0
  0
CIRCLE
  5
4800
330
1E
100
AcDbEntity
  8
0
100
AcDbCircle
 10
233.0264222688265
 20
107.327415155313
 30
0.0
 40
5.499999999961204
  0
LINE
  5
4801
330
1E
100
AcDbEntity
  8
0
 62
     0
 48
0.27
100
AcDbLine
 10
253.0264222688011
 20
95.82741515531797
 30
0.0
 11
253.0264222687744
 21
118.8274151553171
 31
0.0
  0
LINE
  5
4802
330
1E
100
AcDbEntity
  8
中心線
 48
0.27
100
AcDbLine
 10
226.1472263253864
 20
107.3274151553129
 30
0.0
 11
239.9056182122667
 21
107.327415155313
 31
0.0
  0
LINE
  5
4803
330
1E
100
AcDbEntity
  8
0
100
AcDbLine
 10
253.0264222688011
 20
95.82741515530154
 30
0.0
 11
219.5394717905075
 21
95.82741515531083
 31
0.0
  0
CIRCLE
  5
4804
330
1E
100
AcDbEntity
  8
0
100
AcDbCircle
 10
233.0264222688265
 20
107.327415155313
 30
0.0
 40
3.499999999961232
  0
LINE
  5
482D
330
1E
100
AcDbEntity
  8
0
 48
0.27
100
AcDbLine
 10
216.6079649411855
 20
84.12741515532124
 30
0.0
 11
216.6079649411855
 21
130.5274151553212
 31
0.0
  0
LINE
  5
482E
330
1E
100
AcDbEntity
  8
0
 48
0.27
100
AcDbLine
 10
218.1079649411855
 20
130.5274151553219
 30
0.0
 11
207.1079649411856
 21
130.527415155317
 31
0.0
  0
LINE
  5
4833
330
1E
100
AcDbEntity
  8
0
 48
0.27
100
AcDbLine
 10
207.1079649411856
 20
84.1274151553171
 30
0.0
 11
218.1079649411855
 21
84.12741515532189
 31
0.0
  0
LINE
  5
4EA0
330
1E
100
AcDbEntity
  8
0
100
AcDbLine
 10
116.0079649411722
 20
118.7274151553157
 30
0.0
 11
116.0079649411722
 21
111.9274151553219
 31
0.0
  0
ARC
  5
4EA1
330
1E
100
AcDbEntity
  8
0
 48
0.27
100
AcDbCircle
 10
-0.6778695245261872
 20
24.49999999999352
 30
0.0
 40
5.249999999999996
100
AcDbArc
 50
179.9999999999746
 51
329.7566907592999
  0
LINE
  5
4EFF
330
1E
100
AcDbEntity
  8
0
100
AcDbLine
 10
116.0079649411722
 20
115.836114007582
 30
0.0
 11
117.5079649411857
 21
116.7432420166316
 31
0.0
  0
LINE
  5
4F00
330
1E
100
AcDbEntity
  8
0
100
AcDbLine
 10
116.0079649411722
 20
118.7274151553157
 30
0.0
 11
117.5079649411857
 21
120.9174151553156
 31
0.0
  0
LINE
  5
4F01
330
1E
100
AcDbEntity
  8
中心線
100
AcDbLine
 10
115.7241151448145
 20
121.6274151553176
 30
0.0
 11
121.4757521191954
 21
121.6274151553176
 31
0.0
  0
ARC
  5
4F02
330
1E
100
AcDbEntity
  8
0
100
AcDbCircle
 10
117.8434887606798
 20
120.6471667933347
 30
0.0
 40
1.220011576012179
100
AcDbArc
 50
180.9276427879976
 51
214.9774443365356
  0
LINE
  5
4F03
330
1E
100
AcDbEntity
  8
0
100
AcDbLine
 10
116.6236370818273
 20
122.6274151553176
 30
0.0
 11
116.6236370818273
 21
120.6274151553176
 31
0.0
  0
ARC
  5
4F04
330
1E
100
AcDbEntity
  8
0
100
AcDbCircle
 10
117.8434887606798
 20
122.6076635173004
 30
0.0
 40
1.220011576012179
100
AcDbArc
 50
105.9630221688286
 51
179.0723572120024
  0
LINE
  5
4F05
330
1E
100
AcDbEntity
  8
0
100
AcDbLine
 10
116.0079649411721
 20
95.92741515531951
 30
0.0
 11
117.5079649411855
 21
93.73741515531953
 31
0.0
  0
LINE
  5
4F06
330
1E
100
AcDbEntity
  8
0
100
AcDbLine
 10
116.0079649411722
 20
98.81871630305317
 30
0.0
 11
117.5079649411856
 21
97.91158829400361
 31
0.0
  0
LINE
  5
4F07
330
1E
100
AcDbEntity
  8
0
100
AcDbLine
 10
116.0079649411721
 20
95.92741515531951
 30
0.0
 11
116.0079649411722
 21
102.7274151553219
 31
0.0
  0
LINE
  5
4F08
330
1E
100
AcDbEntity
  8
中心線
100
AcDbLine
 10
115.7241151448144
 20
93.02741515531755
 30
0.0
 11
121.4757521191954
 21
93.02741515531755
 31
0.0
  0
ARC
  5
4F09
330
1E
100
AcDbEntity
  8
0
100
AcDbCircle
 10
117.8434887606798
 20
92.04716679333467
 30
0.0
 40
1.220011576012179
100
AcDbArc
 50
180.9276427879975
 51
254.0369778311713
  0
LINE
  5
4F0A
330
1E
100
AcDbEntity
  8
0
100
AcDbLine
 10
116.6236370818273
 20
94.02741515531756
 30
0.0
 11
116.6236370818273
 21
92.02741515531755
 31
0.0
  0
ARC
  5
4F0B
330
1E
100
AcDbEntity
  8
0
100
AcDbCircle
 10
117.8434887606798
 20
94.00766351730045
 30
0.0
 40
1.220011576012179
100
AcDbArc
 50
145.0225556634668
 51
179.0723572120024
  0
LINE
  5
4F0C
330
1E
100
AcDbEntity
  8
中心線
100
AcDbLine
 10
219.8918147375567
 20
93.02741515531755
 30
0.0
 11
214.1401777631758
 21
93.02741515531755
 31
0.0
  0
ARC
  5
4F0D
330
1E
100
AcDbEntity
  8
0
100
AcDbCircle
 10
217.7724411216914
 20
92.04716679333467
 30
0.0
 40
1.220011576012179
100
AcDbArc
 50
285.9630221688287
 51
359.0723572120024
  0
LINE
  5
4F0E
330
1E
100
AcDbEntity
  8
0
100
AcDbLine
 10
218.9922928005438
 20
94.02741515531756
 30
0.0
 11
218.9922928005438
 21
92.02741515531755
 31
0.0
  0
ARC
  5
4F0F
330
1E
100
AcDbEntity
  8
0
100
AcDbCircle
 10
217.7724411216914
 20
94.00766351730045
 30
0.0
 40
1.220011576012179
100
AcDbArc
 50
0.9276427879975832
 51
34.97744433653463
  0
LINE
  5
4F10
330
1E
100
AcDbEntity
  8
中心線
100
AcDbLine
 10
219.8918147375567
 20
121.6274151553176
 30
0.0
 11
214.1401777631757
 21
121.6274151553176
 31
0.0
  0
ARC
  5
4F11
330
1E
100
AcDbEntity
  8
0
100
AcDbCircle
 10
217.7724411216913
 20
120.6471667933347
 30
0.0
 40
1.220011576012179
100
AcDbArc
 50
325.0225556634648
 51
359.0723572120024
  0
LINE
  5
4F12
330
1E
100
AcDbEntity
  8
0
100
AcDbLine
 10
218.9922928005438
 20
122.6274151553176
 30
0.0
 11
218.9922928005438
 21
120.6274151553176
 31
0.0
  0
ARC
  5
4F13
330
1E
100
AcDbEntity
  8
0
100
AcDbCircle
 10
217.7724411216913
 20
122.6076635173004
 30
0.0
 40
1.220011576012179
100
AcDbArc
 50
0.9276427879975832
 51
74.03697783117131
  0
LINE
  5
4F23
330
1E
100
AcDbEntity
  8
0
100
AcDbLine
 10
219.6079649411989
 20
118.7274151553157
 30
0.0
 11
219.6079649411989
 21
111.9274151553219
 31
0.0
  0
LINE
  5
4F24
330
1E
100
AcDbEntity
  8
0
100
AcDbLine
 10
219.6079649411989
 20
115.836114007582
 30
0.0
 11
218.1079649411855
 21
116.7432420166316
 31
0.0
  0
LINE
  5
4F25
330
1E
100
AcDbEntity
  8
0
100
AcDbLine
 10
219.6079649411989
 20
118.7274151553157
 30
0.0
 11
218.1079649411855
 21
120.9174151553156
 31
0.0
  0
LINE
  5
4F26
330
1E
100
AcDbEntity
  8
0
100
AcDbLine
 10
219.607964941199
 20
95.92741515531951
 30
0.0
 11
218.1079649411856
 21
93.73741515531953
 31
0.0
  0
LINE
  5
4F27
330
1E
100
AcDbEntity
  8
0
100
AcDbLine
 10
219.607964941199
 20
98.81871630305317
 30
0.0
 11
218.1079649411856
 21
97.91158829400361
 31
0.0
  0
LINE
  5
4F28
330
1E
100
AcDbEntity
  8
0
100
AcDbLine
 10
219.607964941199
 20
95.92741515531951
 30
0.0
 11
219.6079649411989
 21
111.9274151553219
 31
0.0
  0
LINE
  5
4F29
330
1E
100
AcDbEntity
  8
0
100
AcDbLine
 10
218.1079649411855
 20
130.5274151553219
 30
0.0
 11
218.1079649411855
 21
84.12741515532189
 31
0.0
  0
LINE
  5
4F55
330
1E
100
AcDbEntity
  8
虛線
 48
0.27
100
AcDbLine
 10
-21.17786952451646
 20
29.70000000000889
 30
0.0
 11
-15.17786952451646
 21
29.70000000000627
 31
0.0
  0
LINE
  5
4F57
330
1E
100
AcDbEntity
  8
虛線
 48
0.27
100
AcDbLine
 10
13.82213047548354
 20
29.6999999999936
 30
0.0
 11
13.82213047548129
 21
24.54999999999362
 31
0.0
  0
LINE
  5
4F58
330
1E
100
AcDbEntity
  8
虛線
 48
0.27
100
AcDbLine
 10
19.82213047548354
 20
29.69999999999099
 30
0.0
 11
19.82213047548128
 21
24.54999999999101
 31
0.0
  0
LINE
  5
4F59
330
1E
100
AcDbEntity
  8
虛線
 48
0.27
100
AcDbLine
 10
14.32213047548354
 20
29.69999999999339
 30
0.0
 11
14.32213047547998
 21
21.54999999999342
 31
0.0
  0
LINE
  5
4F5A
330
1E
100
AcDbEntity
  8
虛線
 48
0.27
100
AcDbLine
 10
19.32213047548354
 20
29.69999999999121
 30
0.0
 11
19.32213047547998
 21
21.54999999999121
 31
0.0
  0
LINE
  5
4F5B
330
1E
100
AcDbEntity
  8
虛線
 48
0.27
100
AcDbLine
 10
19.32213047547998
 20
21.54999999999121
 30
0.0
 11
16.82213047547935
 21
20.10662432701824
 31
0.0
  0
LINE
  5
4F5C
330
1E
100
AcDbEntity
  8
虛線
 48
0.27
100
AcDbLine
 10
19.32213047547998
 20
21.54999999999121
 30
0.0
 11
14.32213047547998
 21
21.54999999999342
 31
0.0
  0
LINE
  5
4F5D
330
1E
100
AcDbEntity
  8
虛線
 48
0.27
100
AcDbLine
 10
19.82213047548128
 20
24.54999999999101
 30
0.0
 11
13.82213047548129
 21
24.54999999999362
 31
0.0
  0
LINE
  5
4F5E
330
1E
100
AcDbEntity
  8
虛線
 48
0.27
100
AcDbLine
 10
16.82213047547935
 20
20.10662432701824
 30
0.0
 11
14.32213047547998
 21
21.54999999999342
 31
0.0
  0
LINE
  5
4F5F
330
1E
100
AcDbEntity
  8
虛線
 48
0.27
100
AcDbLine
 10
13.82213047548354
 20
29.6999999999936
 30
0.0
 11
19.82213047548354
 21
29.69999999999099
 31
0.0
  0
LINE
  5
4F60
330
1E
100
AcDbEntity
  8
虛線
 48
0.27
100
AcDbLine
 10
13.0221304754849
 20
30.49999999999398
 30
0.0
 11
13.8221304754844
 21
29.6999999999936
 31
0.0
  0
LINE
  5
4F61
330
1E
100
AcDbEntity
  8
虛線
 48
0.27
100
AcDbLine
 10
20.62213047548458
 20
30.49999999999066
 30
0.0
 11
19.8221304754844
 21
29.69999999999099
 31
0.0
  0
LINE
  5
4F63
330
1E
100
AcDbEntity
  8
虛線
 48
0.27
100
AcDbLine
 10
139.8079649411711
 20
29.70000000000128
 30
0.0
 11
139.8079649411688
 21
24.55000000000131
 31
0.0
  0
LINE
  5
4F64
330
1E
100
AcDbEntity
  8
虛線
 48
0.27
100
AcDbLine
 10
145.8079649411711
 20
29.69999999999867
 30
0.0
 11
145.8079649411688
 21
24.54999999999869
 31
0.0
  0
LINE
  5
4F65
330
1E
100
AcDbEntity
  8
虛線
 48
0.27
100
AcDbLine
 10
140.3079649411711
 20
29.70000000000107
 30
0.0
 11
140.3079649411675
 21
21.55000000000111
 31
0.0
  0
LINE
  5
4F66
330
1E
100
AcDbEntity
  8
虛線
 48
0.27
100
AcDbLine
 10
145.3079649411711
 20
29.6999999999989
 30
0.0
 11
145.3079649411676
 21
21.54999999999889
 31
0.0
  0
LINE
  5
4F67
330
1E
100
AcDbEntity
  8
虛線
 48
0.27
100
AcDbLine
 10
145.3079649411676
 20
21.54999999999889
 30
0.0
 11
142.8079649411669
 21
20.10662432702593
 31
0.0
  0
LINE
  5
4F68
330
1E
100
AcDbEntity
  8
虛線
 48
0.27
100
AcDbLine
 10
145.3079649411676
 20
21.54999999999889
 30
0.0
 11
140.3079649411675
 21
21.55000000000111
 31
0.0
  0
LINE
  5
4F69
330
1E
100
AcDbEntity
  8
虛線
 48
0.27
100
AcDbLine
 10
145.8079649411688
 20
24.54999999999869
 30
0.0
 11
139.8079649411688
 21
24.55000000000131
 31
0.0
  0
LINE
  5
4F6A
330
1E
100
AcDbEntity
  8
虛線
 48
0.27
100
AcDbLine
 10
142.8079649411669
 20
20.10662432702593
 30
0.0
 11
140.3079649411675
 21
21.55000000000111
 31
0.0
  0
LINE
  5
4F6B
330
1E
100
AcDbEntity
  8
虛線
 48
0.27
100
AcDbLine
 10
139.8079649411711
 20
29.70000000000128
 30
0.0
 11
145.8079649411711
 21
29.69999999999867
 31
0.0
  0
LINE
  5
4F6C
330
1E
100
AcDbEntity
  8
虛線
 48
0.27
100
AcDbLine
 10
139.0079649411724
 20
30.50000000000166
 30
0.0
 11
139.807964941172
 21
29.70000000000128
 31
0.0
  0
LINE
  5
4F6D
330
1E
100
AcDbEntity
  8
虛線
 48
0.27
100
AcDbLine
 10
146.6079649411721
 20
30.49999999999834
 30
0.0
 11
145.807964941172
 21
29.69999999999867
 31
0.0
  0
LINE
  5
4F6F
330
1E
100
AcDbEntity
  8
虛線
 48
0.27
100
AcDbLine
 10
189.8079649411711
 20
29.70000000000128
 30
0.0
 11
189.8079649411688
 21
24.55000000000131
 31
0.0
  0
LINE
  5
4F70
330
1E
100
AcDbEntity
  8
虛線
 48
0.27
100
AcDbLine
 10
195.8079649411711
 20
29.69999999999867
 30
0.0
 11
195.8079649411688
 21
24.54999999999869
 31
0.0
  0
LINE
  5
4F71
330
1E
100
AcDbEntity
  8
虛線
 48
0.27
100
AcDbLine
 10
190.3079649411711
 20
29.70000000000107
 30
0.0
 11
190.3079649411675
 21
21.55000000000111
 31
0.0
  0
LINE
  5
4F72
330
1E
100
AcDbEntity
  8
虛線
 48
0.27
100
AcDbLine
 10
195.3079649411711
 20
29.6999999999989
 30
0.0
 11
195.3079649411675
 21
21.54999999999889
 31
0.0
  0
LINE
  5
4F73
330
1E
100
AcDbEntity
  8
虛線
 48
0.27
100
AcDbLine
 10
195.3079649411675
 20
21.54999999999889
 30
0.0
 11
192.8079649411669
 21
20.10662432702593
 31
0.0
  0
LINE
  5
4F74
330
1E
100
AcDbEntity
  8
虛線
 48
0.27
100
AcDbLine
 10
195.3079649411675
 20
21.54999999999889
 30
0.0
 11
190.3079649411675
 21
21.55000000000111
 31
0.0
  0
LINE
  5
4F75
330
1E
100
AcDbEntity
  8
虛線
 48
0.27
100
AcDbLine
 10
195.8079649411688
 20
24.54999999999869
 30
0.0
 11
189.8079649411688
 21
24.55000000000131
 31
0.0
  0
LINE
  5
4F76
330
1E
100
AcDbEntity
  8
虛線
 48
0.27
100
AcDbLine
 10
192.8079649411669
 20
20.10662432702593
 30
0.0
 11
190.3079649411675
 21
21.55000000000111
 31
0.0
  0
LINE
  5
4F77
330
1E
100
AcDbEntity
  8
虛線
 48
0.27
100
AcDbLine
 10
189.8079649411711
 20
29.70000000000128
 30
0.0
 11
195.8079649411711
 21
29.69999999999867
 31
0.0
  0
LINE
  5
4F78
330
1E
100
AcDbEntity
  8
虛線
 48
0.27
100
AcDbLine
 10
189.0079649411724
 20
30.50000000000166
 30
0.0
 11
189.807964941172
 21
29.70000000000128
 31
0.0
  0
LINE
  5
4F79
330
1E
100
AcDbEntity
  8
虛線
 48
0.27
100
AcDbLine
 10
196.6079649411721
 20
30.49999999999834
 30
0.0
 11
195.807964941172
 21
29.69999999999867
 31
0.0
  0
ENDSEC
  0
SECTION
  2
OBJECTS
  0
DICTIONARY
  5
C
330
0
100
AcDbDictionary
281
     1
  3
ACAD_COLOR
350
3D97
  3
ACAD_GROUP
350
D
  3
ACAD_LAYOUT
350
19
  3
ACAD_MATERIAL
350
3D96
  3
ACAD_MLINESTYLE
350
16
  3
ACAD_PLOTSETTINGS
350
18
  3
ACAD_PLOTSTYLENAME
350
E
  3
ACAD_TABLESTYLE
350
4842
  3
ACAD_VISUALSTYLE
350
4F38
  3
AcDbVariableDictionary
350
3E63
  3
DWGPROPS
350
4FA0
  0
DICTIONARY
  5
43C2
330
2
100
AcDbDictionary
280
     1
281
     1
  3
ACAD_LAYERSTATES
360
43C3
  0
DICTIONARY
  5
3D1E
330
1E
100
AcDbDictionary
280
     1
281
     1
  3
ACAD_LAYOUTSELFREF
360
3D92
  3
ACAD_SORTENTS
360
4F54
  0
DICTIONARY
  5
3D20
330
1A
100
AcDbDictionary
280
     1
281
     1
  3
ACAD_LAYOUTSELFREF
360
3D91
  0
DICTIONARY
  5
3D97
102
{ACAD_REACTORS
330
C
102
}
330
C
100
AcDbDictionary
281
     1
  0
DICTIONARY
  5
D
102
{ACAD_REACTORS
330
C
102
}
330
C
100
AcDbDictionary
281
     1
  3
*A1
350
4143
  3
*A10
350
4237
  3
*A11
350
4238
  3
*A12
350
43C0
  3
*A13
350
423C
  3
*A14
350
4240
  3
*A15
350
4373
  3
*A16
350
43BD
  3
*A17
350
423D
  3
*A18
350
423E
  3
*A19
350
423F
  3
*A2
350
414A
  3
*A20
350
4374
  3
*A21
350
4377
  3
*A22
350
4379
  3
*A23
350
43C1
  3
*A24
350
4375
  3
*A25
350
4145
  3
*A26
350
4376
  3
*A27
350
437A
  3
*A28
350
437D
  3
*A29
350
437F
  3
*A3
350
414B
  3
*A30
350
437B
  3
*A31
350
414D
  3
*A32
350
437C
  3
*A33
350
4146
  3
*A34
350
43B7
  3
*A35
350
43B9
  3
*A36
350
43B5
  3
*A37
350
423A
  3
*A38
350
43B6
  3
*A39
350
414E
  3
*A4
350
43BC
  3
*A40
350
43BE
  3
*A41
350
43BA
  3
*A42
350
4241
  3
*A43
350
43BB
  3
*A44
350
4144
  3
*A45
350
4148
  3
*A46
350
4147
  3
*A47
350
4378
  3
*A48
350
43BF
  3
*A49
350
414C
  3
*A5
350
4235
  3
*A50
350
414F
  3
*A51
350
437E
  3
*A52
350
4149
  3
*A6
350
4239
  3
*A7
350
423B
  3
*A8
350
43B8
  3
*A9
350
4236
  0
DICTIONARY
  5
19
102
{ACAD_REACTORS
330
C
102
}
330
C
100
AcDbDictionary
281
     1
  3
Model
350
21
  3
配置1
350
1D
  0
DICTIONARY
  5
3D96
102
{ACAD_REACTORS
330
C
102
}
330
C
100
AcDbDictionary
281
     1
  3
ByBlock
350
4F36
  3
ByLayer
350
4F35
  3
Global
350
4F37
  0
DICTIONARY
  5
16
102
{ACAD_REACTORS
330
C
102
}
330
C
100
AcDbDictionary
281
     1
  3
Standard
350
17
  0
DICTIONARY
  5
18
102
{ACAD_REACTORS
330
C
102
}
330
C
100
AcDbDictionary
281
     1
  3
LANSRO
350
4150
  0
ACDBDICTIONARYWDFLT
  5
E
102
{ACAD_REACTORS
330
C
102
}
330
C
100
AcDbDictionary
281
     1
  3
Normal
350
F
100
AcDbDictionaryWithDefault
340
F
  0
DICTIONARY
  5
4842
102
{ACAD_REACTORS
330
C
102
}
330
C
100
AcDbDictionary
281
     1
  3
Standard
350
4843
  0
DICTIONARY
  5
4F38
102
{ACAD_REACTORS
330
C
102
}
330
C
100
AcDbDictionary
281
     1
  3
2dWireframe
350
4F3E
  3
3D Hidden
350
4F40
  3
3dWireframe
350
4F3F
  3
Basic
350
4F3D
  3
Brighten
350
4F44
  3
ColorChange
350
4F48
  3
Conceptual
350
4F41
  3
Dim
350
4F43
  3
Facepattern
350
4F47
  3
Flat
350
4F39
  3
FlatWithEdges
350
4F3A
  3
Gouraud
350
4F3B
  3
GouraudWithEdges
350
4F3C
  3
Linepattern
350
4F46
  3
Realistic
350
4F42
  3
Thicken
350
4F45
  0
DICTIONARY
  5
3E63
102
{ACAD_REACTORS
330
C
102
}
330
C
100
AcDbDictionary
281
     1
  3
CTABLESTYLE
350
4E99
  3
DIMASSOC
350
3E64
  3
INDEXCTL
350
4F9F
  3
PROJECTNAME
350
3E65
  3
SORTENTS
350
4F9E
  0
XRECORD
  5
4FA0
102
{ACAD_REACTORS
330
C
102
}
330
C
100
AcDbXrecord
280
     1
  1
DWGPROPS COOKIE
  2

  3

  4

  6

  7

  8
tony4321
  9

300
=
301
=
302
=
303
=
304
=
305
=
306
=
307
=
308
=
309
=
 40
0.1143354398148148
 41
2444975.333333334
 42
2454358.427408923
  1

 90
        0
  0
DICTIONARY
  5
43C3
102
{ACAD_REACTORS
330
43C2
102
}
330
43C2
100
AcDbDictionary
281
     1
  0
XRECORD
  5
3D92
102
{ACAD_REACTORS
330
3D1E
102
}
330
3D1E
100
AcDbXrecord
280
     1
340
1E
  0
SORTENTSTABLE
  5
4F54
102
{ACAD_REACTORS
330
3D1E
102
}
330
3D1E
100
AcDbSortentsTable
330
1E
331
4698
  5
469A
331
46B2
  5
46B5
331
42F8
  5
42FA
331
45C3
  5
45C5
331
45E5
  5
45E7
331
4629
  5
462B
331
4607
  5
4609
331
435E
  5
4360
331
4334
  5
4336
331
47DA
  5
47DC
331
4643
  5
4645
331
442A
  5
442C
331
47FC
  5
47FF
331
4665
  5
4667
331
444C
  5
444E
331
4687
  5
4689
331
446E
  5
4470
331
4F00
  5
4F02
331
46A9
  5
46AB
331
44A0
  5
44A6
331
46C3
  5
46C5
331
45D4
  5
45D6
331
476F
  5
4771
331
45F6
  5
45F8
331
4618
  5
461A
331
436F
  5
4371
331
434D
  5
434F
331
42E7
  5
42E7
331
42C5
  5
42C5
331
42AB
  5
42AB
331
4289
  5
4289
331
47EB
  5
47ED
331
4654
  5
4656
331
4676
  5
4678
331
445D
  5
445F
331
447F
  5
4481
331
42D6
  5
42D6
331
429A
  5
429A
331
4278
  5
4278
331
46B0
  5
46B2
331
45C1
  5
45C3
331
45E3
  5
45E5
331
4332
  5
4334
331
4627
  5
4629
331
4605
  5
4607
331
435C
  5
435E
331
47D8
  5
47DA
331
4641
  5
4643
331
4428
  5
442A
331
47FA
  5
47FC
331
4F13
  5
4F24
331
444A
  5
444C
331
4663
  5
4665
331
4685
  5
4687
331
46A7
  5
46A9
331
449E
  5
44A0
331
46C1
  5
46C3
331
45D2
  5
45D4
331
476D
  5
476F
331
45F4
  5
45F6
331
4616
  5
4618
331
436D
  5
436F
331
434B
  5
434D
331
42E5
  5
42E5
331
42C3
  5
42C3
331
42A9
  5
42A9
331
4287
  5
4287
331
47E9
  5
47EB
331
4652
  5
4654
331
4674
  5
4676
331
445B
  5
445D
331
4696
  5
4698
331
447D
  5
447F
331
44AF
  5
44B4
331
42D4
  5
42D4
331
4298
  5
4298
331
4276
  5
4276
331
46D0
  5
46D2
331
45E1
  5
45E3
331
4330
  5
4332
331
477C
  5
477F
331
4603
  5
4605
331
435A
  5
435C
331
4625
  5
4627
331
47D6
  5
47D8
331
463F
  5
4641
331
47F8
  5
47FA
331
4F11
  5
4F13
331
4448
  5
444A
331
4661
  5
4663
331
4683
  5
4685
331
46A5
  5
46A7
331
449C
  5
449E
331
46BF
  5
46C1
331
4305
  5
4307
331
46E1
  5
476E
331
45D0
  5
45D2
331
45F2
  5
45F4
331
4614
  5
4616
331
436B
  5
436D
331
4349
  5
434B
331
42E3
  5
42E3
331
42C1
  5
42C1
331
42A7
  5
42A7
331
4285
  5
4285
331
4636
  5
4639
331
47E7
  5
47E9
331
4650
  5
4652
331
4672
  5
4674
331
4459
  5
445B
331
4694
  5
4696
331
447B
  5
447D
331
44AD
  5
44AF
331
4316
  5
4320
331
42F4
  5
42F5
331
42D2
  5
42D2
331
4296
  5
4296
331
4274
  5
4274
331
477A
  5
477C
331
4601
  5
4603
331
4358
  5
435A
331
4623
  5
4625
331
47D4
  5
47D6
331
463D
  5
463F
331
47F6
  5
47F8
331
4F0F
  5
4F11
331
4446
  5
4448
331
465F
  5
4661
331
4681
  5
4683
331
46A3
  5
46A5
331
449A
  5
449C
331
46BD
  5
46BF
331
4303
  5
4305
331
45CE
  5
45D0
331
4325
  5
432F
331
45F0
  5
45F2
331
4612
  5
4614
331
4369
  5
436B
331
4347
  5
4349
331
42E1
  5
42E1
331
42BF
  5
42BF
331
42A5
  5
42A5
331
4283
  5
4283
331
4634
  5
4636
331
47E5
  5
47E7
331
464E
  5
4650
331
4F28
  5
4F53
331
4457
  5
4459
331
4670
  5
4672
331
4692
  5
4694
331
4479
  5
447B
331
44AB
  5
44AD
331
42F2
  5
42F3
331
45DF
  5
45E1
331
42D0
  5
42D0
331
42B6
  5
42B6
331
4294
  5
4294
331
4272
  5
4272
331
4778
  5
477A
331
4621
  5
4623
331
47D2
  5
47D4
331
463B
  5
463D
331
47F4
  5
47F6
331
4F0D
  5
4F0F
331
4444
  5
4446
331
465D
  5
465F
331
482E
  5
4EA0
331
467F
  5
4681
331
4466
  5
446E
331
46A1
  5
46A3
331
46BB
  5
46BD
331
4301
  5
4303
331
46DD
  5
46DF
331
45CC
  5
45CE
331
4323
  5
4325
331
45EE
  5
45F0
331
4610
  5
4612
331
4367
  5
4369
331
4345
  5
4347
331
42DF
  5
42DF
331
42BD
  5
42BD
331
42A3
  5
42A3
331
4281
  5
4281
331
4632
  5
4634
331
47E3
  5
47E5
331
464C
  5
464E
331
4433
  5
4443
331
4F26
  5
4F28
331
4455
  5
4457
331
466E
  5
4670
331
4690
  5
4692
331
4477
  5
4479
331
44A9
  5
44AB
331
45DD
  5
45DF
331
45FF
  5
4601
331
4356
  5
4358
331
42F0
  5
42F0
331
42CE
  5
42CE
331
42B4
  5
42B4
331
4292
  5
4292
331
4270
  5
4270
331
47D0
  5
47D2
331
4639
  5
463B
331
47F2
  5
47F4
331
4F0B
  5
4F0D
331
4442
  5
4444
331
465B
  5
465D
331
467D
  5
467F
331
4464
  5
4466
331
469F
  5
46A1
331
46DB
  5
46DD
331
45CA
  5
45CC
331
4321
  5
4323
331
45EC
  5
45EE
331
4343
  5
4345
331
460E
  5
4610
331
4365
  5
4367
331
42DD
  5
42DD
331
42BB
  5
42BB
331
42A1
  5
42A1
331
4787
  5
47D0
331
4630
  5
4632
331
47E1
  5
47E3
331
464A
  5
464C
331
4431
  5
4433
331
4803
  5
482D
331
4F24
  5
4F26
331
4453
  5
4455
331
466C
  5
466E
331
468E
  5
4690
331
4475
  5
4477
331
4F07
  5
4F09
331
44A7
  5
44A9
331
4310
  5
4312
331
45DB
  5
45DD
331
4776
  5
4778
331
45FD
  5
45FF
331
461F
  5
4621
331
4354
  5
4356
331
42EE
  5
42EE
331
42CC
  5
42CC
331
42B2
  5
42B2
331
4290
  5
4290
331
427F
  5
427F
331
426E
  5
426E
331
4F09
  5
4F0B
331
47F0
  5
47F2
331
4659
  5
465B
331
467B
  5
467D
331
4462
  5
4464
331
4484
  5
4499
331
469D
  5
469F
331
4F55
  5
42F8
331
46B7
  5
46B9
331
42FD
  5
4301
331
45C8
  5
45CA
331
431F
  5
4321
331
45EA
  5
45EC
331
462E
  5
4630
331
460C
  5
460E
331
4363
  5
4365
331
4341
  5
4343
331
42DB
  5
42DB
331
42B9
  5
42B9
331
47DF
  5
47E1
331
4648
  5
464A
331
442F
  5
4431
331
4801
  5
4803
331
466A
  5
466C
331
4451
  5
4453
331
468C
  5
468E
331
4F05
  5
4F07
331
46AE
  5
46B0
331
45BF
  5
45C1
331
430E
  5
4310
331
45D9
  5
45DB
331
4774
  5
4776
331
45FB
  5
45FD
331
461D
  5
461F
331
4352
  5
4354
331
42EC
  5
42EC
331
42CA
  5
42CA
331
42B0
  5
42B0
331
428E
  5
428E
331
429F
  5
429F
331
427D
  5
427D
331
4679
  5
467B
331
4460
  5
4462
331
469B
  5
469D
331
4482
  5
4484
331
46B5
  5
46B7
331
44B4
  5
45BB
331
42FB
  5
4300
331
46D7
  5
46D9
331
45C6
  5
45C8
331
462C
  5
462E
331
460A
  5
460C
331
4361
  5
4363
331
45E8
  5
45EA
331
42D9
  5
42D9
331
47DD
  5
47DF
331
4646
  5
4648
331
442D
  5
442F
331
47FF
  5
4801
331
4668
  5
466A
331
444F
  5
4451
331
468A
  5
468C
331
4F03
  5
4F05
331
46AC
  5
46AE
331
45BD
  5
45BF
331
45D7
  5
45D9
331
461B
  5
461D
331
45F9
  5
45FB
331
4350
  5
4352
331
42EA
  5
42EA
331
42C8
  5
42C8
331
42AE
  5
42AE
331
428C
  5
428C
331
4657
  5
4659
331
429D
  5
429D
331
427B
  5
427B
331
4EA0
  5
4EFF
331
4699
  5
469B
331
4480
  5
4482
331
46D5
  5
46D7
331
45C4
  5
45C6
331
42F9
  5
42FB
331
45E6
  5
45E8
331
4335
  5
4341
331
462A
  5
462C
331
4608
  5
460A
331
435F
  5
4361
331
47DB
  5
47DD
331
4644
  5
4646
331
442B
  5
442D
331
4666
  5
4668
331
444D
  5
444F
331
4688
  5
468A
331
446F
  5
4475
331
4F01
  5
4F03
331
46AA
  5
46AC
331
44A1
  5
44A7
331
46C4
  5
46C6
331
45BB
  5
45BD
331
45D5
  5
45D7
331
4770
  5
4773
331
45F7
  5
45F9
331
4619
  5
461B
331
4370
  5
4427
331
434E
  5
4350
331
42E8
  5
42E8
331
42C6
  5
42C6
331
42AC
  5
42AC
331
428A
  5
428A
331
47EC
  5
47EF
331
4655
  5
4657
331
4677
  5
4679
331
445E
  5
4460
331
42D7
  5
42D7
331
429B
  5
429B
331
4279
  5
4279
331
46B1
  5
46B4
331
44B0
  5
44B5
331
45C2
  5
45C4
331
45E4
  5
45E6
331
4333
  5
4335
331
477F
  5
4787
331
4606
  5
4608
331
435D
  5
435F
331
4628
  5
462A
331
47D9
  5
47DB
331
4642
  5
4644
331
4429
  5
442B
331
47FB
  5
47FE
331
4664
  5
4666
331
444B
  5
444D
331
4686
  5
4688
331
4EFF
  5
4F01
331
46A8
  5
46AA
331
449F
  5
44A1
331
46C2
  5
46C4
331
45D3
  5
45D5
331
476E
  5
4770
331
45F5
  5
45F7
331
4617
  5
4619
331
436E
  5
4370
331
434C
  5
434E
331
42E6
  5
42E6
331
42C4
  5
42C4
331
42AA
  5
42AA
331
4288
  5
4288
331
47EA
  5
47EC
331
4653
  5
4655
331
4675
  5
4677
331
445C
  5
445E
331
4697
  5
4699
331
447E
  5
4480
331
42F7
  5
42F9
331
42D5
  5
42D5
331
4299
  5
4299
331
4277
  5
4277
331
45C0
  5
45C2
331
45E2
  5
45E4
331
4331
  5
4333
331
477D
  5
4782
331
4604
  5
4606
331
435B
  5
435D
331
4626
  5
4628
331
47D7
  5
47D9
331
4640
  5
4642
331
4427
  5
4429
331
47F9
  5
47FB
331
4449
  5
444B
331
42A8
  5
42A8
331
4286
  5
4286
331
4F12
  5
4F23
331
4662
  5
4664
331
4833
  5
4EA1
331
4684
  5
4686
331
46A6
  5
46A8
331
449D
  5
449F
331
46C0
  5
46C2
331
45D1
  5
45D3
331
45F3
  5
45F5
331
4615
  5
4617
331
436C
  5
436E
331
434A
  5
434C
331
42E4
  5
42E4
331
42C2
  5
42C2
331
47E8
  5
47EA
331
4651
  5
4653
331
4673
  5
4675
331
445A
  5
445C
331
4695
  5
4697
331
447C
  5
447E
331
44AE
  5
44B0
331
42F5
  5
42F6
331
42D3
  5
42D3
331
4297
  5
4297
331
4275
  5
4275
331
413A
  5
413A
331
45E0
  5
45E2
331
477B
  5
477D
331
4602
  5
4604
331
4359
  5
435B
331
4624
  5
4626
331
47D5
  5
47D7
331
463E
  5
4640
331
47F7
  5
47F9
331
4F10
  5
4F12
331
4447
  5
4449
331
4660
  5
4662
331
4682
  5
4684
331
46A4
  5
46A6
331
449B
  5
449D
331
46BE
  5
46C0
331
4304
  5
4306
331
46E0
  5
476D
331
45CF
  5
45D1
331
4326
  5
4330
331
45F1
  5
45F3
331
4613
  5
4615
331
436A
  5
436C
331
4348
  5
434A
331
42E2
  5
42E2
331
42C0
  5
42C0
331
42A6
  5
42A6
331
4284
  5
4284
331
4635
  5
4638
331
47E6
  5
47E8
331
464F
  5
4651
331
4F29
  5
4F55
331
4458
  5
445A
331
4671
  5
4673
331
4693
  5
4695
331
447A
  5
447C
331
44AC
  5
44AE
331
42F3
  5
42F4
331
42D1
  5
42D1
331
42B7
  5
42B7
331
4295
  5
4295
331
4273
  5
4273
331
4779
  5
477B
331
4600
  5
4602
331
4622
  5
4624
331
47D3
  5
47D5
331
463C
  5
463E
331
47F5
  5
47F7
331
4F0E
  5
4F10
331
4445
  5
4447
331
465E
  5
4660
331
4680
  5
4682
331
4467
  5
446F
331
46A2
  5
46A4
331
4499
  5
449B
331
46BC
  5
46BE
331
4302
  5
4304
331
46DE
  5
46E0
331
45CD
  5
45CF
331
4324
  5
4326
331
45EF
  5
45F1
331
4611
  5
4613
331
4368
  5
436A
331
4346
  5
4348
331
42E0
  5
42E0
331
42BE
  5
42BE
331
42A4
  5
42A4
331
4282
  5
4282
331
4633
  5
4635
331
47E4
  5
47E6
331
464D
  5
464F
331
4F27
  5
4F29
331
4456
  5
4458
331
466F
  5
4671
331
4691
  5
4693
331
4478
  5
447A
331
44AA
  5
44AC
331
4313
  5
4315
331
42F1
  5
42F2
331
4357
  5
4359
331
45DE
  5
45E0
331
42CF
  5
42CF
331
42B5
  5
42B5
331
4293
  5
4293
331
4271
  5
4271
331
4620
  5
4622
331
47D1
  5
47D3
331
463A
  5
463C
331
47F3
  5
47F5
331
4F0C
  5
4F0E
331
4443
  5
4445
331
465C
  5
465E
331
482D
  5
4833
331
467E
  5
4680
331
4465
  5
4467
331
46A0
  5
46A2
331
4300
  5
4302
331
46DC
  5
46DE
331
45CB
  5
45CD
331
4322
  5
4324
331
45ED
  5
45EF
331
460F
  5
4611
331
4366
  5
4368
331
4344
  5
4346
331
42DE
  5
42DE
331
42BC
  5
42BC
331
42A2
  5
42A2
331
4280
  5
4280
331
4788
  5
47D1
331
4631
  5
4633
331
47E2
  5
47E4
331
464B
  5
464D
331
4432
  5
4442
331
4804
  5
482E
331
4F25
  5
4F27
331
4454
  5
4456
331
466D
  5
466F
331
468F
  5
4691
331
4476
  5
4478
331
44A8
  5
44AA
331
4311
  5
4313
331
45DC
  5
45DE
331
4777
  5
4779
331
45FE
  5
4600
331
4355
  5
4357
331
42EF
  5
42EF
331
42CD
  5
42CD
331
42B3
  5
42B3
331
4291
  5
4291
331
426F
  5
426F
331
4638
  5
463A
331
4F0A
  5
4F0C
331
47F1
  5
47F3
331
465A
  5
465C
331
467C
  5
467E
331
4463
  5
4465
331
469E
  5
46A0
331
4485
  5
449A
331
45C9
  5
45CB
331
4320
  5
4322
331
45EB
  5
45ED
331
4342
  5
4344
331
460D
  5
460F
331
4364
  5
4366
331
42DC
  5
42DC
331
42BA
  5
42BA
331
42A0
  5
42A0
331
462F
  5
4631
331
47E0
  5
47E2
331
4649
  5
464B
331
4430
  5
4432
331
4802
  5
4804
331
4F23
  5
4F25
331
4452
  5
4454
331
466B
  5
466D
331
468D
  5
468F
331
4F06
  5
4F08
331
46AF
  5
46B1
331
44A6
  5
44A8
331
45DA
  5
45DC
331
4775
  5
4777
331
45FC
  5
45FE
331
461E
  5
4620
331
4353
  5
4355
331
42ED
  5
42ED
331
42CB
  5
42CB
331
42B1
  5
42B1
331
428F
  5
428F
331
427E
  5
427E
331
426D
  5
426D
331
4F08
  5
4F0A
331
4658
  5
465A
331
467A
  5
467C
331
4461
  5
4463
331
469C
  5
469E
331
4483
  5
4485
331
46B6
  5
46B8
331
44B5
  5
45BC
331
46D8
  5
46DA
331
45C7
  5
45C9
331
462D
  5
462F
331
460B
  5
460D
331
4362
  5
4364
331
45E9
  5
45EB
331
42DA
  5
42DA
331
42B8
  5
42B8
331
47DE
  5
47E0
331
4647
  5
4649
331
442E
  5
4430
331
4800
  5
4802
331
4669
  5
466B
331
4450
  5
4452
331
468B
  5
468D
331
4F04
  5
4F06
331
46AD
  5
46AF
331
45BE
  5
45C0
331
430D
  5
430F
331
45D8
  5
45DA
331
432F
  5
4331
331
4773
  5
4775
331
45FA
  5
45FC
331
461C
  5
461E
331
4351
  5
4353
331
42EB
  5
42EB
331
42C9
  5
42C9
331
42AF
  5
42AF
331
428D
  5
428D
331
47EF
  5
47F1
331
429E
  5
429E
331
427C
  5
427C
331
4678
  5
467A
331
4EA1
  5
4F00
331
469A
  5
469C
331
4481
  5
4483
331
46B4
  5
46B6
331
42FA
  5
42FD
331
46D6
  5
46D8
331
45C5
  5
45C7
331
45E7
  5
45E9
331
4782
  5
4788
331
4609
  5
460B
331
4360
  5
4362
331
462B
  5
462D
331
4336
  5
4342
331
42D8
  5
42D8
331
47DC
  5
47DE
331
4645
  5
4647
331
442C
  5
442E
331
47FE
  5
4800
331
4667
  5
4669
331
444E
  5
4450
331
4689
  5
468B
331
4470
  5
4476
331
4F02
  5
4F04
331
46AB
  5
46AD
331
46C5
  5
46C7
331
45BC
  5
45BE
331
45D6
  5
45D8
331
4771
  5
4774
331
45F8
  5
45FA
331
461A
  5
461C
331
4371
  5
4428
331
434F
  5
4351
331
42E9
  5
42E9
331
42C7
  5
42C7
331
42AD
  5
42AD
331
428B
  5
428B
331
47ED
  5
47F0
331
4656
  5
4658
331
445F
  5
4461
331
429C
  5
429C
331
427A
  5
427A
  0
XRECORD
  5
3D91
102
{ACAD_REACTORS
330
3D20
102
}
330
3D20
100
AcDbXrecord
280
     1
340
1A
  0
GROUP
  5
4143
102
{ACAD_REACTORS
330
D
102
}
330
D
100
AcDbGroup
300

 70
     1
 71
     1
  0
GROUP
  5
4237
102
{ACAD_REACTORS
330
D
102
}
330
D
100
AcDbGroup
300

 70
     1
 71
     1
  0
GROUP
  5
4238
102
{ACAD_REACTORS
330
D
102
}
330
D
100
AcDbGroup
300

 70
     1
 71
     1
  0
GROUP
  5
43C0
102
{ACAD_REACTORS
330
D
102
}
330
D
100
AcDbGroup
300

 70
     1
 71
     1
  0
GROUP
  5
423C
102
{ACAD_REACTORS
330
D
102
}
330
D
100
AcDbGroup
300

 70
     1
 71
     1
  0
GROUP
  5
4240
102
{ACAD_REACTORS
330
D
102
}
330
D
100
AcDbGroup
300

 70
     1
 71
     1
  0
GROUP
  5
4373
102
{ACAD_REACTORS
330
D
102
}
330
D
100
AcDbGroup
300

 70
     1
 71
     1
  0
GROUP
  5
43BD
102
{ACAD_REACTORS
330
D
102
}
330
D
100
AcDbGroup
300

 70
     1
 71
     1
  0
GROUP
  5
423D
102
{ACAD_REACTORS
330
D
102
}
330
D
100
AcDbGroup
300

 70
     1
 71
     1
  0
GROUP
  5
423E
102
{ACAD_REACTORS
330
D
102
}
330
D
100
AcDbGroup
300

 70
     1
 71
     1
  0
GROUP
  5
423F
102
{ACAD_REACTORS
330
D
102
}
330
D
100
AcDbGroup
300

 70
     1
 71
     1
  0
GROUP
  5
414A
102
{ACAD_REACTORS
330
D
102
}
330
D
100
AcDbGroup
300

 70
     1
 71
     1
  0
GROUP
  5
4374
102
{ACAD_REACTORS
330
D
102
}
330
D
100
AcDbGroup
300

 70
     1
 71
     1
  0
GROUP
  5
4377
102
{ACAD_REACTORS
330
D
102
}
330
D
100
AcDbGroup
300

 70
     1
 71
     1
  0
GROUP
  5
4379
102
{ACAD_REACTORS
330
D
102
}
330
D
100
AcDbGroup
300

 70
     1
 71
     1
  0
GROUP
  5
43C1
102
{ACAD_REACTORS
330
D
102
}
330
D
100
AcDbGroup
300

 70
     1
 71
     1
  0
GROUP
  5
4375
102
{ACAD_REACTORS
330
D
102
}
330
D
100
AcDbGroup
300

 70
     1
 71
     1
  0
GROUP
  5
4145
102
{ACAD_REACTORS
330
D
102
}
330
D
100
AcDbGroup
300

 70
     1
 71
     1
  0
GROUP
  5
4376
102
{ACAD_REACTORS
330
D
102
}
330
D
100
AcDbGroup
300

 70
     1
 71
     1
  0
GROUP
  5
437A
102
{ACAD_REACTORS
330
D
102
}
330
D
100
AcDbGroup
300

 70
     1
 71
     1
  0
GROUP
  5
437D
102
{ACAD_REACTORS
330
D
102
}
330
D
100
AcDbGroup
300

 70
     1
 71
     1
  0
GROUP
  5
437F
102
{ACAD_REACTORS
330
D
102
}
330
D
100
AcDbGroup
300

 70
     1
 71
     1
  0
GROUP
  5
414B
102
{ACAD_REACTORS
330
D
102
}
330
D
100
AcDbGroup
300

 70
     1
 71
     1
  0
GROUP
  5
437B
102
{ACAD_REACTORS
330
D
102
}
330
D
100
AcDbGroup
300

 70
     1
 71
     1
  0
GROUP
  5
414D
102
{ACAD_REACTORS
330
D
102
}
330
D
100
AcDbGroup
300

 70
     1
 71
     1
  0
GROUP
  5
437C
102
{ACAD_REACTORS
330
D
102
}
330
D
100
AcDbGroup
300

 70
     1
 71
     1
  0
GROUP
  5
4146
102
{ACAD_REACTORS
330
D
102
}
330
D
100
AcDbGroup
300

 70
     1
 71
     1
  0
GROUP
  5
43B7
102
{ACAD_REACTORS
330
D
102
}
330
D
100
AcDbGroup
300

 70
     1
 71
     1
  0
GROUP
  5
43B9
102
{ACAD_REACTORS
330
D
102
}
330
D
100
AcDbGroup
300

 70
     1
 71
     1
  0
GROUP
  5
43B5
102
{ACAD_REACTORS
330
D
102
}
330
D
100
AcDbGroup
300

 70
     1
 71
     1
  0
GROUP
  5
423A
102
{ACAD_REACTORS
330
D
102
}
330
D
100
AcDbGroup
300

 70
     1
 71
     1
  0
GROUP
  5
43B6
102
{ACAD_REACTORS
330
D
102
}
330
D
100
AcDbGroup
300

 70
     1
 71
     1
  0
GROUP
  5
414E
102
{ACAD_REACTORS
330
D
102
}
330
D
100
AcDbGroup
300

 70
     1
 71
     1
  0
GROUP
  5
43BC
102
{ACAD_REACTORS
330
D
102
}
330
D
100
AcDbGroup
300

 70
     1
 71
     1
  0
GROUP
  5
43BE
102
{ACAD_REACTORS
330
D
102
}
330
D
100
AcDbGroup
300

 70
     1
 71
     1
  0
GROUP
  5
43BA
102
{ACAD_REACTORS
330
D
102
}
330
D
100
AcDbGroup
300

 70
     1
 71
     1
  0
GROUP
  5
4241
102
{ACAD_REACTORS
330
D
102
}
330
D
100
AcDbGroup
300

 70
     1
 71
     1
  0
GROUP
  5
43BB
102
{ACAD_REACTORS
330
D
102
}
330
D
100
AcDbGroup
300

 70
     1
 71
     1
  0
GROUP
  5
4144
102
{ACAD_REACTORS
330
D
102
}
330
D
100
AcDbGroup
300

 70
     1
 71
     1
  0
GROUP
  5
4148
102
{ACAD_REACTORS
330
D
102
}
330
D
100
AcDbGroup
300

 70
     1
 71
     1
  0
GROUP
  5
4147
102
{ACAD_REACTORS
330
D
102
}
330
D
100
AcDbGroup
300

 70
     1
 71
     1
  0
GROUP
  5
4378
102
{ACAD_REACTORS
330
D
102
}
330
D
100
AcDbGroup
300

 70
     1
 71
     1
  0
GROUP
  5
43BF
102
{ACAD_REACTORS
330
D
102
}
330
D
100
AcDbGroup
300

 70
     1
 71
     1
  0
GROUP
  5
414C
102
{ACAD_REACTORS
330
D
102
}
330
D
100
AcDbGroup
300

 70
     1
 71
     1
  0
GROUP
  5
4235
102
{ACAD_REACTORS
330
D
102
}
330
D
100
AcDbGroup
300

 70
     1
 71
     1
  0
GROUP
  5
414F
102
{ACAD_REACTORS
330
D
102
}
330
D
100
AcDbGroup
300

 70
     1
 71
     1
  0
GROUP
  5
437E
102
{ACAD_REACTORS
330
D
102
}
330
D
100
AcDbGroup
300

 70
     1
 71
     1
  0
GROUP
  5
4149
102
{ACAD_REACTORS
330
D
102
}
330
D
100
AcDbGroup
300

 70
     1
 71
     1
  0
GROUP
  5
4239
102
{ACAD_REACTORS
330
D
102
}
330
D
100
AcDbGroup
300

 70
     1
 71
     1
  0
GROUP
  5
423B
102
{ACAD_REACTORS
330
D
102
}
330
D
100
AcDbGroup
300

 70
     1
 71
     1
  0
GROUP
  5
43B8
102
{ACAD_REACTORS
330
D
102
}
330
D
100
AcDbGroup
300

 70
     1
 71
     1
  0
GROUP
  5
4236
102
{ACAD_REACTORS
330
D
102
}
330
D
100
AcDbGroup
300

 70
     1
 71
     1
  0
LAYOUT
  5
21
102
{ACAD_XDICTIONARY
360
4FA3
102
}
102
{ACAD_REACTORS
330
19
102
}
330
19
100
AcDbPlotSettings
  1

  2
HP 2200
  4

  6

 40
0.0
 41
0.0
 42
0.0
 43
0.0
 44
0.0
 45
0.0
 46
0.0
 47
0.0
 48
0.0
 49
0.0
140
0.0
141
0.0
142
1.0
143
1.0
 70
  1712
 72
     0
 73
     0
 74
     0
  7
AAA.ctb
 75
     0
147
1.0
148
0.0
149
0.0
100
AcDbLayout
  1
Model
 70
     1
 71
     0
 10
0.0
 20
0.0
 11
12.0
 21
9.0
 12
0.0
 22
0.0
 32
0.0
 14
0.0
 24
0.0
 34
0.0
 15
0.0
 25
0.0
 35
0.0
146
0.0
 13
0.0
 23
0.0
 33
0.0
 16
1.0
 26
0.0
 36
0.0
 17
0.0
 27
1.0
 37
0.0
 76
     0
330
1E
331
4F2A
  0
LAYOUT
  5
1D
102
{ACAD_XDICTIONARY
360
4FA1
102
}
102
{ACAD_REACTORS
330
19
102
}
330
19
100
AcDbPlotSettings
  1

  2
HP 2200
  4

  6

 40
0.0
 41
0.0
 42
0.0
 43
0.0
 44
0.0
 45
0.0
 46
0.0
 47
0.0
 48
0.0
 49
0.0
140
0.0
141
0.0
142
1.0
143
1.0
 70
   688
 72
     0
 73
     0
 74
     5
  7
AAA.ctb
 75
    16
147
1.0
148
0.0
149
0.0
100
AcDbLayout
  1
配置1
 70
     0
 71
     1
 10
0.0
 20
0.0
 11
12.0
 21
9.0
 12
0.0
 22
0.0
 32
0.0
 14
1.000000000000000E+20
 24
1.000000000000000E+20
 34
1.000000000000000E+20
 15
-1.000000000000000E+20
 25
-1.000000000000000E+20
 35
-1.000000000000000E+20
146
0.0
 13
0.0
 23
0.0
 33
0.0
 16
1.0
 26
0.0
 36
0.0
 17
0.0
 27
1.0
 37
0.0
 76
     0
330
1A
  0
MATERIAL
  5
4F36
102
{ACAD_XDICTIONARY
360
4FAB
102
}
102
{ACAD_REACTORS
330
3D96
102
}
330
3D96
100
AcDbMaterial
  1
ByBlock
  0
MATERIAL
  5
4F35
102
{ACAD_XDICTIONARY
360
4FA9
102
}
102
{ACAD_REACTORS
330
3D96
102
}
330
3D96
100
AcDbMaterial
  1
ByLayer
  0
MATERIAL
  5
4F37
102
{ACAD_XDICTIONARY
360
4FAD
102
}
102
{ACAD_REACTORS
330
3D96
102
}
330
3D96
100
AcDbMaterial
  1
Global
  0
MLINESTYLE
  5
17
102
{ACAD_REACTORS
330
16
102
}
330
16
100
AcDbMlineStyle
  2
STANDARD
 70
     0
  3

 62
   256
 51
90.0
 52
90.0
 71
     2
 49
0.5
 62
   256
  6
BYLAYER
 49
-0.5
 62
   256
  6
BYLAYER
  0
PLOTSETTINGS
  5
4150
102
{ACAD_XDICTIONARY
360
4FA5
102
}
102
{ACAD_REACTORS
330
18
102
}
330
18
100
AcDbPlotSettings
  1
LANSRO
  2
\\1260\HP2200
  4
A4
  6

 40
6.043083190917968
 41
6.762742042541503
 42
7.736419677734375
 43
5.027069091796875
 44
209.9733276367187
 45
296.9683227539062
 46
5.15
 47
0.0
 48
0.0
 49
0.0
140
0.0
141
0.0
142
1.0
143
0.8829829263240881
 70
  1716
 72
     1
 73
     1
 74
     0
  7
AAA.ctb
 75
     0
147
1.132524729739748
148
-132.297014905803
149
-71.78507365635891
  0
ACDBPLACEHOLDER
  5
F
102
{ACAD_REACTORS
330
E
102
}
330
E
  0
TABLESTYLE
  5
4843
102
{ACAD_XDICTIONARY
360
4FA7
102
}
102
{ACAD_REACTORS
330
4842
102
}
330
4842
100
AcDbTableStyle
  3
Standard
 70
     0
 71
     0
 40
0.06
 41
0.06
280
     0
281
     0
  7
STANDARD
140
0.18
170
     2
 62
     0
 63
     7
283
     0
274
    -2
284
     1
 64
     0
275
    -2
285
     1
 65
     0
276
    -2
286
     1
 66
     0
277
    -2
287
     1
 67
     0
278
    -2
288
     1
 68
     0
279
    -2
289
     1
 69
     0
  7
STANDARD
140
0.25
170
     5
 62
     0
 63
     7
283
     0
274
    -2
284
     1
 64
     0
275
    -2
285
     1
 65
     0
276
    -2
286
     1
 66
     0
277
    -2
287
     1
 67
     0
278
    -2
288
     1
 68
     0
279
    -2
289
     1
 69
     0
  7
STANDARD
140
0.18
170
     5
 62
     0
 63
     7
283
     0
274
    -2
284
     1
 64
     0
275
    -2
285
     1
 65
     0
276
    -2
286
     1
 66
     0
277
    -2
287
     1
 67
     0
278
    -2
288
     1
 68
     0
279
    -2
289
     1
 69
     0
1001
ACAD
1000
AcRTDxfName
1000
TABLESTYLE
  0
VISUALSTYLE
  5
4F3E
102
{ACAD_REACTORS
330
4F38
102
}
330
4F38
100
AcDbVisualStyle
  2
2dWireframe
 70
     4
 71
     0
 72
     2
 73
     0
 90
        0
 40
-0.6
 41
-30.0
 62
     5
 63
     7
 74
     1
 91
        4
 64
     7
 65
   257
 75
     1
175
     1
 42
1.0
 92
        0
 66
   257
 43
1.0
 76
     1
 77
     6
 78
     2
 67
     7
 79
     5
170
     0
171
     0
290
     0
174
     0
 93
        1
 44
0.0
173
     0
291
     0
 45
0.0
1001
ACAD
1000
AcDbSavedByObjectVersion
1070
     0
  0
VISUALSTYLE
  5
4F40
102
{ACAD_REACTORS
330
4F38
102
}
330
4F38
100
AcDbVisualStyle
  2
3D Hidden
 70
     6
 71
     1
 72
     2
 73
     2
 90
        0
 40
-0.6
 41
-30.0
 62
     5
 63
     7
 74
     2
 91
        2
 64
     7
 65
   257
 75
     2
175
     1
 42
40.0
 92
        0
 66
   257
 43
1.0
 76
     1
 77
     6
 78
     2
 67
     7
 79
     3
170
     0
171
     0
290
     0
174
     0
 93
        1
 44
0.0
173
     0
291
     0
 45
0.0
1001
ACAD
1000
AcDbSavedByObjectVersion
1070
     0
  0
VISUALSTYLE
  5
4F3F
102
{ACAD_REACTORS
330
4F38
102
}
330
4F38
100
AcDbVisualStyle
  2
3dWireframe
 70
     5
 71
     0
 72
     2
 73
     0
 90
        0
 40
-0.6
 41
-30.0
 62
     5
 63
     7
 74
     1
 91
        4
 64
     7
 65
   257
 75
     1
175
     1
 42
1.0
 92
        0
 66
   257
 43
1.0
 76
     1
 77
     6
 78
     2
 67
     7
 79
     5
170
     0
171
     0
290
     0
174
     0
 93
        1
 44
0.0
173
     0
291
     0
 45
0.0
1001
ACAD
1000
AcDbSavedByObjectVersion
1070
     0
  0
VISUALSTYLE
  5
4F3D
102
{ACAD_REACTORS
330
4F38
102
}
330
4F38
100
AcDbVisualStyle
  2
Basic
 70
     7
 71
     1
 72
     0
 73
     1
 90
        0
 40
-0.6
 41
-30.0
 62
     5
 63
     7
 74
     0
 91
        4
 64
     7
 65
   257
 75
     1
175
     1
 42
1.0
 92
        8
 66
     7
 43
1.0
 76
     1
 77
     6
 78
     2
 67
     7
 79
     5
170
     0
171
     0
290
     0
174
     0
 93
        1
 44
0.0
173
     0
291
     1
 45
0.0
1001
ACAD
1000
AcDbSavedByObjectVersion
1070
     0
  0
VISUALSTYLE
  5
4F44
102
{ACAD_REACTORS
330
4F38
102
}
330
4F38
100
AcDbVisualStyle
  2
Brighten
 70
    12
 71
     2
 72
     2
 73
     0
 90
        0
 40
-0.6
 41
-30.0
 62
     5
 63
     7
 74
     1
 91
        4
 64
     7
 65
   257
 75
     1
175
     1
 42
1.0
 92
        8
 66
     7
 43
1.0
 76
     1
 77
     6
 78
     2
 67
     7
 79
     5
170
     0
171
     0
290
     0
174
     0
 93
        1
 44
50.0
173
     0
291
     1
 45
0.0
1001
ACAD
1000
AcDbSavedByObjectVersion
1070
     0
  0
VISUALSTYLE
  5
4F48
102
{ACAD_REACTORS
330
4F38
102
}
330
4F38
100
AcDbVisualStyle
  2
ColorChange
 70
    16
 71
     2
 72
     2
 73
     3
 90
        0
 40
-0.6
 41
-30.0
 62
     5
 63
     8
 74
     1
 91
        4
 64
     7
 65
   257
 75
     1
175
     1
 42
1.0
 92
        8
 66
     8
 43
1.0
 76
     1
 77
     6
 78
     2
 67
     7
 79
     5
170
     0
171
     0
290
     0
174
     0
 93
        1
 44
0.0
173
     0
291
     1
 45
0.0
1001
ACAD
1000
AcDbSavedByObjectVersion
1070
     0
  0
VISUALSTYLE
  5
4F41
102
{ACAD_REACTORS
330
4F38
102
}
330
4F38
100
AcDbVisualStyle
  2
Conceptual
 70
     9
 71
     3
 72
     2
 73
     0
 90
        0
 40
-0.6
 41
-30.0
 62
     5
 63
     7
 74
     2
 91
        2
 64
     7
 65
   257
 75
     1
175
     1
 42
40.0
 92
        8
 66
     7
 43
1.0
 76
     1
 77
     6
 78
     2
 67
     7
 79
     3
170
     0
171
     0
290
     0
174
     0
 93
        1
 44
0.0
173
     0
291
     0
 45
0.0
1001
ACAD
1000
AcDbSavedByObjectVersion
1070
     0
  0
VISUALSTYLE
  5
4F43
102
{ACAD_REACTORS
330
4F38
102
}
330
4F38
100
AcDbVisualStyle
  2
Dim
 70
    11
 71
     2
 72
     2
 73
     0
 90
        0
 40
-0.6
 41
-30.0
 62
     5
 63
     7
 74
     1
 91
        4
 64
     7
 65
   257
 75
     1
175
     1
 42
1.0
 92
        8
 66
     7
 43
1.0
 76
     1
 77
     6
 78
     2
 67
     7
 79
     5
170
     0
171
     0
290
     0
174
     0
 93
        1
 44
-50.0
173
     0
291
     1
 45
0.0
1001
ACAD
1000
AcDbSavedByObjectVersion
1070
     0
  0
VISUALSTYLE
  5
4F47
102
{ACAD_REACTORS
330
4F38
102
}
330
4F38
100
AcDbVisualStyle
  2
Facepattern
 70
    15
 71
     2
 72
     2
 73
     0
 90
        0
 40
-0.6
 41
-30.0
 62
     5
 63
     7
 74
     1
 91
        4
 64
     7
 65
   257
 75
     1
175
     1
 42
1.0
 92
        8
 66
     7
 43
1.0
 76
     1
 77
     6
 78
     2
 67
     7
 79
     5
170
     0
171
     0
290
     0
174
     0
 93
        1
 44
0.0
173
     0
291
     1
 45
0.0
1001
ACAD
1000
AcDbSavedByObjectVersion
1070
     0
  0
VISUALSTYLE
  5
4F39
102
{ACAD_REACTORS
330
4F38
102
}
330
4F38
100
AcDbVisualStyle
  2
Flat
 70
     0
 71
     2
 72
     1
 73
     1
 90
        2
 40
-0.6
 41
30.0
 62
     5
 63
     7
 74
     0
 91
        4
 64
     7
 65
   257
 75
     1
175
     1
 42
1.0
 92
        8
 66
     7
 43
1.0
 76
     1
 77
     6
 78
     2
 67
     7
 79
     5
170
     0
171
     0
290
     0
174
     0
 93
       13
 44
0.0
173
     0
291
     1
 45
0.0
1001
ACAD
1000
AcDbSavedByObjectVersion
1070
     0
  0
VISUALSTYLE
  5
4F3A
102
{ACAD_REACTORS
330
4F38
102
}
330
4F38
100
AcDbVisualStyle
  2
FlatWithEdges
 70
     1
 71
     2
 72
     1
 73
     1
 90
        2
 40
-0.6
 41
30.0
 62
     5
 63
     7
 74
     1
 91
        4
 64
     7
 65
   257
 75
     1
175
     1
 42
1.0
 92
        0
 66
   257
 43
1.0
 76
     1
 77
     6
 78
     2
 67
     7
 79
     5
170
     0
171
     0
290
     0
174
     0
 93
       13
 44
0.0
173
     0
291
     1
 45
0.0
1001
ACAD
1000
AcDbSavedByObjectVersion
1070
     0
  0
VISUALSTYLE
  5
4F3B
102
{ACAD_REACTORS
330
4F38
102
}
330
4F38
100
AcDbVisualStyle
  2
Gouraud
 70
     2
 71
     2
 72
     2
 73
     1
 90
        2
 40
-0.6
 41
30.0
 62
     5
 63
     7
 74
     0
 91
        4
 64
     7
 65
   257
 75
     1
175
     1
 42
1.0
 92
        0
 66
     7
 43
1.0
 76
     1
 77
     6
 78
     2
 67
     7
 79
     5
170
     0
171
     0
290
     0
174
     0
 93
       13
 44
0.0
173
     0
291
     1
 45
0.0
1001
ACAD
1000
AcDbSavedByObjectVersion
1070
     0
  0
VISUALSTYLE
  5
4F3C
102
{ACAD_REACTORS
330
4F38
102
}
330
4F38
100
AcDbVisualStyle
  2
GouraudWithEdges
 70
     3
 71
     2
 72
     2
 73
     1
 90
        2
 40
-0.6
 41
30.0
 62
     5
 63
     7
 74
     1
 91
        4
 64
     7
 65
   257
 75
     1
175
     1
 42
1.0
 92
        0
 66
   257
 43
1.0
 76
     1
 77
     6
 78
     2
 67
     7
 79
     5
170
     0
171
     0
290
     0
174
     0
 93
       13
 44
0.0
173
     0
291
     1
 45
0.0
1001
ACAD
1000
AcDbSavedByObjectVersion
1070
     0
  0
VISUALSTYLE
  5
4F46
102
{ACAD_REACTORS
330
4F38
102
}
330
4F38
100
AcDbVisualStyle
  2
Linepattern
 70
    14
 71
     2
 72
     2
 73
     0
 90
        0
 40
-0.6
 41
-30.0
 62
     5
 63
     7
 74
     1
 91
        4
 64
     7
 65
   257
 75
     7
175
     7
 42
1.0
 92
        8
 66
     7
 43
1.0
 76
     1
 77
     6
 78
     2
 67
     7
 79
     5
170
     0
171
     0
290
     0
174
     0
 93
        1
 44
0.0
173
     0
291
     1
 45
0.0
1001
ACAD
1000
AcDbSavedByObjectVersion
1070
     0
  0
VISUALSTYLE
  5
4F42
102
{ACAD_REACTORS
330
4F38
102
}
330
4F38
100
AcDbVisualStyle
  2
Realistic
 70
     8
 71
     2
 72
     2
 73
     0
 90
        0
 40
-0.6
 41
-30.0
 62
     5
 63
     7
 74
     1
 91
        0
 64
     7
 65
   257
 75
     1
175
     1
 42
1.0
 92
        8
 66
     8
 43
1.0
 76
     1
 77
     6
 78
     2
 67
     7
 79
     5
170
     0
171
     0
290
     0
174
     0
 93
       13
 44
0.0
173
     0
291
     0
 45
0.0
1001
ACAD
1000
AcDbSavedByObjectVersion
1070
     0
  0
VISUALSTYLE
  5
4F45
102
{ACAD_REACTORS
330
4F38
102
}
330
4F38
100
AcDbVisualStyle
  2
Thicken
 70
    13
 71
     2
 72
     2
 73
     0
 90
        0
 40
-0.6
 41
-30.0
 62
     5
 63
     7
 74
     1
 91
        4
 64
     7
 65
   257
 75
     1
175
     1
 42
1.0
 92
       12
 66
     7
 43
1.0
 76
     1
 77
     6
 78
     2
 67
     7
 79
     5
170
     0
171
     0
290
     0
174
     0
 93
        1
 44
0.0
173
     0
291
     1
 45
0.0
1001
ACAD
1000
AcDbSavedByObjectVersion
1070
     0
  0
DICTIONARYVAR
  5
4E99
102
{ACAD_REACTORS
330
3E63
102
}
330
3E63
100
DictionaryVariables
280
     0
  1
STANDARD
  0
DICTIONARYVAR
  5
3E64
102
{ACAD_REACTORS
330
3E63
102
}
330
3E63
100
DictionaryVariables
280
     0
  1
1
  0
DICTIONARYVAR
  5
4F9F
102
{ACAD_REACTORS
330
3E63
102
}
330
3E63
100
DictionaryVariables
280
     0
  1
0
  0
DICTIONARYVAR
  5
3E65
102
{ACAD_REACTORS
330
3E63
102
}
330
3E63
100
DictionaryVariables
280
     0
  1

  0
DICTIONARYVAR
  5
4F9E
102
{ACAD_REACTORS
330
3E63
102
}
330
3E63
100
DictionaryVariables
280
     0
  1
127
  0
DICTIONARY
  5
4FA3
330
21
100
AcDbDictionary
280
     1
281
     1
  3
ACAD_XREC_ROUNDTRIP
360
4FA4
  0
DICTIONARY
  5
4FA1
330
1D
100
AcDbDictionary
280
     1
281
     1
  3
ACAD_XREC_ROUNDTRIP
360
4FA2
  0
DICTIONARY
  5
4FAB
330
4F36
100
AcDbDictionary
280
     1
281
     1
  3
ACAD_XREC_ROUNDTRIP
360
4FAC
  0
DICTIONARY
  5
4FA9
330
4F35
100
AcDbDictionary
280
     1
281
     1
  3
ACAD_XREC_ROUNDTRIP
360
4FAA
  0
DICTIONARY
  5
4FAD
330
4F37
100
AcDbDictionary
280
     1
281
     1
  3
ACAD_XREC_ROUNDTRIP
360
4FAE
  0
DICTIONARY
  5
4FA5
330
4150
100
AcDbDictionary
280
     1
281
     1
  3
ACAD_XREC_ROUNDTRIP
360
4FA6
  0
DICTIONARY
  5
4FA7
330
4843
100
AcDbDictionary
280
     1
281
     1
  3
ACAD_XREC_ROUNDTRIP
360
4FA8
  0
XRECORD
  5
4FA4
102
{ACAD_REACTORS
330
4FA3
102
}
330
4FA3
100
AcDbXrecord
280
     1
102
SHADEPLOT
 70
     0
102
SHADEPLOTRESLEVEL
 70
     2
102
SHADEPLOTCUSTOMDPI
 70
   300
  0
XRECORD
  5
4FA2
102
{ACAD_REACTORS
330
4FA1
102
}
330
4FA1
100
AcDbXrecord
280
     1
102
SHADEPLOT
 70
     0
102
SHADEPLOTRESLEVEL
 70
     2
102
SHADEPLOTCUSTOMDPI
 70
   300
  0
XRECORD
  5
4FAC
102
{ACAD_REACTORS
330
4FAB
102
}
330
4FAB
100
AcDbXrecord
280
     1
102
MATERIAL
148
0.0
149
0.0
149
0.0
 93
        0
 94
       63
282
     0
 72
     1
 77
     1
171
     1
175
     1
179
     1
273
     0
  0
XRECORD
  5
4FAA
102
{ACAD_REACTORS
330
4FA9
102
}
330
4FA9
100
AcDbXrecord
280
     1
102
MATERIAL
148
0.0
149
0.0
149
0.0
 93
        0
 94
       63
282
     0
 72
     1
 77
     1
171
     1
175
     1
179
     1
273
     0
  0
XRECORD
  5
4FAE
102
{ACAD_REACTORS
330
4FAD
102
}
330
4FAD
100
AcDbXrecord
280
     1
102
MATERIAL
148
0.0
149
0.0
149
0.0
 93
        0
 94
       63
282
     0
 72
     1
 77
     1
171
     1
175
     1
179
     1
273
     0
  0
XRECORD
  5
4FA6
102
{ACAD_REACTORS
330
4FA5
102
}
330
4FA5
100
AcDbXrecord
280
     1
102
SHADEPLOT
 70
     0
102
SHADEPLOTRESLEVEL
 70
     2
102
SHADEPLOTCUSTOMDPI
 70
   300
  0
XRECORD
  5
4FA8
102
{ACAD_REACTORS
330
4FA7
102
}
330
4FA7
100
AcDbXrecord
280
     1
102
ACAD_ROUNDTRIP_PRE2007_TABLESTYLE
 90
        4
 91
        0
  1

 92
        4
 93
        0
  2

 94
        4
 95
        0
  3

  0
ENDSEC
  0
EOF
