  0
SECTION
  2
HEADER
  9
$ACADVER
  1
AC1014
  9
$ACADMAINTVER
 70
     9
  9
$DWGCODEPAGE
  3
ANSI_1252
  9
$INSBASE
 10
0.0
 20
0.0
 30
0.0
  9
$EXTMIN
 10
21.39978283278901
 20
72.31254332626758
 30
0.0
  9
$EXTMAX
 10
369.1001225364324
 20
101.9724339477888
 30
0.0
  9
$LIMMIN
 10
0.0
 20
0.0
  9
$LIMMAX
 10
420.0
 20
297.0
  9
$ORTHOMODE
 70
     0
  9
$REGENMODE
 70
     1
  9
$FILLMODE
 70
     1
  9
$QTEXTMODE
 70
     0
  9
$MIRRTEXT
 70
     0
  9
$DRAGMODE
 70
     2
  9
$LTSCALE
 40
0.2
  9
$OSMODE
 70
    37
  9
$ATTMODE
 70
     1
  9
$TEXTSIZE
 40
2.5
  9
$TRACEWID
 40
1.0
  9
$TEXTSTYLE
  7
\M+2ABAC\M+2A6A12
  9
$CLAYER
  8
\M+2B5EA\M+2BD75
  9
$CELTYPE
  6
BYLAYER
  9
$CECOLOR
 62
   256
  9
$CELTSCALE
 40
1.0
  9
$DELOBJ
 70
     1
  9
$DISPSILH
 70
     0
  9
$DIMSCALE
 40
1.0
  9
$DIMASZ
 40
1.0
  9
$DIMEXO
 40
0.7
  9
$DIMDLI
 40
3.75
  9
$DIMRND
 40
0.0
  9
$DIMDLE
 40
0.0
  9
$DIMEXE
 40
0.3
  9
$DIMTP
 40
0.0
  9
$DIMTM
 40
0.0
  9
$DIMTXT
 40
1.199999999999999
  9
$DIMCEN
 40
2.5
  9
$DIMTSZ
 40
0.0
  9
$DIMTOL
 70
     0
  9
$DIMLIM
 70
     0
  9
$DIMTIH
 70
     0
  9
$DIMTOH
 70
     0
  9
$DIMSE1
 70
     0
  9
$DIMSE2
 70
     0
  9
$DIMTAD
 70
     1
  9
$DIMZIN
 70
     8
  9
$DIMBLK
  1

  9
$DIMASO
 70
     1
  9
$DIMSHO
 70
     1
  9
$DIMPOST
  1

  9
$DIMAPOST
  1

  9
$DIMALT
 70
     0
  9
$DIMALTD
 70
     3
  9
$DIMALTF
 40
0.03937007874016
  9
$DIMLFAC
 40
1.0
  9
$DIMTOFL
 70
     1
  9
$DIMTVP
 40
0.0
  9
$DIMTIX
 70
     0
  9
$DIMSOXD
 70
     0
  9
$DIMSAH
 70
     0
  9
$DIMBLK1
  1

  9
$DIMBLK2
  1

  9
$DIMSTYLE
  2
ISO-25
  9
$DIMCLRD
 70
     3
  9
$DIMCLRE
 70
     3
  9
$DIMCLRT
 70
     2
  9
$DIMTFAC
 40
1.0
  9
$DIMGAP
 40
0.5
  9
$DIMJUST
 70
     0
  9
$DIMSD1
 70
     0
  9
$DIMSD2
 70
     0
  9
$DIMTOLJ
 70
     0
  9
$DIMTZIN
 70
     8
  9
$DIMALTZ
 70
     0
  9
$DIMALTTZ
 70
     0
  9
$DIMFIT
 70
     3
  9
$DIMUPT
 70
     0
  9
$DIMUNIT
 70
     2
  9
$DIMDEC
 70
     2
  9
$DIMTDEC
 70
     2
  9
$DIMALTU
 70
     2
  9
$DIMALTTD
 70
     3
  9
$DIMTXSTY
  7
STANDARD
  9
$DIMAUNIT
 70
     0
  9
$LUNITS
 70
     2
  9
$LUPREC
 70
     4
  9
$SKETCHINC
 40
1.0
  9
$FILLETRAD
 40
0.0
  9
$AUNITS
 70
     0
  9
$AUPREC
 70
     0
  9
$MENU
  1
.
  9
$ELEVATION
 40
0.0
  9
$PELEVATION
 40
0.0
  9
$THICKNESS
 40
0.0
  9
$LIMCHECK
 70
     0
  9
$BLIPMODE
 70
     0
  9
$CHAMFERA
 40
0.0
  9
$CHAMFERB
 40
0.0
  9
$CHAMFERC
 40
20.0
  9
$CHAMFERD
 40
0.0
  9
$SKPOLY
 70
     0
  9
$TDCREATE
 40
2452648.158040394
  9
$TDUPDATE
 40
2453060.474968228
  9
$TDINDWG
 40
1.1850910532
  9
$TDUSRTIMER
 40
1.1850909375
  9
$USRTIMER
 70
     1
  9
$ANGBASE
 50
0.0
  9
$ANGDIR
 70
     0
  9
$PDMODE
 70
     0
  9
$PDSIZE
 40
0.0
  9
$PLINEWID
 40
0.0
  9
$COORDS
 70
     0
  9
$SPLFRAME
 70
     0
  9
$SPLINETYPE
 70
     6
  9
$SPLINESEGS
 70
    30
  9
$ATTDIA
 70
     0
  9
$ATTREQ
 70
     1
  9
$HANDLING
 70
-16383
  9
$HANDSEED
  5
27604
  9
$SURFTAB1
 70
     6
  9
$SURFTAB2
 70
     6
  9
$SURFTYPE
 70
     6
  9
$SURFU
 70
     6
  9
$SURFV
 70
     6
  9
$UCSNAME
  2

  9
$UCSORG
 10
0.0
 20
0.0
 30
0.0
  9
$UCSXDIR
 10
1.0
 20
0.0
 30
0.0
  9
$UCSYDIR
 10
0.0
 20
1.0
 30
0.0
  9
$PUCSNAME
  2

  9
$PUCSORG
 10
0.0
 20
0.0
 30
0.0
  9
$PUCSXDIR
 10
1.0
 20
0.0
 30
0.0
  9
$PUCSYDIR
 10
0.0
 20
1.0
 30
0.0
  9
$USERI1
 70
     0
  9
$USERI2
 70
     0
  9
$USERI3
 70
     0
  9
$USERI4
 70
     0
  9
$USERI5
 70
     0
  9
$USERR1
 40
0.0
  9
$USERR2
 40
0.0
  9
$USERR3
 40
0.0
  9
$USERR4
 40
0.0
  9
$USERR5
 40
0.0
  9
$WORLDVIEW
 70
     1
  9
$SHADEDGE
 70
     3
  9
$SHADEDIF
 70
    70
  9
$TILEMODE
 70
     1
  9
$MAXACTVP
 70
    48
  9
$PINSBASE
 10
0.0
 20
0.0
 30
0.0
  9
$PLIMCHECK
 70
     0
  9
$PEXTMIN
 10
1.000000000000000E+20
 20
1.000000000000000E+20
 30
1.000000000000000E+20
  9
$PEXTMAX
 10
-1.000000000000000E+20
 20
-1.000000000000000E+20
 30
-1.000000000000000E+20
  9
$PLIMMIN
 10
0.0
 20
0.0
  9
$PLIMMAX
 10
420.0
 20
297.0
  9
$UNITMODE
 70
     0
  9
$VISRETAIN
 70
     1
  9
$PLINEGEN
 70
     0
  9
$PSLTSCALE
 70
     1
  9
$TREEDEPTH
 70
  3020
  9
$PICKSTYLE
 70
     1
  9
$CMLSTYLE
  2
STANDARD
  9
$CMLJUST
 70
     0
  9
$CMLSCALE
 40
20.0
  9
$PROXYGRAPHICS
 70
     1
  9
$MEASUREMENT
 70
     0
  0
ENDSEC
  0
SECTION
  2
CLASSES
  0
CLASS
  1
ACDBDICTIONARYWDFLT
  2
AcDbDictionaryWithDefault
  3
AutoCAD 2000
 90
        0
280
     0
281
     0
  0
CLASS
  1
ACDBPLACEHOLDER
  2
AcDbPlaceHolder
  3
AutoCAD 2000
 90
        0
280
     0
281
     0
  0
CLASS
  1
LAYOUT
  2
AcDbLayout
  3
AutoCAD 2000
 90
        0
280
     0
281
     0
  0
CLASS
  1
DICTIONARYVAR
  2
AcDbDictionaryVar
  3
AutoCAD 2000
 90
        0
280
     0
281
     0
  0
CLASS
  1
PLOTSETTINGS
  2
AcDbPlotSettings
  3
AutoCAD 2000
 90
        0
280
     0
281
     0
  0
CLASS
  1
LONG_TRANSACTION
  2
AcDbLongTransaction
  3
AutoCAD 2000
 90
        0
280
     0
281
     0
  0
CLASS
  1
LWPOLYLINE
  2
AcDbPolyline
  3
AutoCAD 2000
 90
        0
280
     0
281
     1
  0
CLASS
  1
HATCH
  2
AcDbHatch
  3
AutoCAD 2000
 90
        0
280
     0
281
     1
  0
CLASS
  1
XRECORD
  2
AcDbXrecord
  3
AutoCAD 2000
 90
        0
280
     0
281
     0
  0
CLASS
  1
LONG_TRANSACTION
  2
AcDbLongTransaction
  3
AutoCAD 2000
 90
        0
280
     0
281
     0
  0
CLASS
  1
LWPOLYLINE
  2
AcDbPolyline
  3
AutoCAD 2000
 90
        0
280
     0
281
     1
  0
CLASS
  1
HATCH
  2
AcDbHatch
  3
AutoCAD 2000
 90
        0
280
     0
281
     1
  0
CLASS
  1
XRECORD
  2
AcDbXrecord
  3
AutoCAD 2000
 90
        0
280
     0
281
     0
  0
CLASS
  1
LONG_TRANSACTION
  2
AcDbLongTransaction
  3
AutoCAD 2000
 90
        0
280
     0
281
     0
  0
CLASS
  1
LWPOLYLINE
  2
AcDbPolyline
  3
AutoCAD 2000
 90
        0
280
     0
281
     1
  0
CLASS
  1
HATCH
  2
AcDbHatch
  3
AutoCAD 2000
 90
        0
280
     0
281
     1
  0
CLASS
  1
XRECORD
  2
AcDbXrecord
  3
AutoCAD 2000
 90
        0
280
     0
281
     0
  0
CLASS
  1
LONG_TRANSACTION
  2
AcDbLongTransaction
  3
AutoCAD 2000
 90
        0
280
     0
281
     0
  0
CLASS
  1
LWPOLYLINE
  2
AcDbPolyline
  3
AutoCAD 2000
 90
        0
280
     0
281
     1
  0
CLASS
  1
HATCH
  2
AcDbHatch
  3
AutoCAD 2000
 90
        0
280
     0
281
     1
  0
CLASS
  1
XRECORD
  2
AcDbXrecord
  3
AutoCAD 2000
 90
        0
280
     0
281
     0
  0
CLASS
  1
LONG_TRANSACTION
  2
AcDbLongTransaction
  3
AutoCAD 2000
 90
        0
280
     0
281
     0
  0
CLASS
  1
LWPOLYLINE
  2
AcDbPolyline
  3
AutoCAD 2000
 90
        0
280
     0
281
     1
  0
CLASS
  1
HATCH
  2
AcDbHatch
  3
AutoCAD 2000
 90
        0
280
     0
281
     1
  0
CLASS
  1
XRECORD
  2
AcDbXrecord
  3
AutoCAD 2000
 90
        0
280
     0
281
     0
  0
ENDSEC
  0
SECTION
  2
TABLES
  0
TABLE
  2
VPORT
  5
8
330
0
100
AcDbSymbolTable
 70
     2
  0
VPORT
  5
275E1
330
8
100
AcDbSymbolTableRecord
100
AcDbViewportTableRecord
  2
*ACTIVE
 70
     0
 10
0.0
 20
0.0
 11
1.0
 21
1.0
 12
195.2600107263542
 22
87.13861145991669
 13
0.0
 23
0.0
 14
10.0
 24
10.0
 15
10.0
 25
10.0
 16
0.0
 26
0.0
 36
1.0
 17
0.0
 27
0.0
 37
0.0
 40
204.0272575825456
 41
1.714285714285714
 42
50.0
 43
0.0
 44
0.0
 50
0.0
 51
0.0
 71
     0
 72
 20000
 73
     1
 74
     0
 75
     0
 76
     0
 77
     0
 78
     1
  0
ENDTAB
  0
TABLE
  2
LTYPE
  5
5
330
0
100
AcDbSymbolTable
 70
     3
  0
LTYPE
  5
14
330
5
100
AcDbSymbolTableRecord
100
AcDbLinetypeTableRecord
  2
BYBLOCK
 70
     0
  3

 72
    65
 73
     0
 40
0.0
  0
LTYPE
  5
15
330
5
100
AcDbSymbolTableRecord
100
AcDbLinetypeTableRecord
  2
BYLAYER
 70
     0
  3

 72
    65
 73
     0
 40
0.0
  0
LTYPE
  5
16
330
5
100
AcDbSymbolTableRecord
100
AcDbLinetypeTableRecord
  2
CONTINUOUS
 70
     0
  3
Solid line
 72
    65
 73
     0
 40
0.0
  0
LTYPE
  5
2D
330
5
100
AcDbSymbolTableRecord
100
AcDbLinetypeTableRecord
  2
CENTER2
 70
     0
  3
Center (.5x) ___ _ ___ _ ___ _ ___ _ ___ _ ___
 72
    65
 73
     4
 40
28.57499999999999
 49
19.05
 74
     0
 49
-3.174999999999998
 74
     0
 49
3.174999999999998
 74
     0
 49
-3.174999999999998
 74
     0
  0
LTYPE
  5
2E
330
5
100
AcDbSymbolTableRecord
100
AcDbLinetypeTableRecord
  2
DASHED2
 70
     0
  3
Dashed (.5x) _ _ _ _ _ _ _ _ _ _ _ _ _ _ _ _ _
 72
    65
 73
     2
 40
9.524999999999996
 49
6.349999999999998
 74
     0
 49
-3.174999999999998
 74
     0
  0
ENDTAB
  0
TABLE
  2
LAYER
  5
2
102
{ACAD_XDICTIONARY
360
DDEF
102
}
330
0
100
AcDbSymbolTable
 70
     4
  0
LAYER
  5
10
330
2
100
AcDbSymbolTableRecord
100
AcDbLayerTableRecord
  2
0
 70
     0
 62
     7
  6
CONTINUOUS
  0
LAYER
  5
34
330
2
100
AcDbSymbolTableRecord
100
AcDbLayerTableRecord
  2
AM7
 70
     0
 62
     4
  6
CENTER2
  0
LAYER
  5
8B8
330
2
100
AcDbSymbolTableRecord
100
AcDbLayerTableRecord
  2
DEFPOINTS
 70
     0
 62
     7
  6
CONTINUOUS
  0
LAYER
  5
22864
330
2
100
AcDbSymbolTableRecord
100
AcDbLayerTableRecord
  2
\M+2B5EA\M+2BD75
 70
     0
 62
     6
  6
DASHED2
  0
ENDTAB
  0
TABLE
  2
STYLE
  5
3
330
0
100
AcDbSymbolTable
 70
     2
  0
STYLE
  5
11
330
3
100
AcDbSymbolTableRecord
100
AcDbTextStyleTableRecord
  2
STANDARD
 70
     0
 40
0.0
 41
1.0
 50
0.0
 71
     0
 42
2.5
  3
isocp.shx
  4
chineset.shx
  0
STYLE
  5
58
330
3
100
AcDbSymbolTableRecord
100
AcDbTextStyleTableRecord
  2
\M+2ABAC\M+2A6A12
 70
     0
 40
0.0
 41
1.0
 50
0.0
 71
     0
 42
2.5
  3

  4

1001
ACAD
1000
DFKai-SB
1071
    34881
  0
ENDTAB
  0
TABLE
  2
VIEW
  5
6
330
0
100
AcDbSymbolTable
 70
     0
  0
ENDTAB
  0
TABLE
  2
UCS
  5
7
330
0
100
AcDbSymbolTable
 70
     0
  0
ENDTAB
  0
TABLE
  2
APPID
  5
9
330
0
100
AcDbSymbolTable
 70
     3
  0
APPID
  5
12
330
9
100
AcDbSymbolTableRecord
100
AcDbRegAppTableRecord
  2
ACAD
 70
     0
  0
APPID
  5
131A7
330
9
100
AcDbSymbolTableRecord
100
AcDbRegAppTableRecord
  2
CONTENTBLOCKICON
 70
     0
  0
APPID
  5
1B726
330
9
100
AcDbSymbolTableRecord
100
AcDbRegAppTableRecord
  2
TCAD
 70
     0
  0
ENDTAB
  0
TABLE
  2
DIMSTYLE
  5
A
330
0
100
AcDbSymbolTable
 70
     2
  0
DIMSTYLE
105
27
330
A
100
AcDbSymbolTableRecord
100
AcDbDimStyleTableRecord
  2
ISO-25
 70
     0
  3

  4

  5

  6

  7

 40
1.0
 41
1.0
 42
0.7
 43
3.75
 44
0.3
 45
0.0
 46
0.0
 47
0.0
 48
0.0
140
1.199999999999999
141
2.5
142
0.0
143
0.03937007874016
144
1.0
145
0.0
146
1.0
147
0.5
 71
     0
 72
     0
 73
     0
 74
     0
 75
     0
 76
     0
 77
     1
 78
     8
170
     0
171
     3
172
     1
173
     0
174
     0
175
     0
176
     3
177
     3
178
     2
270
     2
271
     2
272
     2
273
     2
274
     3
340
11
275
     0
280
     0
281
     0
282
     0
283
     0
284
     8
285
     0
286
     0
287
     3
288
     0
  0
DIMSTYLE
105
13235
330
A
100
AcDbSymbolTableRecord
100
AcDbDimStyleTableRecord
  2
STANDARD
 70
     0
  3

  4

  5

  6

  7

 40
1.0
 41
0.18
 42
0.0625
 43
0.38
 44
0.18
 45
0.0
 46
0.0
 47
0.0
 48
0.0
140
0.18
141
0.09
142
0.0
143
25.4
144
1.0
145
0.0
146
1.0
147
0.09
 71
     0
 72
     0
 73
     1
 74
     1
 75
     0
 76
     0
 77
     0
 78
     0
170
     0
171
     2
172
     0
173
     0
174
     0
175
     0
176
     0
177
     0
178
     0
270
     2
271
     4
272
     4
273
     2
274
     2
340
11
275
     0
280
     0
281
     0
282
     0
283
     1
284
     0
285
     0
286
     0
287
     3
288
     0
  0
ENDTAB
  0
TABLE
  2
BLOCK_RECORD
  5
1
330
0
100
AcDbSymbolTable
 70
     0
  0
BLOCK_RECORD
  5
1F
102
{ACAD_XDICTIONARY
360
131A3
102
}
330
1
100
AcDbSymbolTableRecord
100
AcDbBlockTableRecord
  2
*MODEL_SPACE
  0
BLOCK_RECORD
  5
1B
102
{ACAD_XDICTIONARY
360
131A1
102
}
330
1
100
AcDbSymbolTableRecord
100
AcDbBlockTableRecord
  2
*PAPER_SPACE
  0
ENDTAB
  0
ENDSEC
  0
SECTION
  2
BLOCKS
  0
BLOCK
  5
20
330
1F
100
AcDbEntity
  8
0
100
AcDbBlockBegin
  2
*MODEL_SPACE
 70
     0
 10
0.0
 20
0.0
 30
0.0
  3
*MODEL_SPACE
  1

  0
ENDBLK
  5
21
330
1F
100
AcDbEntity
  8
0
100
AcDbBlockEnd
  0
BLOCK
  5
1C
330
1B
100
AcDbEntity
 67
     1
  8
0
100
AcDbBlockBegin
  2
*PAPER_SPACE
 70
     0
 10
0.0
 20
0.0
 30
0.0
  3
*PAPER_SPACE
  1

  0
ENDBLK
  5
1D
330
1B
100
AcDbEntity
 67
     1
  8
0
100
AcDbBlockEnd
  0
ENDSEC
  0
SECTION
  2
ENTITIES
  0
TEXT
  5
16C44
330
1F
100
AcDbEntity
  8
0
100
AcDbText
 10
322.4241512953209
 20
78.88889774778272
 30
0.0
 40
13.8518250193501
  1
HGR30R
  7
\M+2ABAC\M+2A6A12
100
AcDbText
  0
LINE
  5
2298D
330
1F
100
AcDbEntity
  8
0
100
AcDbLine
 10
44.61037671628071
 20
100.8133838587241
 30
0.0
 11
45.2274760390444
 21
100.1962845359603
 31
0.0
  0
LINE
  5
229C7
330
1F
100
AcDbEntity
  8
0
100
AcDbLine
 10
27.65066249121912
 20
74.91290962151606
 30
0.0
 11
22.90066249121912
 21
74.91290962151606
 31
0.0
  0
LINE
  5
229CA
330
1F
100
AcDbEntity
  8
0
100
AcDbLine
 10
21.40066249121912
 20
80.21258792152094
 30
0.0
 11
21.40066249121912
 21
76.41290962151606
 31
0.0
  0
LINE
  5
229CB
330
1F
100
AcDbEntity
  8
0
100
AcDbLine
 10
21.40066249121912
 20
76.41290962151606
 30
0.0
 11
22.90066249121912
 21
74.91290962151606
 31
0.0
  0
LINE
  5
229D1
330
1F
100
AcDbEntity
  8
\M+2B5EA\M+2BD75
100
AcDbLine
 10
42.40066249121912
 20
88.91290962151606
 30
0.0
 11
42.40066249121912
 21
100.5129096215161
 31
0.0
  0
LINE
  5
229D2
330
1F
100
AcDbEntity
  8
\M+2B5EA\M+2BD75
100
AcDbLine
 10
28.40066249121912
 20
88.91290962151606
 30
0.0
 11
28.40066249121912
 21
100.5129096215161
 31
0.0
  0
LINE
  5
229D6
330
1F
100
AcDbEntity
  8
\M+2B5EA\M+2BD75
100
AcDbLine
 10
42.40066249121912
 20
88.91290962151606
 30
0.0
 11
28.40066249121912
 21
88.91290962151606
 31
0.0
  0
LINE
  5
229D7
330
1F
100
AcDbEntity
  8
0
100
AcDbLine
 10
42.65066249121912
 20
75.41290962151606
 30
0.0
 11
39.15066249121912
 21
75.41290962151606
 31
0.0
  0
LINE
  5
229D8
330
1F
100
AcDbEntity
  8
\M+2B5EA\M+2BD75
100
AcDbLine
 10
39.90066249121912
 20
75.81290962151616
 30
0.0
 11
39.90066249121912
 21
88.61290962151612
 31
0.0
  0
LINE
  5
229D9
330
1F
100
AcDbEntity
  8
\M+2B5EA\M+2BD75
100
AcDbLine
 10
30.90066249121912
 20
75.81290962151616
 30
0.0
 11
30.90066249121912
 21
88.61290962151612
 31
0.0
  0
LINE
  5
229DA
330
1F
100
AcDbEntity
  8
\M+2B5EA\M+2BD75
100
AcDbLine
 10
39.90066249121912
 20
75.81290962151616
 30
0.0
 11
30.90066249121912
 21
75.81290962151616
 31
0.0
  0
LINE
  5
229DB
330
1F
100
AcDbEntity
  8
0
100
AcDbLine
 10
32.15066249121912
 20
74.91290962151606
 30
0.0
 11
38.65066249121912
 21
74.91290962151606
 31
0.0
  0
LINE
  5
229DC
330
1F
100
AcDbEntity
  8
0
100
AcDbLine
 10
28.15066249121912
 20
75.41290962151606
 30
0.0
 11
31.65066249121912
 21
75.41290962151606
 31
0.0
  0
LINE
  5
229DD
330
1F
100
AcDbEntity
  8
0
100
AcDbLine
 10
28.15066249121912
 20
75.41290962151606
 30
0.0
 11
27.65066249121912
 21
74.91290962151606
 31
0.0
  0
LINE
  5
229DE
330
1F
100
AcDbEntity
  8
\M+2B5EA\M+2BD75
100
AcDbLine
 10
30.50066249121914
 20
75.41290962151606
 30
0.0
 11
30.90066249121912
 21
75.81290962151616
 31
0.0
  0
LINE
  5
229DF
330
1F
100
AcDbEntity
  8
0
100
AcDbLine
 10
31.65066249121912
 20
75.41290962151606
 30
0.0
 11
32.15066249121912
 21
74.91290962151606
 31
0.0
  0
LINE
  5
229E0
330
1F
100
AcDbEntity
  8
\M+2B5EA\M+2BD75
100
AcDbLine
 10
40.3006624912191
 20
75.41290962151606
 30
0.0
 11
39.90066249121912
 21
75.81290962151616
 31
0.0
  0
LINE
  5
229E1
330
1F
100
AcDbEntity
  8
0
100
AcDbLine
 10
39.15066249121912
 20
75.41290962151606
 30
0.0
 11
38.65066249121912
 21
74.91290962151606
 31
0.0
  0
LINE
  5
229E2
330
1F
100
AcDbEntity
  8
\M+2B5EA\M+2BD75
100
AcDbLine
 10
39.90066249121912
 20
88.61290962151612
 30
0.0
 11
30.90066249121912
 21
88.61290962151612
 31
0.0
  0
LINE
  5
229E7
330
1F
100
AcDbEntity
  8
\M+2B5EA\M+2BD75
100
AcDbLine
 10
30.60066249121916
 20
88.91290962151606
 30
0.0
 11
30.90066249121912
 21
88.61290962151612
 31
0.0
  0
LINE
  5
229E8
330
1F
100
AcDbEntity
  8
\M+2B5EA\M+2BD75
100
AcDbLine
 10
40.20066249121907
 20
88.91290962151606
 30
0.0
 11
39.90066249121912
 21
88.61290962151612
 31
0.0
  0
LINE
  5
229E9
330
1F
100
AcDbEntity
  8
0
100
AcDbLine
 10
49.40066249121912
 20
80.21258792152094
 30
0.0
 11
49.40066249121912
 21
76.41290962151606
 31
0.0
  0
LINE
  5
229EA
330
1F
100
AcDbEntity
  8
0
100
AcDbLine
 10
43.15066249121912
 20
74.91290962151606
 30
0.0
 11
47.90066249121912
 21
74.91290962151606
 31
0.0
  0
LINE
  5
229EB
330
1F
100
AcDbEntity
  8
0
100
AcDbLine
 10
42.65066249121912
 20
75.41290962151606
 30
0.0
 11
43.15066249121912
 21
74.91290962151606
 31
0.0
  0
LINE
  5
229EC
330
1F
100
AcDbEntity
  8
0
100
AcDbLine
 10
49.40066249121912
 20
76.41290962151606
 30
0.0
 11
47.90066249121912
 21
74.91290962151606
 31
0.0
  0
LINE
  5
229ED
330
1F
100
AcDbEntity
  8
0
100
AcDbLine
 10
44.60037671628066
 20
85.01338385872418
 30
0.0
 11
49.4007661421831
 21
80.2126502471126
 31
0.0
  0
LINE
  5
229F1
330
1F
100
AcDbEntity
  8
0
100
AcDbLine
 10
44.60030002806149
 20
88.9933215330409
 30
0.0
 11
44.60027306531668
 21
85.01332153313251
 31
0.0
  0
LINE
  5
229F2
330
1F
100
AcDbEntity
  8
\M+2B5EA\M+2BD75
100
AcDbLine
 10
42.40066249121912
 20
100.5129096215161
 30
0.0
 11
28.40066249121912
 21
100.5129096215161
 31
0.0
  0
LINE
  5
229F6
330
1F
100
AcDbEntity
  8
0
100
AcDbLine
 10
44.6103801033488
 20
100.8133214650242
 30
0.0
 11
26.19038010377136
 21
100.8134462524012
 31
0.0
  0
LINE
  5
229F7
330
1F
100
AcDbEntity
  8
\M+2B5EA\M+2BD75
100
AcDbLine
 10
28.40066249121912
 20
100.5129096215161
 30
0.0
 11
28.2271555529029
 21
100.8134324541456
 31
0.0
  0
LINE
  5
229FA
330
1F
100
AcDbEntity
  8
0
100
AcDbLine
 10
47.8933634905527
 20
97.53029359598986
 30
0.0
 11
49.30034833055936
 21
96.12328969245027
 31
0.0
  0
LINE
  5
229FC
330
1F
100
AcDbEntity
  8
0
100
AcDbLine
 10
49.30033186838096
 20
93.69328969251204
 30
0.0
 11
49.30034833055936
 21
96.12328969245027
 31
0.0
  0
ARC
  5
22A00
330
1F
100
AcDbEntity
  8
0
100
AcDbCircle
 10
48.38889503919142
 20
100.6916933625968
 30
0.0
 40
3.2
100
AcDbArc
 50
188.9060820024668
 51
261.0916938462335
  0
LINE
  5
22A01
330
1F
100
AcDbEntity
  8
\M+2B5EA\M+2BD75
100
AcDbLine
 10
42.57411331437322
 20
100.8133352598338
 30
0.0
 11
42.40066249121912
 21
100.5129096215161
 31
0.0
  0
LINE
  5
22B1A
330
1F
100
AcDbEntity
  8
0
100
AcDbLine
 10
310.6610104481561
 20
100.9129096215565
 30
0.0
 11
110.6610104481562
 21
100.9129096215565
 31
0.0
  0
LINE
  5
22B1B
330
1F
100
AcDbEntity
  8
0
100
AcDbLine
 10
310.6610104481561
 20
74.91290962155654
 30
0.0
 11
110.6610104481561
 21
74.91290962155654
 31
0.0
  0
LINE
  5
22B1C
330
1F
100
AcDbEntity
  8
\M+2B5EA\M+2BD75
100
AcDbLine
 10
123.6610104481561
 20
100.0129096215566
 30
0.0
 11
123.1413952058857
 21
100.9129096215565
 31
0.0
  0
LINE
  5
22B1D
330
1F
100
AcDbEntity
  8
AM7
  6
CONTINUOUS
 62
     0
100
AcDbLine
 10
110.6610104481561
 20
74.91290962155654
 30
0.0
 11
110.6610104481561
 21
100.9129096215565
 31
0.0
  0
LINE
  5
22B2A
330
1F
100
AcDbEntity
  8
\M+2B5EA\M+2BD75
100
AcDbLine
 10
297.6610104481561
 20
100.0129096215569
 30
0.0
 11
283.6610104481561
 21
100.0129096215569
 31
0.0
  0
LINE
  5
22B2B
330
1F
100
AcDbEntity
  8
\M+2B5EA\M+2BD75
100
AcDbLine
 10
295.1610104481561
 20
75.31290962155662
 30
0.0
 11
286.1610104481561
 21
75.31290962155662
 31
0.0
  0
LINE
  5
22B2C
330
1F
100
AcDbEntity
  8
\M+2B5EA\M+2BD75
100
AcDbLine
 10
295.1610104481561
 20
88.1129096215568
 30
0.0
 11
286.1610104481561
 21
88.1129096215568
 31
0.0
  0
LINE
  5
22B2D
330
1F
100
AcDbEntity
  8
\M+2B5EA\M+2BD75
100
AcDbLine
 10
297.6610104481561
 20
88.41290962155676
 30
0.0
 11
283.6610104481561
 21
88.41290962155676
 31
0.0
  0
LINE
  5
22B2E
330
1F
100
AcDbEntity
  8
0
100
AcDbLine
 10
310.6610104481561
 20
76.41290962155654
 30
0.0
 11
110.6610104481561
 21
76.41290962155654
 31
0.0
  0
LINE
  5
22B2F
330
1F
100
AcDbEntity
  8
0
100
AcDbLine
 10
310.6610104481561
 20
80.21258792156164
 30
0.0
 11
110.6610104481561
 21
80.21258792156141
 31
0.0
  0
LINE
  5
22B30
330
1F
100
AcDbEntity
  8
0
100
AcDbLine
 10
310.6610104481561
 20
84.91258782155682
 30
0.0
 11
110.6610104481561
 21
84.91258782155682
 31
0.0
  0
LINE
  5
22B31
330
1F
100
AcDbEntity
  8
0
100
AcDbLine
 10
310.6610104481561
 20
89.09265265681643
 30
0.0
 11
110.6610104481562
 21
89.09265265681643
 31
0.0
  0
LINE
  5
22B32
330
1F
100
AcDbEntity
  8
0
100
AcDbLine
 10
310.6610104481561
 20
89.62026450304142
 30
0.0
 11
110.6610104481562
 21
89.62026450304142
 31
0.0
  0
LINE
  5
22B33
330
1F
100
AcDbEntity
  8
0
100
AcDbLine
 10
310.6610104481561
 20
92.28625544301213
 30
0.0
 11
110.6610104481562
 21
92.28625544301236
 31
0.0
  0
LINE
  5
22B34
330
1F
100
AcDbEntity
  8
0
100
AcDbLine
 10
310.6610104481561
 20
93.79265028222517
 30
0.0
 11
110.6610104481562
 21
93.79265028222494
 31
0.0
  0
LINE
  5
22B35
330
1F
100
AcDbEntity
  8
0
100
AcDbLine
 10
310.6610104481561
 20
96.02731893488112
 30
0.0
 11
110.6610104481562
 21
96.02731893488112
 31
0.0
  0
LINE
  5
22B36
330
1F
100
AcDbEntity
  8
0
100
AcDbLine
 10
310.6610104481561
 20
97.53029359603033
 30
0.0
 11
110.6610104481562
 21
97.53029359603033
 31
0.0
  0
LINE
  5
22B37
330
1F
100
AcDbEntity
  8
0
100
AcDbLine
 10
310.6610104481561
 20
100.196284536001
 30
0.0
 11
110.6610104481562
 21
100.1962845360008
 31
0.0
  0
LINE
  5
22B38
330
1F
100
AcDbEntity
  8
AM7
100
AcDbLine
 10
130.6610104481561
 20
72.31290962155663
 30
0.0
 11
130.6610104481561
 21
101.9129096215567
 31
0.0
  0
LINE
  5
22B3A
330
1F
100
AcDbEntity
  8
\M+2B5EA\M+2BD75
100
AcDbLine
 10
123.6610104481561
 20
88.41290962155653
 30
0.0
 11
123.6610104481561
 21
100.0129096215566
 31
0.0
  0
LINE
  5
22B3B
330
1F
100
AcDbEntity
  8
\M+2B5EA\M+2BD75
100
AcDbLine
 10
137.6610104481561
 20
88.41290962155653
 30
0.0
 11
137.6610104481561
 21
100.0129096215566
 31
0.0
  0
LINE
  5
22B3C
330
1F
100
AcDbEntity
  8
AM7
100
AcDbLine
 10
130.6610104481561
 20
72.31290962155663
 30
0.0
 11
130.6610104481561
 21
101.9129096215567
 31
0.0
  0
LINE
  5
22B3D
330
1F
100
AcDbEntity
  8
\M+2B5EA\M+2BD75
100
AcDbLine
 10
126.1610104481561
 20
75.31290962155662
 30
0.0
 11
126.1610104481561
 21
88.1129096215568
 31
0.0
  0
LINE
  5
22B3E
330
1F
100
AcDbEntity
  8
\M+2B5EA\M+2BD75
100
AcDbLine
 10
135.1610104481561
 20
75.31290962155662
 30
0.0
 11
135.1610104481561
 21
88.1129096215568
 31
0.0
  0
LINE
  5
22B3F
330
1F
100
AcDbEntity
  8
\M+2B5EA\M+2BD75
100
AcDbLine
 10
135.1610104481561
 20
75.31290962155662
 30
0.0
 11
126.1610104481561
 21
75.31290962155662
 31
0.0
  0
LINE
  5
22B40
330
1F
100
AcDbEntity
  8
\M+2B5EA\M+2BD75
100
AcDbLine
 10
125.7610104481561
 20
74.91290962155654
 30
0.0
 11
126.1610104481561
 21
75.31290962155662
 31
0.0
  0
LINE
  5
22B41
330
1F
100
AcDbEntity
  8
\M+2B5EA\M+2BD75
100
AcDbLine
 10
135.5610104481561
 20
74.91290962155654
 30
0.0
 11
135.1610104481561
 21
75.31290962155662
 31
0.0
  0
LINE
  5
22B42
330
1F
100
AcDbEntity
  8
\M+2B5EA\M+2BD75
100
AcDbLine
 10
135.1610104481561
 20
88.1129096215568
 30
0.0
 11
126.1610104481561
 21
88.1129096215568
 31
0.0
  0
LINE
  5
22B43
330
1F
100
AcDbEntity
  8
\M+2B5EA\M+2BD75
100
AcDbLine
 10
137.6610104481561
 20
88.41290962155653
 30
0.0
 11
123.6610104481561
 21
88.41290962155653
 31
0.0
  0
LINE
  5
22B44
330
1F
100
AcDbEntity
  8
\M+2B5EA\M+2BD75
100
AcDbLine
 10
125.8610104481562
 20
88.41290962155653
 30
0.0
 11
126.1610104481561
 21
88.1129096215568
 31
0.0
  0
LINE
  5
22B45
330
1F
100
AcDbEntity
  8
\M+2B5EA\M+2BD75
100
AcDbLine
 10
135.4610104481561
 20
88.41290962155653
 30
0.0
 11
135.1610104481561
 21
88.1129096215568
 31
0.0
  0
LINE
  5
22B49
330
1F
100
AcDbEntity
  8
\M+2B5EA\M+2BD75
100
AcDbLine
 10
137.6610104481561
 20
100.0129096215566
 30
0.0
 11
123.6610104481561
 21
100.0129096215566
 31
0.0
  0
LINE
  5
22B4A
330
1F
100
AcDbEntity
  8
\M+2B5EA\M+2BD75
100
AcDbLine
 10
138.1806256904266
 20
100.9129096215565
 30
0.0
 11
137.6610104481561
 21
100.0129096215566
 31
0.0
  0
LINE
  5
22B5F
330
1F
100
AcDbEntity
  8
\M+2B5EA\M+2BD75
100
AcDbLine
 10
283.6610104481561
 20
88.41290962155676
 30
0.0
 11
283.6610104481561
 21
100.0129096215569
 31
0.0
  0
LINE
  5
22B60
330
1F
100
AcDbEntity
  8
AM7
100
AcDbLine
 10
290.6610104481561
 20
72.31290962155686
 30
0.0
 11
290.6610104481561
 21
101.9129096215569
 31
0.0
  0
LINE
  5
22B63
330
1F
100
AcDbEntity
  8
\M+2B5EA\M+2BD75
100
AcDbLine
 10
286.1610104481561
 20
75.31290962155662
 30
0.0
 11
286.1610104481561
 21
88.1129096215568
 31
0.0
  0
LINE
  5
22B64
330
1F
100
AcDbEntity
  8
\M+2B5EA\M+2BD75
100
AcDbLine
 10
285.7610104481561
 20
74.91290962155677
 30
0.0
 11
286.1610104481561
 21
75.31290962155662
 31
0.0
  0
LINE
  5
22B65
330
1F
100
AcDbEntity
  8
\M+2B5EA\M+2BD75
100
AcDbLine
 10
285.8610104481562
 20
88.41290962155676
 30
0.0
 11
286.1610104481561
 21
88.1129096215568
 31
0.0
  0
LINE
  5
22B66
330
1F
100
AcDbEntity
  8
\M+2B5EA\M+2BD75
100
AcDbLine
 10
283.6610104481561
 20
100.0129096215569
 30
0.0
 11
283.4300703404803
 21
100.412909621557
 31
0.0
  0
LINE
  5
22B67
330
1F
100
AcDbEntity
  8
\M+2B5EA\M+2BD75
100
AcDbLine
 10
297.6610104481561
 20
88.41290962155676
 30
0.0
 11
297.6610104481561
 21
100.0129096215569
 31
0.0
  0
LINE
  5
22B68
330
1F
100
AcDbEntity
  8
AM7
  6
CONTINUOUS
 62
     0
100
AcDbLine
 10
310.6610104481561
 20
74.91290962155677
 30
0.0
 11
310.6610104481561
 21
100.9129096215565
 31
0.0
  0
LINE
  5
22B69
330
1F
100
AcDbEntity
  8
\M+2B5EA\M+2BD75
100
AcDbLine
 10
295.1610104481561
 20
75.31290962155662
 30
0.0
 11
295.1610104481561
 21
88.1129096215568
 31
0.0
  0
LINE
  5
22B6A
330
1F
100
AcDbEntity
  8
\M+2B5EA\M+2BD75
100
AcDbLine
 10
295.5610104481561
 20
74.91290962155677
 30
0.0
 11
295.1610104481561
 21
75.31290962155662
 31
0.0
  0
LINE
  5
22B6B
330
1F
100
AcDbEntity
  8
\M+2B5EA\M+2BD75
100
AcDbLine
 10
295.4610104481561
 20
88.41290962155676
 30
0.0
 11
295.1610104481561
 21
88.1129096215568
 31
0.0
  0
LINE
  5
22B6C
330
1F
100
AcDbEntity
  8
\M+2B5EA\M+2BD75
100
AcDbLine
 10
297.8919505558319
 20
100.412909621557
 30
0.0
 11
297.6610104481561
 21
100.0129096215569
 31
0.0
  0
ARC
  5
22B70
330
1F
100
AcDbEntity
  8
0
100
AcDbCircle
 10
48.38889503919142
 20
89.12485567636441
 30
0.0
 40
3.2
100
AcDbArc
 50
98.90830615376643
 51
171.0939179975332
  0
LINE
  5
22B71
330
1F
100
AcDbEntity
  8
0
100
AcDbLine
 10
47.8933634905527
 20
92.28625544297164
 30
0.0
 11
49.30034833055936
 21
93.69325934651124
 31
0.0
  0
LINE
  5
22B74
330
1F
100
AcDbEntity
  8
0
100
AcDbLine
 10
44.61037671628071
 20
89.00316518023714
 30
0.0
 11
45.2274760390444
 21
89.62026450300072
 31
0.0
  0
LINE
  5
22B77
330
1F
100
AcDbEntity
  8
0
100
AcDbLine
 10
26.20017225869145
 20
85.01338385872418
 30
0.0
 11
21.39978283278901
 21
80.2126502471126
 31
0.0
  0
LINE
  5
22B78
330
1F
100
AcDbEntity
  8
0
100
AcDbLine
 10
26.20024894691062
 20
88.9933215330409
 30
0.0
 11
26.20027590965543
 21
85.01332153313251
 31
0.0
  0
ARC
  5
22B80
330
1F
100
AcDbEntity
  8
0
100
AcDbCircle
 10
22.41165393578069
 20
89.12485567636441
 30
0.0
 40
3.2
100
AcDbArc
 50
8.906082002466803
 51
81.0916938462336
  0
LINE
  5
22B81
330
1F
100
AcDbEntity
  8
0
100
AcDbLine
 10
26.1901722586914
 20
89.00316518023714
 30
0.0
 11
25.57307293592771
 21
89.62026450300072
 31
0.0
  0
LINE
  5
22B83
330
1F
100
AcDbEntity
  8
0
100
AcDbLine
 10
22.90718548441941
 20
92.28625544297164
 30
0.0
 11
21.50020064441275
 21
93.69325934651124
 31
0.0
  0
ARC
  5
22B88
330
1F
100
AcDbEntity
  8
0
100
AcDbCircle
 10
22.41165393578069
 20
100.6916933625968
 30
0.0
 40
3.2
100
AcDbArc
 50
278.9083061537664
 51
351.0939179975332
  0
LINE
  5
22B89
330
1F
100
AcDbEntity
  8
0
100
AcDbLine
 10
22.90718548441941
 20
97.53029359598986
 30
0.0
 11
21.50020064441275
 21
96.12328969245027
 31
0.0
  0
LINE
  5
22B8A
330
1F
100
AcDbEntity
  8
0
100
AcDbLine
 10
21.50021710659115
 20
93.69328969251204
 30
0.0
 11
21.50020064441275
 21
96.12328969245027
 31
0.0
  0
LINE
  5
22B8F
330
1F
100
AcDbEntity
  8
0
100
AcDbLine
 10
26.1901722586914
 20
100.8133838587241
 30
0.0
 11
25.57307293592771
 21
100.1962845359603
 31
0.0
  0
LINE
  5
275C6
330
1F
100
AcDbEntity
  8
AM7
100
AcDbLine
 10
35.40027448748606
 20
72.86156907027702
 30
0.0
 11
35.40038518447943
 21
101.9724339477888
 31
0.0
  0
LINE
  5
275C7
330
1F
100
AcDbEntity
  8
\M+2B5EA\M+2BD75
100
AcDbLine
 10
217.661010446479
 20
88.4125433262675
 30
0.0
 11
203.661010446479
 21
88.4125433262675
 31
0.0
  0
LINE
  5
275C8
330
1F
100
AcDbEntity
  8
\M+2B5EA\M+2BD75
100
AcDbLine
 10
217.661010446479
 20
100.0125433262676
 30
0.0
 11
203.661010446479
 21
100.0125433262676
 31
0.0
  0
LINE
  5
275C9
330
1F
100
AcDbEntity
  8
\M+2B5EA\M+2BD75
100
AcDbLine
 10
203.661010446479
 20
100.0125433262676
 30
0.0
 11
203.1413952042086
 21
100.9125433262674
 31
0.0
  0
LINE
  5
275CA
330
1F
100
AcDbEntity
  8
\M+2B5EA\M+2BD75
100
AcDbLine
 10
203.661010446479
 20
88.4125433262675
 30
0.0
 11
203.661010446479
 21
100.0125433262676
 31
0.0
  0
LINE
  5
275CB
330
1F
100
AcDbEntity
  8
\M+2B5EA\M+2BD75
100
AcDbLine
 10
215.161010446479
 20
75.31254332626758
 30
0.0
 11
206.161010446479
 21
75.31254332626758
 31
0.0
  0
LINE
  5
275CC
330
1F
100
AcDbEntity
  8
\M+2B5EA\M+2BD75
100
AcDbLine
 10
215.161010446479
 20
88.11254332626777
 30
0.0
 11
206.161010446479
 21
88.11254332626777
 31
0.0
  0
LINE
  5
275CD
330
1F
100
AcDbEntity
  8
AM7
100
AcDbLine
 10
210.661010446479
 20
72.31254332626758
 30
0.0
 11
210.661010446479
 21
101.9125433262677
 31
0.0
  0
LINE
  5
275CE
330
1F
100
AcDbEntity
  8
AM7
100
AcDbLine
 10
210.661010446479
 20
72.31254332626758
 30
0.0
 11
210.661010446479
 21
101.9125433262677
 31
0.0
  0
LINE
  5
275CF
330
1F
100
AcDbEntity
  8
\M+2B5EA\M+2BD75
100
AcDbLine
 10
206.161010446479
 20
75.31254332626758
 30
0.0
 11
206.161010446479
 21
88.11254332626777
 31
0.0
  0
LINE
  5
275D0
330
1F
100
AcDbEntity
  8
\M+2B5EA\M+2BD75
100
AcDbLine
 10
205.761010446479
 20
74.91254332626749
 30
0.0
 11
206.161010446479
 21
75.31254332626758
 31
0.0
  0
LINE
  5
275D1
330
1F
100
AcDbEntity
  8
\M+2B5EA\M+2BD75
100
AcDbLine
 10
205.861010446479
 20
88.4125433262675
 30
0.0
 11
206.161010446479
 21
88.11254332626777
 31
0.0
  0
LINE
  5
275D2
330
1F
100
AcDbEntity
  8
\M+2B5EA\M+2BD75
100
AcDbLine
 10
215.161010446479
 20
75.31254332626758
 30
0.0
 11
215.161010446479
 21
88.11254332626777
 31
0.0
  0
LINE
  5
275D3
330
1F
100
AcDbEntity
  8
\M+2B5EA\M+2BD75
100
AcDbLine
 10
215.561010446479
 20
74.91254332626749
 30
0.0
 11
215.161010446479
 21
75.31254332626758
 31
0.0
  0
LINE
  5
275D4
330
1F
100
AcDbEntity
  8
\M+2B5EA\M+2BD75
100
AcDbLine
 10
217.661010446479
 20
88.4125433262675
 30
0.0
 11
217.661010446479
 21
100.0125433262676
 31
0.0
  0
LINE
  5
275D5
330
1F
100
AcDbEntity
  8
\M+2B5EA\M+2BD75
100
AcDbLine
 10
215.461010446479
 20
88.4125433262675
 30
0.0
 11
215.161010446479
 21
88.11254332626777
 31
0.0
  0
LINE
  5
275D6
330
1F
100
AcDbEntity
  8
\M+2B5EA\M+2BD75
100
AcDbLine
 10
218.1806256887495
 20
100.9125433262674
 30
0.0
 11
217.661010446479
 21
100.0125433262676
 31
0.0
  0
ENDSEC
  0
SECTION
  2
OBJECTS
  0
DICTIONARY
  5
C
330
0
100
AcDbDictionary
  3
ACAD_COLOR
350
13437
  3
ACAD_GROUP
350
D
  3
ACAD_LAYOUT
350
1A
  3
ACAD_MATERIAL
350
13436
  3
ACAD_MLINESTYLE
350
17
  3
ACAD_PLOTSETTINGS
350
19
  3
ACAD_PLOTSTYLENAME
350
E
  3
ACDBHEADERROUNDTRIPXREC
350
275E2
  3
ACDBVARIABLEDICTIONARY
350
4E
  0
DICTIONARY
  5
DDEF
330
2
100
AcDbDictionary
280
     1
  3
ACAD_LAYERFILTERS
360
E68E
  3
ACAD_LAYERSTATES
360
DDF0
  0
DICTIONARY
  5
131A3
330
1F
100
AcDbDictionary
280
     1
  3
ACAD_LAYOUTSELFREF
360
27603
  0
DICTIONARY
  5
131A1
330
1B
100
AcDbDictionary
280
     1
  3
ACAD_LAYOUTSELFREF
360
27602
  0
DICTIONARY
  5
13437
102
{ACAD_REACTORS
330
C
102
}
330
C
100
AcDbDictionary
  0
DICTIONARY
  5
D
102
{ACAD_REACTORS
330
C
102
}
330
C
100
AcDbDictionary
  3
*A1
350
DDE2
  3
*A10
350
14FDE
  3
*A11
350
14FDF
  3
*A12
350
145EF
  3
*A13
350
14FE0
  3
*A14
350
DDE3
  3
*A15
350
DDE6
  3
*A16
350
145EA
  3
*A17
350
14FE1
  3
*A18
350
14FE2
  3
*A19
350
14FE3
  3
*A2
350
14FD9
  3
*A20
350
167FE
  3
*A21
350
DDEB
  3
*A22
350
DDEE
  3
*A23
350
145F0
  3
*A24
350
167FF
  3
*A25
350
16800
  3
*A26
350
16801
  3
*A27
350
16802
  3
*A28
350
13CCB
  3
*A29
350
13CCD
  3
*A3
350
14FDA
  3
*A30
350
16803
  3
*A31
350
16804
  3
*A32
350
DDE7
  3
*A33
350
16805
  3
*A34
350
13CD2
  3
*A35
350
145E5
  3
*A36
350
16806
  3
*A37
350
16807
  3
*A38
350
13CC7
  3
*A39
350
16808
  3
*A4
350
145E9
  3
*A40
350
145EB
  3
*A41
350
16809
  3
*A42
350
1680A
  3
*A43
350
13CCE
  3
*A44
350
DDE8
  3
*A45
350
145F1
  3
*A46
350
DDE9
  3
*A47
350
DDEA
  3
*A48
350
145E6
  3
*A49
350
13CC8
  3
*A5
350
14FDB
  3
*A50
350
13CC9
  3
*A51
350
13CCA
  3
*A52
350
145EC
  3
*A53
350
13CCF
  3
*A54
350
13CD0
  3
*A55
350
13CD1
  3
*A56
350
DDE5
  3
*A57
350
145E7
  3
*A58
350
DDE4
  3
*A59
350
145E8
  3
*A6
350
DDED
  3
*A60
350
145ED
  3
*A61
350
DDEC
  3
*A62
350
145EE
  3
*A63
350
14FD7
  3
*A64
350
13CCC
  3
*A65
350
14FD8
  3
*A7
350
14FDC
  3
*A8
350
13CD3
  3
*A9
350
14FDD
  0
DICTIONARY
  5
1A
102
{ACAD_REACTORS
330
C
102
}
330
C
100
AcDbDictionary
  0
DICTIONARY
  5
13436
102
{ACAD_REACTORS
330
C
102
}
330
C
100
AcDbDictionary
  0
DICTIONARY
  5
17
102
{ACAD_REACTORS
330
C
102
}
330
C
100
AcDbDictionary
  3
STANDARD
350
18
  0
DICTIONARY
  5
19
102
{ACAD_REACTORS
330
C
102
}
330
C
100
AcDbDictionary
  3
LANSRO
350
1AB
  0
ACDBDICTIONARYWDFLT
  5
E
102
{ACAD_REACTORS
330
C
102
}
330
C
100
AcDbDictionary
281
     1
  3
Normal
350
F
100
AcDbDictionaryWithDefault
340
F
  0
DICTIONARY
  5
275E2
102
{ACAD_REACTORS
330
C
102
}
330
C
100
AcDbDictionary
  3
CEPSNTYPE
350
275EC
  3
FINGERPRINTGUID
350
275ED
  3
HYPERLINKBASE
350
275E5
  3
INSUNITS
350
275EB
  3
LAYOUTDICT
350
275E7
  3
LWETCUNION
350
275EA
  3
PLOTSETDICT
350
275E8
  3
PLOTSTYLNAMDICT
350
275E9
  3
PSVPSCALE
350
275EF
  3
PUCSBASE
350
275F2
  3
PUCSORGBACK
350
275F8
  3
PUCSORGBOTTOM
350
275F4
  3
PUCSORGFRONT
350
275F7
  3
PUCSORGLEFT
350
275F5
  3
PUCSORGRIGHT
350
275F6
  3
PUCSORGTOP
350
275F3
  3
PUCSORTHOREF
350
275F0
  3
PUCSORTHOVIEW
350
275F1
  3
STYLESHEET
350
275E6
  3
TSTACKALIGN
350
275E3
  3
TSTACKSIZE
350
275E4
  3
UCSBASE
350
275FB
  3
UCSORGBACK
350
27601
  3
UCSORGBOTTOM
350
275FD
  3
UCSORGFRONT
350
27600
  3
UCSORGLEFT
350
275FE
  3
UCSORGRIGHT
350
275FF
  3
UCSORGTOP
350
275FC
  3
UCSORTHOREF
350
275F9
  3
UCSORTHOVIEW
350
275FA
  3
VERSIONGUID
350
275EE
  0
DICTIONARY
  5
4E
102
{ACAD_REACTORS
330
C
102
}
330
C
100
AcDbDictionary
  3
DIMASSOC
350
1350B
  3
PROJECTNAME
350
1350C
  3
SORTENTS
350
4F
  0
DICTIONARY
  5
E68E
102
{ACAD_REACTORS
330
DDEF
102
}
330
DDEF
100
AcDbDictionary
280
     1
  0
DICTIONARY
  5
DDF0
102
{ACAD_REACTORS
330
DDEF
102
}
330
DDEF
100
AcDbDictionary
  0
XRECORD
  5
27603
102
{ACAD_REACTORS
330
131A3
102
}
330
131A3
100
AcDbXrecord
340
1F
  0
XRECORD
  5
27602
102
{ACAD_REACTORS
330
131A1
102
}
330
131A1
100
AcDbXrecord
340
1B
  0
GROUP
  5
DDE2
102
{ACAD_REACTORS
330
D
102
}
330
D
100
AcDbGroup
300

 70
     1
 71
     1
  0
GROUP
  5
14FDE
102
{ACAD_REACTORS
330
D
102
}
330
D
100
AcDbGroup
300

 70
     1
 71
     1
  0
GROUP
  5
14FDF
102
{ACAD_REACTORS
330
D
102
}
330
D
100
AcDbGroup
300

 70
     1
 71
     1
  0
GROUP
  5
145EF
102
{ACAD_REACTORS
330
D
102
}
330
D
100
AcDbGroup
300

 70
     1
 71
     1
  0
GROUP
  5
14FE0
102
{ACAD_REACTORS
330
D
102
}
330
D
100
AcDbGroup
300

 70
     1
 71
     1
  0
GROUP
  5
DDE3
102
{ACAD_REACTORS
330
D
102
}
330
D
100
AcDbGroup
300

 70
     1
 71
     1
  0
GROUP
  5
DDE6
102
{ACAD_REACTORS
330
D
102
}
330
D
100
AcDbGroup
300

 70
     1
 71
     1
  0
GROUP
  5
145EA
102
{ACAD_REACTORS
330
D
102
}
330
D
100
AcDbGroup
300

 70
     1
 71
     1
  0
GROUP
  5
14FE1
102
{ACAD_REACTORS
330
D
102
}
330
D
100
AcDbGroup
300

 70
     1
 71
     1
  0
GROUP
  5
14FE2
102
{ACAD_REACTORS
330
D
102
}
330
D
100
AcDbGroup
300

 70
     1
 71
     1
  0
GROUP
  5
14FE3
102
{ACAD_REACTORS
330
D
102
}
330
D
100
AcDbGroup
300

 70
     1
 71
     1
  0
GROUP
  5
14FD9
102
{ACAD_REACTORS
330
D
102
}
330
D
100
AcDbGroup
300

 70
     1
 71
     1
  0
GROUP
  5
167FE
102
{ACAD_REACTORS
330
D
102
}
330
D
100
AcDbGroup
300

 70
     1
 71
     1
  0
GROUP
  5
DDEB
102
{ACAD_REACTORS
330
D
102
}
330
D
100
AcDbGroup
300

 70
     1
 71
     1
  0
GROUP
  5
DDEE
102
{ACAD_REACTORS
330
D
102
}
330
D
100
AcDbGroup
300

 70
     1
 71
     1
  0
GROUP
  5
145F0
102
{ACAD_REACTORS
330
D
102
}
330
D
100
AcDbGroup
300

 70
     1
 71
     1
  0
GROUP
  5
167FF
102
{ACAD_REACTORS
330
D
102
}
330
D
100
AcDbGroup
300

 70
     1
 71
     1
  0
GROUP
  5
16800
102
{ACAD_REACTORS
330
D
102
}
330
D
100
AcDbGroup
300

 70
     1
 71
     1
  0
GROUP
  5
16801
102
{ACAD_REACTORS
330
D
102
}
330
D
100
AcDbGroup
300

 70
     1
 71
     1
  0
GROUP
  5
16802
102
{ACAD_REACTORS
330
D
102
}
330
D
100
AcDbGroup
300

 70
     1
 71
     1
  0
GROUP
  5
13CCB
102
{ACAD_REACTORS
330
D
102
}
330
D
100
AcDbGroup
300

 70
     1
 71
     1
  0
GROUP
  5
13CCD
102
{ACAD_REACTORS
330
D
102
}
330
D
100
AcDbGroup
300

 70
     1
 71
     1
  0
GROUP
  5
14FDA
102
{ACAD_REACTORS
330
D
102
}
330
D
100
AcDbGroup
300

 70
     1
 71
     1
  0
GROUP
  5
16803
102
{ACAD_REACTORS
330
D
102
}
330
D
100
AcDbGroup
300

 70
     1
 71
     1
  0
GROUP
  5
16804
102
{ACAD_REACTORS
330
D
102
}
330
D
100
AcDbGroup
300

 70
     1
 71
     1
  0
GROUP
  5
DDE7
102
{ACAD_REACTORS
330
D
102
}
330
D
100
AcDbGroup
300

 70
     1
 71
     1
  0
GROUP
  5
16805
102
{ACAD_REACTORS
330
D
102
}
330
D
100
AcDbGroup
300

 70
     1
 71
     1
  0
GROUP
  5
13CD2
102
{ACAD_REACTORS
330
D
102
}
330
D
100
AcDbGroup
300

 70
     1
 71
     1
  0
GROUP
  5
145E5
102
{ACAD_REACTORS
330
D
102
}
330
D
100
AcDbGroup
300

 70
     1
 71
     1
  0
GROUP
  5
16806
102
{ACAD_REACTORS
330
D
102
}
330
D
100
AcDbGroup
300

 70
     1
 71
     1
  0
GROUP
  5
16807
102
{ACAD_REACTORS
330
D
102
}
330
D
100
AcDbGroup
300

 70
     1
 71
     1
  0
GROUP
  5
13CC7
102
{ACAD_REACTORS
330
D
102
}
330
D
100
AcDbGroup
300

 70
     1
 71
     1
  0
GROUP
  5
16808
102
{ACAD_REACTORS
330
D
102
}
330
D
100
AcDbGroup
300

 70
     1
 71
     1
  0
GROUP
  5
145E9
102
{ACAD_REACTORS
330
D
102
}
330
D
100
AcDbGroup
300

 70
     1
 71
     1
  0
GROUP
  5
145EB
102
{ACAD_REACTORS
330
D
102
}
330
D
100
AcDbGroup
300

 70
     1
 71
     1
  0
GROUP
  5
16809
102
{ACAD_REACTORS
330
D
102
}
330
D
100
AcDbGroup
300

 70
     1
 71
     1
  0
GROUP
  5
1680A
102
{ACAD_REACTORS
330
D
102
}
330
D
100
AcDbGroup
300

 70
     1
 71
     1
  0
GROUP
  5
13CCE
102
{ACAD_REACTORS
330
D
102
}
330
D
100
AcDbGroup
300

 70
     1
 71
     1
  0
GROUP
  5
DDE8
102
{ACAD_REACTORS
330
D
102
}
330
D
100
AcDbGroup
300

 70
     1
 71
     1
  0
GROUP
  5
145F1
102
{ACAD_REACTORS
330
D
102
}
330
D
100
AcDbGroup
300

 70
     1
 71
     1
  0
GROUP
  5
DDE9
102
{ACAD_REACTORS
330
D
102
}
330
D
100
AcDbGroup
300

 70
     1
 71
     1
  0
GROUP
  5
DDEA
102
{ACAD_REACTORS
330
D
102
}
330
D
100
AcDbGroup
300

 70
     1
 71
     1
  0
GROUP
  5
145E6
102
{ACAD_REACTORS
330
D
102
}
330
D
100
AcDbGroup
300

 70
     1
 71
     1
  0
GROUP
  5
13CC8
102
{ACAD_REACTORS
330
D
102
}
330
D
100
AcDbGroup
300

 70
     1
 71
     1
  0
GROUP
  5
14FDB
102
{ACAD_REACTORS
330
D
102
}
330
D
100
AcDbGroup
300

 70
     1
 71
     1
  0
GROUP
  5
13CC9
102
{ACAD_REACTORS
330
D
102
}
330
D
100
AcDbGroup
300

 70
     1
 71
     1
  0
GROUP
  5
13CCA
102
{ACAD_REACTORS
330
D
102
}
330
D
100
AcDbGroup
300

 70
     1
 71
     1
  0
GROUP
  5
145EC
102
{ACAD_REACTORS
330
D
102
}
330
D
100
AcDbGroup
300

 70
     1
 71
     1
  0
GROUP
  5
13CCF
102
{ACAD_REACTORS
330
D
102
}
330
D
100
AcDbGroup
300

 70
     1
 71
     1
  0
GROUP
  5
13CD0
102
{ACAD_REACTORS
330
D
102
}
330
D
100
AcDbGroup
300

 70
     1
 71
     1
  0
GROUP
  5
13CD1
102
{ACAD_REACTORS
330
D
102
}
330
D
100
AcDbGroup
300

 70
     1
 71
     1
  0
GROUP
  5
DDE5
102
{ACAD_REACTORS
330
D
102
}
330
D
100
AcDbGroup
300

 70
     1
 71
     1
  0
GROUP
  5
145E7
102
{ACAD_REACTORS
330
D
102
}
330
D
100
AcDbGroup
300

 70
     1
 71
     1
  0
GROUP
  5
DDE4
102
{ACAD_REACTORS
330
D
102
}
330
D
100
AcDbGroup
300

 70
     1
 71
     1
  0
GROUP
  5
145E8
102
{ACAD_REACTORS
330
D
102
}
330
D
100
AcDbGroup
300

 70
     1
 71
     1
  0
GROUP
  5
DDED
102
{ACAD_REACTORS
330
D
102
}
330
D
100
AcDbGroup
300

 70
     1
 71
     1
  0
GROUP
  5
145ED
102
{ACAD_REACTORS
330
D
102
}
330
D
100
AcDbGroup
300

 70
     1
 71
     1
  0
GROUP
  5
DDEC
102
{ACAD_REACTORS
330
D
102
}
330
D
100
AcDbGroup
300

 70
     1
 71
     1
  0
GROUP
  5
145EE
102
{ACAD_REACTORS
330
D
102
}
330
D
100
AcDbGroup
300

 70
     1
 71
     1
  0
GROUP
  5
14FD7
102
{ACAD_REACTORS
330
D
102
}
330
D
100
AcDbGroup
300

 70
     1
 71
     1
  0
GROUP
  5
13CCC
102
{ACAD_REACTORS
330
D
102
}
330
D
100
AcDbGroup
300

 70
     1
 71
     1
  0
GROUP
  5
14FD8
102
{ACAD_REACTORS
330
D
102
}
330
D
100
AcDbGroup
300

 70
     1
 71
     1
  0
GROUP
  5
14FDC
102
{ACAD_REACTORS
330
D
102
}
330
D
100
AcDbGroup
300

 70
     1
 71
     1
  0
GROUP
  5
13CD3
102
{ACAD_REACTORS
330
D
102
}
330
D
100
AcDbGroup
300

 70
     1
 71
     1
  0
GROUP
  5
14FDD
102
{ACAD_REACTORS
330
D
102
}
330
D
100
AcDbGroup
300

 70
     1
 71
     1
  0
MLINESTYLE
  5
18
102
{ACAD_REACTORS
330
17
102
}
330
17
100
AcDbMlineStyle
  2
STANDARD
 70
     0
  3

 62
   256
 51
90.0
 52
90.0
 71
     2
 49
0.5
 62
   256
  6
BYLAYER
 49
-0.5
 62
   256
  6
BYLAYER
  0
PLOTSETTINGS
  5
1AB
102
{ACAD_XDICTIONARY
360
13503
102
}
102
{ACAD_REACTORS
330
19
102
}
330
19
100
AcDbPlotSettings
  1
LANSRO
  2
\\1260\HP2200
  4
A4
  6

 40
6.043083190917967
 41
6.762742042541503
 42
7.736419677734375
 43
5.027069091796875
 44
209.9733276367186
 45
296.9683227539062
 46
5.15
 47
0.0
 48
0.0
 49
0.0
140
0.0
141
0.0
142
1.0
143
0.8829829263240881
 70
  1716
 72
     1
 73
     1
 74
     0
  7
AAA.ctb
 75
     0
147
1.132524729739748
148
-132.2970149058029
149
-71.78507365635891
  0
ACDBPLACEHOLDER
  5
F
102
{ACAD_REACTORS
330
E
102
}
330
E
100
AcDbPlaceHolder
280
     0
  0
XRECORD
  5
275EC
102
{ACAD_REACTORS
330
275E2
102
}
330
275E2
100
AcDbXrecord
 90
        0
  0
XRECORD
  5
275ED
102
{ACAD_REACTORS
330
275E2
102
}
330
275E2
100
AcDbXrecord
  1
{39E6D4C8-9137-4BAE-85E5-615910EF8948}
  0
XRECORD
  5
275E5
102
{ACAD_REACTORS
330
275E2
102
}
330
275E2
100
AcDbXrecord
  1

  0
XRECORD
  5
275EB
102
{ACAD_REACTORS
330
275E2
102
}
330
275E2
100
AcDbXrecord
 90
        4
  0
XRECORD
  5
275E7
102
{ACAD_REACTORS
330
275E2
102
}
330
275E2
100
AcDbXrecord
340
1A
  0
XRECORD
  5
275EA
102
{ACAD_REACTORS
330
275E2
102
}
330
275E2
100
AcDbXrecord
 90
    10783
  0
XRECORD
  5
275E8
102
{ACAD_REACTORS
330
275E2
102
}
330
275E2
100
AcDbXrecord
340
19
  0
XRECORD
  5
275E9
102
{ACAD_REACTORS
330
275E2
102
}
330
275E2
100
AcDbXrecord
340
E
  0
XRECORD
  5
275EF
102
{ACAD_REACTORS
330
275E2
102
}
330
275E2
100
AcDbXrecord
 40
0.0
  0
XRECORD
  5
275F2
102
{ACAD_REACTORS
330
275E2
102
}
330
275E2
100
AcDbXrecord
340
0
  0
XRECORD
  5
275F8
102
{ACAD_REACTORS
330
275E2
102
}
330
275E2
100
AcDbXrecord
 10
0.0
 20
0.0
 30
0.0
  0
XRECORD
  5
275F4
102
{ACAD_REACTORS
330
275E2
102
}
330
275E2
100
AcDbXrecord
 10
0.0
 20
0.0
 30
0.0
  0
XRECORD
  5
275F7
102
{ACAD_REACTORS
330
275E2
102
}
330
275E2
100
AcDbXrecord
 10
0.0
 20
0.0
 30
0.0
  0
XRECORD
  5
275F5
102
{ACAD_REACTORS
330
275E2
102
}
330
275E2
100
AcDbXrecord
 10
0.0
 20
0.0
 30
0.0
  0
XRECORD
  5
275F6
102
{ACAD_REACTORS
330
275E2
102
}
330
275E2
100
AcDbXrecord
 10
0.0
 20
0.0
 30
0.0
  0
XRECORD
  5
275F3
102
{ACAD_REACTORS
330
275E2
102
}
330
275E2
100
AcDbXrecord
 10
0.0
 20
0.0
 30
0.0
  0
XRECORD
  5
275F0
102
{ACAD_REACTORS
330
275E2
102
}
330
275E2
100
AcDbXrecord
340
0
  0
XRECORD
  5
275F1
102
{ACAD_REACTORS
330
275E2
102
}
330
275E2
100
AcDbXrecord
 70
     0
  0
XRECORD
  5
275E6
102
{ACAD_REACTORS
330
275E2
102
}
330
275E2
100
AcDbXrecord
  1
AAA.ctb
  0
XRECORD
  5
275E3
102
{ACAD_REACTORS
330
275E2
102
}
330
275E2
100
AcDbXrecord
 90
        1
  0
XRECORD
  5
275E4
102
{ACAD_REACTORS
330
275E2
102
}
330
275E2
100
AcDbXrecord
 90
       70
  0
XRECORD
  5
275FB
102
{ACAD_REACTORS
330
275E2
102
}
330
275E2
100
AcDbXrecord
340
0
  0
XRECORD
  5
27601
102
{ACAD_REACTORS
330
275E2
102
}
330
275E2
100
AcDbXrecord
 10
0.0
 20
0.0
 30
0.0
  0
XRECORD
  5
275FD
102
{ACAD_REACTORS
330
275E2
102
}
330
275E2
100
AcDbXrecord
 10
0.0
 20
0.0
 30
0.0
  0
XRECORD
  5
27600
102
{ACAD_REACTORS
330
275E2
102
}
330
275E2
100
AcDbXrecord
 10
0.0
 20
0.0
 30
0.0
  0
XRECORD
  5
275FE
102
{ACAD_REACTORS
330
275E2
102
}
330
275E2
100
AcDbXrecord
 10
0.0
 20
0.0
 30
0.0
  0
XRECORD
  5
275FF
102
{ACAD_REACTORS
330
275E2
102
}
330
275E2
100
AcDbXrecord
 10
0.0
 20
0.0
 30
0.0
  0
XRECORD
  5
275FC
102
{ACAD_REACTORS
330
275E2
102
}
330
275E2
100
AcDbXrecord
 10
0.0
 20
0.0
 30
0.0
  0
XRECORD
  5
275F9
102
{ACAD_REACTORS
330
275E2
102
}
330
275E2
100
AcDbXrecord
340
0
  0
XRECORD
  5
275FA
102
{ACAD_REACTORS
330
275E2
102
}
330
275E2
100
AcDbXrecord
 70
     0
  0
XRECORD
  5
275EE
102
{ACAD_REACTORS
330
275E2
102
}
330
275E2
100
AcDbXrecord
  1
{B812F91C-66B0-11D8-88CD-00A024540C4A}
  0
DICTIONARYVAR
  5
1350B
102
{ACAD_REACTORS
330
4E
102
}
330
4E
100
DictionaryVariables
280
     0
  1
1
  0
DICTIONARYVAR
  5
1350C
102
{ACAD_REACTORS
330
4E
102
}
330
4E
100
DictionaryVariables
280
     0
  1

  0
DICTIONARYVAR
  5
4F
102
{ACAD_REACTORS
330
4E
102
}
330
4E
100
DictionaryVariables
280
     0
  1
96
  0
DICTIONARY
  5
13503
330
1AB
100
AcDbDictionary
280
     1
  3
ACAD_XREC_ROUNDTRIP
360
13504
  0
XRECORD
  5
13504
102
{ACAD_REACTORS
330
13503
102
}
330
13503
100
AcDbXrecord
102
SHADEPLOT
 70
     0
102
SHADEPLOTRESLEVEL
 70
     2
102
SHADEPLOTCUSTOMDPI
 70
   300
  0
ENDSEC
  0
EOF
