  0
SECTION
  2
HEADER
  9
$ACADVER
  1
AC1014
  9
$ACADMAINTVER
 70
     9
  9
$DWGCODEPAGE
  3
ANSI_1252
  9
$INSBASE
 10
0.0
 20
0.0
 30
0.0
  9
$EXTMIN
 10
41.42039087257479
 20
13.61023572918588
 30
-0.0000000000000142
  9
$EXTMAX
 10
447.7259258630123
 20
49.95434758002898
 30
0.0000000000000142
  9
$LIMMIN
 10
0.0
 20
0.0
  9
$LIMMAX
 10
420.0
 20
297.0
  9
$ORTHOMODE
 70
     0
  9
$REGENMODE
 70
     1
  9
$FILLMODE
 70
     1
  9
$QTEXTMODE
 70
     0
  9
$MIRRTEXT
 70
     0
  9
$DRAGMODE
 70
     2
  9
$LTSCALE
 40
0.9
  9
$OSMODE
 70
    37
  9
$ATTMODE
 70
     1
  9
$TEXTSIZE
 40
2.5
  9
$TRACEWID
 40
1.0
  9
$TEXTSTYLE
  7
\M+2ABAC\M+2A6A12
  9
$CLAYER
  8
0
  9
$CELTYPE
  6
BYLAYER
  9
$CECOLOR
 62
   256
  9
$CELTSCALE
 40
1.0
  9
$DELOBJ
 70
     1
  9
$DISPSILH
 70
     0
  9
$DIMSCALE
 40
1.0
  9
$DIMASZ
 40
1.0
  9
$DIMEXO
 40
0.7
  9
$DIMDLI
 40
3.75
  9
$DIMRND
 40
0.0
  9
$DIMDLE
 40
0.0
  9
$DIMEXE
 40
0.3
  9
$DIMTP
 40
0.0
  9
$DIMTM
 40
0.0
  9
$DIMTXT
 40
1.199999999999999
  9
$DIMCEN
 40
2.5
  9
$DIMTSZ
 40
0.0
  9
$DIMTOL
 70
     0
  9
$DIMLIM
 70
     0
  9
$DIMTIH
 70
     0
  9
$DIMTOH
 70
     0
  9
$DIMSE1
 70
     0
  9
$DIMSE2
 70
     0
  9
$DIMTAD
 70
     1
  9
$DIMZIN
 70
     8
  9
$DIMBLK
  1

  9
$DIMASO
 70
     1
  9
$DIMSHO
 70
     1
  9
$DIMPOST
  1

  9
$DIMAPOST
  1

  9
$DIMALT
 70
     0
  9
$DIMALTD
 70
     3
  9
$DIMALTF
 40
0.03937007874016
  9
$DIMLFAC
 40
1.0
  9
$DIMTOFL
 70
     1
  9
$DIMTVP
 40
0.0
  9
$DIMTIX
 70
     0
  9
$DIMSOXD
 70
     0
  9
$DIMSAH
 70
     0
  9
$DIMBLK1
  1

  9
$DIMBLK2
  1

  9
$DIMSTYLE
  2
ISO-25
  9
$DIMCLRD
 70
     3
  9
$DIMCLRE
 70
     3
  9
$DIMCLRT
 70
     2
  9
$DIMTFAC
 40
1.0
  9
$DIMGAP
 40
0.5
  9
$DIMJUST
 70
     0
  9
$DIMSD1
 70
     0
  9
$DIMSD2
 70
     0
  9
$DIMTOLJ
 70
     0
  9
$DIMTZIN
 70
     8
  9
$DIMALTZ
 70
     0
  9
$DIMALTTZ
 70
     0
  9
$DIMFIT
 70
     3
  9
$DIMUPT
 70
     0
  9
$DIMUNIT
 70
     2
  9
$DIMDEC
 70
     2
  9
$DIMTDEC
 70
     2
  9
$DIMALTU
 70
     2
  9
$DIMALTTD
 70
     3
  9
$DIMTXSTY
  7
STANDARD
  9
$DIMAUNIT
 70
     0
  9
$LUNITS
 70
     2
  9
$LUPREC
 70
     4
  9
$SKETCHINC
 40
1.0
  9
$FILLETRAD
 40
0.0
  9
$AUNITS
 70
     0
  9
$AUPREC
 70
     0
  9
$MENU
  1
.
  9
$ELEVATION
 40
0.0
  9
$PELEVATION
 40
0.0
  9
$THICKNESS
 40
0.0
  9
$LIMCHECK
 70
     0
  9
$BLIPMODE
 70
     0
  9
$CHAMFERA
 40
0.0
  9
$CHAMFERB
 40
0.0
  9
$CHAMFERC
 40
20.0
  9
$CHAMFERD
 40
0.0
  9
$SKPOLY
 70
     0
  9
$TDCREATE
 40
2452648.158040394
  9
$TDUPDATE
 40
2453060.476293044
  9
$TDINDWG
 40
1.2772279167
  9
$TDUSRTIMER
 40
1.2772278009
  9
$USRTIMER
 70
     1
  9
$ANGBASE
 50
0.0
  9
$ANGDIR
 70
     0
  9
$PDMODE
 70
     0
  9
$PDSIZE
 40
0.0
  9
$PLINEWID
 40
0.0
  9
$COORDS
 70
     0
  9
$SPLFRAME
 70
     0
  9
$SPLINETYPE
 70
     6
  9
$SPLINESEGS
 70
    30
  9
$ATTDIA
 70
     0
  9
$ATTREQ
 70
     1
  9
$HANDLING
 70
-16383
  9
$HANDSEED
  5
2AF3B
  9
$SURFTAB1
 70
     6
  9
$SURFTAB2
 70
     6
  9
$SURFTYPE
 70
     6
  9
$SURFU
 70
     6
  9
$SURFV
 70
     6
  9
$UCSNAME
  2

  9
$UCSORG
 10
0.0
 20
0.0
 30
0.0
  9
$UCSXDIR
 10
1.0
 20
0.0
 30
0.0
  9
$UCSYDIR
 10
0.0
 20
1.0
 30
0.0
  9
$PUCSNAME
  2

  9
$PUCSORG
 10
0.0
 20
0.0
 30
0.0
  9
$PUCSXDIR
 10
1.0
 20
0.0
 30
0.0
  9
$PUCSYDIR
 10
0.0
 20
1.0
 30
0.0
  9
$USERI1
 70
     0
  9
$USERI2
 70
     0
  9
$USERI3
 70
     0
  9
$USERI4
 70
     0
  9
$USERI5
 70
     0
  9
$USERR1
 40
0.0
  9
$USERR2
 40
0.0
  9
$USERR3
 40
0.0
  9
$USERR4
 40
0.0
  9
$USERR5
 40
0.0
  9
$WORLDVIEW
 70
     1
  9
$SHADEDGE
 70
     3
  9
$SHADEDIF
 70
    70
  9
$TILEMODE
 70
     1
  9
$MAXACTVP
 70
    48
  9
$PINSBASE
 10
0.0
 20
0.0
 30
0.0
  9
$PLIMCHECK
 70
     0
  9
$PEXTMIN
 10
1.000000000000000E+20
 20
1.000000000000000E+20
 30
1.000000000000000E+20
  9
$PEXTMAX
 10
-1.000000000000000E+20
 20
-1.000000000000000E+20
 30
-1.000000000000000E+20
  9
$PLIMMIN
 10
0.0
 20
0.0
  9
$PLIMMAX
 10
420.0
 20
297.0
  9
$UNITMODE
 70
     0
  9
$VISRETAIN
 70
     1
  9
$PLINEGEN
 70
     0
  9
$PSLTSCALE
 70
     1
  9
$TREEDEPTH
 70
  3020
  9
$PICKSTYLE
 70
     1
  9
$CMLSTYLE
  2
STANDARD
  9
$CMLJUST
 70
     0
  9
$CMLSCALE
 40
20.0
  9
$PROXYGRAPHICS
 70
     1
  9
$MEASUREMENT
 70
     0
  0
ENDSEC
  0
SECTION
  2
CLASSES
  0
CLASS
  1
ACDBDICTIONARYWDFLT
  2
AcDbDictionaryWithDefault
  3
AutoCAD 2000
 90
        0
280
     0
281
     0
  0
CLASS
  1
ACDBPLACEHOLDER
  2
AcDbPlaceHolder
  3
AutoCAD 2000
 90
        0
280
     0
281
     0
  0
CLASS
  1
LAYOUT
  2
AcDbLayout
  3
AutoCAD 2000
 90
        0
280
     0
281
     0
  0
CLASS
  1
DICTIONARYVAR
  2
AcDbDictionaryVar
  3
AutoCAD 2000
 90
        0
280
     0
281
     0
  0
CLASS
  1
PLOTSETTINGS
  2
AcDbPlotSettings
  3
AutoCAD 2000
 90
        0
280
     0
281
     0
  0
CLASS
  1
LONG_TRANSACTION
  2
AcDbLongTransaction
  3
AutoCAD 2000
 90
        0
280
     0
281
     0
  0
CLASS
  1
LWPOLYLINE
  2
AcDbPolyline
  3
AutoCAD 2000
 90
        0
280
     0
281
     1
  0
CLASS
  1
HATCH
  2
AcDbHatch
  3
AutoCAD 2000
 90
        0
280
     0
281
     1
  0
CLASS
  1
XRECORD
  2
AcDbXrecord
  3
AutoCAD 2000
 90
        0
280
     0
281
     0
  0
CLASS
  1
LONG_TRANSACTION
  2
AcDbLongTransaction
  3
AutoCAD 2000
 90
        0
280
     0
281
     0
  0
CLASS
  1
LWPOLYLINE
  2
AcDbPolyline
  3
AutoCAD 2000
 90
        0
280
     0
281
     1
  0
CLASS
  1
HATCH
  2
AcDbHatch
  3
AutoCAD 2000
 90
        0
280
     0
281
     1
  0
CLASS
  1
XRECORD
  2
AcDbXrecord
  3
AutoCAD 2000
 90
        0
280
     0
281
     0
  0
CLASS
  1
LONG_TRANSACTION
  2
AcDbLongTransaction
  3
AutoCAD 2000
 90
        0
280
     0
281
     0
  0
CLASS
  1
LWPOLYLINE
  2
AcDbPolyline
  3
AutoCAD 2000
 90
        0
280
     0
281
     1
  0
CLASS
  1
HATCH
  2
AcDbHatch
  3
AutoCAD 2000
 90
        0
280
     0
281
     1
  0
CLASS
  1
XRECORD
  2
AcDbXrecord
  3
AutoCAD 2000
 90
        0
280
     0
281
     0
  0
CLASS
  1
LONG_TRANSACTION
  2
AcDbLongTransaction
  3
AutoCAD 2000
 90
        0
280
     0
281
     0
  0
CLASS
  1
LWPOLYLINE
  2
AcDbPolyline
  3
AutoCAD 2000
 90
        0
280
     0
281
     1
  0
CLASS
  1
HATCH
  2
AcDbHatch
  3
AutoCAD 2000
 90
        0
280
     0
281
     1
  0
CLASS
  1
XRECORD
  2
AcDbXrecord
  3
AutoCAD 2000
 90
        0
280
     0
281
     0
  0
CLASS
  1
LONG_TRANSACTION
  2
AcDbLongTransaction
  3
AutoCAD 2000
 90
        0
280
     0
281
     0
  0
CLASS
  1
LWPOLYLINE
  2
AcDbPolyline
  3
AutoCAD 2000
 90
        0
280
     0
281
     1
  0
CLASS
  1
HATCH
  2
AcDbHatch
  3
AutoCAD 2000
 90
        0
280
     0
281
     1
  0
CLASS
  1
XRECORD
  2
AcDbXrecord
  3
AutoCAD 2000
 90
        0
280
     0
281
     0
  0
ENDSEC
  0
SECTION
  2
TABLES
  0
TABLE
  2
VPORT
  5
8
330
0
100
AcDbSymbolTable
 70
     2
  0
VPORT
  5
2AF18
330
8
100
AcDbSymbolTableRecord
100
AcDbViewportTableRecord
  2
*ACTIVE
 70
     0
 10
0.0
 20
0.0
 11
1.0
 21
1.0
 12
244.5854317118398
 22
31.78193720113709
 13
0.0
 23
0.0
 14
10.0
 24
10.0
 15
10.0
 25
10.0
 16
0.0
 26
0.0
 36
1.0
 17
0.0
 27
0.0
 37
0.0
 40
238.3317957597917
 41
1.714285714285714
 42
50.0
 43
0.0
 44
0.0
 50
0.0
 51
0.0
 71
     0
 72
 20000
 73
     1
 74
     0
 75
     0
 76
     0
 77
     0
 78
     1
  0
ENDTAB
  0
TABLE
  2
LTYPE
  5
5
330
0
100
AcDbSymbolTable
 70
     3
  0
LTYPE
  5
14
330
5
100
AcDbSymbolTableRecord
100
AcDbLinetypeTableRecord
  2
BYBLOCK
 70
     0
  3

 72
    65
 73
     0
 40
0.0
  0
LTYPE
  5
15
330
5
100
AcDbSymbolTableRecord
100
AcDbLinetypeTableRecord
  2
BYLAYER
 70
     0
  3

 72
    65
 73
     0
 40
0.0
  0
LTYPE
  5
16
330
5
100
AcDbSymbolTableRecord
100
AcDbLinetypeTableRecord
  2
CONTINUOUS
 70
     0
  3
Solid line
 72
    65
 73
     0
 40
0.0
  0
LTYPE
  5
2D
330
5
100
AcDbSymbolTableRecord
100
AcDbLinetypeTableRecord
  2
CENTER2
 70
     0
  3
Center (.5x) ___ _ ___ _ ___ _ ___ _ ___ _ ___
 72
    65
 73
     4
 40
28.57499999999999
 49
19.05
 74
     0
 49
-3.174999999999998
 74
     0
 49
3.174999999999998
 74
     0
 49
-3.174999999999998
 74
     0
  0
LTYPE
  5
2E
330
5
100
AcDbSymbolTableRecord
100
AcDbLinetypeTableRecord
  2
DASHED2
 70
     0
  3
Dashed (.5x) _ _ _ _ _ _ _ _ _ _ _ _ _ _ _ _ _
 72
    65
 73
     2
 40
9.524999999999996
 49
6.349999999999998
 74
     0
 49
-3.174999999999998
 74
     0
  0
ENDTAB
  0
TABLE
  2
LAYER
  5
2
102
{ACAD_XDICTIONARY
360
DDEF
102
}
330
0
100
AcDbSymbolTable
 70
     4
  0
LAYER
  5
10
330
2
100
AcDbSymbolTableRecord
100
AcDbLayerTableRecord
  2
0
 70
     0
 62
     7
  6
CONTINUOUS
  0
LAYER
  5
8B8
330
2
100
AcDbSymbolTableRecord
100
AcDbLayerTableRecord
  2
DEFPOINTS
 70
     0
 62
     7
  6
CONTINUOUS
  0
LAYER
  5
22864
330
2
100
AcDbSymbolTableRecord
100
AcDbLayerTableRecord
  2
\M+2B5EA\M+2BD75
 70
     0
 62
     6
  6
DASHED2
  0
LAYER
  5
2771B
330
2
100
AcDbSymbolTableRecord
100
AcDbLayerTableRecord
  2
\M+2A4A4\M+2A4DF\M+2BD75
 70
     0
 62
     4
  6
CENTER2
  0
ENDTAB
  0
TABLE
  2
STYLE
  5
3
330
0
100
AcDbSymbolTable
 70
     2
  0
STYLE
  5
11
330
3
100
AcDbSymbolTableRecord
100
AcDbTextStyleTableRecord
  2
STANDARD
 70
     0
 40
0.0
 41
1.0
 50
0.0
 71
     0
 42
2.5
  3
isocp.shx
  4
chineset.shx
  0
STYLE
  5
58
330
3
100
AcDbSymbolTableRecord
100
AcDbTextStyleTableRecord
  2
\M+2ABAC\M+2A6A12
 70
     0
 40
0.0
 41
1.0
 50
0.0
 71
     0
 42
2.5
  3

  4

1001
ACAD
1000
DFKai-SB
1071
    34881
  0
ENDTAB
  0
TABLE
  2
VIEW
  5
6
330
0
100
AcDbSymbolTable
 70
     0
  0
ENDTAB
  0
TABLE
  2
UCS
  5
7
330
0
100
AcDbSymbolTable
 70
     0
  0
ENDTAB
  0
TABLE
  2
APPID
  5
9
330
0
100
AcDbSymbolTable
 70
     3
  0
APPID
  5
12
330
9
100
AcDbSymbolTableRecord
100
AcDbRegAppTableRecord
  2
ACAD
 70
     0
  0
APPID
  5
131A7
330
9
100
AcDbSymbolTableRecord
100
AcDbRegAppTableRecord
  2
CONTENTBLOCKICON
 70
     0
  0
APPID
  5
1B726
330
9
100
AcDbSymbolTableRecord
100
AcDbRegAppTableRecord
  2
TCAD
 70
     0
  0
ENDTAB
  0
TABLE
  2
DIMSTYLE
  5
A
330
0
100
AcDbSymbolTable
 70
     2
  0
DIMSTYLE
105
27
330
A
100
AcDbSymbolTableRecord
100
AcDbDimStyleTableRecord
  2
ISO-25
 70
     0
  3

  4

  5

  6

  7

 40
1.0
 41
1.0
 42
0.7
 43
3.75
 44
0.3
 45
0.0
 46
0.0
 47
0.0
 48
0.0
140
1.199999999999999
141
2.5
142
0.0
143
0.03937007874016
144
1.0
145
0.0
146
1.0
147
0.5
 71
     0
 72
     0
 73
     0
 74
     0
 75
     0
 76
     0
 77
     1
 78
     8
170
     0
171
     3
172
     1
173
     0
174
     0
175
     0
176
     3
177
     3
178
     2
270
     2
271
     2
272
     2
273
     2
274
     3
340
11
275
     0
280
     0
281
     0
282
     0
283
     0
284
     8
285
     0
286
     0
287
     3
288
     0
  0
DIMSTYLE
105
13235
330
A
100
AcDbSymbolTableRecord
100
AcDbDimStyleTableRecord
  2
STANDARD
 70
     0
  3

  4

  5

  6

  7

 40
1.0
 41
0.18
 42
0.0625
 43
0.38
 44
0.18
 45
0.0
 46
0.0
 47
0.0
 48
0.0
140
0.18
141
0.09
142
0.0
143
25.4
144
1.0
145
0.0
146
1.0
147
0.09
 71
     0
 72
     0
 73
     1
 74
     1
 75
     0
 76
     0
 77
     0
 78
     0
170
     0
171
     2
172
     0
173
     0
174
     0
175
     0
176
     0
177
     0
178
     0
270
     2
271
     4
272
     4
273
     2
274
     2
340
11
275
     0
280
     0
281
     0
282
     0
283
     1
284
     0
285
     0
286
     0
287
     3
288
     0
  0
ENDTAB
  0
TABLE
  2
BLOCK_RECORD
  5
1
330
0
100
AcDbSymbolTable
 70
     0
  0
BLOCK_RECORD
  5
1F
102
{ACAD_XDICTIONARY
360
131A3
102
}
330
1
100
AcDbSymbolTableRecord
100
AcDbBlockTableRecord
  2
*MODEL_SPACE
  0
BLOCK_RECORD
  5
1B
102
{ACAD_XDICTIONARY
360
131A1
102
}
330
1
100
AcDbSymbolTableRecord
100
AcDbBlockTableRecord
  2
*PAPER_SPACE
  0
ENDTAB
  0
ENDSEC
  0
SECTION
  2
BLOCKS
  0
BLOCK
  5
20
330
1F
100
AcDbEntity
  8
0
100
AcDbBlockBegin
  2
*MODEL_SPACE
 70
     0
 10
0.0
 20
0.0
 30
0.0
  3
*MODEL_SPACE
  1

  0
ENDBLK
  5
21
330
1F
100
AcDbEntity
  8
0
100
AcDbBlockEnd
  0
BLOCK
  5
1C
330
1B
100
AcDbEntity
 67
     1
  8
0
100
AcDbBlockBegin
  2
*PAPER_SPACE
 70
     0
 10
0.0
 20
0.0
 30
0.0
  3
*PAPER_SPACE
  1

  0
ENDBLK
  5
1D
330
1B
100
AcDbEntity
 67
     1
  8
0
100
AcDbBlockEnd
  0
ENDSEC
  0
SECTION
  2
ENTITIES
  0
TEXT
  5
16C45
330
1F
100
AcDbEntity
  8
0
100
AcDbText
 10
402.9833833530911
 20
20.55058253870038
 30
0.0
 40
13.8518250193501
  1
HGR35T
  7
\M+2ABAC\M+2A6A12
100
AcDbText
  0
LINE
  5
283B9
330
1F
100
AcDbEntity
  8
\M+2A4A4\M+2A4DF\M+2BD75
 48
0.2
100
AcDbLine
 10
58.42018035248168
 20
49.95434758002898
 30
0.0
 11
58.42018035248168
 21
13.61023572918611
 31
0.0
  0
LINE
  5
2841A
330
1F
100
AcDbEntity
  8
\M+2B5EA\M+2BD75
 48
0.3
100
AcDbLine
 10
62.42018035248168
 20
19.45434758002898
 30
0.0
 11
62.42018035248168
 21
35.95434758002898
 31
0.0
  0
LINE
  5
2841B
330
1F
100
AcDbEntity
  8
\M+2B5EA\M+2BD75
 48
0.3
100
AcDbLine
 10
61.82018035248177
 20
19.45434758002898
 30
0.0
 11
61.82018035248177
 21
39.75434758002916
 31
0.0
  0
LINE
  5
2841C
330
1F
100
AcDbEntity
  8
\M+2B5EA\M+2BD75
 48
0.3
100
AcDbLine
 10
62.42018035248168
 20
35.95434758002898
 30
0.0
 11
54.42018035248167
 21
35.95434758002898
 31
0.0
  0
LINE
  5
2841D
330
1F
100
AcDbEntity
  8
\M+2B5EA\M+2BD75
 48
0.3
100
AcDbLine
 10
61.82018035248177
 20
39.75434758002916
 30
0.0
 11
55.02018035248181
 21
39.75434758002916
 31
0.0
  0
LINE
  5
2841E
330
1F
100
AcDbEntity
  8
\M+2B5EA\M+2BD75
 48
0.3
100
AcDbLine
 10
61.82018035248177
 20
39.75434758002916
 30
0.0
 11
58.42018035248168
 21
42.22459217524715
 31
0.0
  0
LINE
  5
2841F
330
1F
100
AcDbEntity
  8
\M+2B5EA\M+2BD75
 48
0.3
100
AcDbLine
 10
54.42018035248167
 20
19.45434758002898
 30
0.0
 11
54.42018035248167
 21
35.95434758002898
 31
0.0
  0
LINE
  5
28420
330
1F
100
AcDbEntity
  8
\M+2B5EA\M+2BD75
 48
0.3
100
AcDbLine
 10
55.02018035248181
 20
19.45434758002898
 30
0.0
 11
55.02018035248181
 21
39.75434758002916
 31
0.0
  0
LINE
  5
28421
330
1F
100
AcDbEntity
  8
\M+2B5EA\M+2BD75
 48
0.3
100
AcDbLine
 10
55.02018035248181
 20
39.75434758002916
 30
0.0
 11
58.42018035248168
 21
42.22459217524715
 31
0.0
  0
LINE
  5
28422
330
1F
100
AcDbEntity
  8
\M+2B5EA\M+2BD75
 48
0.3
100
AcDbLine
 10
62.42018035248168
 20
19.45434758002898
 30
0.0
 11
54.42018035248167
 21
19.45434758002898
 31
0.0
  0
LINE
  5
28423
330
1F
100
AcDbEntity
  8
0
 48
0.3
100
AcDbLine
 10
71.53039088381729
 20
47.95434758002897
 30
0.0
 11
45.31039088381726
 21
47.95434758002897
 31
0.0
  0
LINE
  5
28424
330
1F
100
AcDbEntity
  8
0
100
AcDbLine
 10
45.31039086801729
 20
47.95434758002897
 30
0.0
 11
71.53039089961737
 21
47.95434758002897
 31
0.0
  0
LINE
  5
28425
330
1F
100
AcDbEntity
  8
0
100
AcDbLine
 10
71.53039089971525
 20
47.95434758002897
 30
0.0
 11
45.31039086811517
 21
47.95434758002897
 31
0.0
  0
LINE
  5
28426
330
1F
100
AcDbEntity
  8
0
 48
0.3
100
AcDbLine
 10
45.31039088391525
 20
47.95434758002897
 30
0.0
 11
71.53039088391529
 21
47.95434758002897
 31
0.0
  0
LINE
  5
28427
330
1F
100
AcDbEntity
  8
0
100
AcDbLine
 10
45.31039086806663
 20
47.95434758002897
 30
0.0
 11
71.53039089966672
 21
47.95434758002897
 31
0.0
  0
LINE
  5
2842A
330
1F
100
AcDbEntity
  8
0
 48
0.3
100
AcDbLine
 10
71.53039088386663
 20
47.95434758002897
 30
0.0
 11
45.3103908838666
 21
47.95434758002897
 31
0.0
  0
ARC
  5
2842D
330
1F
100
AcDbEntity
  8
0
100
AcDbCircle
 10
76.8028720553691
 20
36.55986640024252
 30
0.0
 40
5.106622565384762
100
AcDbArc
 50
112.1877279659174
 51
157.8122717107685
  0
ARC
  5
28432
330
1F
100
AcDbEntity
  8
0
100
AcDbCircle
 10
76.8028720553691
 20
49.33882875981521
 30
0.0
 40
5.106622565384762
100
AcDbArc
 50
202.1877282892314
 51
247.8122720340826
  0
LINE
  5
28433
330
1F
100
AcDbEntity
  8
0
 48
0.3
100
AcDbLine
 10
67.17039088381728
 20
18.95434758002897
 30
0.0
 11
73.92039088381728
 21
18.95434758002897
 31
0.0
  0
LINE
  5
28434
330
1F
100
AcDbEntity
  8
0
 48
0.3
100
AcDbLine
 10
67.17039088391527
 20
18.95434758002897
 30
0.0
 11
73.92039088391527
 21
18.95434758002897
 31
0.0
  0
LINE
  5
28438
330
1F
100
AcDbEntity
  8
0
100
AcDbLine
 10
75.42039088391527
 20
25.95432758002903
 30
0.0
 11
70.22039089966665
 21
31.15434758002902
 31
0.0
  0
LINE
  5
2843A
330
1F
100
AcDbEntity
  8
0
 48
0.3
100
AcDbLine
 10
67.17039088381728
 20
18.95434758002897
 30
0.0
 11
66.67039088381727
 21
19.45434758002898
 31
0.0
  0
LINE
  5
2843B
330
1F
100
AcDbEntity
  8
0
 48
0.3
100
AcDbLine
 10
67.17039088391527
 20
18.95434758002897
 30
0.0
 11
66.67039088391527
 21
19.45434758002898
 31
0.0
  0
LINE
  5
2843D
330
1F
100
AcDbEntity
  8
0
 48
0.3
100
AcDbLine
 10
72.07447987872888
 20
38.48843657489078
 30
0.0
 11
70.22039088391534
 21
36.63434758007793
 31
0.0
  0
LINE
  5
2843E
330
1F
100
AcDbEntity
  8
0
100
AcDbLine
 10
72.07447989456671
 20
38.48843657482871
 30
0.0
 11
71.53039089966672
 21
37.94434758002876
 31
0.0
  0
LINE
  5
2843F
330
1F
100
AcDbEntity
  8
0
 48
0.3
100
AcDbLine
 10
72.07447987877742
 20
38.48843657489101
 30
0.0
 11
71.53039088391529
 21
37.94434758002876
 31
0.0
  0
LINE
  5
28440
330
1F
100
AcDbEntity
  8
0
100
AcDbLine
 10
72.07447989461536
 20
38.48843657482871
 30
0.0
 11
71.53039089971537
 21
37.94434758002876
 31
0.0
  0
LINE
  5
28441
330
1F
100
AcDbEntity
  8
0
100
AcDbLine
 10
72.07447989451736
 20
38.48843657482871
 30
0.0
 11
71.53039089961737
 21
37.94434758002876
 31
0.0
  0
LINE
  5
28442
330
1F
100
AcDbEntity
  8
0
 48
0.3
100
AcDbLine
 10
72.07447987867954
 20
38.48843657489101
 30
0.0
 11
71.53039088381729
 21
37.94434758002876
 31
0.0
  0
LINE
  5
28443
330
1F
100
AcDbEntity
  8
0
 48
0.3
100
AcDbLine
 10
72.07447987867954
 20
47.41025858516673
 30
0.0
 11
71.53039088381729
 21
47.95434758002897
 31
0.0
  0
LINE
  5
28444
330
1F
100
AcDbEntity
  8
0
100
AcDbLine
 10
72.07447989451736
 20
47.41025858522903
 30
0.0
 11
71.53039089961737
 21
47.95434758002897
 31
0.0
  0
LINE
  5
28445
330
1F
100
AcDbEntity
  8
0
100
AcDbLine
 10
72.07447989461536
 20
47.41025858522903
 30
0.0
 11
71.53039089971537
 21
47.95434758002897
 31
0.0
  0
LINE
  5
28446
330
1F
100
AcDbEntity
  8
0
 48
0.3
100
AcDbLine
 10
72.07447987877742
 20
47.41025858516673
 30
0.0
 11
71.53039088391529
 21
47.95434758002897
 31
0.0
  0
LINE
  5
28447
330
1F
100
AcDbEntity
  8
0
 48
0.3
100
AcDbLine
 10
70.22039088391534
 20
36.63434758002904
 30
0.0
 11
70.22039088391534
 21
31.15434758002902
 31
0.0
  0
LINE
  5
28448
330
1F
100
AcDbEntity
  8
0
 48
0.3
100
AcDbLine
 10
70.22039088381735
 20
36.63434758002904
 30
0.0
 11
70.22039088381735
 21
31.15434758002902
 31
0.0
  0
LINE
  5
28449
330
1F
100
AcDbEntity
  8
0
100
AcDbLine
 10
70.22039089961731
 20
36.63434758002904
 30
0.0
 11
70.22039089961731
 21
31.15434758002902
 31
0.0
  0
LINE
  5
2844A
330
1F
100
AcDbEntity
  8
0
100
AcDbLine
 10
70.22039089971531
 20
36.63434758002904
 30
0.0
 11
70.22039089971531
 21
31.15434758002902
 31
0.0
  0
LINE
  5
2844B
330
1F
100
AcDbEntity
  8
0
100
AcDbLine
 10
72.07447989456671
 20
47.41025858522903
 30
0.0
 11
71.53039089966672
 21
47.95434758002897
 31
0.0
  0
LINE
  5
2844C
330
1F
100
AcDbEntity
  8
0
 48
0.3
100
AcDbLine
 10
72.07447987872888
 20
47.41025858516695
 30
0.0
 11
71.53039088386663
 21
47.95434758002897
 31
0.0
  0
LINE
  5
28450
330
1F
100
AcDbEntity
  8
0
100
AcDbLine
 10
70.22039089966665
 20
36.63434758002904
 30
0.0
 11
70.22039089966665
 21
31.15434758002902
 31
0.0
  0
LINE
  5
28452
330
1F
100
AcDbEntity
  8
0
 48
0.3
100
AcDbLine
 10
70.22039088386669
 20
36.63434758002904
 30
0.0
 11
70.22039088386669
 21
31.15434758002902
 31
0.0
  0
LINE
  5
28455
330
1F
100
AcDbEntity
  8
0
 48
0.3
100
AcDbLine
 10
75.42039088381727
 20
20.45434758002897
 30
0.0
 11
73.92039088381728
 21
18.95434758002897
 31
0.0
  0
LINE
  5
28456
330
1F
100
AcDbEntity
  8
0
 48
0.3
100
AcDbLine
 10
75.42039088391527
 20
20.45434758002897
 30
0.0
 11
73.92039088391527
 21
18.95434758002897
 31
0.0
  0
LINE
  5
28457
330
1F
100
AcDbEntity
  8
0
 48
0.3
100
AcDbLine
 10
75.42039088386662
 20
41.83434758002863
 30
0.0
 11
74.87430188900441
 21
41.28825858516643
 31
0.0
  0
LINE
  5
28458
330
1F
100
AcDbEntity
  8
0
100
AcDbLine
 10
75.42039089966658
 20
41.83434758002863
 30
0.0
 11
74.87430190476664
 21
41.28825858512868
 31
0.0
  0
LINE
  5
28459
330
1F
100
AcDbEntity
  8
0
 48
0.3
100
AcDbLine
 10
75.42039088391527
 20
41.83434758002863
 30
0.0
 11
74.87430188905307
 21
41.28825858516643
 31
0.0
  0
LINE
  5
2845A
330
1F
100
AcDbEntity
  8
0
100
AcDbLine
 10
75.42039089971524
 20
41.83434758002863
 30
0.0
 11
74.87430190481529
 21
41.28825858512868
 31
0.0
  0
LINE
  5
2845B
330
1F
100
AcDbEntity
  8
0
100
AcDbLine
 10
75.42039089961725
 20
41.83434758002863
 30
0.0
 11
74.8743019047173
 21
41.28825858512868
 31
0.0
  0
LINE
  5
28460
330
1F
100
AcDbEntity
  8
0
 48
0.3
100
AcDbLine
 10
75.42039088381727
 20
44.06434758002911
 30
0.0
 11
75.42039088381727
 21
41.83434758002909
 31
0.0
  0
LINE
  5
28461
330
1F
100
AcDbEntity
  8
0
100
AcDbLine
 10
75.42039089961725
 20
44.06434758002911
 30
0.0
 11
74.8743019047173
 21
44.61043657492905
 31
0.0
  0
LINE
  5
28462
330
1F
100
AcDbEntity
  8
0
100
AcDbLine
 10
75.42039089971524
 20
44.06434758002911
 30
0.0
 11
74.87430190481529
 21
44.61043657492905
 31
0.0
  0
LINE
  5
28463
330
1F
100
AcDbEntity
  8
0
 48
0.3
100
AcDbLine
 10
75.42039088391527
 20
44.06434758002911
 30
0.0
 11
74.87430188905307
 21
44.6104365748913
 31
0.0
  0
LINE
  5
28464
330
1F
100
AcDbEntity
  8
0
 48
0.3
100
AcDbLine
 10
75.42039088381727
 20
25.95432758002903
 30
0.0
 11
75.42039088381727
 21
20.45434758002897
 31
0.0
  0
LINE
  5
28465
330
1F
100
AcDbEntity
  8
0
 48
0.3
100
AcDbLine
 10
75.42039088391527
 20
25.95432758002903
 30
0.0
 11
75.42039088391527
 21
20.45434758002897
 31
0.0
  0
LINE
  5
28466
330
1F
100
AcDbEntity
  8
0
100
AcDbLine
 10
75.42039089966658
 20
44.06434758002911
 30
0.0
 11
74.87430190476664
 21
44.61043657492905
 31
0.0
  0
LINE
  5
28467
330
1F
100
AcDbEntity
  8
0
 48
0.3
100
AcDbLine
 10
75.42039088386662
 20
44.06434758002911
 30
0.0
 11
74.87430188900441
 21
44.6104365748913
 31
0.0
  0
LINE
  5
2846D
330
1F
100
AcDbEntity
  8
0
 48
0.3
100
AcDbLine
 10
49.67039088381728
 20
18.95434758002897
 30
0.0
 11
42.92039088381727
 21
18.95434758002897
 31
0.0
  0
LINE
  5
2846E
330
1F
100
AcDbEntity
  8
0
 48
0.3
100
AcDbLine
 10
49.67039088391527
 20
18.95434758002897
 30
0.0
 11
42.92039088391527
 21
18.95434758002897
 31
0.0
  0
LINE
  5
28473
330
1F
100
AcDbEntity
  8
0
 48
0.3
100
AcDbLine
 10
41.42039088381728
 20
20.45434758002897
 30
0.0
 11
42.92039088381727
 21
18.95434758002897
 31
0.0
  0
LINE
  5
28474
330
1F
100
AcDbEntity
  8
0
 48
0.3
100
AcDbLine
 10
41.42039088391527
 20
20.45434758002897
 30
0.0
 11
42.92039088391527
 21
18.95434758002897
 31
0.0
  0
ARC
  5
28475
330
1F
100
AcDbEntity
  8
0
100
AcDbCircle
 10
40.03790971692104
 20
49.33882875981521
 30
0.0
 40
5.106622565384762
100
AcDbArc
 50
292.1877279659174
 51
337.8122717107685
  0
ARC
  5
28477
330
1F
100
AcDbEntity
  8
0
100
AcDbCircle
 10
40.03790971692104
 20
36.55986640024252
 30
0.0
 40
5.106622565384762
100
AcDbArc
 50
22.18772828923145
 51
67.8122720340826
  0
LINE
  5
28479
330
1F
100
AcDbEntity
  8
0
 48
0.3
100
AcDbLine
 10
41.42039088381728
 20
25.95432758002903
 30
0.0
 11
46.6203908838172
 21
31.15434758002902
 31
0.0
  0
LINE
  5
2847C
330
1F
100
AcDbEntity
  8
0
100
AcDbLine
 10
41.9204091983579
 20
26.45434783346786
 30
0.0
 11
46.62039086806657
 21
31.15434758002902
 31
0.0
  0
LINE
  5
2847F
330
1F
100
AcDbEntity
  8
0
 48
0.3
100
AcDbLine
 10
41.42039088842352
 20
44.06434758002911
 30
0.0
 11
41.96647988328573
 21
44.6104365748913
 31
0.0
  0
LINE
  5
28480
330
1F
100
AcDbEntity
  8
0
100
AcDbLine
 10
41.42039087262344
 20
44.06434758002911
 30
0.0
 11
41.9664798675235
 21
44.61043657492905
 31
0.0
  0
LINE
  5
28481
330
1F
100
AcDbEntity
  8
0
 48
0.3
100
AcDbLine
 10
41.42039088837487
 20
44.06434758002911
 30
0.0
 11
41.96647988323706
 21
44.6104365748913
 31
0.0
  0
LINE
  5
28482
330
1F
100
AcDbEntity
  8
0
100
AcDbLine
 10
41.42039087257479
 20
44.06434758002911
 30
0.0
 11
41.96647986747485
 21
44.61043657492905
 31
0.0
  0
LINE
  5
28483
330
1F
100
AcDbEntity
  8
0
100
AcDbLine
 10
41.42039087267278
 20
44.06434758002911
 30
0.0
 11
41.96647986757284
 21
44.61043657492905
 31
0.0
  0
LINE
  5
28484
330
1F
100
AcDbEntity
  8
0
 48
0.3
100
AcDbLine
 10
41.42039088847286
 20
44.06434758002911
 30
0.0
 11
41.42039088847286
 21
41.83434758002909
 31
0.0
  0
LINE
  5
28489
330
1F
100
AcDbEntity
  8
0
100
AcDbLine
 10
41.42039087267278
 20
41.83434758002863
 30
0.0
 11
41.96647986757284
 21
41.28825858512868
 31
0.0
  0
LINE
  5
2848A
330
1F
100
AcDbEntity
  8
0
100
AcDbLine
 10
41.42039087257479
 20
41.83434758002863
 30
0.0
 11
41.96647986747485
 21
41.28825858512868
 31
0.0
  0
LINE
  5
2848B
330
1F
100
AcDbEntity
  8
0
 48
0.3
100
AcDbLine
 10
41.42039088837487
 20
41.83434758002863
 30
0.0
 11
41.96647988323706
 21
41.28825858516643
 31
0.0
  0
LINE
  5
2848C
330
1F
100
AcDbEntity
  8
0
100
AcDbLine
 10
41.42039087262344
 20
41.83434758002863
 30
0.0
 11
41.9664798675235
 21
41.28825858512868
 31
0.0
  0
LINE
  5
2848D
330
1F
100
AcDbEntity
  8
0
 48
0.3
100
AcDbLine
 10
41.42039088842352
 20
41.83434758002863
 30
0.0
 11
41.96647988328573
 21
41.28825858516643
 31
0.0
  0
LINE
  5
2848E
330
1F
100
AcDbEntity
  8
0
 48
0.3
100
AcDbLine
 10
41.42039088381728
 20
25.95432758002903
 30
0.0
 11
41.42039088381728
 21
20.45434758002897
 31
0.0
  0
LINE
  5
2848F
330
1F
100
AcDbEntity
  8
0
 48
0.3
100
AcDbLine
 10
41.42039088391527
 20
25.95432758002903
 30
0.0
 11
41.42039088391527
 21
20.45434758002897
 31
0.0
  0
LINE
  5
28492
330
1F
100
AcDbEntity
  8
0
 48
0.3
100
AcDbLine
 10
44.76630189356126
 20
47.41025858516695
 30
0.0
 11
45.31039088842351
 21
47.95434758002897
 31
0.0
  0
LINE
  5
28493
330
1F
100
AcDbEntity
  8
0
100
AcDbLine
 10
44.76630187772343
 20
47.41025858522903
 30
0.0
 11
45.31039087262342
 21
47.95434758002897
 31
0.0
  0
LINE
  5
28494
330
1F
100
AcDbEntity
  8
0
 48
0.3
100
AcDbLine
 10
44.76630189351271
 20
47.41025858516673
 30
0.0
 11
45.31039088837485
 21
47.95434758002897
 31
0.0
  0
LINE
  5
28495
330
1F
100
AcDbEntity
  8
0
100
AcDbLine
 10
44.76630187767478
 20
47.41025858522903
 30
0.0
 11
45.31039087257477
 21
47.95434758002897
 31
0.0
  0
LINE
  5
28496
330
1F
100
AcDbEntity
  8
0
100
AcDbLine
 10
44.76630187777277
 20
47.41025858522903
 30
0.0
 11
45.31039087267276
 21
47.95434758002897
 31
0.0
  0
LINE
  5
28497
330
1F
100
AcDbEntity
  8
0
 48
0.3
100
AcDbLine
 10
44.7663018936106
 20
47.41025858516673
 30
0.0
 11
45.31039088847285
 21
47.95434758002897
 31
0.0
  0
LINE
  5
28499
330
1F
100
AcDbEntity
  8
0
 48
0.3
100
AcDbLine
 10
46.62039088842345
 20
36.63434758002904
 30
0.0
 11
46.62039088842345
 21
31.15434758002902
 31
0.0
  0
LINE
  5
2849B
330
1F
100
AcDbEntity
  8
0
100
AcDbLine
 10
46.62039087262349
 20
36.63434758002904
 30
0.0
 11
46.62039087262349
 21
31.15434758002902
 31
0.0
  0
LINE
  5
2849F
330
1F
100
AcDbEntity
  8
0
100
AcDbLine
 10
46.62039087257483
 20
36.63434758002904
 30
0.0
 11
46.62039087257483
 21
31.15434758002902
 31
0.0
  0
LINE
  5
284A0
330
1F
100
AcDbEntity
  8
0
100
AcDbLine
 10
46.62039087267283
 20
36.63434758002904
 30
0.0
 11
46.62039087267283
 21
31.15434758002902
 31
0.0
  0
LINE
  5
284A1
330
1F
100
AcDbEntity
  8
0
 48
0.3
100
AcDbLine
 10
46.62039088847279
 20
36.63434758002904
 30
0.0
 11
46.62039088847279
 21
31.15434758002902
 31
0.0
  0
LINE
  5
284A2
330
1F
100
AcDbEntity
  8
0
 48
0.3
100
AcDbLine
 10
46.6203908883748
 20
36.63434758002904
 30
0.0
 11
46.6203908883748
 21
31.15434758002902
 31
0.0
  0
LINE
  5
284A3
330
1F
100
AcDbEntity
  8
0
 48
0.3
100
AcDbLine
 10
44.7663018936106
 20
38.48843657489101
 30
0.0
 11
45.31039088847285
 21
37.94434758002876
 31
0.0
  0
LINE
  5
284A4
330
1F
100
AcDbEntity
  8
0
100
AcDbLine
 10
44.76630187777277
 20
38.48843657482871
 30
0.0
 11
45.31039087267276
 21
37.94434758002876
 31
0.0
  0
LINE
  5
284A5
330
1F
100
AcDbEntity
  8
0
100
AcDbLine
 10
44.76630187767478
 20
38.48843657482871
 30
0.0
 11
45.31039087257477
 21
37.94434758002876
 31
0.0
  0
LINE
  5
284A6
330
1F
100
AcDbEntity
  8
0
 48
0.3
100
AcDbLine
 10
44.76630189351271
 20
38.48843657489101
 30
0.0
 11
45.31039088837485
 21
37.94434758002876
 31
0.0
  0
LINE
  5
284A7
330
1F
100
AcDbEntity
  8
0
100
AcDbLine
 10
44.76630187772343
 20
38.48843657482871
 30
0.0
 11
45.31039087262342
 21
37.94434758002876
 31
0.0
  0
LINE
  5
284A8
330
1F
100
AcDbEntity
  8
0
 48
0.3
100
AcDbLine
 10
44.76630189356126
 20
38.48843657489078
 30
0.0
 11
46.6203908883748
 21
36.63434758007793
 31
0.0
  0
LINE
  5
284AE
330
1F
100
AcDbEntity
  8
0
 48
0.3
100
AcDbLine
 10
61.67039088381727
 20
18.95434758002897
 30
0.0
 11
55.17039088381728
 21
18.95434758002897
 31
0.0
  0
LINE
  5
284AF
330
1F
100
AcDbEntity
  8
0
 48
0.3
100
AcDbLine
 10
55.17039088391527
 20
18.95434758002897
 30
0.0
 11
61.67039088391527
 21
18.95434758002897
 31
0.0
  0
LINE
  5
284B2
330
1F
100
AcDbEntity
  8
0
 48
0.3
100
AcDbLine
 10
54.67039088381728
 20
19.45434758002898
 30
0.0
 11
55.17039088381728
 21
18.95434758002897
 31
0.0
  0
LINE
  5
284B3
330
1F
100
AcDbEntity
  8
0
 48
0.3
100
AcDbLine
 10
54.67039088391527
 20
19.45434758002898
 30
0.0
 11
55.17039088391527
 21
18.95434758002897
 31
0.0
  0
LINE
  5
284B4
330
1F
100
AcDbEntity
  8
0
 48
0.3
100
AcDbLine
 10
49.67039088381728
 20
18.95434758002897
 30
0.0
 11
50.17039088381728
 21
19.45434758002898
 31
0.0
  0
LINE
  5
284B5
330
1F
100
AcDbEntity
  8
0
 48
0.3
100
AcDbLine
 10
49.67039088391527
 20
18.95434758002897
 30
0.0
 11
50.17039088391527
 21
19.45434758002898
 31
0.0
  0
LINE
  5
284B8
330
1F
100
AcDbEntity
  8
0
 48
0.3
100
AcDbLine
 10
50.17039088381728
 20
19.45434758002898
 30
0.0
 11
54.67039088381728
 21
19.45434758002898
 31
0.0
  0
LINE
  5
284B9
330
1F
100
AcDbEntity
  8
0
 48
0.3
100
AcDbLine
 10
50.17039088391527
 20
19.45434758002898
 30
0.0
 11
54.67039088391527
 21
19.45434758002898
 31
0.0
  0
LINE
  5
284BA
330
1F
100
AcDbEntity
  8
0
 48
0.3
100
AcDbLine
 10
62.17039088381728
 20
19.45434758002898
 30
0.0
 11
61.67039088381727
 21
18.95434758002897
 31
0.0
  0
LINE
  5
284BB
330
1F
100
AcDbEntity
  8
0
 48
0.3
100
AcDbLine
 10
62.17039088391527
 20
19.45434758002898
 30
0.0
 11
61.67039088391527
 21
18.95434758002897
 31
0.0
  0
LINE
  5
284BE
330
1F
100
AcDbEntity
  8
0
 48
0.3
100
AcDbLine
 10
66.67039088381727
 20
19.45434758002898
 30
0.0
 11
62.17039088381728
 21
19.45434758002898
 31
0.0
  0
LINE
  5
284BF
330
1F
100
AcDbEntity
  8
0
 48
0.3
100
AcDbLine
 10
66.67039088391527
 20
19.45434758002898
 30
0.0
 11
62.17039088391527
 21
19.45434758002898
 31
0.0
  0
LINE
  5
284C0
330
1F
100
AcDbEntity
  8
0
100
AcDbLine
 10
133.6809163131519
 20
20.45434758002875
 30
0.0
 11
333.6809163131518
 21
20.45434758002875
 31
0.0
  0
LINE
  5
284C1
330
1F
100
AcDbEntity
  8
0
100
AcDbLine
 10
133.6809163131518
 20
25.9543275800288
 30
0.0
 11
333.6809163131518
 21
25.95432758002857
 31
0.0
  0
LINE
  5
284C2
330
1F
100
AcDbEntity
  8
0
100
AcDbLine
 10
133.6809163131517
 20
18.95434758002897
 30
0.0
 11
333.6809163131519
 21
18.95434758002829
 31
0.0
  0
LINE
  5
284C3
330
1F
100
AcDbEntity
  8
0
100
AcDbLine
 10
133.6809163131518
 20
31.1543475800288
 30
0.0
 11
333.6809163131518
 21
31.15434758002857
 31
0.0
  0
LINE
  5
284C4
330
1F
100
AcDbEntity
  8
0
100
AcDbLine
 10
133.6809163131518
 20
36.63434758002927
 30
0.0
 11
333.6809163131518
 21
36.63434758002904
 31
0.0
  0
LINE
  5
284C5
330
1F
100
AcDbEntity
  8
0
100
AcDbLine
 10
133.6809163131518
 20
38.48843657482871
 30
0.0000000000000142
 11
333.6809163131518
 21
38.48843657482871
 31
0.0000000000000142
  0
LINE
  5
284C6
330
1F
100
AcDbEntity
  8
0
100
AcDbLine
 10
133.6809163131518
 20
41.28825858516643
 30
0.0000000000000142
 11
333.6809163131518
 21
41.28825858516665
 31
0.0000000000000142
  0
LINE
  5
284C7
330
1F
100
AcDbEntity
  8
0
100
AcDbLine
 10
133.6809163131519
 20
44.61043657492905
 30
0.0000000000000142
 11
333.6809163131518
 21
44.61043657492905
 31
0.0000000000000142
  0
LINE
  5
284C8
330
1F
100
AcDbEntity
  8
0
100
AcDbLine
 10
133.6809163131517
 20
47.95434758002875
 30
0.0
 11
333.6809163131519
 21
47.95434758002897
 31
0.0
  0
LINE
  5
284C9
330
1F
100
AcDbEntity
  8
0
100
AcDbLine
 10
133.6809163131519
 20
47.41035118266473
 30
0.0000000000000142
 11
333.6809163131518
 21
47.41035118266473
 31
0.0000000000000142
  0
LINE
  5
284CA
330
1F
100
AcDbEntity
  8
0
  6
CONTINUOUS
 62
     0
 48
0.3
100
AcDbLine
 10
133.6809163131518
 20
18.95434758002897
 30
0.0
 11
133.6809163131518
 21
47.95434758002875
 31
0.0
  0
LINE
  5
284CB
330
1F
100
AcDbEntity
  8
0
  6
CONTINUOUS
 62
     0
 48
0.3
100
AcDbLine
 10
333.6809163131518
 20
18.95434758002875
 30
0.0
 11
333.6809163131518
 21
47.95434758002875
 31
0.0
  0
LINE
  5
284CC
330
1F
100
AcDbEntity
  8
\M+2B5EA\M+2BD75
 48
0.3
100
AcDbLine
 10
150.2809163131519
 20
19.45434758002898
 30
-0.0000000000000142
 11
150.2809163131519
 21
39.75434758002916
 31
-0.0000000000000142
  0
LINE
  5
284CD
330
1F
100
AcDbEntity
  8
\M+2B5EA\M+2BD75
 48
0.3
100
AcDbLine
 10
157.0809163131519
 20
19.45434758002898
 30
-0.0000000000000142
 11
157.0809163131519
 21
39.75434758002916
 31
-0.0000000000000142
  0
LINE
  5
284CE
330
1F
100
AcDbEntity
  8
0
 48
0.3
100
AcDbLine
 10
150.4311268445854
 20
18.95434758002897
 30
-0.0000000000000142
 11
156.9311268445854
 21
18.95434758002897
 31
-0.0000000000000142
  0
LINE
  5
284CF
330
1F
100
AcDbEntity
  8
0
 48
0.3
100
AcDbLine
 10
156.9311268444874
 20
18.95434758002897
 30
-0.0000000000000142
 11
150.4311268444874
 21
18.95434758002897
 31
-0.0000000000000142
  0
LINE
  5
284D0
330
1F
100
AcDbEntity
  8
\M+2B5EA\M+2BD75
 48
0.3
100
AcDbLine
 10
157.6809163131518
 20
19.45434758002898
 30
-0.0000000000000142
 11
149.6809163131518
 21
19.45434758002898
 31
-0.0000000000000142
  0
LINE
  5
284D1
330
1F
100
AcDbEntity
  8
\M+2B5EA\M+2BD75
 48
0.3
100
AcDbLine
 10
157.6809163131518
 20
35.95434758002898
 30
-0.0000000000000142
 11
149.6809163131518
 21
35.95434758002898
 31
-0.0000000000000142
  0
LINE
  5
284D2
330
1F
100
AcDbEntity
  8
0
 48
0.3
100
AcDbLine
 10
149.9311268445854
 20
19.45434758002898
 30
-0.0000000000000142
 11
150.4311268445854
 21
18.95434758002897
 31
-0.0000000000000142
  0
LINE
  5
284D3
330
1F
100
AcDbEntity
  8
0
 48
0.3
100
AcDbLine
 10
149.9311268444874
 20
19.45434758002898
 30
-0.0000000000000142
 11
150.4311268444874
 21
18.95434758002897
 31
-0.0000000000000142
  0
LINE
  5
284D4
330
1F
100
AcDbEntity
  8
\M+2B5EA\M+2BD75
 48
0.3
100
AcDbLine
 10
149.6809163131518
 20
19.45434758002898
 30
-0.0000000000000142
 11
149.6809163131518
 21
35.95434758002898
 31
-0.0000000000000142
  0
LINE
  5
284D5
330
1F
100
AcDbEntity
  8
0
 48
0.3
100
AcDbLine
 10
157.4311268445854
 20
19.45434758002898
 30
-0.0000000000000142
 11
156.9311268445854
 21
18.95434758002897
 31
-0.0000000000000142
  0
LINE
  5
284D6
330
1F
100
AcDbEntity
  8
0
 48
0.3
100
AcDbLine
 10
157.4311268444874
 20
19.45434758002898
 30
-0.0000000000000142
 11
156.9311268444874
 21
18.95434758002897
 31
-0.0000000000000142
  0
LINE
  5
284D7
330
1F
100
AcDbEntity
  8
\M+2B5EA\M+2BD75
 48
0.3
100
AcDbLine
 10
157.6809163131518
 20
19.45434758002898
 30
-0.0000000000000142
 11
157.6809163131518
 21
35.95434758002898
 31
-0.0000000000000142
  0
LINE
  5
284D8
330
1F
100
AcDbEntity
  8
\M+2B5EA\M+2BD75
 48
0.3
100
AcDbLine
 10
157.0809163131519
 20
39.75434758002916
 30
-0.0000000000000142
 11
153.6809163131518
 21
42.22459217524715
 31
-0.0000000000000142
  0
LINE
  5
284D9
330
1F
100
AcDbEntity
  8
\M+2B5EA\M+2BD75
 48
0.3
100
AcDbLine
 10
157.0809163131519
 20
39.75434758002916
 30
-0.0000000000000142
 11
150.2809163131519
 21
39.75434758002916
 31
-0.0000000000000142
  0
LINE
  5
284DA
330
1F
100
AcDbEntity
  8
\M+2B5EA\M+2BD75
 48
0.3
100
AcDbLine
 10
150.2809163131519
 20
39.75434758002916
 30
-0.0000000000000142
 11
153.6809163131518
 21
42.22459217524715
 31
-0.0000000000000142
  0
LINE
  5
284DB
330
1F
100
AcDbEntity
  8
\M+2B5EA\M+2BD75
 48
0.3
100
AcDbLine
 10
230.2809163131519
 20
19.45434758002875
 30
-0.0000000000000142
 11
230.2809163131519
 21
39.75434758002893
 31
-0.0000000000000142
  0
LINE
  5
284DC
330
1F
100
AcDbEntity
  8
\M+2B5EA\M+2BD75
 48
0.3
100
AcDbLine
 10
237.0809163131519
 20
19.45434758002875
 30
-0.0000000000000142
 11
237.0809163131519
 21
39.75434758002893
 31
-0.0000000000000142
  0
LINE
  5
284DD
330
1F
100
AcDbEntity
  8
0
 48
0.3
100
AcDbLine
 10
230.4311268445854
 20
18.95434758002875
 30
-0.0000000000000142
 11
236.9311268445854
 21
18.95434758002875
 31
-0.0000000000000142
  0
LINE
  5
284DE
330
1F
100
AcDbEntity
  8
0
 48
0.3
100
AcDbLine
 10
236.9311268444874
 20
18.95434758002875
 30
-0.0000000000000142
 11
230.4311268444874
 21
18.95434758002875
 31
-0.0000000000000142
  0
LINE
  5
284DF
330
1F
100
AcDbEntity
  8
\M+2B5EA\M+2BD75
 48
0.3
100
AcDbLine
 10
237.6809163131518
 20
19.45434758002875
 30
-0.0000000000000142
 11
229.6809163131518
 21
19.45434758002875
 31
-0.0000000000000142
  0
LINE
  5
284E0
330
1F
100
AcDbEntity
  8
\M+2B5EA\M+2BD75
 48
0.3
100
AcDbLine
 10
237.6809163131518
 20
35.95434758002875
 30
-0.0000000000000142
 11
229.6809163131518
 21
35.95434758002875
 31
-0.0000000000000142
  0
LINE
  5
284E1
330
1F
100
AcDbEntity
  8
0
 48
0.3
100
AcDbLine
 10
229.9311268445854
 20
19.45434758002875
 30
-0.0000000000000142
 11
230.4311268445854
 21
18.95434758002875
 31
-0.0000000000000142
  0
LINE
  5
284E2
330
1F
100
AcDbEntity
  8
0
 48
0.3
100
AcDbLine
 10
229.9311268444874
 20
19.45434758002875
 30
-0.0000000000000142
 11
230.4311268444874
 21
18.95434758002875
 31
-0.0000000000000142
  0
LINE
  5
284E3
330
1F
100
AcDbEntity
  8
\M+2B5EA\M+2BD75
 48
0.3
100
AcDbLine
 10
229.6809163131518
 20
19.45434758002875
 30
-0.0000000000000142
 11
229.6809163131518
 21
35.95434758002875
 31
-0.0000000000000142
  0
LINE
  5
284E4
330
1F
100
AcDbEntity
  8
0
 48
0.3
100
AcDbLine
 10
237.4311268445854
 20
19.45434758002875
 30
-0.0000000000000142
 11
236.9311268445854
 21
18.95434758002875
 31
-0.0000000000000142
  0
LINE
  5
284E5
330
1F
100
AcDbEntity
  8
0
 48
0.3
100
AcDbLine
 10
237.4311268444874
 20
19.45434758002875
 30
-0.0000000000000142
 11
236.9311268444874
 21
18.95434758002875
 31
-0.0000000000000142
  0
LINE
  5
284E6
330
1F
100
AcDbEntity
  8
\M+2B5EA\M+2BD75
 48
0.3
100
AcDbLine
 10
237.6809163131518
 20
19.45434758002875
 30
-0.0000000000000142
 11
237.6809163131518
 21
35.95434758002875
 31
-0.0000000000000142
  0
LINE
  5
284E7
330
1F
100
AcDbEntity
  8
\M+2B5EA\M+2BD75
 48
0.3
100
AcDbLine
 10
237.0809163131519
 20
39.75434758002893
 30
-0.0000000000000142
 11
233.6809163131518
 21
42.22459217524693
 31
-0.0000000000000142
  0
LINE
  5
284E8
330
1F
100
AcDbEntity
  8
\M+2B5EA\M+2BD75
 48
0.3
100
AcDbLine
 10
237.0809163131519
 20
39.75434758002893
 30
-0.0000000000000142
 11
230.2809163131519
 21
39.75434758002893
 31
-0.0000000000000142
  0
LINE
  5
284E9
330
1F
100
AcDbEntity
  8
\M+2B5EA\M+2BD75
 48
0.3
100
AcDbLine
 10
230.2809163131519
 20
39.75434758002893
 30
-0.0000000000000142
 11
233.6809163131518
 21
42.22459217524693
 31
-0.0000000000000142
  0
LINE
  5
284EA
330
1F
100
AcDbEntity
  8
\M+2B5EA\M+2BD75
 48
0.3
100
AcDbLine
 10
310.2809163131519
 20
19.45434758002898
 30
-0.0000000000000142
 11
310.2809163131519
 21
39.75434758002916
 31
-0.0000000000000142
  0
LINE
  5
284EB
330
1F
100
AcDbEntity
  8
\M+2B5EA\M+2BD75
 48
0.3
100
AcDbLine
 10
317.0809163131519
 20
19.45434758002898
 30
-0.0000000000000142
 11
317.0809163131519
 21
39.75434758002916
 31
-0.0000000000000142
  0
LINE
  5
284EC
330
1F
100
AcDbEntity
  8
0
 48
0.3
100
AcDbLine
 10
310.4311268445854
 20
18.95434758002897
 30
-0.0000000000000142
 11
316.9311268445854
 21
18.95434758002897
 31
-0.0000000000000142
  0
LINE
  5
284ED
330
1F
100
AcDbEntity
  8
0
 48
0.3
100
AcDbLine
 10
316.9311268444874
 20
18.95434758002897
 30
-0.0000000000000142
 11
310.4311268444874
 21
18.95434758002897
 31
-0.0000000000000142
  0
LINE
  5
284EE
330
1F
100
AcDbEntity
  8
\M+2B5EA\M+2BD75
 48
0.3
100
AcDbLine
 10
317.6809163131518
 20
19.45434758002898
 30
-0.0000000000000142
 11
309.6809163131518
 21
19.45434758002898
 31
-0.0000000000000142
  0
LINE
  5
284EF
330
1F
100
AcDbEntity
  8
\M+2B5EA\M+2BD75
 48
0.3
100
AcDbLine
 10
317.6809163131518
 20
35.95434758002898
 30
-0.0000000000000142
 11
309.6809163131518
 21
35.95434758002898
 31
-0.0000000000000142
  0
LINE
  5
284F0
330
1F
100
AcDbEntity
  8
0
 48
0.3
100
AcDbLine
 10
309.9311268445854
 20
19.45434758002898
 30
-0.0000000000000142
 11
310.4311268445854
 21
18.95434758002897
 31
-0.0000000000000142
  0
LINE
  5
284F1
330
1F
100
AcDbEntity
  8
0
 48
0.3
100
AcDbLine
 10
309.9311268444874
 20
19.45434758002898
 30
-0.0000000000000142
 11
310.4311268444874
 21
18.95434758002897
 31
-0.0000000000000142
  0
LINE
  5
284F2
330
1F
100
AcDbEntity
  8
\M+2B5EA\M+2BD75
 48
0.3
100
AcDbLine
 10
309.6809163131518
 20
19.45434758002898
 30
-0.0000000000000142
 11
309.6809163131518
 21
35.95434758002898
 31
-0.0000000000000142
  0
LINE
  5
284F3
330
1F
100
AcDbEntity
  8
0
 48
0.3
100
AcDbLine
 10
317.4311268445854
 20
19.45434758002898
 30
-0.0000000000000142
 11
316.9311268445854
 21
18.95434758002897
 31
-0.0000000000000142
  0
LINE
  5
284F4
330
1F
100
AcDbEntity
  8
0
 48
0.3
100
AcDbLine
 10
317.4311268444874
 20
19.45434758002898
 30
-0.0000000000000142
 11
316.9311268444874
 21
18.95434758002897
 31
-0.0000000000000142
  0
LINE
  5
284F5
330
1F
100
AcDbEntity
  8
\M+2B5EA\M+2BD75
 48
0.3
100
AcDbLine
 10
317.6809163131518
 20
19.45434758002898
 30
-0.0000000000000142
 11
317.6809163131518
 21
35.95434758002898
 31
-0.0000000000000142
  0
LINE
  5
284F6
330
1F
100
AcDbEntity
  8
\M+2B5EA\M+2BD75
 48
0.3
100
AcDbLine
 10
317.0809163131519
 20
39.75434758002916
 30
-0.0000000000000142
 11
313.6809163131518
 21
42.22459217524715
 31
-0.0000000000000142
  0
LINE
  5
284F7
330
1F
100
AcDbEntity
  8
\M+2B5EA\M+2BD75
 48
0.3
100
AcDbLine
 10
317.0809163131519
 20
39.75434758002916
 30
-0.0000000000000142
 11
310.2809163131519
 21
39.75434758002916
 31
-0.0000000000000142
  0
LINE
  5
284F8
330
1F
100
AcDbEntity
  8
\M+2B5EA\M+2BD75
 48
0.3
100
AcDbLine
 10
310.2809163131519
 20
39.75434758002916
 30
-0.0000000000000142
 11
313.6809163131518
 21
42.22459217524715
 31
-0.0000000000000142
  0
LINE
  5
284F9
330
1F
100
AcDbEntity
  8
\M+2A4A4\M+2A4DF\M+2BD75
 48
0.2
100
AcDbLine
 10
153.6809163131518
 20
49.95434758002898
 30
-0.0000000000000142
 11
153.6809163131518
 21
13.61023572918611
 31
-0.0000000000000142
  0
LINE
  5
284FA
330
1F
100
AcDbEntity
  8
\M+2A4A4\M+2A4DF\M+2BD75
 48
0.2
100
AcDbLine
 10
233.6809163131518
 20
49.95434758002875
 30
-0.0000000000000142
 11
233.6809163131518
 21
13.61023572918588
 31
-0.0000000000000142
  0
LINE
  5
284FB
330
1F
100
AcDbEntity
  8
\M+2A4A4\M+2A4DF\M+2BD75
 48
0.2
100
AcDbLine
 10
313.6809163131518
 20
49.95434758002898
 30
-0.0000000000000142
 11
313.6809163131518
 21
13.61023572918611
 31
-0.0000000000000142
  0
ENDSEC
  0
SECTION
  2
OBJECTS
  0
DICTIONARY
  5
C
330
0
100
AcDbDictionary
  3
ACAD_COLOR
350
13437
  3
ACAD_GROUP
350
D
  3
ACAD_LAYOUT
350
1A
  3
ACAD_MATERIAL
350
13436
  3
ACAD_MLINESTYLE
350
17
  3
ACAD_PLOTSETTINGS
350
19
  3
ACAD_PLOTSTYLENAME
350
E
  3
ACDBHEADERROUNDTRIPXREC
350
2AF19
  3
ACDBVARIABLEDICTIONARY
350
4E
  0
DICTIONARY
  5
DDEF
330
2
100
AcDbDictionary
280
     1
  3
ACAD_LAYERFILTERS
360
E68E
  3
ACAD_LAYERSTATES
360
DDF0
  0
DICTIONARY
  5
131A3
330
1F
100
AcDbDictionary
280
     1
  3
ACAD_LAYOUTSELFREF
360
2AF3A
  0
DICTIONARY
  5
131A1
330
1B
100
AcDbDictionary
280
     1
  3
ACAD_LAYOUTSELFREF
360
2AF39
  0
DICTIONARY
  5
13437
102
{ACAD_REACTORS
330
C
102
}
330
C
100
AcDbDictionary
  0
DICTIONARY
  5
D
102
{ACAD_REACTORS
330
C
102
}
330
C
100
AcDbDictionary
  3
*A1
350
DDE2
  3
*A10
350
14FE2
  3
*A11
350
14FE3
  3
*A12
350
14FD9
  3
*A13
350
167FE
  3
*A14
350
DDEB
  3
*A15
350
DDEE
  3
*A16
350
145F0
  3
*A17
350
167FF
  3
*A18
350
16800
  3
*A19
350
16801
  3
*A2
350
14FDE
  3
*A20
350
16802
  3
*A21
350
13CCB
  3
*A22
350
13CCD
  3
*A23
350
14FDA
  3
*A24
350
16803
  3
*A25
350
16804
  3
*A26
350
DDE7
  3
*A27
350
16805
  3
*A28
350
13CD2
  3
*A29
350
145E5
  3
*A3
350
14FDF
  3
*A30
350
16806
  3
*A31
350
16807
  3
*A32
350
13CC7
  3
*A33
350
16808
  3
*A34
350
145E9
  3
*A35
350
145EB
  3
*A36
350
16809
  3
*A37
350
1680A
  3
*A38
350
13CCE
  3
*A39
350
DDE8
  3
*A4
350
145EF
  3
*A40
350
145F1
  3
*A41
350
DDE9
  3
*A42
350
DDEA
  3
*A43
350
145E6
  3
*A44
350
13CC8
  3
*A45
350
14FDB
  3
*A46
350
13CC9
  3
*A47
350
13CCA
  3
*A48
350
145EC
  3
*A49
350
13CCF
  3
*A5
350
14FE0
  3
*A50
350
13CD0
  3
*A51
350
13CD1
  3
*A52
350
DDE5
  3
*A53
350
145E7
  3
*A54
350
DDE4
  3
*A55
350
145E8
  3
*A56
350
DDED
  3
*A57
350
145ED
  3
*A58
350
DDEC
  3
*A59
350
145EE
  3
*A6
350
DDE3
  3
*A60
350
14FD7
  3
*A61
350
13CCC
  3
*A62
350
14FD8
  3
*A63
350
14FDC
  3
*A64
350
13CD3
  3
*A65
350
14FDD
  3
*A7
350
DDE6
  3
*A8
350
145EA
  3
*A9
350
14FE1
  0
DICTIONARY
  5
1A
102
{ACAD_REACTORS
330
C
102
}
330
C
100
AcDbDictionary
  0
DICTIONARY
  5
13436
102
{ACAD_REACTORS
330
C
102
}
330
C
100
AcDbDictionary
  0
DICTIONARY
  5
17
102
{ACAD_REACTORS
330
C
102
}
330
C
100
AcDbDictionary
  3
STANDARD
350
18
  0
DICTIONARY
  5
19
102
{ACAD_REACTORS
330
C
102
}
330
C
100
AcDbDictionary
  3
LANSRO
350
1AB
  0
ACDBDICTIONARYWDFLT
  5
E
102
{ACAD_REACTORS
330
C
102
}
330
C
100
AcDbDictionary
281
     1
  3
Normal
350
F
100
AcDbDictionaryWithDefault
340
F
  0
DICTIONARY
  5
2AF19
102
{ACAD_REACTORS
330
C
102
}
330
C
100
AcDbDictionary
  3
CEPSNTYPE
350
2AF23
  3
FINGERPRINTGUID
350
2AF24
  3
HYPERLINKBASE
350
2AF1C
  3
INSUNITS
350
2AF22
  3
LAYOUTDICT
350
2AF1E
  3
LWETCUNION
350
2AF21
  3
PLOTSETDICT
350
2AF1F
  3
PLOTSTYLNAMDICT
350
2AF20
  3
PSVPSCALE
350
2AF26
  3
PUCSBASE
350
2AF29
  3
PUCSORGBACK
350
2AF2F
  3
PUCSORGBOTTOM
350
2AF2B
  3
PUCSORGFRONT
350
2AF2E
  3
PUCSORGLEFT
350
2AF2C
  3
PUCSORGRIGHT
350
2AF2D
  3
PUCSORGTOP
350
2AF2A
  3
PUCSORTHOREF
350
2AF27
  3
PUCSORTHOVIEW
350
2AF28
  3
STYLESHEET
350
2AF1D
  3
TSTACKALIGN
350
2AF1A
  3
TSTACKSIZE
350
2AF1B
  3
UCSBASE
350
2AF32
  3
UCSORGBACK
350
2AF38
  3
UCSORGBOTTOM
350
2AF34
  3
UCSORGFRONT
350
2AF37
  3
UCSORGLEFT
350
2AF35
  3
UCSORGRIGHT
350
2AF36
  3
UCSORGTOP
350
2AF33
  3
UCSORTHOREF
350
2AF30
  3
UCSORTHOVIEW
350
2AF31
  3
VERSIONGUID
350
2AF25
  0
DICTIONARY
  5
4E
102
{ACAD_REACTORS
330
C
102
}
330
C
100
AcDbDictionary
  3
DIMASSOC
350
1350B
  3
PROJECTNAME
350
1350C
  3
SORTENTS
350
4F
  0
DICTIONARY
  5
E68E
102
{ACAD_REACTORS
330
DDEF
102
}
330
DDEF
100
AcDbDictionary
280
     1
  0
DICTIONARY
  5
DDF0
102
{ACAD_REACTORS
330
DDEF
102
}
330
DDEF
100
AcDbDictionary
  0
XRECORD
  5
2AF3A
102
{ACAD_REACTORS
330
131A3
102
}
330
131A3
100
AcDbXrecord
340
1F
  0
XRECORD
  5
2AF39
102
{ACAD_REACTORS
330
131A1
102
}
330
131A1
100
AcDbXrecord
340
1B
  0
GROUP
  5
DDE2
102
{ACAD_REACTORS
330
D
102
}
330
D
100
AcDbGroup
300

 70
     1
 71
     1
  0
GROUP
  5
14FE2
102
{ACAD_REACTORS
330
D
102
}
330
D
100
AcDbGroup
300

 70
     1
 71
     1
  0
GROUP
  5
14FE3
102
{ACAD_REACTORS
330
D
102
}
330
D
100
AcDbGroup
300

 70
     1
 71
     1
  0
GROUP
  5
14FD9
102
{ACAD_REACTORS
330
D
102
}
330
D
100
AcDbGroup
300

 70
     1
 71
     1
  0
GROUP
  5
167FE
102
{ACAD_REACTORS
330
D
102
}
330
D
100
AcDbGroup
300

 70
     1
 71
     1
  0
GROUP
  5
DDEB
102
{ACAD_REACTORS
330
D
102
}
330
D
100
AcDbGroup
300

 70
     1
 71
     1
  0
GROUP
  5
DDEE
102
{ACAD_REACTORS
330
D
102
}
330
D
100
AcDbGroup
300

 70
     1
 71
     1
  0
GROUP
  5
145F0
102
{ACAD_REACTORS
330
D
102
}
330
D
100
AcDbGroup
300

 70
     1
 71
     1
  0
GROUP
  5
167FF
102
{ACAD_REACTORS
330
D
102
}
330
D
100
AcDbGroup
300

 70
     1
 71
     1
  0
GROUP
  5
16800
102
{ACAD_REACTORS
330
D
102
}
330
D
100
AcDbGroup
300

 70
     1
 71
     1
  0
GROUP
  5
16801
102
{ACAD_REACTORS
330
D
102
}
330
D
100
AcDbGroup
300

 70
     1
 71
     1
  0
GROUP
  5
14FDE
102
{ACAD_REACTORS
330
D
102
}
330
D
100
AcDbGroup
300

 70
     1
 71
     1
  0
GROUP
  5
16802
102
{ACAD_REACTORS
330
D
102
}
330
D
100
AcDbGroup
300

 70
     1
 71
     1
  0
GROUP
  5
13CCB
102
{ACAD_REACTORS
330
D
102
}
330
D
100
AcDbGroup
300

 70
     1
 71
     1
  0
GROUP
  5
13CCD
102
{ACAD_REACTORS
330
D
102
}
330
D
100
AcDbGroup
300

 70
     1
 71
     1
  0
GROUP
  5
14FDA
102
{ACAD_REACTORS
330
D
102
}
330
D
100
AcDbGroup
300

 70
     1
 71
     1
  0
GROUP
  5
16803
102
{ACAD_REACTORS
330
D
102
}
330
D
100
AcDbGroup
300

 70
     1
 71
     1
  0
GROUP
  5
16804
102
{ACAD_REACTORS
330
D
102
}
330
D
100
AcDbGroup
300

 70
     1
 71
     1
  0
GROUP
  5
DDE7
102
{ACAD_REACTORS
330
D
102
}
330
D
100
AcDbGroup
300

 70
     1
 71
     1
  0
GROUP
  5
16805
102
{ACAD_REACTORS
330
D
102
}
330
D
100
AcDbGroup
300

 70
     1
 71
     1
  0
GROUP
  5
13CD2
102
{ACAD_REACTORS
330
D
102
}
330
D
100
AcDbGroup
300

 70
     1
 71
     1
  0
GROUP
  5
145E5
102
{ACAD_REACTORS
330
D
102
}
330
D
100
AcDbGroup
300

 70
     1
 71
     1
  0
GROUP
  5
14FDF
102
{ACAD_REACTORS
330
D
102
}
330
D
100
AcDbGroup
300

 70
     1
 71
     1
  0
GROUP
  5
16806
102
{ACAD_REACTORS
330
D
102
}
330
D
100
AcDbGroup
300

 70
     1
 71
     1
  0
GROUP
  5
16807
102
{ACAD_REACTORS
330
D
102
}
330
D
100
AcDbGroup
300

 70
     1
 71
     1
  0
GROUP
  5
13CC7
102
{ACAD_REACTORS
330
D
102
}
330
D
100
AcDbGroup
300

 70
     1
 71
     1
  0
GROUP
  5
16808
102
{ACAD_REACTORS
330
D
102
}
330
D
100
AcDbGroup
300

 70
     1
 71
     1
  0
GROUP
  5
145E9
102
{ACAD_REACTORS
330
D
102
}
330
D
100
AcDbGroup
300

 70
     1
 71
     1
  0
GROUP
  5
145EB
102
{ACAD_REACTORS
330
D
102
}
330
D
100
AcDbGroup
300

 70
     1
 71
     1
  0
GROUP
  5
16809
102
{ACAD_REACTORS
330
D
102
}
330
D
100
AcDbGroup
300

 70
     1
 71
     1
  0
GROUP
  5
1680A
102
{ACAD_REACTORS
330
D
102
}
330
D
100
AcDbGroup
300

 70
     1
 71
     1
  0
GROUP
  5
13CCE
102
{ACAD_REACTORS
330
D
102
}
330
D
100
AcDbGroup
300

 70
     1
 71
     1
  0
GROUP
  5
DDE8
102
{ACAD_REACTORS
330
D
102
}
330
D
100
AcDbGroup
300

 70
     1
 71
     1
  0
GROUP
  5
145EF
102
{ACAD_REACTORS
330
D
102
}
330
D
100
AcDbGroup
300

 70
     1
 71
     1
  0
GROUP
  5
145F1
102
{ACAD_REACTORS
330
D
102
}
330
D
100
AcDbGroup
300

 70
     1
 71
     1
  0
GROUP
  5
DDE9
102
{ACAD_REACTORS
330
D
102
}
330
D
100
AcDbGroup
300

 70
     1
 71
     1
  0
GROUP
  5
DDEA
102
{ACAD_REACTORS
330
D
102
}
330
D
100
AcDbGroup
300

 70
     1
 71
     1
  0
GROUP
  5
145E6
102
{ACAD_REACTORS
330
D
102
}
330
D
100
AcDbGroup
300

 70
     1
 71
     1
  0
GROUP
  5
13CC8
102
{ACAD_REACTORS
330
D
102
}
330
D
100
AcDbGroup
300

 70
     1
 71
     1
  0
GROUP
  5
14FDB
102
{ACAD_REACTORS
330
D
102
}
330
D
100
AcDbGroup
300

 70
     1
 71
     1
  0
GROUP
  5
13CC9
102
{ACAD_REACTORS
330
D
102
}
330
D
100
AcDbGroup
300

 70
     1
 71
     1
  0
GROUP
  5
13CCA
102
{ACAD_REACTORS
330
D
102
}
330
D
100
AcDbGroup
300

 70
     1
 71
     1
  0
GROUP
  5
145EC
102
{ACAD_REACTORS
330
D
102
}
330
D
100
AcDbGroup
300

 70
     1
 71
     1
  0
GROUP
  5
13CCF
102
{ACAD_REACTORS
330
D
102
}
330
D
100
AcDbGroup
300

 70
     1
 71
     1
  0
GROUP
  5
14FE0
102
{ACAD_REACTORS
330
D
102
}
330
D
100
AcDbGroup
300

 70
     1
 71
     1
  0
GROUP
  5
13CD0
102
{ACAD_REACTORS
330
D
102
}
330
D
100
AcDbGroup
300

 70
     1
 71
     1
  0
GROUP
  5
13CD1
102
{ACAD_REACTORS
330
D
102
}
330
D
100
AcDbGroup
300

 70
     1
 71
     1
  0
GROUP
  5
DDE5
102
{ACAD_REACTORS
330
D
102
}
330
D
100
AcDbGroup
300

 70
     1
 71
     1
  0
GROUP
  5
145E7
102
{ACAD_REACTORS
330
D
102
}
330
D
100
AcDbGroup
300

 70
     1
 71
     1
  0
GROUP
  5
DDE4
102
{ACAD_REACTORS
330
D
102
}
330
D
100
AcDbGroup
300

 70
     1
 71
     1
  0
GROUP
  5
145E8
102
{ACAD_REACTORS
330
D
102
}
330
D
100
AcDbGroup
300

 70
     1
 71
     1
  0
GROUP
  5
DDED
102
{ACAD_REACTORS
330
D
102
}
330
D
100
AcDbGroup
300

 70
     1
 71
     1
  0
GROUP
  5
145ED
102
{ACAD_REACTORS
330
D
102
}
330
D
100
AcDbGroup
300

 70
     1
 71
     1
  0
GROUP
  5
DDEC
102
{ACAD_REACTORS
330
D
102
}
330
D
100
AcDbGroup
300

 70
     1
 71
     1
  0
GROUP
  5
145EE
102
{ACAD_REACTORS
330
D
102
}
330
D
100
AcDbGroup
300

 70
     1
 71
     1
  0
GROUP
  5
DDE3
102
{ACAD_REACTORS
330
D
102
}
330
D
100
AcDbGroup
300

 70
     1
 71
     1
  0
GROUP
  5
14FD7
102
{ACAD_REACTORS
330
D
102
}
330
D
100
AcDbGroup
300

 70
     1
 71
     1
  0
GROUP
  5
13CCC
102
{ACAD_REACTORS
330
D
102
}
330
D
100
AcDbGroup
300

 70
     1
 71
     1
  0
GROUP
  5
14FD8
102
{ACAD_REACTORS
330
D
102
}
330
D
100
AcDbGroup
300

 70
     1
 71
     1
  0
GROUP
  5
14FDC
102
{ACAD_REACTORS
330
D
102
}
330
D
100
AcDbGroup
300

 70
     1
 71
     1
  0
GROUP
  5
13CD3
102
{ACAD_REACTORS
330
D
102
}
330
D
100
AcDbGroup
300

 70
     1
 71
     1
  0
GROUP
  5
14FDD
102
{ACAD_REACTORS
330
D
102
}
330
D
100
AcDbGroup
300

 70
     1
 71
     1
  0
GROUP
  5
DDE6
102
{ACAD_REACTORS
330
D
102
}
330
D
100
AcDbGroup
300

 70
     1
 71
     1
  0
GROUP
  5
145EA
102
{ACAD_REACTORS
330
D
102
}
330
D
100
AcDbGroup
300

 70
     1
 71
     1
  0
GROUP
  5
14FE1
102
{ACAD_REACTORS
330
D
102
}
330
D
100
AcDbGroup
300

 70
     1
 71
     1
  0
MLINESTYLE
  5
18
102
{ACAD_REACTORS
330
17
102
}
330
17
100
AcDbMlineStyle
  2
STANDARD
 70
     0
  3

 62
   256
 51
90.0
 52
90.0
 71
     2
 49
0.5
 62
   256
  6
BYLAYER
 49
-0.5
 62
   256
  6
BYLAYER
  0
PLOTSETTINGS
  5
1AB
102
{ACAD_XDICTIONARY
360
13503
102
}
102
{ACAD_REACTORS
330
19
102
}
330
19
100
AcDbPlotSettings
  1
LANSRO
  2
\\1260\HP2200
  4
A4
  6

 40
6.043083190917967
 41
6.762742042541503
 42
7.736419677734375
 43
5.027069091796875
 44
209.9733276367186
 45
296.9683227539062
 46
5.15
 47
0.0
 48
0.0
 49
0.0
140
0.0
141
0.0
142
1.0
143
0.8829829263240881
 70
  1716
 72
     1
 73
     1
 74
     0
  7
AAA.ctb
 75
     0
147
1.132524729739748
148
-132.2970149058029
149
-71.78507365635891
  0
ACDBPLACEHOLDER
  5
F
102
{ACAD_REACTORS
330
E
102
}
330
E
100
AcDbPlaceHolder
280
     0
  0
XRECORD
  5
2AF23
102
{ACAD_REACTORS
330
2AF19
102
}
330
2AF19
100
AcDbXrecord
 90
        0
  0
XRECORD
  5
2AF24
102
{ACAD_REACTORS
330
2AF19
102
}
330
2AF19
100
AcDbXrecord
  1
{39E6D4C8-9137-4BAE-85E5-615910EF8948}
  0
XRECORD
  5
2AF1C
102
{ACAD_REACTORS
330
2AF19
102
}
330
2AF19
100
AcDbXrecord
  1

  0
XRECORD
  5
2AF22
102
{ACAD_REACTORS
330
2AF19
102
}
330
2AF19
100
AcDbXrecord
 90
        4
  0
XRECORD
  5
2AF1E
102
{ACAD_REACTORS
330
2AF19
102
}
330
2AF19
100
AcDbXrecord
340
1A
  0
XRECORD
  5
2AF21
102
{ACAD_REACTORS
330
2AF19
102
}
330
2AF19
100
AcDbXrecord
 90
    10783
  0
XRECORD
  5
2AF1F
102
{ACAD_REACTORS
330
2AF19
102
}
330
2AF19
100
AcDbXrecord
340
19
  0
XRECORD
  5
2AF20
102
{ACAD_REACTORS
330
2AF19
102
}
330
2AF19
100
AcDbXrecord
340
E
  0
XRECORD
  5
2AF26
102
{ACAD_REACTORS
330
2AF19
102
}
330
2AF19
100
AcDbXrecord
 40
0.0
  0
XRECORD
  5
2AF29
102
{ACAD_REACTORS
330
2AF19
102
}
330
2AF19
100
AcDbXrecord
340
0
  0
XRECORD
  5
2AF2F
102
{ACAD_REACTORS
330
2AF19
102
}
330
2AF19
100
AcDbXrecord
 10
0.0
 20
0.0
 30
0.0
  0
XRECORD
  5
2AF2B
102
{ACAD_REACTORS
330
2AF19
102
}
330
2AF19
100
AcDbXrecord
 10
0.0
 20
0.0
 30
0.0
  0
XRECORD
  5
2AF2E
102
{ACAD_REACTORS
330
2AF19
102
}
330
2AF19
100
AcDbXrecord
 10
0.0
 20
0.0
 30
0.0
  0
XRECORD
  5
2AF2C
102
{ACAD_REACTORS
330
2AF19
102
}
330
2AF19
100
AcDbXrecord
 10
0.0
 20
0.0
 30
0.0
  0
XRECORD
  5
2AF2D
102
{ACAD_REACTORS
330
2AF19
102
}
330
2AF19
100
AcDbXrecord
 10
0.0
 20
0.0
 30
0.0
  0
XRECORD
  5
2AF2A
102
{ACAD_REACTORS
330
2AF19
102
}
330
2AF19
100
AcDbXrecord
 10
0.0
 20
0.0
 30
0.0
  0
XRECORD
  5
2AF27
102
{ACAD_REACTORS
330
2AF19
102
}
330
2AF19
100
AcDbXrecord
340
0
  0
XRECORD
  5
2AF28
102
{ACAD_REACTORS
330
2AF19
102
}
330
2AF19
100
AcDbXrecord
 70
     0
  0
XRECORD
  5
2AF1D
102
{ACAD_REACTORS
330
2AF19
102
}
330
2AF19
100
AcDbXrecord
  1
AAA.ctb
  0
XRECORD
  5
2AF1A
102
{ACAD_REACTORS
330
2AF19
102
}
330
2AF19
100
AcDbXrecord
 90
        1
  0
XRECORD
  5
2AF1B
102
{ACAD_REACTORS
330
2AF19
102
}
330
2AF19
100
AcDbXrecord
 90
       70
  0
XRECORD
  5
2AF32
102
{ACAD_REACTORS
330
2AF19
102
}
330
2AF19
100
AcDbXrecord
340
0
  0
XRECORD
  5
2AF38
102
{ACAD_REACTORS
330
2AF19
102
}
330
2AF19
100
AcDbXrecord
 10
0.0
 20
0.0
 30
0.0
  0
XRECORD
  5
2AF34
102
{ACAD_REACTORS
330
2AF19
102
}
330
2AF19
100
AcDbXrecord
 10
0.0
 20
0.0
 30
0.0
  0
XRECORD
  5
2AF37
102
{ACAD_REACTORS
330
2AF19
102
}
330
2AF19
100
AcDbXrecord
 10
0.0
 20
0.0
 30
0.0
  0
XRECORD
  5
2AF35
102
{ACAD_REACTORS
330
2AF19
102
}
330
2AF19
100
AcDbXrecord
 10
0.0
 20
0.0
 30
0.0
  0
XRECORD
  5
2AF36
102
{ACAD_REACTORS
330
2AF19
102
}
330
2AF19
100
AcDbXrecord
 10
0.0
 20
0.0
 30
0.0
  0
XRECORD
  5
2AF33
102
{ACAD_REACTORS
330
2AF19
102
}
330
2AF19
100
AcDbXrecord
 10
0.0
 20
0.0
 30
0.0
  0
XRECORD
  5
2AF30
102
{ACAD_REACTORS
330
2AF19
102
}
330
2AF19
100
AcDbXrecord
340
0
  0
XRECORD
  5
2AF31
102
{ACAD_REACTORS
330
2AF19
102
}
330
2AF19
100
AcDbXrecord
 70
     0
  0
XRECORD
  5
2AF25
102
{ACAD_REACTORS
330
2AF19
102
}
330
2AF19
100
AcDbXrecord
  1
{B812F925-66B0-11D8-88CD-00A024540C4A}
  0
DICTIONARYVAR
  5
1350B
102
{ACAD_REACTORS
330
4E
102
}
330
4E
100
DictionaryVariables
280
     0
  1
1
  0
DICTIONARYVAR
  5
1350C
102
{ACAD_REACTORS
330
4E
102
}
330
4E
100
DictionaryVariables
280
     0
  1

  0
DICTIONARYVAR
  5
4F
102
{ACAD_REACTORS
330
4E
102
}
330
4E
100
DictionaryVariables
280
     0
  1
96
  0
DICTIONARY
  5
13503
330
1AB
100
AcDbDictionary
280
     1
  3
ACAD_XREC_ROUNDTRIP
360
13504
  0
XRECORD
  5
13504
102
{ACAD_REACTORS
330
13503
102
}
330
13503
100
AcDbXrecord
102
SHADEPLOT
 70
     0
102
SHADEPLOTRESLEVEL
 70
     2
102
SHADEPLOTCUSTOMDPI
 70
   300
  0
ENDSEC
  0
EOF
