  0
SECTION
  2
HEADER
  9
$ACADVER
  1
AC1014
  9
$ACADMAINTVER
 70
     9
  9
$DWGCODEPAGE
  3
ANSI_1252
  9
$INSBASE
 10
0.0
 20
0.0
 30
0.0
  9
$EXTMIN
 10
35.10953236443072
 20
30.15460713564531
 30
0.0
  9
$EXTMAX
 10
540.8322308654172
 20
78.1546071356453
 30
0.0
  9
$LIMMIN
 10
0.0
 20
0.0
  9
$LIMMAX
 10
420.0
 20
297.0
  9
$ORTHOMODE
 70
     0
  9
$REGENMODE
 70
     1
  9
$FILLMODE
 70
     1
  9
$QTEXTMODE
 70
     0
  9
$MIRRTEXT
 70
     0
  9
$DRAGMODE
 70
     2
  9
$LTSCALE
 40
1.0
  9
$OSMODE
 70
    37
  9
$ATTMODE
 70
     1
  9
$TEXTSIZE
 40
2.5
  9
$TRACEWID
 40
1.0
  9
$TEXTSTYLE
  7
\M+2ABAC\M+2A6A12
  9
$CLAYER
  8
0
  9
$CELTYPE
  6
BYLAYER
  9
$CECOLOR
 62
   256
  9
$CELTSCALE
 40
1.0
  9
$DELOBJ
 70
     1
  9
$DISPSILH
 70
     0
  9
$DIMSCALE
 40
1.0
  9
$DIMASZ
 40
1.0
  9
$DIMEXO
 40
0.7
  9
$DIMDLI
 40
3.75
  9
$DIMRND
 40
0.0
  9
$DIMDLE
 40
0.0
  9
$DIMEXE
 40
0.3
  9
$DIMTP
 40
0.0
  9
$DIMTM
 40
0.0
  9
$DIMTXT
 40
1.199999999999999
  9
$DIMCEN
 40
2.5
  9
$DIMTSZ
 40
0.0
  9
$DIMTOL
 70
     0
  9
$DIMLIM
 70
     0
  9
$DIMTIH
 70
     0
  9
$DIMTOH
 70
     0
  9
$DIMSE1
 70
     0
  9
$DIMSE2
 70
     0
  9
$DIMTAD
 70
     1
  9
$DIMZIN
 70
     8
  9
$DIMBLK
  1

  9
$DIMASO
 70
     1
  9
$DIMSHO
 70
     1
  9
$DIMPOST
  1

  9
$DIMAPOST
  1

  9
$DIMALT
 70
     0
  9
$DIMALTD
 70
     3
  9
$DIMALTF
 40
0.03937007874016
  9
$DIMLFAC
 40
1.0
  9
$DIMTOFL
 70
     1
  9
$DIMTVP
 40
0.0
  9
$DIMTIX
 70
     0
  9
$DIMSOXD
 70
     0
  9
$DIMSAH
 70
     0
  9
$DIMBLK1
  1

  9
$DIMBLK2
  1

  9
$DIMSTYLE
  2
ISO-25
  9
$DIMCLRD
 70
     3
  9
$DIMCLRE
 70
     3
  9
$DIMCLRT
 70
     2
  9
$DIMTFAC
 40
1.0
  9
$DIMGAP
 40
0.5
  9
$DIMJUST
 70
     0
  9
$DIMSD1
 70
     0
  9
$DIMSD2
 70
     0
  9
$DIMTOLJ
 70
     0
  9
$DIMTZIN
 70
     8
  9
$DIMALTZ
 70
     0
  9
$DIMALTTZ
 70
     0
  9
$DIMFIT
 70
     3
  9
$DIMUPT
 70
     0
  9
$DIMUNIT
 70
     2
  9
$DIMDEC
 70
     2
  9
$DIMTDEC
 70
     2
  9
$DIMALTU
 70
     2
  9
$DIMALTTD
 70
     3
  9
$DIMTXSTY
  7
STANDARD
  9
$DIMAUNIT
 70
     0
  9
$LUNITS
 70
     2
  9
$LUPREC
 70
     4
  9
$SKETCHINC
 40
1.0
  9
$FILLETRAD
 40
0.0
  9
$AUNITS
 70
     0
  9
$AUPREC
 70
     0
  9
$MENU
  1
.
  9
$ELEVATION
 40
0.0
  9
$PELEVATION
 40
0.0
  9
$THICKNESS
 40
0.0
  9
$LIMCHECK
 70
     0
  9
$BLIPMODE
 70
     0
  9
$CHAMFERA
 40
0.0
  9
$CHAMFERB
 40
0.0
  9
$CHAMFERC
 40
20.0
  9
$CHAMFERD
 40
0.0
  9
$SKPOLY
 70
     0
  9
$TDCREATE
 40
2452648.158040394
  9
$TDUPDATE
 40
2453060.474119664
  9
$TDINDWG
 40
1.2776002431
  9
$TDUSRTIMER
 40
1.2776001273
  9
$USRTIMER
 70
     1
  9
$ANGBASE
 50
0.0
  9
$ANGDIR
 70
     0
  9
$PDMODE
 70
     0
  9
$PDSIZE
 40
0.0
  9
$PLINEWID
 40
0.0
  9
$COORDS
 70
     0
  9
$SPLFRAME
 70
     0
  9
$SPLINETYPE
 70
     6
  9
$SPLINESEGS
 70
    30
  9
$ATTDIA
 70
     0
  9
$ATTREQ
 70
     1
  9
$HANDLING
 70
-16383
  9
$HANDSEED
  5
2B0A6
  9
$SURFTAB1
 70
     6
  9
$SURFTAB2
 70
     6
  9
$SURFTYPE
 70
     6
  9
$SURFU
 70
     6
  9
$SURFV
 70
     6
  9
$UCSNAME
  2

  9
$UCSORG
 10
0.0
 20
0.0
 30
0.0
  9
$UCSXDIR
 10
1.0
 20
0.0
 30
0.0
  9
$UCSYDIR
 10
0.0
 20
1.0
 30
0.0
  9
$PUCSNAME
  2

  9
$PUCSORG
 10
0.0
 20
0.0
 30
0.0
  9
$PUCSXDIR
 10
1.0
 20
0.0
 30
0.0
  9
$PUCSYDIR
 10
0.0
 20
1.0
 30
0.0
  9
$USERI1
 70
     0
  9
$USERI2
 70
     0
  9
$USERI3
 70
     0
  9
$USERI4
 70
     0
  9
$USERI5
 70
     0
  9
$USERR1
 40
0.0
  9
$USERR2
 40
0.0
  9
$USERR3
 40
0.0
  9
$USERR4
 40
0.0
  9
$USERR5
 40
0.0
  9
$WORLDVIEW
 70
     1
  9
$SHADEDGE
 70
     3
  9
$SHADEDIF
 70
    70
  9
$TILEMODE
 70
     1
  9
$MAXACTVP
 70
    48
  9
$PINSBASE
 10
0.0
 20
0.0
 30
0.0
  9
$PLIMCHECK
 70
     0
  9
$PEXTMIN
 10
1.000000000000000E+20
 20
1.000000000000000E+20
 30
1.000000000000000E+20
  9
$PEXTMAX
 10
-1.000000000000000E+20
 20
-1.000000000000000E+20
 30
-1.000000000000000E+20
  9
$PLIMMIN
 10
0.0
 20
0.0
  9
$PLIMMAX
 10
420.0
 20
297.0
  9
$UNITMODE
 70
     0
  9
$VISRETAIN
 70
     1
  9
$PLINEGEN
 70
     0
  9
$PSLTSCALE
 70
     1
  9
$TREEDEPTH
 70
  3020
  9
$PICKSTYLE
 70
     1
  9
$CMLSTYLE
  2
STANDARD
  9
$CMLJUST
 70
     0
  9
$CMLSCALE
 40
20.0
  9
$PROXYGRAPHICS
 70
     1
  9
$MEASUREMENT
 70
     0
  0
ENDSEC
  0
SECTION
  2
CLASSES
  0
CLASS
  1
ACDBDICTIONARYWDFLT
  2
AcDbDictionaryWithDefault
  3
AutoCAD 2000
 90
        0
280
     0
281
     0
  0
CLASS
  1
ACDBPLACEHOLDER
  2
AcDbPlaceHolder
  3
AutoCAD 2000
 90
        0
280
     0
281
     0
  0
CLASS
  1
LAYOUT
  2
AcDbLayout
  3
AutoCAD 2000
 90
        0
280
     0
281
     0
  0
CLASS
  1
DICTIONARYVAR
  2
AcDbDictionaryVar
  3
AutoCAD 2000
 90
        0
280
     0
281
     0
  0
CLASS
  1
PLOTSETTINGS
  2
AcDbPlotSettings
  3
AutoCAD 2000
 90
        0
280
     0
281
     0
  0
CLASS
  1
LONG_TRANSACTION
  2
AcDbLongTransaction
  3
AutoCAD 2000
 90
        0
280
     0
281
     0
  0
CLASS
  1
LWPOLYLINE
  2
AcDbPolyline
  3
AutoCAD 2000
 90
        0
280
     0
281
     1
  0
CLASS
  1
HATCH
  2
AcDbHatch
  3
AutoCAD 2000
 90
        0
280
     0
281
     1
  0
CLASS
  1
XRECORD
  2
AcDbXrecord
  3
AutoCAD 2000
 90
        0
280
     0
281
     0
  0
CLASS
  1
LONG_TRANSACTION
  2
AcDbLongTransaction
  3
AutoCAD 2000
 90
        0
280
     0
281
     0
  0
CLASS
  1
LWPOLYLINE
  2
AcDbPolyline
  3
AutoCAD 2000
 90
        0
280
     0
281
     1
  0
CLASS
  1
HATCH
  2
AcDbHatch
  3
AutoCAD 2000
 90
        0
280
     0
281
     1
  0
CLASS
  1
XRECORD
  2
AcDbXrecord
  3
AutoCAD 2000
 90
        0
280
     0
281
     0
  0
CLASS
  1
LONG_TRANSACTION
  2
AcDbLongTransaction
  3
AutoCAD 2000
 90
        0
280
     0
281
     0
  0
CLASS
  1
LWPOLYLINE
  2
AcDbPolyline
  3
AutoCAD 2000
 90
        0
280
     0
281
     1
  0
CLASS
  1
HATCH
  2
AcDbHatch
  3
AutoCAD 2000
 90
        0
280
     0
281
     1
  0
CLASS
  1
XRECORD
  2
AcDbXrecord
  3
AutoCAD 2000
 90
        0
280
     0
281
     0
  0
CLASS
  1
LONG_TRANSACTION
  2
AcDbLongTransaction
  3
AutoCAD 2000
 90
        0
280
     0
281
     0
  0
CLASS
  1
LWPOLYLINE
  2
AcDbPolyline
  3
AutoCAD 2000
 90
        0
280
     0
281
     1
  0
CLASS
  1
HATCH
  2
AcDbHatch
  3
AutoCAD 2000
 90
        0
280
     0
281
     1
  0
CLASS
  1
XRECORD
  2
AcDbXrecord
  3
AutoCAD 2000
 90
        0
280
     0
281
     0
  0
CLASS
  1
LONG_TRANSACTION
  2
AcDbLongTransaction
  3
AutoCAD 2000
 90
        0
280
     0
281
     0
  0
CLASS
  1
LWPOLYLINE
  2
AcDbPolyline
  3
AutoCAD 2000
 90
        0
280
     0
281
     1
  0
CLASS
  1
HATCH
  2
AcDbHatch
  3
AutoCAD 2000
 90
        0
280
     0
281
     1
  0
CLASS
  1
XRECORD
  2
AcDbXrecord
  3
AutoCAD 2000
 90
        0
280
     0
281
     0
  0
ENDSEC
  0
SECTION
  2
TABLES
  0
TABLE
  2
VPORT
  5
8
330
0
100
AcDbSymbolTable
 70
     2
  0
VPORT
  5
2B083
330
8
100
AcDbSymbolTableRecord
100
AcDbViewportTableRecord
  2
*ACTIVE
 70
     0
 10
0.0
 20
0.0
 11
1.0
 21
1.0
 12
287.9693825430436
 22
54.15799771302612
 13
0.0
 23
0.0
 14
10.0
 24
10.0
 15
10.0
 25
10.0
 16
0.0
 26
0.0
 36
1.0
 17
0.0
 27
0.0
 37
0.0
 40
296.6721039548381
 41
1.714285714285714
 42
50.0
 43
0.0
 44
0.0
 50
0.0
 51
0.0
 71
     0
 72
 20000
 73
     1
 74
     0
 75
     0
 76
     0
 77
     0
 78
     1
  0
ENDTAB
  0
TABLE
  2
LTYPE
  5
5
330
0
100
AcDbSymbolTable
 70
     3
  0
LTYPE
  5
14
330
5
100
AcDbSymbolTableRecord
100
AcDbLinetypeTableRecord
  2
BYBLOCK
 70
     0
  3

 72
    65
 73
     0
 40
0.0
  0
LTYPE
  5
15
330
5
100
AcDbSymbolTableRecord
100
AcDbLinetypeTableRecord
  2
BYLAYER
 70
     0
  3

 72
    65
 73
     0
 40
0.0
  0
LTYPE
  5
16
330
5
100
AcDbSymbolTableRecord
100
AcDbLinetypeTableRecord
  2
CONTINUOUS
 70
     0
  3
Solid line
 72
    65
 73
     0
 40
0.0
  0
LTYPE
  5
2D
330
5
100
AcDbSymbolTableRecord
100
AcDbLinetypeTableRecord
  2
CENTER2
 70
     0
  3
Center (.5x) ___ _ ___ _ ___ _ ___ _ ___ _ ___
 72
    65
 73
     4
 40
28.57499999999999
 49
19.05
 74
     0
 49
-3.174999999999998
 74
     0
 49
3.174999999999998
 74
     0
 49
-3.174999999999998
 74
     0
  0
LTYPE
  5
2E
330
5
100
AcDbSymbolTableRecord
100
AcDbLinetypeTableRecord
  2
DASHED2
 70
     0
  3
Dashed (.5x) _ _ _ _ _ _ _ _ _ _ _ _ _ _ _ _ _
 72
    65
 73
     2
 40
9.524999999999996
 49
6.349999999999998
 74
     0
 49
-3.174999999999998
 74
     0
  0
ENDTAB
  0
TABLE
  2
LAYER
  5
2
102
{ACAD_XDICTIONARY
360
DDEF
102
}
330
0
100
AcDbSymbolTable
 70
     4
  0
LAYER
  5
10
330
2
100
AcDbSymbolTableRecord
100
AcDbLayerTableRecord
  2
0
 70
     0
 62
     7
  6
CONTINUOUS
  0
LAYER
  5
34
330
2
100
AcDbSymbolTableRecord
100
AcDbLayerTableRecord
  2
AM7
 70
     0
 62
     4
  6
CENTER2
  0
LAYER
  5
8B8
330
2
100
AcDbSymbolTableRecord
100
AcDbLayerTableRecord
  2
DEFPOINTS
 70
     0
 62
     7
  6
CONTINUOUS
  0
LAYER
  5
2AEF3
330
2
100
AcDbSymbolTableRecord
100
AcDbLayerTableRecord
  2
AM3
 70
     0
 62
     6
  6
DASHED2
  0
ENDTAB
  0
TABLE
  2
STYLE
  5
3
330
0
100
AcDbSymbolTable
 70
     2
  0
STYLE
  5
11
330
3
100
AcDbSymbolTableRecord
100
AcDbTextStyleTableRecord
  2
STANDARD
 70
     0
 40
0.0
 41
1.0
 50
0.0
 71
     0
 42
2.5
  3
isocp.shx
  4
chineset.shx
  0
STYLE
  5
58
330
3
100
AcDbSymbolTableRecord
100
AcDbTextStyleTableRecord
  2
\M+2ABAC\M+2A6A12
 70
     0
 40
0.0
 41
1.0
 50
0.0
 71
     0
 42
2.5
  3

  4

1001
ACAD
1000
DFKai-SB
1071
    34881
  0
ENDTAB
  0
TABLE
  2
VIEW
  5
6
330
0
100
AcDbSymbolTable
 70
     0
  0
ENDTAB
  0
TABLE
  2
UCS
  5
7
330
0
100
AcDbSymbolTable
 70
     0
  0
ENDTAB
  0
TABLE
  2
APPID
  5
9
330
0
100
AcDbSymbolTable
 70
     3
  0
APPID
  5
12
330
9
100
AcDbSymbolTableRecord
100
AcDbRegAppTableRecord
  2
ACAD
 70
     0
  0
APPID
  5
131A7
330
9
100
AcDbSymbolTableRecord
100
AcDbRegAppTableRecord
  2
CONTENTBLOCKICON
 70
     0
  0
APPID
  5
1B726
330
9
100
AcDbSymbolTableRecord
100
AcDbRegAppTableRecord
  2
TCAD
 70
     0
  0
ENDTAB
  0
TABLE
  2
DIMSTYLE
  5
A
330
0
100
AcDbSymbolTable
 70
     2
  0
DIMSTYLE
105
27
330
A
100
AcDbSymbolTableRecord
100
AcDbDimStyleTableRecord
  2
ISO-25
 70
     0
  3

  4

  5

  6

  7

 40
1.0
 41
1.0
 42
0.7
 43
3.75
 44
0.3
 45
0.0
 46
0.0
 47
0.0
 48
0.0
140
1.199999999999999
141
2.5
142
0.0
143
0.03937007874016
144
1.0
145
0.0
146
1.0
147
0.5
 71
     0
 72
     0
 73
     0
 74
     0
 75
     0
 76
     0
 77
     1
 78
     8
170
     0
171
     3
172
     1
173
     0
174
     0
175
     0
176
     3
177
     3
178
     2
270
     2
271
     2
272
     2
273
     2
274
     3
340
11
275
     0
280
     0
281
     0
282
     0
283
     0
284
     8
285
     0
286
     0
287
     3
288
     0
  0
DIMSTYLE
105
13235
330
A
100
AcDbSymbolTableRecord
100
AcDbDimStyleTableRecord
  2
STANDARD
 70
     0
  3

  4

  5

  6

  7

 40
1.0
 41
0.18
 42
0.0625
 43
0.38
 44
0.18
 45
0.0
 46
0.0
 47
0.0
 48
0.0
140
0.18
141
0.09
142
0.0
143
25.4
144
1.0
145
0.0
146
1.0
147
0.09
 71
     0
 72
     0
 73
     1
 74
     1
 75
     0
 76
     0
 77
     0
 78
     0
170
     0
171
     2
172
     0
173
     0
174
     0
175
     0
176
     0
177
     0
178
     0
270
     2
271
     4
272
     4
273
     2
274
     2
340
11
275
     0
280
     0
281
     0
282
     0
283
     1
284
     0
285
     0
286
     0
287
     3
288
     0
  0
ENDTAB
  0
TABLE
  2
BLOCK_RECORD
  5
1
330
0
100
AcDbSymbolTable
 70
     0
  0
BLOCK_RECORD
  5
1F
102
{ACAD_XDICTIONARY
360
131A3
102
}
330
1
100
AcDbSymbolTableRecord
100
AcDbBlockTableRecord
  2
*MODEL_SPACE
  0
BLOCK_RECORD
  5
1B
102
{ACAD_XDICTIONARY
360
131A1
102
}
330
1
100
AcDbSymbolTableRecord
100
AcDbBlockTableRecord
  2
*PAPER_SPACE
  0
ENDTAB
  0
ENDSEC
  0
SECTION
  2
BLOCKS
  0
BLOCK
  5
20
330
1F
100
AcDbEntity
  8
0
100
AcDbBlockBegin
  2
*MODEL_SPACE
 70
     0
 10
0.0
 20
0.0
 30
0.0
  3
*MODEL_SPACE
  1

  0
ENDBLK
  5
21
330
1F
100
AcDbEntity
  8
0
100
AcDbBlockEnd
  0
BLOCK
  5
1C
330
1B
100
AcDbEntity
 67
     1
  8
0
100
AcDbBlockBegin
  2
*PAPER_SPACE
 70
     0
 10
0.0
 20
0.0
 30
0.0
  3
*PAPER_SPACE
  1

  0
ENDBLK
  5
1D
330
1B
100
AcDbEntity
 67
     1
  8
0
100
AcDbBlockEnd
  0
ENDSEC
  0
SECTION
  2
ENTITIES
  0
TEXT
  5
16C45
330
1F
100
AcDbEntity
  8
0
100
AcDbText
 10
496.2839140727846
 20
34.62197443228774
 30
0.0
 40
13.8518250193501
  1
HGR55T
  7
\M+2ABAC\M+2A6A12
100
AcDbText
  0
LINE
  5
2AFC9
330
1F
100
AcDbEntity
  8
0
 48
0.4
100
AcDbLine
 10
43.60953236443072
 20
33.15460713564539
 30
0.0
 11
50.80953218443062
 21
33.15460713564539
 31
0.0
  0
LINE
  5
2AFCA
330
1F
100
AcDbEntity
  8
0
 48
0.4
100
AcDbLine
 10
42.10953936445458
 20
76.15460713564539
 30
0.0
 11
81.10952536440709
 21
76.15460713564539
 31
0.0
  0
ARC
  5
2AFCB
330
1F
100
AcDbEntity
  8
0
 48
0.4
100
AcDbCircle
 10
35.19880848756841
 20
57.59888236874712
 30
0.0
 40
6.48704432906952
100
AcDbArc
 50
15.26919656223576
 51
74.73061405588765
  0
LINE
  5
2AFCC
330
1F
100
AcDbEntity
  8
0
 48
0.4
100
AcDbLine
 10
42.60953236443072
 20
52.15460713564539
 30
0.0
 11
35.10953236443072
 21
44.65460613564551
 31
0.0
  0
LINE
  5
2AFCD
330
1F
100
AcDbEntity
  8
0
 48
0.4
100
AcDbLine
 10
37.10954765750193
 20
32.15460713564539
 30
0.0
 11
42.60953415369601
 21
32.15460713564539
 31
0.0
  0
LINE
  5
2AFCE
330
1F
100
AcDbEntity
  8
0
 48
0.4
100
AcDbLine
 10
35.10953236443072
 20
34.1546157356081
 30
0.0
 11
37.10954765750193
 21
32.15460713564539
 31
0.0
  0
LINE
  5
2AFCF
330
1F
100
AcDbEntity
  8
0
 48
0.4
100
AcDbLine
 10
35.10953236443072
 20
44.65460613564551
 30
0.0
 11
35.10953236443072
 21
34.1546157356081
 31
0.0
  0
LINE
  5
2AFD0
330
1F
100
AcDbEntity
  8
0
 48
0.4
100
AcDbLine
 10
42.60953236443072
 20
58.15460713564539
 30
0.0
 11
41.45678617496855
 21
59.30735332510744
 31
0.0
  0
LINE
  5
2AFD1
330
1F
100
AcDbEntity
  8
0
 48
0.4
100
AcDbLine
 10
42.60953236443072
 20
58.15460713564539
 30
0.0
 11
42.60953236443072
 21
52.15460713564539
 31
0.0
  0
LINE
  5
2AFD2
330
1F
100
AcDbEntity
  8
0
 48
0.4
100
AcDbLine
 10
43.60953236443072
 20
33.15460677564533
 30
0.0
 11
42.60953415369601
 21
32.15460713564539
 31
0.0
  0
ARC
  5
2AFD3
330
1F
100
AcDbEntity
  8
0
 48
0.4
100
AcDbCircle
 10
35.19880848756841
 20
77.21031536065857
 30
0.0
 40
6.48704432906952
100
AcDbArc
 50
285.2693859441123
 51
344.7308034377642
  0
LINE
  5
2AFD4
330
1F
100
AcDbEntity
  8
0
 48
0.4
100
AcDbLine
 10
35.10953236443072
 20
69.15458613564533
 30
0.0
 11
35.10953236443072
 21
65.65461159376013
 31
0.0
  0
LINE
  5
2AFD5
330
1F
100
AcDbEntity
  8
0
 48
0.4
100
AcDbLine
 10
36.90722113236836
 20
70.95227490358297
 30
0.0
 11
35.10953236443072
 21
69.15458613564533
 31
0.0
  0
LINE
  5
2AFD6
330
1F
100
AcDbEntity
  8
0
 48
0.4
100
AcDbLine
 10
36.90830332815619
 20
63.85583408481284
 30
0.0
 11
35.10953236443072
 21
65.65461159376013
 31
0.0
  0
LINE
  5
2AFD7
330
1F
100
AcDbEntity
  8
0
 48
0.4
100
AcDbLine
 10
42.10953936445458
 20
76.15460713564539
 30
0.0
 11
41.45685459148978
 21
75.50192340080229
 31
0.0
  0
ARC
  5
2AFD9
330
1F
100
AcDbEntity
  8
0
 48
0.4
100
AcDbCircle
 10
88.02025624129303
 20
57.59888236874712
 30
0.0
 40
6.48704432906952
100
AcDbArc
 50
105.2693859441123
 51
164.7308034377642
  0
ARC
  5
2AFDA
330
1F
100
AcDbEntity
  8
0
 48
0.4
100
AcDbCircle
 10
88.02025624129303
 20
77.21031536065857
 30
0.0
 40
6.48704432906952
100
AcDbArc
 50
195.2691965622357
 51
254.7306140558876
  0
LINE
  5
2AFDB
330
1F
100
AcDbEntity
  8
0
 48
0.4
100
AcDbLine
 10
80.60953236443072
 20
52.15460713564539
 30
0.0
 11
88.10953236443095
 21
44.65460613564528
 31
0.0
  0
LINE
  5
2AFDC
330
1F
100
AcDbEntity
  8
0
 48
0.4
100
AcDbLine
 10
80.60953057516565
 20
32.15460713564539
 30
0.0
 11
86.10951707135962
 21
32.15460713564539
 31
0.0
  0
LINE
  5
2AFDE
330
1F
100
AcDbEntity
  8
0
 48
0.4
100
AcDbLine
 10
51.80953323799042
 20
32.15460713564516
 30
0.0
 11
71.40953149087067
 21
32.15460713564516
 31
0.0
  0
LINE
  5
2AFE5
330
1F
100
AcDbEntity
  8
0
 48
0.4
100
AcDbLine
 10
50.80953236443076
 20
33.15460695564524
 30
0.0
 11
51.80953323799042
 21
32.15460713564516
 31
0.0
  0
LINE
  5
2AFE8
330
1F
100
AcDbEntity
  8
0
 48
0.4
100
AcDbLine
 10
72.40953254443093
 20
33.15460713564539
 30
0.0
 11
79.60953236443072
 21
33.15460713564539
 31
0.0
  0
LINE
  5
2AFED
330
1F
100
AcDbEntity
  8
0
 48
0.4
100
AcDbLine
 10
72.40953236443079
 20
33.15460695564524
 30
0.0
 11
71.40953149087067
 21
32.15460713564516
 31
0.0
  0
LINE
  5
2AFEF
330
1F
100
AcDbEntity
  8
0
 48
0.4
100
AcDbLine
 10
80.60953236443072
 20
58.15460713564539
 30
0.0
 11
81.76227855389289
 21
59.30735332510767
 31
0.0
  0
LINE
  5
2AFF0
330
1F
100
AcDbEntity
  8
0
 48
0.4
100
AcDbLine
 10
80.60953236443072
 20
58.15460713564539
 30
0.0
 11
80.60953236443072
 21
52.15460713564539
 31
0.0
  0
LINE
  5
2AFF1
330
1F
100
AcDbEntity
  8
0
 48
0.4
100
AcDbLine
 10
79.60953236443072
 20
33.15460677564533
 30
0.0
 11
80.60953057516565
 21
32.15460713564539
 31
0.0
  0
LINE
  5
2AFF2
330
1F
100
AcDbEntity
  8
0
 48
0.4
100
AcDbLine
 10
81.10952536440709
 20
76.15460713564539
 30
0.0
 11
81.76221013737166
 21
75.50192340080275
 31
0.0
  0
LINE
  5
2AFF3
330
1F
100
AcDbEntity
  8
0
 48
0.4
100
AcDbLine
 10
88.10953236443083
 20
34.15461573560856
 30
0.0
 11
86.10951707135962
 21
32.15460713564539
 31
0.0
  0
LINE
  5
2AFF4
330
1F
100
AcDbEntity
  8
0
 48
0.4
100
AcDbLine
 10
88.10953236443083
 20
34.15461573560856
 30
0.0
 11
88.10953236443095
 21
44.65460613564528
 31
0.0
  0
LINE
  5
2AFF5
330
1F
100
AcDbEntity
  8
0
 48
0.4
100
AcDbLine
 10
88.10953236443072
 20
65.65461159376036
 30
0.0
 11
88.10953236443095
 21
69.15458613564533
 31
0.0
  0
LINE
  5
2AFF6
330
1F
100
AcDbEntity
  8
0
 48
0.4
100
AcDbLine
 10
86.3118435964933
 20
70.95227490358297
 30
0.0
 11
88.10953236443095
 21
69.15458613564533
 31
0.0
  0
LINE
  5
2AFF7
330
1F
100
AcDbEntity
  8
0
 48
0.4
100
AcDbLine
 10
86.31076140070536
 20
63.85583408481284
 30
0.0
 11
88.10953236443072
 21
65.65461159376036
 31
0.0
  0
LINE
  5
2AFF8
330
1F
100
AcDbEntity
  8
0
100
AcDbLine
 10
460.3111497755177
 20
32.15460713564539
 30
0.0
 11
160.3111497755177
 21
32.15460713564539
 31
0.0
  0
LINE
  5
2AFF9
330
1F
100
AcDbEntity
  8
0
100
AcDbLine
 10
460.3111497755177
 20
34.15461573560856
 30
0.0
 11
160.3111497755177
 21
34.15461573560856
 31
0.0
  0
LINE
  5
2AFFA
330
1F
100
AcDbEntity
  8
0
100
AcDbLine
 10
460.3111497755177
 20
44.65460613564528
 30
0.0
 11
160.3111497755177
 21
44.65460613564528
 31
0.0
  0
LINE
  5
2AFFB
330
1F
100
AcDbEntity
  8
0
100
AcDbLine
 10
460.3111497755177
 20
52.15460713564539
 30
0.0
 11
160.3111497755177
 21
52.15460713564539
 31
0.0
  0
LINE
  5
2AFFC
330
1F
100
AcDbEntity
  8
0
100
AcDbLine
 10
460.3111497755177
 20
58.15460713564539
 30
0.0
 11
160.3111497755177
 21
58.15460713564539
 31
0.0
  0
LINE
  5
2AFFD
330
1F
100
AcDbEntity
  8
0
100
AcDbLine
 10
460.3111497755177
 20
59.30727432860567
 30
0.0
 11
160.3111497755177
 21
59.30727432860567
 31
0.0
  0
LINE
  5
2AFFE
330
1F
100
AcDbEntity
  8
0
100
AcDbLine
 10
460.3111497755177
 20
63.85692282582249
 30
0.0
 11
160.3111497755177
 21
63.85692282582249
 31
0.0
  0
LINE
  5
2AFFF
330
1F
100
AcDbEntity
  8
0
100
AcDbLine
 10
460.3111497755177
 20
65.65461159376036
 30
0.0
 11
160.3111497755177
 21
65.65461159376036
 31
0.0
  0
LINE
  5
2B000
330
1F
100
AcDbEntity
  8
0
100
AcDbLine
 10
460.3111497755177
 20
69.15458613564533
 30
0.0
 11
160.3111497755177
 21
69.15458613564533
 31
0.0
  0
LINE
  5
2B001
330
1F
100
AcDbEntity
  8
0
100
AcDbLine
 10
460.3111497755177
 20
70.9522749035832
 30
0.0
 11
160.3111497755177
 21
70.9522749035832
 31
0.0
  0
LINE
  5
2B002
330
1F
100
AcDbEntity
  8
0
100
AcDbLine
 10
460.3111497755177
 20
76.15460713564539
 30
0.0
 11
160.3111497755177
 21
76.15460713564539
 31
0.0
  0
LINE
  5
2B003
330
1F
100
AcDbEntity
  8
0
100
AcDbLine
 10
460.3111497755177
 20
75.50192340080002
 30
0.0
 11
160.3111497755177
 21
75.50192340080002
 31
0.0
  0
LINE
  5
2B007
330
1F
100
AcDbEntity
  8
0
100
AcDbLine
 10
160.3111497755177
 20
76.15460713564539
 30
0.0
 11
160.3111497755177
 21
32.15460713564562
 31
0.0
  0
LINE
  5
2B032
330
1F
100
AcDbEntity
  8
0
100
AcDbLine
 10
460.3111497755177
 20
76.15460713564539
 30
0.0
 11
460.3111497755177
 21
32.15460713564562
 31
0.0
  0
LINE
  5
2B046
330
1F
100
AcDbEntity
  8
AM3
 48
0.4
100
AcDbLine
 10
67.60953236443055
 20
33.15460713564525
 30
0.0
 11
67.60953236443055
 21
61.85460713564523
 31
0.0
  0
LINE
  5
2B047
330
1F
100
AcDbEntity
  8
AM3
 48
0.4
100
AcDbLine
 10
68.60953236443055
 20
33.15460713564525
 30
0.0
 11
68.60953236443055
 21
56.85460713564523
 31
0.0
  0
LINE
  5
2B048
330
1F
100
AcDbEntity
  8
AM3
 48
0.4
100
AcDbLine
 10
55.60953236443054
 20
33.15460713564525
 30
0.0
 11
55.60953236443054
 21
61.85460713564523
 31
0.0
  0
LINE
  5
2B049
330
1F
100
AcDbEntity
  8
AM3
 48
0.4
100
AcDbLine
 10
54.60953236443055
 20
33.15460713564525
 30
0.0
 11
54.60953236443055
 21
56.85460713564523
 31
0.0
  0
LINE
  5
2B04A
330
1F
100
AcDbEntity
  8
AM7
 48
0.4
100
AcDbLine
 10
61.60953236443055
 20
78.1546071356453
 30
0.0
 11
61.60953236443055
 21
30.15460713564531
 31
0.0
  0
LINE
  5
2B04B
330
1F
100
AcDbEntity
  8
AM3
 48
0.4
100
AcDbLine
 10
55.60953236443054
 20
61.85460713564523
 30
0.0
 11
67.60953236443055
 21
61.85460713564523
 31
0.0
  0
LINE
  5
2B04C
330
1F
100
AcDbEntity
  8
AM3
 48
0.4
100
AcDbLine
 10
55.60953236443054
 20
61.85460713564523
 30
0.0
 11
61.60953236443055
 21
65.318708750783
 31
0.0
  0
LINE
  5
2B04D
330
1F
100
AcDbEntity
  8
AM3
 48
0.4
100
AcDbLine
 10
54.60953236443055
 20
56.85460713564523
 30
0.0
 11
68.60953236443055
 21
56.85460713564523
 31
0.0
  0
LINE
  5
2B04E
330
1F
100
AcDbEntity
  8
AM3
 48
0.4
100
AcDbLine
 10
67.60953236443055
 20
61.85460713564523
 30
0.0
 11
61.60953236443055
 21
65.318708750783
 31
0.0
  0
LINE
  5
2B04F
330
1F
100
AcDbEntity
  8
AM3
 48
0.4
100
AcDbLine
 10
54.60953236443055
 20
33.15460713564525
 30
0.0
 11
68.60953236443055
 21
33.15460713564525
 31
0.0
  0
LINE
  5
2B050
330
1F
100
AcDbEntity
  8
AM3
 48
0.4
100
AcDbLine
 10
53.60953236443044
 20
32.15460713564519
 30
0.0
 11
54.60953236443055
 21
33.15460713564525
 31
0.0
  0
LINE
  5
2B051
330
1F
100
AcDbEntity
  8
AM3
 48
0.4
100
AcDbLine
 10
68.60953236443055
 20
33.15460713564522
 30
0.0
 11
69.60953236443055
 21
32.15460713564513
 31
0.0
  0
LINE
  5
2B055
330
1F
100
AcDbEntity
  8
AM3
 48
0.4
100
AcDbLine
 10
183.3111497755175
 20
33.15460713564525
 30
0.0
 11
183.3111497755175
 21
56.85460713564523
 31
0.0
  0
LINE
  5
2B056
330
1F
100
AcDbEntity
  8
AM7
 48
0.4
100
AcDbLine
 10
190.3111497755175
 20
78.1546071356453
 30
0.0
 11
190.3111497755175
 21
30.15460713564531
 31
0.0
  0
LINE
  5
2B057
330
1F
100
AcDbEntity
  8
AM3
 48
0.4
100
AcDbLine
 10
184.3111497755175
 20
33.15460713564525
 30
0.0
 11
184.3111497755175
 21
61.85460713564523
 31
0.0
  0
LINE
  5
2B058
330
1F
100
AcDbEntity
  8
AM3
 48
0.4
100
AcDbLine
 10
183.3111497755175
 20
56.85460713564523
 30
0.0
 11
197.3111497755175
 21
56.85460713564523
 31
0.0
  0
LINE
  5
2B059
330
1F
100
AcDbEntity
  8
AM3
 48
0.4
100
AcDbLine
 10
184.3111497755175
 20
61.85460713564523
 30
0.0
 11
190.3111497755175
 21
65.318708750783
 31
0.0
  0
LINE
  5
2B05A
330
1F
100
AcDbEntity
  8
AM3
 48
0.4
100
AcDbLine
 10
184.3111497755175
 20
61.85460713564523
 30
0.0
 11
196.3111497755175
 21
61.85460713564523
 31
0.0
  0
LINE
  5
2B05B
330
1F
100
AcDbEntity
  8
AM3
 48
0.4
100
AcDbLine
 10
196.3111497755175
 20
61.85460713564523
 30
0.0
 11
190.3111497755175
 21
65.318708750783
 31
0.0
  0
LINE
  5
2B05C
330
1F
100
AcDbEntity
  8
AM3
 48
0.4
100
AcDbLine
 10
197.3111497755175
 20
33.15460713564525
 30
0.0
 11
197.3111497755175
 21
56.85460713564523
 31
0.0
  0
LINE
  5
2B05D
330
1F
100
AcDbEntity
  8
AM3
 48
0.4
100
AcDbLine
 10
196.3111497755175
 20
33.15460713564525
 30
0.0
 11
196.3111497755175
 21
61.85460713564523
 31
0.0
  0
LINE
  5
2B05E
330
1F
100
AcDbEntity
  8
AM3
 48
0.4
100
AcDbLine
 10
183.3111497755175
 20
33.15460713564525
 30
0.0
 11
197.3111497755175
 21
33.15460713564525
 31
0.0
  0
LINE
  5
2B05F
330
1F
100
AcDbEntity
  8
AM3
 48
0.4
100
AcDbLine
 10
182.3111497755174
 20
32.15460713564519
 30
0.0
 11
183.3111497755175
 21
33.15460713564525
 31
0.0
  0
LINE
  5
2B060
330
1F
100
AcDbEntity
  8
AM3
 48
0.4
100
AcDbLine
 10
197.3111497755175
 20
33.15460713564522
 30
0.0
 11
198.3111497755175
 21
32.15460713564513
 31
0.0
  0
LINE
  5
2B061
330
1F
100
AcDbEntity
  8
AM3
 48
0.4
100
AcDbLine
 10
303.3111497755175
 20
33.15460713564525
 30
0.0
 11
303.3111497755175
 21
56.85460713564523
 31
0.0
  0
LINE
  5
2B062
330
1F
100
AcDbEntity
  8
AM7
 48
0.4
100
AcDbLine
 10
310.3111497755175
 20
78.1546071356453
 30
0.0
 11
310.3111497755175
 21
30.15460713564531
 31
0.0
  0
LINE
  5
2B063
330
1F
100
AcDbEntity
  8
AM3
 48
0.4
100
AcDbLine
 10
304.3111497755175
 20
33.15460713564525
 30
0.0
 11
304.3111497755175
 21
61.85460713564523
 31
0.0
  0
LINE
  5
2B064
330
1F
100
AcDbEntity
  8
AM3
 48
0.4
100
AcDbLine
 10
303.3111497755175
 20
56.85460713564523
 30
0.0
 11
317.3111497755175
 21
56.85460713564523
 31
0.0
  0
LINE
  5
2B065
330
1F
100
AcDbEntity
  8
AM3
 48
0.4
100
AcDbLine
 10
304.3111497755175
 20
61.85460713564523
 30
0.0
 11
310.3111497755175
 21
65.318708750783
 31
0.0
  0
LINE
  5
2B066
330
1F
100
AcDbEntity
  8
AM3
 48
0.4
100
AcDbLine
 10
304.3111497755175
 20
61.85460713564523
 30
0.0
 11
316.3111497755175
 21
61.85460713564523
 31
0.0
  0
LINE
  5
2B067
330
1F
100
AcDbEntity
  8
AM3
 48
0.4
100
AcDbLine
 10
316.3111497755175
 20
61.85460713564523
 30
0.0
 11
310.3111497755175
 21
65.318708750783
 31
0.0
  0
LINE
  5
2B068
330
1F
100
AcDbEntity
  8
AM3
 48
0.4
100
AcDbLine
 10
317.3111497755175
 20
33.15460713564525
 30
0.0
 11
317.3111497755175
 21
56.85460713564523
 31
0.0
  0
LINE
  5
2B069
330
1F
100
AcDbEntity
  8
AM3
 48
0.4
100
AcDbLine
 10
316.3111497755175
 20
33.15460713564525
 30
0.0
 11
316.3111497755175
 21
61.85460713564523
 31
0.0
  0
LINE
  5
2B06A
330
1F
100
AcDbEntity
  8
AM3
 48
0.4
100
AcDbLine
 10
303.3111497755175
 20
33.15460713564525
 30
0.0
 11
317.3111497755175
 21
33.15460713564525
 31
0.0
  0
LINE
  5
2B06B
330
1F
100
AcDbEntity
  8
AM3
 48
0.4
100
AcDbLine
 10
302.3111497755174
 20
32.15460713564519
 30
0.0
 11
303.3111497755175
 21
33.15460713564525
 31
0.0
  0
LINE
  5
2B06C
330
1F
100
AcDbEntity
  8
AM3
 48
0.4
100
AcDbLine
 10
317.3111497755175
 20
33.15460713564522
 30
0.0
 11
318.3111497755175
 21
32.15460713564513
 31
0.0
  0
LINE
  5
2B06D
330
1F
100
AcDbEntity
  8
AM3
 48
0.4
100
AcDbLine
 10
423.3111497755175
 20
33.15460713564525
 30
0.0
 11
423.3111497755175
 21
56.85460713564523
 31
0.0
  0
LINE
  5
2B06E
330
1F
100
AcDbEntity
  8
AM7
 48
0.4
100
AcDbLine
 10
430.3111497755175
 20
78.1546071356453
 30
0.0
 11
430.3111497755175
 21
30.15460713564531
 31
0.0
  0
LINE
  5
2B06F
330
1F
100
AcDbEntity
  8
AM3
 48
0.4
100
AcDbLine
 10
424.3111497755175
 20
33.15460713564525
 30
0.0
 11
424.3111497755175
 21
61.85460713564523
 31
0.0
  0
LINE
  5
2B070
330
1F
100
AcDbEntity
  8
AM3
 48
0.4
100
AcDbLine
 10
423.3111497755175
 20
56.85460713564523
 30
0.0
 11
437.3111497755175
 21
56.85460713564523
 31
0.0
  0
LINE
  5
2B071
330
1F
100
AcDbEntity
  8
AM3
 48
0.4
100
AcDbLine
 10
424.3111497755175
 20
61.85460713564523
 30
0.0
 11
430.3111497755175
 21
65.318708750783
 31
0.0
  0
LINE
  5
2B072
330
1F
100
AcDbEntity
  8
AM3
 48
0.4
100
AcDbLine
 10
424.3111497755175
 20
61.85460713564523
 30
0.0
 11
436.3111497755175
 21
61.85460713564523
 31
0.0
  0
LINE
  5
2B073
330
1F
100
AcDbEntity
  8
AM3
 48
0.4
100
AcDbLine
 10
436.3111497755175
 20
61.85460713564523
 30
0.0
 11
430.3111497755175
 21
65.318708750783
 31
0.0
  0
LINE
  5
2B074
330
1F
100
AcDbEntity
  8
AM3
 48
0.4
100
AcDbLine
 10
437.3111497755175
 20
33.15460713564525
 30
0.0
 11
437.3111497755175
 21
56.85460713564523
 31
0.0
  0
LINE
  5
2B075
330
1F
100
AcDbEntity
  8
AM3
 48
0.4
100
AcDbLine
 10
436.3111497755175
 20
33.15460713564525
 30
0.0
 11
436.3111497755175
 21
61.85460713564523
 31
0.0
  0
LINE
  5
2B076
330
1F
100
AcDbEntity
  8
AM3
 48
0.4
100
AcDbLine
 10
423.3111497755175
 20
33.15460713564525
 30
0.0
 11
437.3111497755175
 21
33.15460713564525
 31
0.0
  0
LINE
  5
2B077
330
1F
100
AcDbEntity
  8
AM3
 48
0.4
100
AcDbLine
 10
422.3111497755174
 20
32.15460713564519
 30
0.0
 11
423.3111497755175
 21
33.15460713564525
 31
0.0
  0
LINE
  5
2B078
330
1F
100
AcDbEntity
  8
AM3
 48
0.4
100
AcDbLine
 10
437.3111497755175
 20
33.15460713564522
 30
0.0
 11
438.3111497755175
 21
32.15460713564513
 31
0.0
  0
ENDSEC
  0
SECTION
  2
OBJECTS
  0
DICTIONARY
  5
C
330
0
100
AcDbDictionary
  3
ACAD_COLOR
350
13437
  3
ACAD_GROUP
350
D
  3
ACAD_LAYOUT
350
1A
  3
ACAD_MATERIAL
350
13436
  3
ACAD_MLINESTYLE
350
17
  3
ACAD_PLOTSETTINGS
350
19
  3
ACAD_PLOTSTYLENAME
350
E
  3
ACDBHEADERROUNDTRIPXREC
350
2B084
  3
ACDBVARIABLEDICTIONARY
350
4E
  0
DICTIONARY
  5
DDEF
330
2
100
AcDbDictionary
280
     1
  3
ACAD_LAYERFILTERS
360
E68E
  3
ACAD_LAYERSTATES
360
DDF0
  0
DICTIONARY
  5
131A3
330
1F
100
AcDbDictionary
280
     1
  3
ACAD_LAYOUTSELFREF
360
2B0A5
  0
DICTIONARY
  5
131A1
330
1B
100
AcDbDictionary
280
     1
  3
ACAD_LAYOUTSELFREF
360
2B0A4
  0
DICTIONARY
  5
13437
102
{ACAD_REACTORS
330
C
102
}
330
C
100
AcDbDictionary
  0
DICTIONARY
  5
D
102
{ACAD_REACTORS
330
C
102
}
330
C
100
AcDbDictionary
  3
*A1
350
DDE2
  3
*A10
350
14FE2
  3
*A11
350
14FE3
  3
*A12
350
14FD9
  3
*A13
350
167FE
  3
*A14
350
DDEB
  3
*A15
350
DDEE
  3
*A16
350
145F0
  3
*A17
350
167FF
  3
*A18
350
16800
  3
*A19
350
16801
  3
*A2
350
14FDE
  3
*A20
350
16802
  3
*A21
350
13CCB
  3
*A22
350
13CCD
  3
*A23
350
14FDA
  3
*A24
350
16803
  3
*A25
350
16804
  3
*A26
350
DDE7
  3
*A27
350
16805
  3
*A28
350
13CD2
  3
*A29
350
145E5
  3
*A3
350
14FDF
  3
*A30
350
16806
  3
*A31
350
16807
  3
*A32
350
13CC7
  3
*A33
350
16808
  3
*A34
350
145E9
  3
*A35
350
145EB
  3
*A36
350
16809
  3
*A37
350
1680A
  3
*A38
350
13CCE
  3
*A39
350
DDE8
  3
*A4
350
145EF
  3
*A40
350
145F1
  3
*A41
350
DDE9
  3
*A42
350
DDEA
  3
*A43
350
145E6
  3
*A44
350
13CC8
  3
*A45
350
14FDB
  3
*A46
350
13CC9
  3
*A47
350
13CCA
  3
*A48
350
145EC
  3
*A49
350
13CCF
  3
*A5
350
14FE0
  3
*A50
350
13CD0
  3
*A51
350
13CD1
  3
*A52
350
DDE5
  3
*A53
350
145E7
  3
*A54
350
DDE4
  3
*A55
350
145E8
  3
*A56
350
DDED
  3
*A57
350
145ED
  3
*A58
350
DDEC
  3
*A59
350
145EE
  3
*A6
350
DDE3
  3
*A60
350
14FD7
  3
*A61
350
13CCC
  3
*A62
350
14FD8
  3
*A63
350
14FDC
  3
*A64
350
13CD3
  3
*A65
350
14FDD
  3
*A7
350
DDE6
  3
*A8
350
145EA
  3
*A9
350
14FE1
  0
DICTIONARY
  5
1A
102
{ACAD_REACTORS
330
C
102
}
330
C
100
AcDbDictionary
  0
DICTIONARY
  5
13436
102
{ACAD_REACTORS
330
C
102
}
330
C
100
AcDbDictionary
  0
DICTIONARY
  5
17
102
{ACAD_REACTORS
330
C
102
}
330
C
100
AcDbDictionary
  3
STANDARD
350
18
  0
DICTIONARY
  5
19
102
{ACAD_REACTORS
330
C
102
}
330
C
100
AcDbDictionary
  3
LANSRO
350
1AB
  0
ACDBDICTIONARYWDFLT
  5
E
102
{ACAD_REACTORS
330
C
102
}
330
C
100
AcDbDictionary
281
     1
  3
Normal
350
F
100
AcDbDictionaryWithDefault
340
F
  0
DICTIONARY
  5
2B084
102
{ACAD_REACTORS
330
C
102
}
330
C
100
AcDbDictionary
  3
CEPSNTYPE
350
2B08E
  3
FINGERPRINTGUID
350
2B08F
  3
HYPERLINKBASE
350
2B087
  3
INSUNITS
350
2B08D
  3
LAYOUTDICT
350
2B089
  3
LWETCUNION
350
2B08C
  3
PLOTSETDICT
350
2B08A
  3
PLOTSTYLNAMDICT
350
2B08B
  3
PSVPSCALE
350
2B091
  3
PUCSBASE
350
2B094
  3
PUCSORGBACK
350
2B09A
  3
PUCSORGBOTTOM
350
2B096
  3
PUCSORGFRONT
350
2B099
  3
PUCSORGLEFT
350
2B097
  3
PUCSORGRIGHT
350
2B098
  3
PUCSORGTOP
350
2B095
  3
PUCSORTHOREF
350
2B092
  3
PUCSORTHOVIEW
350
2B093
  3
STYLESHEET
350
2B088
  3
TSTACKALIGN
350
2B085
  3
TSTACKSIZE
350
2B086
  3
UCSBASE
350
2B09D
  3
UCSORGBACK
350
2B0A3
  3
UCSORGBOTTOM
350
2B09F
  3
UCSORGFRONT
350
2B0A2
  3
UCSORGLEFT
350
2B0A0
  3
UCSORGRIGHT
350
2B0A1
  3
UCSORGTOP
350
2B09E
  3
UCSORTHOREF
350
2B09B
  3
UCSORTHOVIEW
350
2B09C
  3
VERSIONGUID
350
2B090
  0
DICTIONARY
  5
4E
102
{ACAD_REACTORS
330
C
102
}
330
C
100
AcDbDictionary
  3
DIMASSOC
350
1350B
  3
PROJECTNAME
350
1350C
  3
SORTENTS
350
4F
  0
DICTIONARY
  5
E68E
102
{ACAD_REACTORS
330
DDEF
102
}
330
DDEF
100
AcDbDictionary
280
     1
  0
DICTIONARY
  5
DDF0
102
{ACAD_REACTORS
330
DDEF
102
}
330
DDEF
100
AcDbDictionary
  0
XRECORD
  5
2B0A5
102
{ACAD_REACTORS
330
131A3
102
}
330
131A3
100
AcDbXrecord
340
1F
  0
XRECORD
  5
2B0A4
102
{ACAD_REACTORS
330
131A1
102
}
330
131A1
100
AcDbXrecord
340
1B
  0
GROUP
  5
DDE2
102
{ACAD_REACTORS
330
D
102
}
330
D
100
AcDbGroup
300

 70
     1
 71
     1
  0
GROUP
  5
14FE2
102
{ACAD_REACTORS
330
D
102
}
330
D
100
AcDbGroup
300

 70
     1
 71
     1
  0
GROUP
  5
14FE3
102
{ACAD_REACTORS
330
D
102
}
330
D
100
AcDbGroup
300

 70
     1
 71
     1
  0
GROUP
  5
14FD9
102
{ACAD_REACTORS
330
D
102
}
330
D
100
AcDbGroup
300

 70
     1
 71
     1
  0
GROUP
  5
167FE
102
{ACAD_REACTORS
330
D
102
}
330
D
100
AcDbGroup
300

 70
     1
 71
     1
  0
GROUP
  5
DDEB
102
{ACAD_REACTORS
330
D
102
}
330
D
100
AcDbGroup
300

 70
     1
 71
     1
  0
GROUP
  5
DDEE
102
{ACAD_REACTORS
330
D
102
}
330
D
100
AcDbGroup
300

 70
     1
 71
     1
  0
GROUP
  5
145F0
102
{ACAD_REACTORS
330
D
102
}
330
D
100
AcDbGroup
300

 70
     1
 71
     1
  0
GROUP
  5
167FF
102
{ACAD_REACTORS
330
D
102
}
330
D
100
AcDbGroup
300

 70
     1
 71
     1
  0
GROUP
  5
16800
102
{ACAD_REACTORS
330
D
102
}
330
D
100
AcDbGroup
300

 70
     1
 71
     1
  0
GROUP
  5
16801
102
{ACAD_REACTORS
330
D
102
}
330
D
100
AcDbGroup
300

 70
     1
 71
     1
  0
GROUP
  5
14FDE
102
{ACAD_REACTORS
330
D
102
}
330
D
100
AcDbGroup
300

 70
     1
 71
     1
  0
GROUP
  5
16802
102
{ACAD_REACTORS
330
D
102
}
330
D
100
AcDbGroup
300

 70
     1
 71
     1
  0
GROUP
  5
13CCB
102
{ACAD_REACTORS
330
D
102
}
330
D
100
AcDbGroup
300

 70
     1
 71
     1
  0
GROUP
  5
13CCD
102
{ACAD_REACTORS
330
D
102
}
330
D
100
AcDbGroup
300

 70
     1
 71
     1
  0
GROUP
  5
14FDA
102
{ACAD_REACTORS
330
D
102
}
330
D
100
AcDbGroup
300

 70
     1
 71
     1
  0
GROUP
  5
16803
102
{ACAD_REACTORS
330
D
102
}
330
D
100
AcDbGroup
300

 70
     1
 71
     1
  0
GROUP
  5
16804
102
{ACAD_REACTORS
330
D
102
}
330
D
100
AcDbGroup
300

 70
     1
 71
     1
  0
GROUP
  5
DDE7
102
{ACAD_REACTORS
330
D
102
}
330
D
100
AcDbGroup
300

 70
     1
 71
     1
  0
GROUP
  5
16805
102
{ACAD_REACTORS
330
D
102
}
330
D
100
AcDbGroup
300

 70
     1
 71
     1
  0
GROUP
  5
13CD2
102
{ACAD_REACTORS
330
D
102
}
330
D
100
AcDbGroup
300

 70
     1
 71
     1
  0
GROUP
  5
145E5
102
{ACAD_REACTORS
330
D
102
}
330
D
100
AcDbGroup
300

 70
     1
 71
     1
  0
GROUP
  5
14FDF
102
{ACAD_REACTORS
330
D
102
}
330
D
100
AcDbGroup
300

 70
     1
 71
     1
  0
GROUP
  5
16806
102
{ACAD_REACTORS
330
D
102
}
330
D
100
AcDbGroup
300

 70
     1
 71
     1
  0
GROUP
  5
16807
102
{ACAD_REACTORS
330
D
102
}
330
D
100
AcDbGroup
300

 70
     1
 71
     1
  0
GROUP
  5
13CC7
102
{ACAD_REACTORS
330
D
102
}
330
D
100
AcDbGroup
300

 70
     1
 71
     1
  0
GROUP
  5
16808
102
{ACAD_REACTORS
330
D
102
}
330
D
100
AcDbGroup
300

 70
     1
 71
     1
  0
GROUP
  5
145E9
102
{ACAD_REACTORS
330
D
102
}
330
D
100
AcDbGroup
300

 70
     1
 71
     1
  0
GROUP
  5
145EB
102
{ACAD_REACTORS
330
D
102
}
330
D
100
AcDbGroup
300

 70
     1
 71
     1
  0
GROUP
  5
16809
102
{ACAD_REACTORS
330
D
102
}
330
D
100
AcDbGroup
300

 70
     1
 71
     1
  0
GROUP
  5
1680A
102
{ACAD_REACTORS
330
D
102
}
330
D
100
AcDbGroup
300

 70
     1
 71
     1
  0
GROUP
  5
13CCE
102
{ACAD_REACTORS
330
D
102
}
330
D
100
AcDbGroup
300

 70
     1
 71
     1
  0
GROUP
  5
DDE8
102
{ACAD_REACTORS
330
D
102
}
330
D
100
AcDbGroup
300

 70
     1
 71
     1
  0
GROUP
  5
145EF
102
{ACAD_REACTORS
330
D
102
}
330
D
100
AcDbGroup
300

 70
     1
 71
     1
  0
GROUP
  5
145F1
102
{ACAD_REACTORS
330
D
102
}
330
D
100
AcDbGroup
300

 70
     1
 71
     1
  0
GROUP
  5
DDE9
102
{ACAD_REACTORS
330
D
102
}
330
D
100
AcDbGroup
300

 70
     1
 71
     1
  0
GROUP
  5
DDEA
102
{ACAD_REACTORS
330
D
102
}
330
D
100
AcDbGroup
300

 70
     1
 71
     1
  0
GROUP
  5
145E6
102
{ACAD_REACTORS
330
D
102
}
330
D
100
AcDbGroup
300

 70
     1
 71
     1
  0
GROUP
  5
13CC8
102
{ACAD_REACTORS
330
D
102
}
330
D
100
AcDbGroup
300

 70
     1
 71
     1
  0
GROUP
  5
14FDB
102
{ACAD_REACTORS
330
D
102
}
330
D
100
AcDbGroup
300

 70
     1
 71
     1
  0
GROUP
  5
13CC9
102
{ACAD_REACTORS
330
D
102
}
330
D
100
AcDbGroup
300

 70
     1
 71
     1
  0
GROUP
  5
13CCA
102
{ACAD_REACTORS
330
D
102
}
330
D
100
AcDbGroup
300

 70
     1
 71
     1
  0
GROUP
  5
145EC
102
{ACAD_REACTORS
330
D
102
}
330
D
100
AcDbGroup
300

 70
     1
 71
     1
  0
GROUP
  5
13CCF
102
{ACAD_REACTORS
330
D
102
}
330
D
100
AcDbGroup
300

 70
     1
 71
     1
  0
GROUP
  5
14FE0
102
{ACAD_REACTORS
330
D
102
}
330
D
100
AcDbGroup
300

 70
     1
 71
     1
  0
GROUP
  5
13CD0
102
{ACAD_REACTORS
330
D
102
}
330
D
100
AcDbGroup
300

 70
     1
 71
     1
  0
GROUP
  5
13CD1
102
{ACAD_REACTORS
330
D
102
}
330
D
100
AcDbGroup
300

 70
     1
 71
     1
  0
GROUP
  5
DDE5
102
{ACAD_REACTORS
330
D
102
}
330
D
100
AcDbGroup
300

 70
     1
 71
     1
  0
GROUP
  5
145E7
102
{ACAD_REACTORS
330
D
102
}
330
D
100
AcDbGroup
300

 70
     1
 71
     1
  0
GROUP
  5
DDE4
102
{ACAD_REACTORS
330
D
102
}
330
D
100
AcDbGroup
300

 70
     1
 71
     1
  0
GROUP
  5
145E8
102
{ACAD_REACTORS
330
D
102
}
330
D
100
AcDbGroup
300

 70
     1
 71
     1
  0
GROUP
  5
DDED
102
{ACAD_REACTORS
330
D
102
}
330
D
100
AcDbGroup
300

 70
     1
 71
     1
  0
GROUP
  5
145ED
102
{ACAD_REACTORS
330
D
102
}
330
D
100
AcDbGroup
300

 70
     1
 71
     1
  0
GROUP
  5
DDEC
102
{ACAD_REACTORS
330
D
102
}
330
D
100
AcDbGroup
300

 70
     1
 71
     1
  0
GROUP
  5
145EE
102
{ACAD_REACTORS
330
D
102
}
330
D
100
AcDbGroup
300

 70
     1
 71
     1
  0
GROUP
  5
DDE3
102
{ACAD_REACTORS
330
D
102
}
330
D
100
AcDbGroup
300

 70
     1
 71
     1
  0
GROUP
  5
14FD7
102
{ACAD_REACTORS
330
D
102
}
330
D
100
AcDbGroup
300

 70
     1
 71
     1
  0
GROUP
  5
13CCC
102
{ACAD_REACTORS
330
D
102
}
330
D
100
AcDbGroup
300

 70
     1
 71
     1
  0
GROUP
  5
14FD8
102
{ACAD_REACTORS
330
D
102
}
330
D
100
AcDbGroup
300

 70
     1
 71
     1
  0
GROUP
  5
14FDC
102
{ACAD_REACTORS
330
D
102
}
330
D
100
AcDbGroup
300

 70
     1
 71
     1
  0
GROUP
  5
13CD3
102
{ACAD_REACTORS
330
D
102
}
330
D
100
AcDbGroup
300

 70
     1
 71
     1
  0
GROUP
  5
14FDD
102
{ACAD_REACTORS
330
D
102
}
330
D
100
AcDbGroup
300

 70
     1
 71
     1
  0
GROUP
  5
DDE6
102
{ACAD_REACTORS
330
D
102
}
330
D
100
AcDbGroup
300

 70
     1
 71
     1
  0
GROUP
  5
145EA
102
{ACAD_REACTORS
330
D
102
}
330
D
100
AcDbGroup
300

 70
     1
 71
     1
  0
GROUP
  5
14FE1
102
{ACAD_REACTORS
330
D
102
}
330
D
100
AcDbGroup
300

 70
     1
 71
     1
  0
MLINESTYLE
  5
18
102
{ACAD_REACTORS
330
17
102
}
330
17
100
AcDbMlineStyle
  2
STANDARD
 70
     0
  3

 62
   256
 51
90.0
 52
90.0
 71
     2
 49
0.5
 62
   256
  6
BYLAYER
 49
-0.5
 62
   256
  6
BYLAYER
  0
PLOTSETTINGS
  5
1AB
102
{ACAD_XDICTIONARY
360
13503
102
}
102
{ACAD_REACTORS
330
19
102
}
330
19
100
AcDbPlotSettings
  1
LANSRO
  2
\\1260\HP2200
  4
A4
  6

 40
6.043083190917967
 41
6.762742042541503
 42
7.736419677734375
 43
5.027069091796875
 44
209.9733276367186
 45
296.9683227539062
 46
5.15
 47
0.0
 48
0.0
 49
0.0
140
0.0
141
0.0
142
1.0
143
0.8829829263240881
 70
  1716
 72
     1
 73
     1
 74
     0
  7
AAA.ctb
 75
     0
147
1.132524729739748
148
-132.2970149058029
149
-71.78507365635891
  0
ACDBPLACEHOLDER
  5
F
102
{ACAD_REACTORS
330
E
102
}
330
E
100
AcDbPlaceHolder
280
     0
  0
XRECORD
  5
2B08E
102
{ACAD_REACTORS
330
2B084
102
}
330
2B084
100
AcDbXrecord
 90
        0
  0
XRECORD
  5
2B08F
102
{ACAD_REACTORS
330
2B084
102
}
330
2B084
100
AcDbXrecord
  1
{39E6D4C8-9137-4BAE-85E5-615910EF8948}
  0
XRECORD
  5
2B087
102
{ACAD_REACTORS
330
2B084
102
}
330
2B084
100
AcDbXrecord
  1

  0
XRECORD
  5
2B08D
102
{ACAD_REACTORS
330
2B084
102
}
330
2B084
100
AcDbXrecord
 90
        4
  0
XRECORD
  5
2B089
102
{ACAD_REACTORS
330
2B084
102
}
330
2B084
100
AcDbXrecord
340
1A
  0
XRECORD
  5
2B08C
102
{ACAD_REACTORS
330
2B084
102
}
330
2B084
100
AcDbXrecord
 90
    10783
  0
XRECORD
  5
2B08A
102
{ACAD_REACTORS
330
2B084
102
}
330
2B084
100
AcDbXrecord
340
19
  0
XRECORD
  5
2B08B
102
{ACAD_REACTORS
330
2B084
102
}
330
2B084
100
AcDbXrecord
340
E
  0
XRECORD
  5
2B091
102
{ACAD_REACTORS
330
2B084
102
}
330
2B084
100
AcDbXrecord
 40
0.0
  0
XRECORD
  5
2B094
102
{ACAD_REACTORS
330
2B084
102
}
330
2B084
100
AcDbXrecord
340
0
  0
XRECORD
  5
2B09A
102
{ACAD_REACTORS
330
2B084
102
}
330
2B084
100
AcDbXrecord
 10
0.0
 20
0.0
 30
0.0
  0
XRECORD
  5
2B096
102
{ACAD_REACTORS
330
2B084
102
}
330
2B084
100
AcDbXrecord
 10
0.0
 20
0.0
 30
0.0
  0
XRECORD
  5
2B099
102
{ACAD_REACTORS
330
2B084
102
}
330
2B084
100
AcDbXrecord
 10
0.0
 20
0.0
 30
0.0
  0
XRECORD
  5
2B097
102
{ACAD_REACTORS
330
2B084
102
}
330
2B084
100
AcDbXrecord
 10
0.0
 20
0.0
 30
0.0
  0
XRECORD
  5
2B098
102
{ACAD_REACTORS
330
2B084
102
}
330
2B084
100
AcDbXrecord
 10
0.0
 20
0.0
 30
0.0
  0
XRECORD
  5
2B095
102
{ACAD_REACTORS
330
2B084
102
}
330
2B084
100
AcDbXrecord
 10
0.0
 20
0.0
 30
0.0
  0
XRECORD
  5
2B092
102
{ACAD_REACTORS
330
2B084
102
}
330
2B084
100
AcDbXrecord
340
0
  0
XRECORD
  5
2B093
102
{ACAD_REACTORS
330
2B084
102
}
330
2B084
100
AcDbXrecord
 70
     0
  0
XRECORD
  5
2B088
102
{ACAD_REACTORS
330
2B084
102
}
330
2B084
100
AcDbXrecord
  1
AAA.ctb
  0
XRECORD
  5
2B085
102
{ACAD_REACTORS
330
2B084
102
}
330
2B084
100
AcDbXrecord
 90
        1
  0
XRECORD
  5
2B086
102
{ACAD_REACTORS
330
2B084
102
}
330
2B084
100
AcDbXrecord
 90
       70
  0
XRECORD
  5
2B09D
102
{ACAD_REACTORS
330
2B084
102
}
330
2B084
100
AcDbXrecord
340
0
  0
XRECORD
  5
2B0A3
102
{ACAD_REACTORS
330
2B084
102
}
330
2B084
100
AcDbXrecord
 10
0.0
 20
0.0
 30
0.0
  0
XRECORD
  5
2B09F
102
{ACAD_REACTORS
330
2B084
102
}
330
2B084
100
AcDbXrecord
 10
0.0
 20
0.0
 30
0.0
  0
XRECORD
  5
2B0A2
102
{ACAD_REACTORS
330
2B084
102
}
330
2B084
100
AcDbXrecord
 10
0.0
 20
0.0
 30
0.0
  0
XRECORD
  5
2B0A0
102
{ACAD_REACTORS
330
2B084
102
}
330
2B084
100
AcDbXrecord
 10
0.0
 20
0.0
 30
0.0
  0
XRECORD
  5
2B0A1
102
{ACAD_REACTORS
330
2B084
102
}
330
2B084
100
AcDbXrecord
 10
0.0
 20
0.0
 30
0.0
  0
XRECORD
  5
2B09E
102
{ACAD_REACTORS
330
2B084
102
}
330
2B084
100
AcDbXrecord
 10
0.0
 20
0.0
 30
0.0
  0
XRECORD
  5
2B09B
102
{ACAD_REACTORS
330
2B084
102
}
330
2B084
100
AcDbXrecord
340
0
  0
XRECORD
  5
2B09C
102
{ACAD_REACTORS
330
2B084
102
}
330
2B084
100
AcDbXrecord
 70
     0
  0
XRECORD
  5
2B090
102
{ACAD_REACTORS
330
2B084
102
}
330
2B084
100
AcDbXrecord
  1
{B812F931-66B0-11D8-88CD-00A024540C4A}
  0
DICTIONARYVAR
  5
1350B
102
{ACAD_REACTORS
330
4E
102
}
330
4E
100
DictionaryVariables
280
     0
  1
1
  0
DICTIONARYVAR
  5
1350C
102
{ACAD_REACTORS
330
4E
102
}
330
4E
100
DictionaryVariables
280
     0
  1

  0
DICTIONARYVAR
  5
4F
102
{ACAD_REACTORS
330
4E
102
}
330
4E
100
DictionaryVariables
280
     0
  1
96
  0
DICTIONARY
  5
13503
330
1AB
100
AcDbDictionary
280
     1
  3
ACAD_XREC_ROUNDTRIP
360
13504
  0
XRECORD
  5
13504
102
{ACAD_REACTORS
330
13503
102
}
330
13503
100
AcDbXrecord
102
SHADEPLOT
 70
     0
102
SHADEPLOTRESLEVEL
 70
     2
102
SHADEPLOTCUSTOMDPI
 70
   300
  0
ENDSEC
  0
EOF
