  0
SECTION
  2
HEADER
  9
$ACADVER
  1
AC1009
  9
$INSBASE
 10
0.0
 20
0.0
 30
0.0
  9
$EXTMIN
 10
-324.86273260267137
 20
-52.773061385578139
 30
0.0
  9
$EXTMAX
 10
-83.371237033132715
 20
147.06868639427501
 30
0.0
  9
$LIMMIN
 10
-10.0
 20
-15.0
  9
$LIMMAX
 10
120.0
 20
90.0
  9
$ORTHOMODE
 70
     1
  9
$REGENMODE
 70
     0
  9
$FILLMODE
 70
     1
  9
$QTEXTMODE
 70
     0
  9
$MIRRTEXT
 70
     0
  9
$DRAGMODE
 70
     2
  9
$LTSCALE
 40
20.0
  9
$OSMODE
 70
  3071
  9
$ATTMODE
 70
     1
  9
$TEXTSIZE
 40
3.0
  9
$TRACEWID
 40
1.0
  9
$TEXTSTYLE
  7
STANDARD
  9
$CLAYER
  8
0
  9
$CELTYPE
  6
ByLayer
  9
$CECOLOR
 62
   256
  9
$DIMSCALE
 40
1.0
  9
$DIMASZ
 40
3.0
  9
$DIMEXO
 40
1.0
  9
$DIMDLI
 40
6.0
  9
$DIMRND
 40
0.0
  9
$DIMDLE
 40
0.0
  9
$DIMEXE
 40
1.0
  9
$DIMTP
 40
0.0
  9
$DIMTM
 40
0.0
  9
$DIMTXT
 40
3.0
  9
$DIMCEN
 40
1.5
  9
$DIMTSZ
 40
0.0
  9
$DIMTOL
 70
     0
  9
$DIMLIM
 70
     0
  9
$DIMTIH
 70
     1
  9
$DIMTOH
 70
     1
  9
$DIMSE1
 70
     0
  9
$DIMSE2
 70
     0
  9
$DIMTAD
 70
     0
  9
$DIMZIN
 70
     0
  9
$DIMBLK
  1

  9
$DIMASO
 70
     1
  9
$DIMSHO
 70
     0
  9
$DIMPOST
  1

  9
$DIMAPOST
  1

  9
$DIMALT
 70
     0
  9
$DIMALTD
 70
     2
  9
$DIMALTF
 40
25.399999999999999
  9
$DIMLFAC
 40
1.0
  9
$DIMTOFL
 70
     1
  9
$DIMTVP
 40
0.0
  9
$DIMTIX
 70
     0
  9
$DIMSOXD
 70
     0
  9
$DIMSAH
 70
     0
  9
$DIMBLK1
  1

  9
$DIMBLK2
  1

  9
$DIMSTYLE
  2
STANDARD
  9
$DIMCLRD
 70
     0
  9
$DIMCLRE
 70
     0
  9
$DIMCLRT
 70
     0
  9
$DIMTFAC
 40
1.0
  9
$DIMGAP
 40
0.09
  9
$LUNITS
 70
     2
  9
$LUPREC
 70
     4
  9
$SKETCHINC
 40
0.5
  9
$FILLETRAD
 40
0.0
  9
$AUNITS
 70
     0
  9
$AUPREC
 70
     0
  9
$MENU
  1
ACAD
  9
$ELEVATION
 40
0.0
  9
$PELEVATION
 40
0.0
  9
$THICKNESS
 40
0.0
  9
$LIMCHECK
 70
     0
  9
$BLIPMODE
 70
     0
  9
$CHAMFERA
 40
0.0
  9
$CHAMFERB
 40
0.0
  9
$SKPOLY
 70
     0
  9
$TDCREATE
 40
2444975.333333334
  9
$TDUPDATE
 40
2453686.639901076
  9
$TDINDWG
 40
0.0380421875
  9
$TDUSRTIMER
 40
0.0
  9
$USRTIMER
 70
     0
  9
$ANGBASE
 50
0.0
  9
$ANGDIR
 70
     0
  9
$PDMODE
 70
   171
  9
$PDSIZE
 40
0.001
  9
$PLINEWID
 40
0.0
  9
$COORDS
 70
     2
  9
$SPLFRAME
 70
     0
  9
$SPLINETYPE
 70
     6
  9
$SPLINESEGS
 70
     8
  9
$ATTDIA
 70
     0
  9
$ATTREQ
 70
     1
  9
$HANDLING
 70
     1
  9
$HANDSEED
  5
6283
  9
$SURFTAB1
 70
     6
  9
$SURFTAB2
 70
     6
  9
$SURFTYPE
 70
     6
  9
$SURFU
 70
     6
  9
$SURFV
 70
     6
  9
$UCSNAME
  2

  9
$UCSORG
 10
0.0
 20
0.0
 30
0.0
  9
$UCSXDIR
 10
1.0
 20
0.0
 30
0.0
  9
$UCSYDIR
 10
0.0
 20
1.0
 30
0.0
  9
$PUCSNAME
  2

  9
$PUCSORG
 10
0.0
 20
0.0
 30
0.0
  9
$PUCSXDIR
 10
1.0
 20
0.0
 30
0.0
  9
$PUCSYDIR
 10
0.0
 20
1.0
 30
0.0
  9
$USERI1
 70
     0
  9
$USERI2
 70
     0
  9
$USERI3
 70
     0
  9
$USERI4
 70
     0
  9
$USERI5
 70
     0
  9
$USERR1
 40
0.0
  9
$USERR2
 40
0.0
  9
$USERR3
 40
0.0
  9
$USERR4
 40
0.0
  9
$USERR5
 40
0.0
  9
$WORLDVIEW
 70
     1
  9
$SHADEDGE
 70
     3
  9
$SHADEDIF
 70
    70
  9
$TILEMODE
 70
     1
  9
$MAXACTVP
 70
    48
  9
$PLIMCHECK
 70
     0
  9
$PEXTMIN
 10
1.0000000000000000E+020
 20
1.0000000000000000E+020
 30
1.0000000000000000E+020
  9
$PEXTMAX
 10
-1.0000000000000000E+020
 20
-1.0000000000000000E+020
 30
-1.0000000000000000E+020
  9
$PLIMMIN
 10
0.0
 20
0.0
  9
$PLIMMAX
 10
12.0
 20
9.0
  9
$UNITMODE
 70
     0
  9
$VISRETAIN
 70
     1
  9
$PLINEGEN
 70
     0
  9
$PSLTSCALE
 70
     0
  0
ENDSEC
  0
SECTION
  2
TABLES
  0
TABLE
  2
VPORT
 70
     2
  0
VPORT
  2
*ACTIVE
 70
     0
 10
0.0
 20
0.0
 11
1.0
 21
1.0
 12
-182.00321269639079
 22
44.655656793159828
 13
457.99999999999972
 23
1082.0
 14
10.0
 24
10.0
 15
10.0
 25
10.0
 16
0.0
 26
0.0
 36
1.0
 17
0.0
 27
0.0
 37
0.0
 40
324.53586501564831
 41
1.7038081805359659
 42
1.0
 43
0.0
 44
0.0
 50
0.0
 51
0.0
 71
     0
 72
   100
 73
     1
 74
     1
 75
     0
 76
     0
 77
     0
 78
     0
  0
ENDTAB
  0
TABLE
  2
LTYPE
 70
     5
  0
LTYPE
  2
ByBlock
 70
     0
  3

 72
    65
 73
     0
 40
0.0
  0
LTYPE
  2
ByLayer
 70
     0
  3

 72
    65
 73
     0
 40
0.0
  0
LTYPE
  2
CONTINUOUS
 70
     0
  3
łsÄň˝u ________________________
 72
    65
 73
     2
 40
200000.0
 49
200000.0
 49
0.0
  0
LTYPE
  2
CENTER2
 70
     0
  3
Center (.5x) ___ _ ___ _ ___ _ ___ _ ___ _ ___
 72
    65
 73
     4
 40
1.125
 49
0.75
 49
-0.125
 49
0.125
 49
-0.125
  0
LTYPE
  2
DASHED2
 70
     0
  3
Dashed (.5x) _ _ _ _ _ _ _ _ _ _ _ _ _ _ _ _ _
 72
    65
 73
     2
 40
0.375
 49
0.25
 49
-0.125
  0
ENDTAB
  0
TABLE
  2
LAYER
 70
    10
  0
LAYER
  2
0
 70
     0
 62
     7
  6
CONTINUOUS
  0
LAYER
  2
¤¤¤ß˝u
 70
     0
 62
     4
  6
CENTER2
  0
LAYER
  2
µę˝u
 70
     0
 62
     6
  6
DASHED2
  0
LAYER
  2
«ü˝u
 70
     0
 62
     3
  6
CONTINUOUS
  0
LAYER
  2
«Řşc˝u
 70
     0
 62
     1
  6
CONTINUOUS
  0
LAYER
  2
0_150
 70
     0
 62
     1
  6
CONTINUOUS
  0
LAYER
  2
AM7
 70
     0
 62
     4
  6
CENTER2
  0
LAYER
  2
AM4
 70
     0
 62
     3
  6
CONTINUOUS
  0
LAYER
  2
AM5
 70
     0
 62
     3
  6
CONTINUOUS
  0
LAYER
  2
0_15
 70
     0
 62
     1
  6
CONTINUOUS
  0
ENDTAB
  0
TABLE
  2
STYLE
 70
     1
  0
STYLE
  2
STANDARD
 70
     0
 40
0.0
 41
1.0
 50
0.0
 71
     0
 42
3.0
  3
txt
  4

  0
ENDTAB
  0
TABLE
  2
VIEW
 70
     0
  0
ENDTAB
  0
TABLE
  2
UCS
 70
     0
  0
ENDTAB
  0
TABLE
  2
APPID
 70
     4
  0
APPID
  2
ACAD
 70
     0
  0
APPID
  2
TCAD
 70
     0
  0
APPID
  2
PNTFLAG
 70
     0
  0
APPID
  2
CONTENTBLOCKICON
 70
     0
  0
ENDTAB
  0
TABLE
  2
DIMSTYLE
 70
     2
  0
DIMSTYLE
  2
STANDARD
 70
     0
  3

  4

  5

  6

  7

 40
1.0
 41
0.18
 42
0.0625
 43
0.38
 44
0.18
 45
0.0
 46
0.0
 47
0.0
 48
0.0
140
0.18
141
0.09
142
0.0
143
25.399999999999999
144
1.0
145
0.0
146
1.0
147
0.09
 71
     0
 72
     0
 73
     1
 74
     1
 75
     0
 76
     0
 77
     0
 78
     0
170
     0
171
     2
172
     0
173
     0
174
     0
175
     0
176
     0
177
     0
178
     0
  0
DIMSTYLE
  2
ISO-25
 70
     0
  3

  4

  5

  6

  7

 40
1.0
 41
1.1999999999999991
 42
0.7
 43
3.75
 44
0.3
 45
0.0
 46
0.0
 47
0.0
 48
0.0
140
1.5
141
2.5
142
0.0
143
0.03937007874016
144
1.0
145
0.0
146
1.0
147
0.5
 71
     0
 72
     0
 73
     0
 74
     0
 75
     0
 76
     0
 77
     1
 78
     1
170
     0
171
     3
172
     1
173
     0
174
     0
175
     0
176
     3
177
     3
178
     2
  0
ENDTAB
  0
ENDSEC
  0
SECTION
  2
BLOCKS
  0
BLOCK
  8
0
  2
$MODEL_SPACE
 70
     0
 10
0.0
 20
0.0
 30
0.0
  3
$MODEL_SPACE
  1

  0
ENDBLK
  5
255
  8
0
  0
BLOCK
 67
     1
  8
0
  2
$PAPER_SPACE
 70
     0
 10
0.0
 20
0.0
 30
0.0
  3
$PAPER_SPACE
  1

  0
ENDBLK
  5
253
 67
     1
  8
0
  0
BLOCK
  8
0
  2
I1
 70
     0
 10
0.0
 20
0.0
 30
0.0
  3
I1
  1

  0
LINE
  5
4030
  8
¤¤¤ß˝u
 10
-1.783849796371328
 20
0.0
 30
0.0
 11
3.967787178009643
 21
0.0
 31
0.0
  0
ARC
  5
4031
  8
0
 10
0.335523819494028
 20
0.9802483619828871
 30
0.0
 40
1.220011576012179
 50
105.9630221688284
 51
179.0723572120024
  0
LINE
  5
4032
  8
0
 10
-0.88432785935845
 20
1.0
 30
0.0
 11
-0.88432785935845
 21
-1.0
 31
0.0
  0
ARC
  5
4033
  8
0
 10
0.335523819494028
 20
-0.9802483619828871
 30
0.0
 40
1.220011576012179
 50
180.92764278799751
 51
254.0369778311715
  0
ENDBLK
  5
4035
  8
0
  0
BLOCK
  8
0
  2
HGW20CC_F
 70
     0
 10
0.0
 20
0.0
 30
0.0
  3
HGW20CC_F
  1

  0
LINE
  5
4BA6
  8
0
 10
17.768656696693139
 20
1.9490381056768911
 30
0.0
 11
-17.768656696693139
 21
1.9490381056768911
 31
0.0
  0
LINE
  5
4BA7
  8
0
 10
-25.25000000000011
 20
24.400000000000031
 30
0.0
 11
25.25
 21
24.400000000000031
 31
0.0
  0
LINE
  5
4BA8
  8
0
 10
15.74892725499433
 20
15.400000000000031
 30
0.0
 11
-15.74892725499444
 21
15.400000000000031
 31
0.0
  0
LINE
  5
4BA9
  8
0
 10
-25.25000000000011
 20
0.0
 30
0.0
 11
25.25
 21
0.0
 31
0.0
  0
LINE
  5
4BAA
  8
0
 10
-25.25000000000011
 20
25.400000000000041
 30
0.0
 11
25.25
 21
25.400000000000041
 31
0.0
  0
LINE
  5
4BAB
  8
¤¤¤ß˝u
 10
-20.0
 20
14.400000000000031
 30
0.0
 11
-20.0
 21
26.400000000000041
 31
0.0
  0
LINE
  5
4BAC
  8
0
 10
-34.250000000000107
 20
0.0000000000000568
 30
0.0
 11
-34.250000000000107
 21
24.400003943300081
 31
0.0
  0
LINE
  5
4BAD
  8
¤¤¤ß˝u
 10
-30.550000000000072
 20
14.650000000000031
 30
0.0
 11
-30.550000000000072
 21
22.150000000000031
 31
0.0
  0
CIRCLE
  5
4BAE
  8
0
 10
-30.550000000000072
 20
18.400000000000031
 30
0.0
 40
1.0
  0
CIRCLE
  5
4BAF
  8
0
 10
-30.550000000000072
 20
18.400000000000031
 30
0.0
 40
2.4999999728999991
  0
CIRCLE
  5
4BB0
  8
0
 10
-30.550000000000072
 20
18.400000000000031
 30
0.0
 40
3.144781861999999
  0
CIRCLE
  5
4BB1
  8
0
 10
-30.550000000000072
 20
18.400000000000031
 30
0.0
 40
2.8277919627000001
  0
LINE
  5
4BB2
  8
µę˝u
 10
-16.999999999999769
 20
24.89999999999992
 30
0.0
 11
-16.999999999999769
 21
16.60000000000019
 31
0.0
  0
LINE
  5
4BB3
  8
µę˝u
 10
-17.499999999999769
 20
24.89999999999992
 30
0.0
 11
-17.5
 21
16.60000000000019
 31
0.0
  0
LINE
  5
4BB4
  8
µę˝u
 10
-22.999999999999769
 20
24.900000000000041
 30
0.0
 11
-22.999999999999769
 21
16.60000000000008
 31
0.0
  0
LINE
  5
4BB5
  8
µę˝u
 10
-22.499999999999769
 20
24.900000000000041
 30
0.0
 11
-22.5
 21
16.60000000000008
 31
0.0
  0
LINE
  5
4BB6
  8
0
 10
-25.25000000000011
 20
25.400000000000041
 30
0.0
 11
-25.25000000000011
 21
0.0
 31
0.0
  0
LINE
  5
4BB7
  8
¤¤¤ß˝u
 10
-34.300000000000068
 20
18.400000000000031
 30
0.0
 11
-26.800000000000072
 21
18.400000000000031
 31
0.0
  0
LINE
  5
4BB8
  8
0
 10
-25.25000000000011
 20
1.500000000000056
 30
0.0
 11
-34.250000000000107
 21
1.500000000000056
 31
0.0
  0
LINE
  5
4BB9
  8
0
 10
-25.25000000000011
 20
0.0000000000000568
 30
0.0
 11
-34.250000000000107
 21
0.0000000000000568
 31
0.0
  0
LINE
  5
4BBA
  8
0
 10
-22.232554454282649
 20
1.9490381056768911
 30
0.0
 11
-25.25000000000011
 21
1.9490381056768911
 31
0.0
  0
LINE
  5
4BBB
  8
0
 10
-24.251072745005668
 20
15.900000000000031
 30
0.0
 11
-15.74892725499433
 21
15.900000000000031
 31
0.0
  0
LINE
  5
4BBC
  8
µę˝u
 10
-23.0
 20
16.60000000000008
 30
0.0
 11
-23.699999999999822
 21
15.900000000000031
 31
0.0
  0
LINE
  5
4BBD
  8
0
 10
-24.251072745005668
 20
15.400000000000031
 30
0.0
 11
-25.25000000000011
 21
15.400000000000031
 31
0.0
  0
LINE
  5
4BBE
  8
0
 10
-24.251072745005668
 20
15.900000000000031
 30
0.0
 11
-24.251072745005668
 21
12.256223361423791
 31
0.0
  0
LINE
  5
4BBF
  8
0
 10
-15.74892725499433
 20
15.900000000000031
 30
0.0
 11
-15.74892725499433
 21
12.256223361423791
 31
0.0
  0
LINE
  5
4BC0
  8
µę˝u
 10
-16.999999999999769
 20
16.60000000000019
 30
0.0
 11
-16.299999999999951
 21
15.900000000000031
 31
0.0
  0
LINE
  5
4BC1
  8
µę˝u
 10
-22.999999999999769
 20
16.60000000000008
 30
0.0
 11
-16.999999999999769
 21
16.60000000000019
 31
0.0
  0
LINE
  5
4BC2
  8
0
 10
-25.25000000000011
 20
24.400003943300081
 30
0.0
 11
-34.250000000000107
 21
24.400003943300081
 31
0.0
  0
LINE
  5
4BC3
  8
0
 10
-25.25000000000011
 20
22.900003943300081
 30
0.0
 11
-34.250000000000107
 21
22.900003943300081
 31
0.0
  0
LINE
  5
4BC4
  8
µę˝u
 10
-16.999999999999769
 20
24.89999999999992
 30
0.0
 11
-16.5
 21
25.400000000000041
 31
0.0
  0
LINE
  5
4BC5
  8
µę˝u
 10
-23.0
 20
24.900000000000041
 30
0.0
 11
-23.499999999999769
 21
25.400000000000041
 31
0.0
  0
LINE
  5
4BC6
  8
µę˝u
 10
-22.999999999999769
 20
24.900000000000041
 30
0.0
 11
-16.999999999999769
 21
24.89999999999992
 31
0.0
  0
LINE
  5
4BC7
  8
¤¤¤ß˝u
 10
20.0
 20
14.400000000000031
 30
0.0
 11
20.0
 21
26.400000000000041
 31
0.0
  0
LINE
  5
4BC8
  8
0
 10
34.25
 20
0.0000000000000568
 30
0.0
 11
34.25
 21
24.400003943300081
 31
0.0
  0
LINE
  5
4BC9
  8
¤¤¤ß˝u
 10
30.550000000000178
 20
14.82500000000004
 30
0.0
 11
30.550000000000178
 21
21.975000000000019
 31
0.0
  0
CIRCLE
  5
4BCA
  8
0
 10
30.550000000000178
 20
18.400000000000031
 30
0.0
 40
1.0
  0
CIRCLE
  5
4BCB
  8
0
 10
30.550000000000178
 20
18.400000000000031
 30
0.0
 40
3.1447818687999991
  0
CIRCLE
  5
4BCC
  8
0
 10
30.550000000000178
 20
18.400000000000031
 30
0.0
 40
2.4999999728999991
  0
CIRCLE
  5
4BCD
  8
0
 10
30.550000000000178
 20
18.400000000000031
 30
0.0
 40
2.8277919622000001
  0
LINE
  5
4BCE
  8
µę˝u
 10
23.00000000000011
 20
24.89999999999992
 30
0.0
 11
23.00000000000011
 21
16.60000000000019
 31
0.0
  0
LINE
  5
4BCF
  8
µę˝u
 10
22.50000000000011
 20
24.89999999999992
 30
0.0
 11
22.49999999999989
 21
16.60000000000019
 31
0.0
  0
LINE
  5
4BD0
  8
µę˝u
 10
17.00000000000011
 20
24.900000000000041
 30
0.0
 11
17.00000000000011
 21
16.60000000000008
 31
0.0
  0
LINE
  5
4BD1
  8
µę˝u
 10
17.50000000000011
 20
24.900000000000041
 30
0.0
 11
17.499999999999879
 21
16.60000000000008
 31
0.0
  0
LINE
  5
4BD2
  8
0
 10
25.25
 20
0.0
 30
0.0
 11
25.25
 21
25.400000000000041
 31
0.0
  0
LINE
  5
4BD3
  8
0
 10
25.25
 20
1.500000000000056
 30
0.0
 11
34.25
 21
1.500000000000056
 31
0.0
  0
LINE
  5
4BD4
  8
0
 10
25.25
 20
0.0000000000000568
 30
0.0
 11
34.25
 21
0.0000000000000568
 31
0.0
  0
LINE
  5
4BD5
  8
¤¤¤ß˝u
 10
26.97500000000014
 20
18.400000000000031
 30
0.0
 11
34.125
 21
18.400000000000031
 31
0.0
  0
LINE
  5
4BD6
  8
0
 10
24.251072745005668
 20
15.900000000000031
 30
0.0
 11
15.74892725499433
 21
15.900000000000031
 31
0.0
  0
LINE
  5
4BD7
  8
0
 10
15.74892725499433
 20
15.900000000000031
 30
0.0
 11
15.74892725499433
 21
12.256223361423791
 31
0.0
  0
LINE
  5
4BD8
  8
0
 10
25.25
 20
1.9490381056768911
 30
0.0
 11
22.232554454282649
 21
1.9490381056768911
 31
0.0
  0
LINE
  5
4BD9
  8
µę˝u
 10
23.00000000000011
 20
16.60000000000019
 30
0.0
 11
23.699999999999928
 21
15.900000000000031
 31
0.0
  0
LINE
  5
4BDA
  8
µę˝u
 10
16.999999999999879
 20
16.60000000000008
 30
0.0
 11
16.300000000000072
 21
15.900000000000031
 31
0.0
  0
LINE
  5
4BDB
  8
µę˝u
 10
17.00000000000011
 20
16.60000000000008
 30
0.0
 11
23.00000000000011
 21
16.60000000000019
 31
0.0
  0
LINE
  5
4BDC
  8
0
 10
25.25
 20
15.400000000000031
 30
0.0
 11
24.251072745005558
 21
15.400000000000031
 31
0.0
  0
LINE
  5
4BDD
  8
0
 10
24.251072745005668
 20
15.900000000000031
 30
0.0
 11
24.251072745005668
 21
12.256223361423791
 31
0.0
  0
LINE
  5
4BDE
  8
0
 10
25.25
 20
22.900003943300081
 30
0.0
 11
34.25
 21
22.900003943300081
 31
0.0
  0
LINE
  5
4BDF
  8
0
 10
25.25
 20
24.400003943300081
 30
0.0
 11
34.25
 21
24.400003943300081
 31
0.0
  0
LINE
  5
4BE0
  8
µę˝u
 10
23.00000000000011
 20
24.89999999999992
 30
0.0
 11
23.499999999999879
 21
25.400000000000041
 31
0.0
  0
LINE
  5
4BE1
  8
µę˝u
 10
16.999999999999879
 20
24.900000000000041
 30
0.0
 11
16.50000000000011
 21
25.400000000000041
 31
0.0
  0
LINE
  5
4BE2
  8
µę˝u
 10
17.00000000000011
 20
24.900000000000041
 30
0.0
 11
23.00000000000011
 21
24.89999999999992
 31
0.0
  0
LINE
  5
4BE3
  8
0
 10
24.251072745005668
 20
12.224501843948531
 30
0.0
 11
24.246644234103769
 21
12.17075793410163
 31
0.0
  0
LINE
  5
4BE4
  8
0
 10
24.246644234103769
 20
12.17075793410163
 30
0.0
 11
24.233849463353181
 21
12.08966295814934
 31
0.0
  0
LINE
  5
4BE5
  8
0
 10
24.233849463353181
 20
12.08966295814934
 30
0.0
 11
24.227987314302251
 21
12.057086138502029
 31
0.0
  0
LINE
  5
4BE6
  8
0
 10
24.227987314302251
 20
12.057086138502029
 30
0.0
 11
24.204132714334602
 21
11.93080207272925
 31
0.0
  0
LINE
  5
4BE7
  8
0
 10
24.204132714334602
 20
11.93080207272925
 30
0.0
 11
24.18233774494183
 21
11.814451043289241
 31
0.0
  0
LINE
  5
4BE8
  8
0
 10
24.18233774494183
 20
11.814451043289241
 30
0.0
 11
24.144723209149561
 21
11.59321574179557
 31
0.0
  0
LINE
  5
4BE9
  8
0
 10
24.144723209149561
 20
11.59321574179557
 30
0.0
 11
24.109702417213839
 21
11.333640141127431
 31
0.0
  0
LINE
  5
4BEA
  8
0
 10
24.109702417213839
 20
11.333640141127431
 30
0.0
 11
24.100040235653069
 21
11.24135947262544
 31
0.0
  0
LINE
  5
4BEB
  8
0
 10
24.100040235653069
 20
11.24135947262544
 30
0.0
 11
24.08676038025499
 21
11.08131890095558
 31
0.0
  0
LINE
  5
4BEC
  8
0
 10
24.08676038025499
 20
11.08131890095558
 30
0.0
 11
24.07461279140227
 21
10.926023989850361
 31
0.0
  0
LINE
  5
4BED
  8
0
 10
24.07461279140227
 20
10.926023989850361
 30
0.0
 11
24.048005039435228
 21
10.604708284579941
 31
0.0
  0
LINE
  5
4BEE
  8
0
 10
24.048005039435228
 20
10.604708284579941
 30
0.0
 11
23.990076647570049
 21
9.9761709692832028
 31
0.0
  0
LINE
  5
4BEF
  8
0
 10
23.990076647570049
 20
9.9761709692832028
 30
0.0
 11
23.875857810872731
 21
8.9320870094978204
 31
0.0
  0
LINE
  5
4BF0
  8
0
 10
23.875857810872731
 20
8.9320870094978204
 30
0.0
 11
23.733381868433639
 21
7.8618652409830361
 31
0.0
  0
LINE
  5
4BF1
  8
0
 10
23.733381868433639
 20
7.8618652409830361
 30
0.0
 11
23.679824789286609
 21
7.5059195502589091
 31
0.0
  0
LINE
  5
4BF2
  8
0
 10
23.679824789286609
 20
7.5059195502589091
 30
0.0
 11
23.504436001964791
 21
6.4681655619828566
 31
0.0
  0
LINE
  5
4BF3
  8
0
 10
23.504436001964791
 20
6.4681655619828566
 30
0.0
 11
23.347874275635149
 21
5.6719100108136891
 31
0.0
  0
LINE
  5
4BF4
  8
0
 10
23.347874275635149
 20
5.6719100108136891
 30
0.0
 11
23.211664544282371
 21
5.0554197641108649
 31
0.0
  0
LINE
  5
4BF5
  8
0
 10
23.211664544282371
 20
5.0554197641108649
 30
0.0
 11
23.037739242498791
 21
4.3509349299435476
 31
0.0
  0
LINE
  5
4BF6
  8
0
 10
23.037739242498791
 20
4.3509349299435476
 30
0.0
 11
22.88771884575203
 21
3.8066055059252331
 31
0.0
  0
LINE
  5
4BF7
  8
0
 10
22.88771884575203
 20
3.8066055059252331
 30
0.0
 11
22.683004747076659
 21
3.1432075332629088
 31
0.0
  0
LINE
  5
4BF8
  8
0
 10
22.683004747076659
 20
3.1432075332629088
 30
0.0
 11
22.505523172330982
 21
2.632845669162406
 31
0.0
  0
LINE
  5
4BF9
  8
0
 10
22.505523172330982
 20
2.632845669162406
 30
0.0
 11
22.267841965043889
 21
2.0305352111316211
 31
0.0
  0
LINE
  5
4BFA
  8
0
 10
22.267841965043889
 20
2.0305352111316211
 30
0.0
 11
22.206017242433742
 21
1.8877499641822051
 31
0.0
  0
LINE
  5
4BFB
  8
0
 10
22.206017242433742
 20
1.8877499641822051
 30
0.0
 11
22.174159142242271
 21
1.817178154230191
 31
0.0
  0
LINE
  5
4BFC
  8
0
 10
22.174159142242271
 20
1.817178154230191
 30
0.0
 11
22.127606610921021
 21
1.7315257827451651
 31
0.0
  0
LINE
  5
4BFD
  8
0
 10
22.127606610921021
 20
1.7315257827451651
 30
0.0
 11
22.015137449064241
 21
1.5798326225782371
 31
0.0
  0
LINE
  5
4BFE
  8
0
 10
22.015137449064241
 20
1.5798326225782371
 30
0.0
 11
21.91181444430697
 21
1.4775852270809651
 31
0.0
  0
LINE
  5
4BFF
  8
0
 10
21.91181444430697
 20
1.4775852270809651
 30
0.0
 11
21.76056166663227
 21
1.363773564406642
 31
0.0
  0
LINE
  5
4C00
  8
0
 10
21.76056166663227
 20
1.363773564406642
 30
0.0
 11
21.557890628356169
 21
1.2526671083112999
 31
0.0
  0
LINE
  5
4C01
  8
0
 10
21.557890628356169
 20
1.2526671083112999
 30
0.0
 11
21.389684617210492
 21
1.1839887579416191
 31
0.0
  0
LINE
  5
4C02
  8
0
 10
21.389684617210492
 20
1.1839887579416191
 30
0.0
 11
21.144693547117761
 21
1.109647722093086
 31
0.0
  0
LINE
  5
4C03
  8
0
 10
21.144693547117761
 20
1.109647722093086
 30
0.0
 11
20.794483013148579
 21
1.0406343792963071
 31
0.0
  0
LINE
  5
4C04
  8
0
 10
20.794483013148579
 20
1.0406343792963071
 30
0.0
 11
20.43105162968288
 21
1.0008683042304931
 31
0.0
  0
LINE
  5
4C05
  8
0
 10
20.43105162968288
 20
1.0008683042304931
 30
0.0
 11
20.144605652757718
 21
0.9872698480356802
 31
0.0
  0
LINE
  5
4C06
  8
0
 10
20.144605652757718
 20
0.9872698480356802
 30
0.0
 11
19.754074775396361
 21
0.9904048831103295
 31
0.0
  0
LINE
  5
4C07
  8
0
 10
19.754074775396361
 20
0.9904048831103295
 30
0.0
 11
19.45226059913341
 21
1.010744201995748
 31
0.0
  0
LINE
  5
4C08
  8
0
 10
19.45226059913341
 20
1.010744201995748
 30
0.0
 11
19.077728521192061
 21
1.061617891372804
 31
0.0
  0
LINE
  5
4C09
  8
0
 10
19.077728521192061
 20
1.061617891372804
 30
0.0
 11
18.79557905723436
 21
1.1255230422224249
 31
0.0
  0
LINE
  5
4C0A
  8
0
 10
18.79557905723436
 20
1.1255230422224249
 30
0.0
 11
18.54306925192509
 21
1.209260810301316
 31
0.0
  0
LINE
  5
4C0B
  8
0
 10
18.54306925192509
 20
1.209260810301316
 30
0.0
 11
18.359239896408099
 21
1.2936538710209211
 31
0.0
  0
LINE
  5
4C0C
  8
0
 10
18.359239896408099
 20
1.2936538710209211
 30
0.0
 11
18.224954045010801
 21
1.3734068120529619
 31
0.0
  0
LINE
  5
4C0D
  8
0
 10
18.224954045010801
 20
1.3734068120529619
 30
0.0
 11
18.068800077226449
 21
1.4948984428089029
 31
0.0
  0
LINE
  5
4C0E
  8
0
 10
18.068800077226449
 20
1.4948984428089029
 30
0.0
 11
17.96180692197299
 21
1.6065866330066001
 31
0.0
  0
LINE
  5
4C0F
  8
0
 10
17.96180692197299
 20
1.6065866330066001
 30
0.0
 11
17.85953552127512
 21
1.7532740861894349
 31
0.0
  0
LINE
  5
4C10
  8
0
 10
17.85953552127512
 20
1.7532740861894349
 30
0.0
 11
17.822229995859509
 21
1.8247561071935361
 31
0.0
  0
LINE
  5
4C11
  8
0
 10
17.822229995859509
 20
1.8247561071935361
 30
0.0
 11
17.790573507145378
 21
1.895482174506526
 31
0.0
  0
LINE
  5
4C12
  8
0
 10
17.790573507145378
 20
1.895482174506526
 30
0.0
 11
17.55463889439158
 21
2.4720121357839839
 31
0.0
  0
LINE
  5
4C13
  8
0
 10
17.55463889439158
 20
2.4720121357839839
 30
0.0
 11
17.319325415492131
 21
3.1361088799457661
 31
0.0
  0
LINE
  5
4C14
  8
0
 10
17.319325415492131
 20
3.1361088799457661
 30
0.0
 11
17.15568728130404
 21
3.6587249125560102
 31
0.0
  0
LINE
  5
4C15
  8
0
 10
17.15568728130404
 20
3.6587249125560102
 30
0.0
 11
16.94973990644484
 21
4.3980902434404348
 31
0.0
  0
LINE
  5
4C16
  8
0
 10
16.94973990644484
 20
4.3980902434404348
 30
0.0
 11
16.731470542979991
 21
5.3044529488080912
 31
0.0
  0
LINE
  5
4C17
  8
0
 10
16.731470542979991
 20
5.3044529488080912
 30
0.0
 11
16.582497948011788
 21
6.013844032974986
 31
0.0
  0
LINE
  5
4C18
  8
0
 10
16.582497948011788
 20
6.013844032974986
 30
0.0
 11
16.398021544910758
 21
7.0230705262297297
 31
0.0
  0
LINE
  5
4C19
  8
0
 10
16.398021544910758
 20
7.0230705262297297
 30
0.0
 11
16.237489482732709
 21
8.0649417219821657
 31
0.0
  0
LINE
  5
4C1A
  8
0
 10
16.237489482732709
 20
8.0649417219821657
 30
0.0
 11
16.18991434543727
 21
8.4130460018375288
 31
0.0
  0
LINE
  5
4C1B
  8
0
 10
16.18991434543727
 20
8.4130460018375288
 30
0.0
 11
16.0709751314306
 21
9.3918730098230867
 31
0.0
  0
LINE
  5
4C1C
  8
0
 10
16.0709751314306
 20
9.3918730098230867
 30
0.0
 11
15.96998011987932
 21
10.400100525983129
 31
0.0
  0
LINE
  5
4C1D
  8
0
 10
15.96998011987932
 20
10.400100525983129
 30
0.0
 11
15.940833188598839
 21
10.73657511809324
 31
0.0
  0
LINE
  5
4C1E
  8
0
 10
15.940833188598839
 20
10.73657511809324
 30
0.0
 11
15.916905465625289
 21
11.033830219750991
 31
0.0
  0
LINE
  5
4C1F
  8
0
 10
15.916905465625289
 20
11.033830219750991
 30
0.0
 11
15.90572980277318
 21
11.17744164386221
 31
0.0
  0
LINE
  5
4C20
  8
0
 10
15.90572980277318
 20
11.17744164386221
 30
0.0
 11
15.892328509004299
 21
11.31557710337478
 31
0.0
  0
LINE
  5
4C21
  8
0
 10
15.892328509004299
 20
11.31557710337478
 30
0.0
 11
15.8630071112691
 21
11.54248726491363
 31
0.0
  0
LINE
  5
4C22
  8
0
 10
15.8630071112691
 20
11.54248726491363
 30
0.0
 11
15.82895525784204
 21
11.75166776561815
 31
0.0
  0
LINE
  5
4C23
  8
0
 10
15.82895525784204
 20
11.75166776561815
 30
0.0
 11
15.817566962302861
 21
11.81497129645447
 31
0.0
  0
LINE
  5
4C24
  8
0
 10
15.817566962302861
 20
11.81497129645447
 30
0.0
 11
15.789843995248249
 21
11.962780786178479
 31
0.0
  0
LINE
  5
4C25
  8
0
 10
15.789843995248249
 20
11.962780786178479
 30
0.0
 11
15.76905134277524
 21
12.07392885035688
 31
0.0
  0
LINE
  5
4C26
  8
0
 10
15.76905134277524
 20
12.07392885035688
 30
0.0
 11
15.75446755219013
 21
12.162335626591871
 31
0.0
  0
LINE
  5
4C27
  8
0
 10
15.75446755219013
 20
12.162335626591871
 30
0.0
 11
15.75153464530046
 21
12.185575912134251
 31
0.0
  0
LINE
  5
4C28
  8
0
 10
15.75153464530046
 20
12.185575912134251
 30
0.0
 11
15.749237409820459
 21
12.23396994592076
 31
0.0
  0
LINE
  5
4C29
  8
0
 10
15.749237409820459
 20
12.23396994592076
 30
0.0
 11
15.754010603672331
 21
12.25285390084122
 31
0.0
  0
LINE
  5
4C2A
  8
0
 10
15.754010603672331
 20
12.25285390084122
 30
0.0
 11
15.758972689994151
 21
12.255949672805681
 31
0.0
  0
LINE
  5
4C2B
  8
0
 10
-24.251072745005668
 20
12.224501843948531
 30
0.0
 11
-24.246644234103769
 21
12.17075793410163
 31
0.0
  0
LINE
  5
4C2C
  8
0
 10
-24.246644234103769
 20
12.17075793410163
 30
0.0
 11
-24.233849463353181
 21
12.08966295814934
 31
0.0
  0
LINE
  5
4C2D
  8
0
 10
-24.233849463353181
 20
12.08966295814934
 30
0.0
 11
-24.227987314302251
 21
12.057086138502029
 31
0.0
  0
LINE
  5
4C2E
  8
0
 10
-24.227987314302251
 20
12.057086138502029
 30
0.0
 11
-24.204132714334602
 21
11.93080207272925
 31
0.0
  0
LINE
  5
4C2F
  8
0
 10
-24.204132714334602
 20
11.93080207272925
 30
0.0
 11
-24.18233774494183
 21
11.814451043289241
 31
0.0
  0
LINE
  5
4C30
  8
0
 10
-24.18233774494183
 20
11.814451043289241
 30
0.0
 11
-24.144723209149561
 21
11.59321574179557
 31
0.0
  0
LINE
  5
4C31
  8
0
 10
-24.144723209149561
 20
11.59321574179557
 30
0.0
 11
-24.109702417213839
 21
11.333640141127431
 31
0.0
  0
LINE
  5
4C32
  8
0
 10
-24.109702417213839
 20
11.333640141127431
 30
0.0
 11
-24.100040235653069
 21
11.24135947262544
 31
0.0
  0
LINE
  5
4C33
  8
0
 10
-24.100040235653069
 20
11.24135947262544
 30
0.0
 11
-24.08676038025499
 21
11.08131890095558
 31
0.0
  0
LINE
  5
4C34
  8
0
 10
-24.08676038025499
 20
11.08131890095558
 30
0.0
 11
-24.07461279140227
 21
10.926023989850361
 31
0.0
  0
LINE
  5
4C35
  8
0
 10
-24.07461279140227
 20
10.926023989850361
 30
0.0
 11
-24.048005039435228
 21
10.604708284579941
 31
0.0
  0
LINE
  5
4C36
  8
0
 10
-24.048005039435228
 20
10.604708284579941
 30
0.0
 11
-23.990076647570049
 21
9.9761709692832028
 31
0.0
  0
LINE
  5
4C37
  8
0
 10
-23.990076647570049
 20
9.9761709692832028
 30
0.0
 11
-23.875857810872731
 21
8.9320870094978204
 31
0.0
  0
LINE
  5
4C38
  8
0
 10
-23.875857810872731
 20
8.9320870094978204
 30
0.0
 11
-23.733381868433639
 21
7.8618652409830361
 31
0.0
  0
LINE
  5
4C39
  8
0
 10
-23.733381868433639
 20
7.8618652409830361
 30
0.0
 11
-23.679824789286609
 21
7.5059195502589091
 31
0.0
  0
LINE
  5
4C3A
  8
0
 10
-23.679824789286609
 20
7.5059195502589091
 30
0.0
 11
-23.504436001964791
 21
6.4681655619828566
 31
0.0
  0
LINE
  5
4C3B
  8
0
 10
-23.504436001964791
 20
6.4681655619828566
 30
0.0
 11
-23.347874275635149
 21
5.6719100108136891
 31
0.0
  0
LINE
  5
4C3C
  8
0
 10
-23.347874275635149
 20
5.6719100108136891
 30
0.0
 11
-23.211664544282371
 21
5.0554197641108649
 31
0.0
  0
LINE
  5
4C3D
  8
0
 10
-23.211664544282371
 20
5.0554197641108649
 30
0.0
 11
-23.037739242498791
 21
4.3509349299435476
 31
0.0
  0
LINE
  5
4C3E
  8
0
 10
-23.037739242498791
 20
4.3509349299435476
 30
0.0
 11
-22.88771884575203
 21
3.8066055059252331
 31
0.0
  0
LINE
  5
4C3F
  8
0
 10
-22.88771884575203
 20
3.8066055059252331
 30
0.0
 11
-22.683004747076659
 21
3.1432075332629088
 31
0.0
  0
LINE
  5
4C40
  8
0
 10
-22.683004747076659
 20
3.1432075332629088
 30
0.0
 11
-22.505523172330982
 21
2.632845669162406
 31
0.0
  0
LINE
  5
4C41
  8
0
 10
-22.505523172330982
 20
2.632845669162406
 30
0.0
 11
-22.267841965043889
 21
2.0305352111316211
 31
0.0
  0
LINE
  5
4C42
  8
0
 10
-22.267841965043889
 20
2.0305352111316211
 30
0.0
 11
-22.206017242433742
 21
1.8877499641822051
 31
0.0
  0
LINE
  5
4C43
  8
0
 10
-22.206017242433742
 20
1.8877499641822051
 30
0.0
 11
-22.174159142242271
 21
1.817178154230191
 31
0.0
  0
LINE
  5
4C44
  8
0
 10
-22.174159142242271
 20
1.817178154230191
 30
0.0
 11
-22.127606610921021
 21
1.7315257827451651
 31
0.0
  0
LINE
  5
4C45
  8
0
 10
-22.127606610921021
 20
1.7315257827451651
 30
0.0
 11
-22.015137449064241
 21
1.5798326225782371
 31
0.0
  0
LINE
  5
4C46
  8
0
 10
-22.015137449064241
 20
1.5798326225782371
 30
0.0
 11
-21.91181444430697
 21
1.4775852270809651
 31
0.0
  0
LINE
  5
4C47
  8
0
 10
-21.91181444430697
 20
1.4775852270809651
 30
0.0
 11
-21.76056166663227
 21
1.363773564406642
 31
0.0
  0
LINE
  5
4C48
  8
0
 10
-21.76056166663227
 20
1.363773564406642
 30
0.0
 11
-21.557890628356169
 21
1.2526671083112999
 31
0.0
  0
LINE
  5
4C49
  8
0
 10
-21.557890628356169
 20
1.2526671083112999
 30
0.0
 11
-21.389684617210492
 21
1.1839887579416191
 31
0.0
  0
LINE
  5
4C4A
  8
0
 10
-21.389684617210492
 20
1.1839887579416191
 30
0.0
 11
-21.144693547117761
 21
1.109647722093086
 31
0.0
  0
LINE
  5
4C4B
  8
0
 10
-21.144693547117761
 20
1.109647722093086
 30
0.0
 11
-20.794483013148579
 21
1.0406343792963071
 31
0.0
  0
LINE
  5
4C4C
  8
0
 10
-20.794483013148579
 20
1.0406343792963071
 30
0.0
 11
-20.43105162968288
 21
1.0008683042304931
 31
0.0
  0
LINE
  5
4C4D
  8
0
 10
-20.43105162968288
 20
1.0008683042304931
 30
0.0
 11
-20.144605652757718
 21
0.9872698480356802
 31
0.0
  0
LINE
  5
4C4E
  8
0
 10
-20.144605652757718
 20
0.9872698480356802
 30
0.0
 11
-19.754074775396361
 21
0.9904048831103295
 31
0.0
  0
LINE
  5
4C4F
  8
0
 10
-19.754074775396361
 20
0.9904048831103295
 30
0.0
 11
-19.45226059913341
 21
1.010744201995748
 31
0.0
  0
LINE
  5
4C50
  8
0
 10
-19.45226059913341
 20
1.010744201995748
 30
0.0
 11
-19.077728521192061
 21
1.061617891372804
 31
0.0
  0
LINE
  5
4C51
  8
0
 10
-19.077728521192061
 20
1.061617891372804
 30
0.0
 11
-18.79557905723436
 21
1.1255230422224249
 31
0.0
  0
LINE
  5
4C52
  8
0
 10
-18.79557905723436
 20
1.1255230422224249
 30
0.0
 11
-18.54306925192509
 21
1.209260810301316
 31
0.0
  0
LINE
  5
4C53
  8
0
 10
-18.54306925192509
 20
1.209260810301316
 30
0.0
 11
-18.359239896408099
 21
1.2936538710209211
 31
0.0
  0
LINE
  5
4C54
  8
0
 10
-18.359239896408099
 20
1.2936538710209211
 30
0.0
 11
-18.224954045010801
 21
1.3734068120529619
 31
0.0
  0
LINE
  5
4C55
  8
0
 10
-18.224954045010801
 20
1.3734068120529619
 30
0.0
 11
-18.068800077226449
 21
1.4948984428089029
 31
0.0
  0
LINE
  5
4C56
  8
0
 10
-18.068800077226449
 20
1.4948984428089029
 30
0.0
 11
-17.96180692197299
 21
1.6065866330066001
 31
0.0
  0
LINE
  5
4C57
  8
0
 10
-17.96180692197299
 20
1.6065866330066001
 30
0.0
 11
-17.85953552127512
 21
1.7532740861894349
 31
0.0
  0
LINE
  5
4C58
  8
0
 10
-17.85953552127512
 20
1.7532740861894349
 30
0.0
 11
-17.822229995859509
 21
1.8247561071935361
 31
0.0
  0
LINE
  5
4C59
  8
0
 10
-17.822229995859509
 20
1.8247561071935361
 30
0.0
 11
-17.790573507145378
 21
1.895482174506526
 31
0.0
  0
LINE
  5
4C5A
  8
0
 10
-17.790573507145378
 20
1.895482174506526
 30
0.0
 11
-17.55463889439158
 21
2.4720121357839839
 31
0.0
  0
LINE
  5
4C5B
  8
0
 10
-17.55463889439158
 20
2.4720121357839839
 30
0.0
 11
-17.319325415492131
 21
3.1361088799457661
 31
0.0
  0
LINE
  5
4C5C
  8
0
 10
-17.319325415492131
 20
3.1361088799457661
 30
0.0
 11
-17.15568728130404
 21
3.6587249125560102
 31
0.0
  0
LINE
  5
4C5D
  8
0
 10
-17.15568728130404
 20
3.6587249125560102
 30
0.0
 11
-16.94973990644484
 21
4.3980902434404348
 31
0.0
  0
LINE
  5
4C5E
  8
0
 10
-16.94973990644484
 20
4.3980902434404348
 30
0.0
 11
-16.731470542979991
 21
5.3044529488080912
 31
0.0
  0
LINE
  5
4C5F
  8
0
 10
-16.731470542979991
 20
5.3044529488080912
 30
0.0
 11
-16.582497948011788
 21
6.013844032974986
 31
0.0
  0
LINE
  5
4C60
  8
0
 10
-16.582497948011788
 20
6.013844032974986
 30
0.0
 11
-16.398021544910758
 21
7.0230705262297297
 31
0.0
  0
LINE
  5
4C61
  8
0
 10
-16.398021544910758
 20
7.0230705262297297
 30
0.0
 11
-16.237489482732709
 21
8.0649417219821657
 31
0.0
  0
LINE
  5
4C62
  8
0
 10
-16.237489482732709
 20
8.0649417219821657
 30
0.0
 11
-16.18991434543727
 21
8.4130460018375288
 31
0.0
  0
LINE
  5
4C63
  8
0
 10
-16.18991434543727
 20
8.4130460018375288
 30
0.0
 11
-16.0709751314306
 21
9.3918730098230867
 31
0.0
  0
LINE
  5
4C64
  8
0
 10
-16.0709751314306
 20
9.3918730098230867
 30
0.0
 11
-15.96998011987932
 21
10.400100525983129
 31
0.0
  0
LINE
  5
4C65
  8
0
 10
-15.96998011987932
 20
10.400100525983129
 30
0.0
 11
-15.940833188598839
 21
10.73657511809324
 31
0.0
  0
LINE
  5
4C66
  8
0
 10
-15.940833188598839
 20
10.73657511809324
 30
0.0
 11
-15.916905465625289
 21
11.033830219750991
 31
0.0
  0
LINE
  5
4C67
  8
0
 10
-15.916905465625289
 20
11.033830219750991
 30
0.0
 11
-15.90572980277318
 21
11.17744164386221
 31
0.0
  0
LINE
  5
4C68
  8
0
 10
-15.90572980277318
 20
11.17744164386221
 30
0.0
 11
-15.892328509004299
 21
11.31557710337478
 31
0.0
  0
LINE
  5
4C69
  8
0
 10
-15.892328509004299
 20
11.31557710337478
 30
0.0
 11
-15.8630071112691
 21
11.54248726491363
 31
0.0
  0
LINE
  5
4C6A
  8
0
 10
-15.8630071112691
 20
11.54248726491363
 30
0.0
 11
-15.82895525784204
 21
11.75166776561815
 31
0.0
  0
LINE
  5
4C6B
  8
0
 10
-15.82895525784204
 20
11.75166776561815
 30
0.0
 11
-15.817566962302861
 21
11.81497129645447
 31
0.0
  0
LINE
  5
4C6C
  8
0
 10
-15.817566962302861
 20
11.81497129645447
 30
0.0
 11
-15.789843995248249
 21
11.962780786178479
 31
0.0
  0
LINE
  5
4C6D
  8
0
 10
-15.789843995248249
 20
11.962780786178479
 30
0.0
 11
-15.76905134277524
 21
12.07392885035688
 31
0.0
  0
LINE
  5
4C6E
  8
0
 10
-15.76905134277524
 20
12.07392885035688
 30
0.0
 11
-15.75446755219013
 21
12.162335626591871
 31
0.0
  0
LINE
  5
4C6F
  8
0
 10
-15.75446755219013
 20
12.162335626591871
 30
0.0
 11
-15.75153464530046
 21
12.185575912134251
 31
0.0
  0
LINE
  5
4C70
  8
0
 10
-15.75153464530046
 20
12.185575912134251
 30
0.0
 11
-15.749237409820459
 21
12.23396994592076
 31
0.0
  0
LINE
  5
4C71
  8
0
 10
-15.749237409820459
 20
12.23396994592076
 30
0.0
 11
-15.754010603672331
 21
12.25285390084122
 31
0.0
  0
LINE
  5
4C72
  8
0
 10
-15.754010603672331
 20
12.25285390084122
 30
0.0
 11
-15.758972689994151
 21
12.255949672805681
 31
0.0
  0
ENDBLK
  5
4C74
  8
0
  0
BLOCK
  8
0
  2
A$C02B53278
 70
     0
 10
0.0
 20
0.0
 30
0.0
  3
A$C02B53278
  1

  0
LINE
  5
4D47
  8
¤¤¤ß˝u
 10
-3.5
 20
0.0
 30
0.0
 11
3.5
 21
0.0
 31
0.0
  0
ARC
  5
4D48
  8
0_150
 10
0.0
 20
0.0
 30
0.0
 40
2.9999999999998859
 50
266.17744627072591
 51
183.82255372927409
  0
LINE
  5
4D49
  8
¤¤¤ß˝u
 10
0.0
 20
-3.5
 30
0.0
 11
0.0
 21
3.5
 31
0.0
  0
CIRCLE
  5
4D4A
  8
0
 10
0.0
 20
0.0
 30
0.0
 40
2.4999999999999138
  0
ENDBLK
  5
4D4C
  8
0
  0
BLOCK
  8
0
  2
A$C781E382E
 70
     0
 10
0.0
 20
0.0
 30
0.0
  3
A$C781E382E
  1

  0
ARC
  5
4E01
  8
0
 10
9.7800566501177855
 20
17.199734150117798
 30
0.0
 40
2.129999999999999
 50
185.36290811337429
 51
264.6370985380525
  0
ARC
  5
4E02
  8
0
 10
9.7800566501177855
 20
10.800021849882331
 30
0.0
 40
2.129999999999999
 50
95.049881965108554
 51
174.95013512119729
  0
ARC
  5
4E03
  8
0
 10
-9.7800566501177855
 20
10.800021849882331
 30
0.0
 40
2.129999999999999
 50
5.0753009504657109
 51
84.924724058902711
  0
ARC
  5
4E04
  8
0
 10
-9.7800566501177855
 20
17.199734150117798
 30
0.0
 40
2.129999999999999
 50
275.39251268205442
 51
354.60749637709461
  0
LINE
  5
4E05
  8
0
 10
9.9999999999997655
 20
4.0000768000366378
 30
0.0
 11
9.9999999999997655
 21
0.9991443500001233
 31
0.0
  0
LINE
  5
4E06
  8
0
 10
-10.000000000000229
 20
3.9993274000223238
 30
0.0
 11
-10.0
 21
1.000171169400176
 31
0.0
  0
LINE
  5
4E07
  8
µę˝u
 10
3.0001220999999978
 20
8.6999999999997968
 30
0.0
 11
3.0001220999999978
 21
0.5000223852734829
 31
0.0
  0
LINE
  5
4E08
  8
µę˝u
 10
-2.9998779000000009
 20
8.6999999999997968
 30
0.0
 11
-2.9998779000000009
 21
0.5000223852734829
 31
0.0
  0
LINE
  5
4E09
  8
¤¤¤ß˝u
 10
0.0
 20
0.0
 30
0.0
 11
0.0
 21
18.382972174047129
 31
0.0
  0
LINE
  5
4E0A
  8
0
 10
-10.0
 20
1.000171169400176
 30
0.0
 11
-8.9998275141015256
 21
0.0000000000000009
 31
0.0
  0
LINE
  5
4E0B
  8
µę˝u
 10
-2.9998779000000009
 20
0.5000223852734829
 30
0.0
 11
2.999884683361187
 21
0.4999816868844258
 31
0.0
  0
LINE
  5
4E0C
  8
0
 10
9.0008556494003642
 20
0.0000000000000009
 30
0.0
 11
3.0000437594142109
 21
0.0000000000000009
 31
0.0
  0
LINE
  5
4E0D
  8
µę˝u
 10
3.4998528042599442
 20
0.0000000000000009
 30
0.0
 11
2.999884683361187
 21
0.4999816868844258
 31
0.0
  0
LINE
  5
4E0E
  8
0
 10
2.500043790017116
 20
0.4999999999999725
 30
0.0
 11
3.0000437594142109
 21
0.0000000000000009
 31
0.0
  0
LINE
  5
4E0F
  8
0
 10
9.9999999999997655
 20
0.9991443500001233
 30
0.0
 11
9.0008556494003642
 21
0.0000000000000009
 31
0.0
  0
LINE
  5
4E10
  8
0
 10
-2.9991642746651901
 20
0.0000000000000009
 30
0.0
 11
-8.9998275141015256
 21
0.0000000000000009
 31
0.0
  0
LINE
  5
4E11
  8
µę˝u
 10
-3.499900285273724
 20
0.0000000000000009
 30
0.0
 11
-2.9998779000000009
 21
0.5000223852734829
 31
0.0
  0
LINE
  5
4E12
  8
0
 10
-2.9991642746651901
 20
0.0000000000000009
 30
0.0
 11
-2.4991643200344238
 21
0.4999999999999654
 31
0.0
  0
LINE
  5
4E13
  8
0
 10
-2.4991643200344238
 20
0.4999999999999654
 30
0.0
 11
2.500043790017116
 21
0.4999999999999725
 31
0.0
  0
LINE
  5
4E14
  8
0
 10
-10.000000000000229
 20
3.9993274000223238
 30
0.0
 11
-6.5498047000000952
 21
7.4495225000102261
 31
0.0
  0
LINE
  5
4E15
  8
0
 10
-10.0
 20
14.659044600670841
 30
0.0
 11
-9.5798830540417725
 21
15.079160989051671
 31
0.0
  0
LINE
  5
4E16
  8
0
 10
-10.0
 20
14.659044600670841
 30
0.0
 11
-10.000000000000229
 21
13.33004360008588
 31
0.0
  0
LINE
  5
4E17
  8
0
 10
-10.000000000000229
 20
13.33004360008588
 30
0.0
 11
-9.5916273061934163
 21
12.92167082705747
 31
0.0
  0
LINE
  5
4E18
  8
µę˝u
 10
4.7501220999999978
 20
17.099999999999891
 30
0.0
 11
4.7501220999999978
 21
8.9999999999999911
 31
0.0
  0
LINE
  5
4E19
  8
0
 10
6.5500487999995576
 20
9.8792357003491773
 30
0.0
 11
7.6583243119304916
 21
10.98751020976191
 31
0.0
  0
LINE
  5
4E1A
  8
µę˝u
 10
3.0
 20
8.6999999999997968
 30
0.0
 11
3.2999999999999541
 21
8.9999999999999911
 31
0.0
  0
LINE
  5
4E1B
  8
0
 10
9.5809790211101742
 20
15.0790578198805
 30
0.0
 11
10.0
 21
14.660036999840591
 31
0.0
  0
LINE
  5
4E1C
  8
0
 10
10.0
 20
14.660036999840591
 30
0.0
 11
10.000000000000229
 21
13.32918600046359
 31
0.0
  0
LINE
  5
4E1D
  8
0
 10
9.5925676575115446
 20
12.92175413215819
 30
0.0
 11
10.000000000000229
 21
13.32918600046359
 31
0.0
  0
LINE
  5
4E1E
  8
0
 10
7.1600367000635279
 20
17.499999999999989
 30
0.0
 11
7.6593803429912759
 21
17.00065627492236
 31
0.0
  0
LINE
  5
4E1F
  8
µę˝u
 10
4.750122281758876
 20
17.09999932166691
 30
0.0
 11
4.9810627810704773
 21
17.499999999999989
 31
0.0
  0
LINE
  5
4E20
  8
µę˝u
 10
-4.7498779000000013
 20
17.099999999999891
 30
0.0
 11
-4.7498779000000013
 21
8.9999999999999911
 31
0.0
  0
LINE
  5
4E21
  8
0
 10
-7.6584077551914609
 20
10.988452119897611
 30
0.0
 11
-6.5498047000000952
 21
9.8798487000431532
 31
0.0
  0
LINE
  5
4E22
  8
µę˝u
 10
-2.9998779000000009
 20
8.6999999999997968
 30
0.0
 11
-3.299877899999955
 21
8.9999999999999911
 31
0.0
  0
LINE
  5
4E23
  8
µę˝u
 10
-4.7498780817588786
 20
17.09999932166691
 30
0.0
 11
-4.9808185810707073
 21
17.499999999999989
 31
0.0
  0
LINE
  5
4E24
  8
0
 10
-7.6594834574018194
 20
16.9995608893298
 30
0.0
 11
-7.1590440997802034
 21
17.499999999999989
 31
0.0
  0
LINE
  5
4E25
  8
µę˝u
 10
-4.7498779000000013
 20
8.9999999999999911
 30
0.0
 11
4.7501220999999978
 21
8.9999999999999911
 31
0.0
  0
LINE
  5
4E26
  8
µę˝u
 10
-2.9998779000000009
 20
8.6999999999997968
 30
0.0
 11
3.0001220999999978
 21
8.6999999999997968
 31
0.0
  0
LINE
  5
4E27
  8
0
 10
-7.1590440997802034
 20
17.499999999999989
 30
0.0
 11
7.1600367000635279
 21
17.499999999999989
 31
0.0
  0
LINE
  5
4E28
  8
µę˝u
 10
-4.7498792566666452
 20
17.099999999999891
 30
0.0
 11
4.7501220999999978
 21
17.099999999999891
 31
0.0
  0
LINE
  5
4E29
  8
0
 10
6.5500488000002397
 20
7.45002840004208
 30
0.0
 11
9.9999999999997655
 21
4.0000768000366378
 31
0.0
  0
LINE
  5
4E2A
  8
0
 10
-6.5498047000000952
 20
9.8798487000431532
 30
0.0
 11
-6.5498047000000952
 21
7.4495225000102261
 31
0.0
  0
LINE
  5
4E2B
  8
0
 10
6.5500487999995576
 20
9.8792357003491773
 30
0.0
 11
6.5500488000002397
 21
7.45002840004208
 31
0.0
  0
ENDBLK
  5
4E2C
  8
0
  0
BLOCK
  8
0
  2
A$C303D7B0F
 70
     0
 10
0.0
 20
0.0
 30
0.0
  3
A$C303D7B0F
  1

  0
LINE
  5
5737
  8
0
 10
0.0
 20
-25.400003943400002
 30
0.0
 11
12.61567214064155
 21
-25.400003943400002
 31
0.0
  0
LINE
  5
5738
  8
0
 10
-0.0000000000000284
 20
-23.900003943400002
 30
0.0
 11
12.61567214064155
 21
-23.900003943400002
 31
0.0
  0
INSERT
  5
5739
  8
0
  2
I1
 10
12.61567214064155
 20
-13.000003943399969
 30
0.0
 41
-1.0
  0
LINE
  5
573A
  8
0
 10
11.11567214064155
 20
-2.5
 30
0.0
 11
12.61567214064155
 21
-2.5
 31
0.0
  0
LINE
  5
573B
  8
0
 10
12.61567214064155
 20
-25.400003943400002
 30
0.0
 11
12.61567214064155
 21
-1.0
 31
0.0
  0
LINE
  5
573C
  8
0
 10
11.11567214064155
 20
-25.39999999999997
 30
0.0
 11
11.11567214064155
 21
-0.9999960566999419
 31
0.0
  0
CIRCLE
  5
573D
  8
0
 10
6.4156721406415036
 20
-7.0000000000000711
 30
0.0
 40
2.8277919627000001
  0
CIRCLE
  5
573E
  8
0
 10
6.4156721406415036
 20
-7.0000000000000711
 30
0.0
 40
2.4999999728999991
  0
CIRCLE
  5
573F
  8
0
 10
6.4156721406415036
 20
-7.0000000000000711
 30
0.0
 40
3.144781861999999
  0
LINE
  5
5740
  8
¤¤¤ß˝u
 10
6.4156721406415036
 20
-10.750000000000069
 30
0.0
 11
6.4156721406415036
 21
-3.2500000000000711
 31
0.0
  0
LINE
  5
5741
  8
¤¤¤ß˝u
 10
10.165672140641499
 20
-7.0000000000000711
 30
0.0
 11
2.665672140641504
 21
-7.0000000000000711
 31
0.0
  0
CIRCLE
  5
5742
  8
0
 10
6.4156721406415036
 20
-7.0000000000000711
 30
0.0
 40
1.0
  0
LINE
  5
5743
  8
0
 10
0.0
 20
-2.4999960566999562
 30
0.0
 11
11.11567214064155
 21
-2.4999960566999562
 31
0.0
  0
LINE
  5
5744
  8
0
 10
0.0
 20
-1.0
 30
0.0
 11
12.61567214064155
 21
-1.0
 31
0.0
  0
LINE
  5
5745
  8
µę˝u
 10
22.918060773761681
 20
-30.000391249418019
 30
0.0
 11
23.418083159035401
 21
-29.500368864144541
 31
0.0
  0
LINE
  5
5746
  8
µę˝u
 10
23.418083159035401
 20
-29.500368864144541
 30
0.0
 11
29.417845742396601
 21
-29.500409562533591
 31
0.0
  0
LINE
  5
5747
  8
µę˝u
 10
29.917813863295351
 20
-30.000391249418019
 30
0.0
 11
29.417845742396601
 21
-29.500409562533591
 31
0.0
  0
LINE
  5
5748
  8
µę˝u
 10
29.418083159035412
 20
-21.300391249418219
 30
0.0
 11
29.418083159035412
 21
-29.500368864144541
 31
0.0
  0
LINE
  5
5749
  8
µę˝u
 10
29.417961059035409
 20
-21.300391249418219
 30
0.0
 11
29.71796105903536
 21
-21.000391249418019
 31
0.0
  0
LINE
  5
574A
  8
µę˝u
 10
23.418083159035401
 20
-21.300391249418219
 30
0.0
 11
23.418083159035401
 21
-29.500368864144541
 31
0.0
  0
LINE
  5
574B
  8
µę˝u
 10
23.418083159035401
 20
-21.300391249418219
 30
0.0
 11
23.11808315903545
 21
-21.000391249418019
 31
0.0
  0
LINE
  5
574C
  8
µę˝u
 10
21.668083159035412
 20
-21.000391249418019
 30
0.0
 11
31.168083159035401
 21
-21.000391249418019
 31
0.0
  0
LINE
  5
574D
  8
µę˝u
 10
23.418083159035401
 20
-21.300391249418219
 30
0.0
 11
29.418083159035412
 21
-21.300391249418219
 31
0.0
  0
LINE
  5
574E
  8
µę˝u
 10
21.668083159035412
 20
-12.900391249418121
 30
0.0
 11
21.668083159035412
 21
-21.000391249418019
 31
0.0
  0
LINE
  5
574F
  8
µę˝u
 10
21.66808297727653
 20
-12.9003919277511
 30
0.0
 11
21.437142477964699
 21
-12.50039124941801
 31
0.0
  0
LINE
  5
5750
  8
µę˝u
 10
31.168083159035401
 20
-12.900391249418121
 30
0.0
 11
31.168083159035401
 21
-21.000391249418019
 31
0.0
  0
LINE
  5
5751
  8
µę˝u
 10
31.168083340794279
 20
-12.9003919277511
 30
0.0
 11
31.39902384010588
 21
-12.50039124941801
 31
0.0
  0
LINE
  5
5752
  8
µę˝u
 10
21.668081802368761
 20
-12.900391249418121
 30
0.0
 11
31.168083159035401
 21
-12.900391249418121
 31
0.0
  0
LINE
  5
5753
  8
0
 10
46.418457359176948
 20
-12.500391249417641
 30
0.0
 11
13.5
 21
-12.500391249417889
 31
0.0
  0
LINE
  5
5754
  8
0
 10
46.418457359176948
 20
-13.114486334978951
 30
0.0
 11
13.5
 21
-13.114486334979031
 31
0.0
  0
LINE
  5
5755
  8
0
 10
46.418457359176948
 20
-14.805799602939359
 30
0.0
 11
13.178424395136171
 21
-14.80579960293961
 31
0.0
  0
LINE
  5
5756
  8
0
 10
46.418457359176948
 20
-15.340383000017759
 30
0.0
 11
12.61567214064155
 21
-15.340383000017759
 31
0.0
  0
LINE
  5
5757
  8
0
 10
46.418457359176948
 20
-16.670416000017831
 30
0.0
 11
12.61567214064155
 21
-16.670416000017831
 31
0.0
  0
LINE
  5
5758
  8
0
 10
46.418457359176948
 20
-17.192534448274721
 30
0.0
 11
12.61567214064155
 21
-17.192534448274721
 31
0.0
  0
LINE
  5
5759
  8
0
 10
46.418457359176948
 20
-18.898201401190128
 30
0.0
 11
12.61567214064155
 21
-18.898201401190128
 31
0.0
  0
LINE
  5
575A
  8
0
 10
46.418457359176948
 20
-20.120378000017858
 30
0.0
 11
12.61567214064155
 21
-20.12037800001762
 31
0.0
  0
LINE
  5
575B
  8
0
 10
46.418457359176948
 20
-22.550335900017721
 30
0.0
 11
12.61567214064155
 21
-22.550335900018009
 31
0.0
  0
LINE
  5
575C
  8
¤¤¤ß˝u
 10
26.418457359177069
 20
-30.500391249417749
 30
0.0
 11
26.418457359177069
 21
-11.90039124941773
 31
0.0
  0
LINE
  5
575D
  8
0
 10
46.418457359176948
 20
-30.000391249417749
 30
0.0
 11
46.418457359176948
 21
-12.50039124941776
 31
0.0
  0
LINE
  5
575E
  8
0
 10
46.418457359176948
 20
-26.00024410001787
 30
0.0
 11
-80.335853551982581
 21
-26.00024410001787
 31
0.0
  0
LINE
  5
575F
  8
0
 10
46.418457359176948
 20
-29.000000000017732
 30
0.0
 11
-79.835285687334817
 21
-29.000000000017732
 31
0.0
  0
LINE
  5
5760
  8
0
 10
46.418457359176948
 20
-30.00039124941803
 30
0.0
 11
-113.5815426408229
 21
-30.000391249417721
 31
0.0
  0
LINE
  5
5761
  8
¤¤¤ß˝u
 10
-33.581542640822931
 20
-31.673398577155641
 30
0.0
 11
-33.581542640822931
 21
-24.65611609641627
 31
0.0
  0
LINE
  5
5762
  8
µę˝u
 10
-30.081691792725451
 20
-30.000195631588259
 30
0.0
 11
-30.58165991362387
 21
-29.50021394470394
 31
0.0
  0
LINE
  5
5763
  8
µę˝u
 10
-37.08144488225912
 20
-30.000195631588351
 30
0.0
 11
-36.58142249698551
 21
-29.500173246314539
 31
0.0
  0
LINE
  5
5764
  8
µę˝u
 10
-36.581480155166901
 20
-29.500173246314649
 30
0.0
 11
-30.58142249698551
 21
-29.500173246314649
 31
0.0
  0
LINE
  5
5765
  8
µę˝u
 10
-30.58142249698551
 20
-25.400000000000031
 30
0.0
 11
-30.58142249698551
 21
-29.500173246314539
 31
0.0
  0
LINE
  5
5766
  8
µę˝u
 10
-36.58142249698551
 20
-25.400000000000031
 30
0.0
 11
-36.58142249698551
 21
-29.500173246314539
 31
0.0
  0
LINE
  5
5767
  8
0
 10
-113.5815426408229
 20
-30.000391249417721
 30
0.0
 11
-113.5815426408229
 21
-12.500391249417589
 31
0.0
  0
LINE
  5
5768
  8
¤¤¤ß˝u
 10
-93.581542640822917
 20
-30.500391249417842
 30
0.0
 11
-93.581542640822917
 21
-11.900391249417821
 31
0.0
  0
LINE
  5
5769
  8
0
 10
-97.081939226238319
 20
-30.000391249417628
 30
0.0
 11
-96.581916840964595
 21
-29.50036886414415
 31
0.0
  0
LINE
  5
576A
  8
0
 10
-96.581916840964595
 20
-29.50036886414415
 30
0.0
 11
-90.582154257603406
 21
-29.500409562533211
 31
0.0
  0
LINE
  5
576B
  8
0
 10
-90.082186136704635
 20
-30.000391249417628
 30
0.0
 11
-90.582154257603406
 21
-29.500409562533211
 31
0.0
  0
LINE
  5
576C
  8
0
 10
-90.581916840964595
 20
-21.300391249417839
 30
0.0
 11
-90.581916840964595
 21
-29.50036886414415
 31
0.0
  0
LINE
  5
576D
  8
0
 10
-90.582038940964594
 20
-21.300391249417839
 30
0.0
 11
-90.282038940964625
 21
-21.000391249417639
 31
0.0
  0
LINE
  5
576E
  8
0
 10
-96.581916840964595
 20
-21.300391249417839
 30
0.0
 11
-96.581916840964595
 21
-29.50036886414415
 31
0.0
  0
LINE
  5
576F
  8
0
 10
-96.581916840964595
 20
-21.300391249417839
 30
0.0
 11
-96.88191684096455
 21
-21.000391249417639
 31
0.0
  0
LINE
  5
5770
  8
0
 10
-98.331916840964595
 20
-21.000391249417639
 30
0.0
 11
-88.831916840964595
 21
-21.000391249417639
 31
0.0
  0
LINE
  5
5771
  8
0
 10
-96.581916840964595
 20
-21.300391249417839
 30
0.0
 11
-90.581916840964595
 21
-21.300391249417839
 31
0.0
  0
LINE
  5
5772
  8
0
 10
-98.331916840964595
 20
-12.90039124941773
 30
0.0
 11
-98.331916840964595
 21
-21.000391249417639
 31
0.0
  0
LINE
  5
5773
  8
0
 10
-98.331917022723474
 20
-12.90039192775072
 30
0.0
 11
-98.562857522035316
 21
-12.500391249417641
 31
0.0
  0
LINE
  5
5774
  8
0
 10
-88.831916840964595
 20
-12.90039124941773
 30
0.0
 11
-88.831916840964595
 21
-21.000391249417639
 31
0.0
  0
LINE
  5
5775
  8
0
 10
-88.831916659205717
 20
-12.90039192775072
 30
0.0
 11
-88.600976159894117
 21
-12.500391249417641
 31
0.0
  0
LINE
  5
5776
  8
0
 10
-98.331918197631239
 20
-12.90039124941773
 30
0.0
 11
-88.831916840964595
 21
-12.90039124941773
 31
0.0
  0
LINE
  5
5777
  8
0
 10
-63.115672140641543
 20
-22.550335900017831
 30
0.0
 11
-79.779335704304202
 21
-22.550335900017838
 31
0.0
  0
LINE
  5
5778
  8
0
 10
-63.115672140641543
 20
-20.120378000017631
 30
0.0
 11
-80.33109555916036
 21
-20.12037800001762
 31
0.0
  0
LINE
  5
5779
  8
0
 10
-63.115672140641543
 20
-18.898201401190128
 30
0.0
 11
-79.841781316717913
 21
-18.898201401190128
 31
0.0
  0
LINE
  5
577A
  8
0
 10
-63.115672140641543
 20
-17.192534448274721
 30
0.0
 11
-79.158895444311611
 21
-17.192534448274731
 31
0.0
  0
LINE
  5
577B
  8
0
 10
-63.115672140641543
 20
-15.340383000017759
 30
0.0
 11
-79.716469553445052
 21
-15.340383000017759
 31
0.0
  0
LINE
  5
577C
  8
0
 10
-63.115672140641543
 20
-16.670416000017831
 30
0.0
 11
-79.291850981805567
 21
-16.670416000017831
 31
0.0
  0
LINE
  5
577D
  8
0
 10
-63.678424395136339
 20
-14.80579960293942
 30
0.0
 11
-79.887137528216783
 21
-14.80579960293942
 31
0.0
  0
LINE
  5
577E
  8
0
 10
-64.0
 20
-13.114486334979061
 30
0.0
 11
-80.427096329266249
 21
-13.11448633497905
 31
0.0
  0
LINE
  5
577F
  8
0
 10
-64.0
 20
-12.50039124941773
 30
0.0
 11
-113.5815426408229
 21
-12.500391249417589
 31
0.0
  0
LINE
  5
5780
  8
«Řşc˝u
 10
-80.558040725644318
 20
-24.668741756044881
 30
0.0
 11
-79.66835086723006
 21
-30.00039124941793
 31
0.0
  0
LINE
  5
5781
  8
«Řşc˝u
 10
-79.40097341732826
 20
-21.52103101246205
 30
0.0
 11
-80.558040725644318
 21
-24.668741756044881
 31
0.0
  0
LINE
  5
5782
  8
«Řşc˝u
 10
-80.400495280560108
 20
-20.293720012374639
 30
0.0
 11
-79.40097341732826
 21
-21.52103101246205
 31
0.0
  0
LINE
  5
5783
  8
«Řşc˝u
 10
-79.140127931004372
 20
-17.145658200676039
 30
0.0
 11
-80.400495280560108
 21
-20.293720012374639
 31
0.0
  0
LINE
  5
5784
  8
«Řşc˝u
 10
-80.623148741561124
 20
-12.50039124941784
 30
0.0
 11
-79.140127931004372
 21
-17.145658200676039
 31
0.0
  0
POINT
  5
5785
  8
0
 10
-76.61567214064155
 20
-5.9999806688998802
 30
0.0
1001
PNTFLAG
1000
endpoint
  0
LINE
  5
5786
  8
0
 10
-73.142884140641598
 20
-5.9999806688998802
 30
0.0
 11
-73.174690140641573
 21
-6.3495166688998799
 31
0.0
  0
LINE
  5
5787
  8
0
 10
-73.174690140641573
 20
-6.3495166688998799
 30
0.0
 11
-73.268885140641601
 21
-6.6856206688998858
 31
0.0
  0
LINE
  5
5788
  8
0
 10
-73.174690140641573
 20
-5.6504446688998788
 30
0.0
 11
-73.142884140641598
 21
-5.9999806688998802
 31
0.0
  0
LINE
  5
5789
  8
0
 10
-73.268885140641601
 20
-6.6856206688998858
 30
0.0
 11
-73.421849140641584
 21
-6.995375668899853
 31
0.0
  0
LINE
  5
578A
  8
0
 10
-73.268885140641601
 20
-5.3143406688998729
 30
0.0
 11
-73.174690140641573
 21
-5.6504446688998788
 31
0.0
  0
LINE
  5
578B
  8
0
 10
-73.421849140641584
 20
-6.995375668899853
 30
0.0
 11
-73.627705140641581
 21
-7.266878668899821
 31
0.0
  0
LINE
  5
578C
  8
0
 10
-73.421849140641584
 20
-5.0045856688999057
 30
0.0
 11
-73.268885140641601
 21
-5.3143406688998729
 31
0.0
  0
LINE
  5
578D
  8
0
 10
-73.878540140641576
 20
-7.489694668899844
 30
0.0
 11
-73.627705140641581
 21
-7.266878668899821
 31
0.0
  0
LINE
  5
578E
  8
0
 10
-73.627705140641581
 20
-4.7330836688998801
 30
0.0
 11
-73.421849140641584
 21
-5.0045856688999057
 31
0.0
  0
LINE
  5
578F
  8
0
 10
-71.897620140641607
 20
-5.9999806688998802
 30
0.0
 11
-71.942948140641619
 21
-6.4981226688998808
 31
0.0
  0
LINE
  5
5790
  8
0
 10
-71.942948140641619
 20
-6.4981226688998808
 30
0.0
 11
-72.077191140641617
 21
-6.9771216688998967
 31
0.0
  0
LINE
  5
5791
  8
0
 10
-71.942948140641619
 20
-5.5018386688998779
 30
0.0
 11
-71.897620140641607
 21
-5.9999806688998802
 31
0.0
  0
LINE
  5
5792
  8
0
 10
-74.164717140641585
 20
-7.6552626688998506
 30
0.0
 11
-73.878540140641576
 21
-7.489694668899844
 31
0.0
  0
LINE
  5
5793
  8
0
 10
-73.878540140641576
 20
-4.5102666688999156
 30
0.0
 11
-73.627705140641581
 21
-4.7330836688998801
 31
0.0
  0
LINE
  5
5794
  8
0
 10
-72.077191140641617
 20
-6.9771216688998967
 30
0.0
 11
-72.295188140641585
 21
-7.4185686688998791
 31
0.0
  0
LINE
  5
5795
  8
0
 10
-72.077191140641617
 20
-5.0228406688998879
 30
0.0
 11
-71.942948140641619
 21
-5.5018386688998779
 31
0.0
  0
LINE
  5
5796
  8
0
 10
-72.295188140641585
 20
-7.4185686688998791
 30
0.0
 11
-72.588563140641611
 21
-7.80550066889991
 31
0.0
  0
LINE
  5
5797
  8
0
 10
-72.295188140641585
 20
-4.5813926688998796
 30
0.0
 11
-72.077191140641617
 21
-5.0228406688998879
 31
0.0
  0
LINE
  5
5798
  8
0
 10
-74.475236140641584
 20
-7.7572186688998812
 30
0.0
 11
-74.164717140641585
 21
-7.6552626688998506
 31
0.0
  0
LINE
  5
5799
  8
0
 10
-74.164717140641585
 20
-4.344699668899934
 30
0.0
 11
-73.878540140641576
 21
-4.5102666688999156
 31
0.0
  0
LINE
  5
579A
  8
0
 10
-72.946042140641566
 20
-8.1230476688998721
 30
0.0
 11
-72.588563140641611
 21
-7.80550066889991
 31
0.0
  0
LINE
  5
579B
  8
0
 10
-72.588563140641611
 20
-4.1944606688998496
 30
0.0
 11
-72.295188140641585
 21
-4.5813926688998796
 31
0.0
  0
LINE
  5
579C
  8
0
 10
-71.773920140641565
 20
-5.9999806688998802
 30
0.0
 11
-71.818753140641604
 21
-6.4926826688998878
 31
0.0
  0
LINE
  5
579D
  8
0
 10
-74.798165140641572
 20
-7.7916446688998491
 30
0.0
 11
-74.475236140641584
 21
-7.7572186688998812
 31
0.0
  0
LINE
  5
579E
  8
0
 10
-74.475236140641584
 20
-4.2427436688999052
 30
0.0
 11
-74.164717140641585
 21
-4.344699668899934
 31
0.0
  0
LINE
  5
579F
  8
0
 10
-71.818753140641604
 20
-6.4926826688998878
 30
0.0
 11
-71.951529140641583
 21
-6.9664506688998671
 31
0.0
  0
LINE
  5
57A0
  8
0
 10
-71.818753140641604
 20
-5.5072786688998709
 30
0.0
 11
-71.773920140641565
 21
-5.9999806688998802
 31
0.0
  0
LINE
  5
57A1
  8
0
 10
-73.353886140641563
 20
-8.3590066688998803
 30
0.0
 11
-72.946042140641566
 21
-8.1230476688998721
 31
0.0
  0
LINE
  5
57A2
  8
0
 10
-72.946042140641566
 20
-3.876913668899888
 30
0.0
 11
-72.588563140641611
 21
-4.1944606688998496
 31
0.0
  0
LINE
  5
57A3
  8
0
 10
-71.951529140641583
 20
-6.9664506688998671
 30
0.0
 11
-72.167146140641592
 21
-7.4030776688998543
 31
0.0
  0
LINE
  5
57A4
  8
0
 10
-71.951529140641583
 20
-5.0335106688998934
 30
0.0
 11
-71.818753140641604
 21
-5.5072786688998709
 31
0.0
  0
LINE
  5
57A5
  8
0
 10
-72.167146140641592
 20
-7.4030776688998543
 30
0.0
 11
-72.457317140641578
 21
-7.7857846688998933
 31
0.0
  0
LINE
  5
57A6
  8
0
 10
-72.167146140641592
 20
-4.5968836688999062
 30
0.0
 11
-71.951529140641583
 21
-5.0335106688998934
 31
0.0
  0
LINE
  5
57A7
  8
0
 10
-73.796423140641565
 20
-8.5043096688998912
 30
0.0
 11
-73.353886140641563
 21
-8.3590066688998803
 31
0.0
  0
LINE
  5
57A8
  8
0
 10
-73.353886140641563
 20
-3.6409546688999082
 30
0.0
 11
-72.946042140641566
 21
-3.876913668899888
 31
0.0
  0
LINE
  5
57A9
  8
0
 10
-75.121095140641557
 20
-7.7572186688998812
 30
0.0
 11
-74.798165140641572
 21
-7.7916446688998491
 31
0.0
  0
LINE
  5
57AA
  8
0
 10
-74.798165140641572
 20
-4.2083176688998796
 30
0.0
 11
-74.475236140641584
 21
-4.2427436688999052
 31
0.0
  0
LINE
  5
57AB
  8
0
 10
-72.810892140641585
 20
-8.0998636688998573
 30
0.0
 11
-72.457317140641578
 21
-7.7857846688998933
 31
0.0
  0
LINE
  5
57AC
  8
0
 10
-72.457317140641578
 20
-4.2141766688998947
 30
0.0
 11
-72.167146140641592
 21
-4.5968836688999062
 31
0.0
  0
LINE
  5
57AD
  8
0
 10
-74.256646140641578
 20
-8.5533716688998567
 30
0.0
 11
-73.796423140641565
 21
-8.5043096688998912
 31
0.0
  0
LINE
  5
57AE
  8
0
 10
-73.796423140641565
 20
-8.5043096688998912
 30
0.0
 11
-73.65198714064158
 21
-8.4769616688998468
 31
0.0
  0
LINE
  5
57AF
  8
0
 10
-73.796423140641565
 20
-3.4956526688999499
 30
0.0
 11
-73.353886140641563
 21
-3.6409546688999082
 31
0.0
  0
LINE
  5
57B0
  8
0
 10
-75.431614140641557
 20
-7.6552626688998506
 30
0.0
 11
-75.121095140641557
 21
-7.7572186688998812
 31
0.0
  0
LINE
  5
57B1
  8
0
 10
-75.121095140641557
 20
-4.2427436688999052
 30
0.0
 11
-74.798165140641572
 21
-4.2083176688998796
 31
0.0
  0
LINE
  5
57B2
  8
0
 10
-73.214283140641555
 20
-8.3332456688998349
 30
0.0
 11
-72.810892140641585
 21
-8.0998636688998573
 31
0.0
  0
LINE
  5
57B3
  8
0
 10
-72.810892140641585
 20
-3.9000976688999032
 30
0.0
 11
-72.457317140641578
 21
-4.2141766688998947
 31
0.0
  0
LINE
  5
57B4
  8
0
 10
-73.65198714064158
 20
-8.4769616688998468
 30
0.0
 11
-73.214283140641555
 21
-8.3332456688998349
 31
0.0
  0
LINE
  5
57B5
  8
0
 10
-73.214283140641555
 20
-3.6667156688999252
 30
0.0
 11
-72.810892140641585
 21
-3.9000976688999032
 31
0.0
  0
LINE
  5
57B6
  8
0
 10
-74.716869140641563
 20
-8.5043096688998912
 30
0.0
 11
-74.256646140641578
 21
-8.5533716688998567
 31
0.0
  0
LINE
  5
57B7
  8
0
 10
-74.256646140641578
 20
-3.4465896688999029
 30
0.0
 11
-73.796423140641565
 21
-3.4956526688999499
 31
0.0
  0
LINE
  5
57B8
  8
0
 10
-73.796423140641565
 20
-3.4956526688999499
 30
0.0
 11
-73.65198714064158
 21
-3.5229996688999128
 31
0.0
  0
LINE
  5
57B9
  8
0
 10
-75.717791140641566
 20
-7.489694668899844
 30
0.0
 11
-75.431614140641557
 21
-7.6552626688998506
 31
0.0
  0
LINE
  5
57BA
  8
0
 10
-75.431614140641557
 20
-4.344699668899934
 30
0.0
 11
-75.121095140641557
 21
-4.2427436688999052
 31
0.0
  0
LINE
  5
57BB
  8
0
 10
-73.65198714064158
 20
-3.5229996688999128
 30
0.0
 11
-73.214283140641555
 21
-3.6667156688999252
 31
0.0
  0
LINE
  5
57BC
  8
0
 10
-75.968626140641561
 20
-7.266878668899821
 30
0.0
 11
-75.717791140641566
 21
-7.489694668899844
 31
0.0
  0
LINE
  5
57BD
  8
0
 10
-75.717791140641566
 20
-4.5102666688999156
 30
0.0
 11
-75.431614140641557
 21
-4.344699668899934
 31
0.0
  0
LINE
  5
57BE
  8
0
 10
-75.159406140641579
 20
-8.3590066688998803
 30
0.0
 11
-74.716869140641563
 21
-8.5043096688998912
 31
0.0
  0
LINE
  5
57BF
  8
0
 10
-74.716869140641563
 20
-3.4956526688999499
 30
0.0
 11
-74.256646140641578
 21
-3.4465896688999029
 31
0.0
  0
LINE
  5
57C0
  8
0
 10
-76.174482140641572
 20
-6.995375668899853
 30
0.0
 11
-75.968626140641561
 21
-7.266878668899821
 31
0.0
  0
LINE
  5
57C1
  8
0
 10
-75.968626140641561
 20
-4.7330836688998801
 30
0.0
 11
-75.717791140641566
 21
-4.5102666688999156
 31
0.0
  0
LINE
  5
57C2
  8
0
 10
-75.567251140641559
 20
-8.1230476688998721
 30
0.0
 11
-75.159406140641579
 21
-8.3590066688998803
 31
0.0
  0
LINE
  5
57C3
  8
0
 10
-75.159406140641579
 20
-3.6409546688999082
 30
0.0
 11
-74.716869140641563
 21
-3.4956526688999499
 31
0.0
  0
LINE
  5
57C4
  8
0
 10
-76.327446140641541
 20
-6.6856206688998858
 30
0.0
 11
-76.174482140641572
 21
-6.995375668899853
 31
0.0
  0
LINE
  5
57C5
  8
0
 10
-75.968626140641561
 20
-4.7330836688998801
 30
0.0
 11
-76.174482140641572
 21
-5.0045856688999057
 31
0.0
  0
LINE
  5
57C6
  8
0
 10
-75.924729140641546
 20
-7.80550066889991
 30
0.0
 11
-75.567251140641559
 21
-8.1230476688998721
 31
0.0
  0
LINE
  5
57C7
  8
0
 10
-75.567251140641559
 20
-3.876913668899888
 30
0.0
 11
-75.159406140641579
 21
-3.6409546688999082
 31
0.0
  0
LINE
  5
57C8
  8
0
 10
-76.421641140641555
 20
-6.3495166688998799
 30
0.0
 11
-76.327446140641541
 21
-6.6856206688998858
 31
0.0
  0
LINE
  5
57C9
  8
0
 10
-76.174482140641572
 20
-5.0045856688999057
 30
0.0
 11
-76.327446140641541
 21
-5.3143406688998729
 31
0.0
  0
LINE
  5
57CA
  8
0
 10
-76.453447140641572
 20
-5.9999806688998802
 30
0.0
 11
-76.421641140641555
 21
-6.3495166688998799
 31
0.0
  0
LINE
  5
57CB
  8
0
 10
-76.327446140641541
 20
-5.3143406688998729
 30
0.0
 11
-76.421641140641555
 21
-5.6504446688998788
 31
0.0
  0
LINE
  5
57CC
  8
0
 10
-76.421641140641555
 20
-5.6504446688998788
 30
0.0
 11
-76.453447140641572
 21
-5.9999806688998802
 31
0.0
  0
LINE
  5
57CD
  8
0
 10
-76.218105140641569
 20
-7.4185686688998791
 30
0.0
 11
-75.924729140641546
 21
-7.80550066889991
 31
0.0
  0
LINE
  5
57CE
  8
0
 10
-75.924729140641546
 20
-4.1944606688998496
 30
0.0
 11
-75.567251140641559
 21
-3.876913668899888
 31
0.0
  0
LINE
  5
57CF
  8
0
 10
-76.436102140641566
 20
-6.9771216688998967
 30
0.0
 11
-76.218105140641569
 21
-7.4185686688998791
 31
0.0
  0
LINE
  5
57D0
  8
0
 10
-75.924729140641546
 20
-4.1944606688998496
 30
0.0
 11
-76.218105140641569
 21
-4.5813926688998796
 31
0.0
  0
LINE
  5
57D1
  8
0
 10
-76.570344140641566
 20
-6.4981226688998808
 30
0.0
 11
-76.436102140641566
 21
-6.9771216688998967
 31
0.0
  0
LINE
  5
57D2
  8
0
 10
-76.218105140641569
 20
-4.5813926688998796
 30
0.0
 11
-76.436102140641566
 21
-5.0228406688998879
 31
0.0
  0
LINE
  5
57D3
  8
0
 10
-76.61567214064155
 20
-5.9999806688998802
 30
0.0
 11
-76.570344140641566
 21
-6.4981226688998808
 31
0.0
  0
LINE
  5
57D4
  8
0
 10
-76.436102140641566
 20
-5.0228406688998879
 30
0.0
 11
-76.570344140641566
 21
-5.5018386688998779
 31
0.0
  0
LINE
  5
57D5
  8
0
 10
-76.570344140641566
 20
-5.5018386688998779
 30
0.0
 11
-76.61567214064155
 21
-5.9999806688998802
 31
0.0
  0
LINE
  5
57D6
  8
0
 10
-75.457634140641574
 20
-7.6402086688998594
 30
0.0
 11
-75.454663140641571
 21
-7.6385926688998751
 31
0.0
  0
LINE
  5
57D7
  8
0
 10
-75.457634140641574
 20
-4.3597536688999261
 30
0.0
 11
-75.454663140641571
 21
-4.3613686688998854
 31
0.0
  0
LINE
  5
57D8
  8
0
 10
-69.782099140641606
 20
-5.9999806688998802
 30
0.0
 11
-69.835355140641639
 21
-6.5852516688999136
 31
0.0
  0
LINE
  5
57D9
  8
0
 10
-69.835355140641639
 20
-5.4147096688998451
 30
0.0
 11
-69.782099140641606
 21
-5.9999806688998802
 31
0.0
  0
LINE
  5
57DA
  8
0
 10
-69.835355140641639
 20
-6.5852516688999136
 30
0.0
 11
-69.993077140641617
 21
-7.148031668899832
 31
0.0
  0
LINE
  5
57DB
  8
0
 10
-69.993077140641617
 20
-4.8519306688998958
 30
0.0
 11
-69.835355140641639
 21
-5.4147096688998451
 31
0.0
  0
LINE
  5
57DC
  8
0
 10
-69.993077140641617
 20
-7.148031668899832
 30
0.0
 11
-70.249204140641609
 21
-7.6666916688999001
 31
0.0
  0
LINE
  5
57DD
  8
0
 10
-70.249204140641609
 20
-4.3332706688998854
 30
0.0
 11
-69.993077140641617
 21
-4.8519306688998958
 31
0.0
  0
LINE
  5
57DE
  8
0
 10
-70.249204140641609
 20
-7.6666916688999001
 30
0.0
 11
-70.593893140641583
 21
-8.1213016688999033
 31
0.0
  0
LINE
  5
57DF
  8
0
 10
-70.593893140641583
 20
-3.878660668899883
 30
0.0
 11
-70.249204140641609
 21
-4.3332706688998854
 31
0.0
  0
LINE
  5
57E0
  8
0
 10
-69.35332514064163
 20
-5.9999806688998802
 30
0.0
 11
-70.953531140641587
 21
-8.9999806688998518
 31
0.0
  0
LINE
  5
57E1
  8
0
 10
-70.953531140641587
 20
-2.9999806688999082
 30
0.0
 11
-69.35332514064163
 21
-5.9999806688998802
 31
0.0
  0
LINE
  5
57E2
  8
0
 10
-71.013897140641603
 20
-8.4943896688998706
 30
0.0
 11
-70.593893140641583
 21
-8.1213016688999033
 31
0.0
  0
LINE
  5
57E3
  8
0
 10
-71.013897140641603
 20
-3.505571668899889
 30
0.0
 11
-70.593893140641583
 21
-3.878660668899883
 31
0.0
  0
LINE
  5
57E4
  8
0
 10
-71.493077140641617
 20
-8.7716196688998735
 30
0.0
 11
-71.013897140641603
 21
-8.4943896688998706
 31
0.0
  0
LINE
  5
57E5
  8
0
 10
-71.493077140641617
 20
-3.2283426688999119
 30
0.0
 11
-71.013897140641603
 21
-3.505571668899889
 31
0.0
  0
LINE
  5
57E6
  8
0
 10
-72.013017140641566
 20
-8.9423366688998112
 30
0.0
 11
-71.493077140641617
 21
-8.7716196688998735
 31
0.0
  0
LINE
  5
57E7
  8
0
 10
-72.013017140641566
 20
-3.0576246688999471
 30
0.0
 11
-71.493077140641617
 21
-3.2283426688999119
 31
0.0
  0
LINE
  5
57E8
  8
0
 10
-72.553737140641573
 20
-8.9999806688998518
 30
0.0
 11
-72.013017140641566
 21
-8.9423366688998112
 31
0.0
  0
LINE
  5
57E9
  8
0
 10
-72.553737140641573
 20
-2.9999806688999082
 30
0.0
 11
-72.013017140641566
 21
-3.0576246688999471
 31
0.0
  0
LINE
  5
57EA
  8
0
 10
-73.094457140641595
 20
-8.9423366688998112
 30
0.0
 11
-72.553737140641573
 21
-8.9999806688998518
 31
0.0
  0
LINE
  5
57EB
  8
0
 10
-73.094457140641595
 20
-3.0576246688999471
 30
0.0
 11
-72.553737140641573
 21
-2.9999806688999082
 31
0.0
  0
LINE
  5
57EC
  8
0
 10
-73.614397140641586
 20
-8.7716196688998735
 30
0.0
 11
-73.094457140641595
 21
-8.9423366688998112
 31
0.0
  0
LINE
  5
57ED
  8
0
 10
-73.614397140641586
 20
-3.2283426688999119
 30
0.0
 11
-73.094457140641595
 21
-3.0576246688999471
 31
0.0
  0
LINE
  5
57EE
  8
0
 10
-74.032864140641578
 20
-8.5295156688998333
 30
0.0
 11
-73.614397140641586
 21
-8.7716196688998735
 31
0.0
  0
LINE
  5
57EF
  8
0
 10
-74.032864140641578
 20
-3.4704466688998958
 30
0.0
 11
-73.614397140641586
 21
-3.2283426688999119
 31
0.0
  0
LINE
  5
57F0
  8
0
 10
-68.653961140641627
 20
-5.9999806688998802
 30
0.0
 11
-70.254167140641613
 21
-8.9999806688998518
 31
0.0
  0
LINE
  5
57F1
  8
0
 10
-70.254167140641613
 20
-8.9999806688998518
 30
0.0
 11
-74.153943140641559
 21
-8.9999806688998518
 31
0.0
  0
LINE
  5
57F2
  8
0
 10
-70.254167140641613
 20
-2.9999806688999082
 30
0.0
 11
-68.653961140641627
 21
-5.9999806688998802
 31
0.0
  0
LINE
  5
57F3
  8
0
 10
-69.35332514064163
 20
-5.9999806688998802
 30
0.0
 11
-68.653961140641627
 21
-5.9999806688998802
 31
0.0
  0
LINE
  5
57F4
  8
0
 10
-74.153943140641559
 20
-2.9999806688999082
 30
0.0
 11
-74.400336140641571
 21
-3.4619076688998831
 31
0.0
  0
LINE
  5
57F5
  8
0
 10
-74.400336140641571
 20
-8.5380536688998774
 30
0.0
 11
-74.153943140641559
 21
-8.9999806688998518
 31
0.0
  0
LINE
  5
57F6
  8
0
 10
-74.153943140641559
 20
-2.9999806688999082
 30
0.0
 11
-70.254167140641613
 21
-2.9999806688999082
 31
0.0
  0
LINE
  5
57F7
  8
0
 10
-66.878166140641611
 20
-1.99998066889988
 30
0.0
 11
-66.878166140641611
 21
-9.9999806688998802
 31
0.0
  0
LINE
  5
57F8
  8
0
 10
-70.626506140641595
 20
-9.9999806688998802
 30
0.0
 11
-63.115672140641543
 21
-9.9999806688998802
 31
0.0
  0
LINE
  5
57F9
  8
0
 10
-66.098170140641614
 20
-5.9999806688998802
 30
0.0
 11
-63.115672140641543
 21
-5.9999806688998802
 31
0.0
  0
LINE
  5
57FA
  8
0
 10
-63.115672140641543
 20
-1.99998066889988
 30
0.0
 11
-70.626506140641595
 21
-1.99998066889988
 31
0.0
  0
ARC
  5
57FB
  8
0
 10
-70.626506140641595
 20
-5.9999806688998802
 30
0.0
 40
3.999999999999968
 50
228.59037799730081
 51
270.0
  0
ARC
  5
57FC
  8
0
 10
-70.626506140641595
 20
-5.9999806688998802
 30
0.0
 40
3.999999999999968
 50
90.0
 51
131.40962199959941
  0
POLYLINE
  5
57FD
  8
0
 66
     1
 10
0.0
 20
0.0
 30
0.0
  0
VERTEX
  5
6231
  8
0
 10
-74.206883140641565
 20
-5.9999806688999078
 30
0.0
  0
VERTEX
  5
6232
  8
0
 10
-74.239701140641586
 20
-5.7897256688998899
 30
0.0
  0
VERTEX
  5
6233
  8
0
 10
-74.283848140641595
 20
-5.6842386688999076
 30
0.0
  0
VERTEX
  5
6234
  8
0
 10
-74.346881140641585
 20
-5.5864596688999049
 30
0.0
  0
VERTEX
  5
6235
  8
0
 10
-74.426357140641585
 20
-5.5023466688999028
 30
0.0
  0
VERTEX
  5
6236
  8
0
 10
-74.517848140641576
 20
-5.4364736688998931
 30
0.0
  0
VERTEX
  5
6237
  8
0
 10
-74.615768140641563
 20
-5.3911926688999614
 30
0.0
  0
VERTEX
  5
6238
  8
0
 10
-74.748404140641583
 20
-5.3622516688999289
 30
0.0
  0
VERTEX
  5
6239
  8
0
 10
-74.871413140641579
 20
-5.3649106688999231
 30
0.0
  0
VERTEX
  5
623A
  8
0
 10
-74.978337140641571
 20
-5.3904166688999311
 30
0.0
  0
VERTEX
  5
623B
  8
0
 10
-75.094542140641579
 20
-5.4461846688999307
 30
0.0
  0
VERTEX
  5
623C
  8
0
 10
-75.205112140641575
 20
-5.5356736688998893
 30
0.0
  0
VERTEX
  5
623D
  8
0
 10
-75.293342140641556
 20
-5.6502236688998968
 30
0.0
  0
VERTEX
  5
623E
  8
0
 10
-75.349976140641559
 20
-5.7700626688998531
 30
0.0
  0
VERTEX
  5
623F
  8
0
 10
-75.377827140641557
 20
-5.8737186688999108
 30
0.0
  0
VERTEX
  5
6240
  8
0
 10
-75.389448140641576
 20
-5.9999806688999078
 30
0.0
  0
VERTEX
  5
6241
  8
0
 10
-75.356630140641585
 20
-6.2102356688998688
 30
0.0
  0
VERTEX
  5
6242
  8
0
 10
-75.312482140641578
 20
-6.3157236688999063
 30
0.0
  0
VERTEX
  5
6243
  8
0
 10
-75.249450140641585
 20
-6.4135016688999107
 30
0.0
  0
VERTEX
  5
6244
  8
0
 10
-75.169974140641557
 20
-6.4976146688999128
 30
0.0
  0
VERTEX
  5
6245
  8
0
 10
-75.078483140641566
 20
-6.5634876688999242
 30
0.0
  0
VERTEX
  5
6246
  8
0
 10
-74.980563140641564
 20
-6.6087686688999119
 30
0.0
  0
VERTEX
  5
6247
  8
0
 10
-74.847927140641545
 20
-6.637710668899941
 30
0.0
  0
VERTEX
  5
6248
  8
0
 10
-74.724918140641563
 20
-6.6350506688998934
 30
0.0
  0
VERTEX
  5
6249
  8
0
 10
-74.617994140641571
 20
-6.6095456688998828
 30
0.0
  0
VERTEX
  5
624A
  8
0
 10
-74.501789140641563
 20
-6.5537776688998832
 30
0.0
  0
VERTEX
  5
624B
  8
0
 10
-74.391219140641553
 20
-6.464287668899928
 30
0.0
  0
VERTEX
  5
624C
  8
0
 10
-74.302989140641586
 20
-6.3497386688999171
 30
0.0
  0
VERTEX
  5
624D
  8
0
 10
-74.246355140641583
 20
-6.2298996688999031
 30
0.0
  0
VERTEX
  5
624E
  8
0
 10
-74.218503140641559
 20
-6.1262426688998479
 30
0.0
  0
VERTEX
  5
624F
  8
0
 10
-74.206883140641565
 20
-5.9999806688999078
 30
0.0
  0
SEQEND
  5
6250
  8
0
  0
ARC
  5
57FE
  8
0
 10
-63.924054140641658
 20
-3.9999806688999371
 30
0.0
 40
2.9541119999999759
 50
137.3885980021997
 51
222.61140199989839
  0
ARC
  5
57FF
  8
0
 10
-63.924055140641691
 20
-7.9999806688998234
 30
0.0
 40
2.9541109999999762
 50
137.38859300450031
 51
222.61140699760091
  0
LINE
  5
5800
  8
¤¤¤ß˝u
 10
-78.115670381624852
 20
-5.9999999999998721
 30
0.0
 11
-62.811202267087928
 21
-5.9999999999998721
 31
0.0
  0
LINE
  5
5801
  8
0
 10
-50.5
 20
-1.0
 30
0.0
 11
-63.115672140641543
 21
-1.0
 31
0.0
  0
LINE
  5
5802
  8
0
 10
-61.61567214064155
 20
-2.5
 30
0.0
 11
-63.115672140641543
 21
-2.5
 31
0.0
  0
INSERT
  5
5803
  8
0
  2
I1
 10
-63.115672140641543
 20
-13.000003943399969
 30
0.0
  0
LINE
  5
5804
  8
0
 10
-50.5
 20
-23.900003943400002
 30
0.0
 11
-63.115672140641543
 21
-23.900003943400002
 31
0.0
  0
LINE
  5
5805
  8
0
 10
-50.5
 20
-25.400003943400002
 30
0.0
 11
-63.115672140641543
 21
-25.400003943400002
 31
0.0
  0
LINE
  5
5806
  8
0
 10
-63.115672140641543
 20
-25.400003943400002
 30
0.0
 11
-63.115672140641543
 21
-1.0
 31
0.0
  0
LINE
  5
5807
  8
0
 10
-50.5
 20
-2.4999960566999562
 30
0.0
 11
-61.61567214064155
 21
-2.4999960566999562
 31
0.0
  0
CIRCLE
  5
5808
  8
0
 10
-56.915672140641497
 20
-7.0000000000000711
 30
0.0
 40
1.0
  0
LINE
  5
5809
  8
¤¤¤ß˝u
 10
-60.665672140641497
 20
-7.0000000000000711
 30
0.0
 11
-53.165672140641497
 21
-7.0000000000000711
 31
0.0
  0
LINE
  5
580A
  8
¤¤¤ß˝u
 10
-56.915672140641497
 20
-10.750000000000069
 30
0.0
 11
-56.915672140641497
 21
-3.2500000000000711
 31
0.0
  0
CIRCLE
  5
580B
  8
0
 10
-56.915672140641497
 20
-7.0000000000000711
 30
0.0
 40
3.144781861999999
  0
CIRCLE
  5
580C
  8
0
 10
-56.915672140641497
 20
-7.0000000000000711
 30
0.0
 40
2.4999999728999991
  0
CIRCLE
  5
580D
  8
0
 10
-56.915672140641497
 20
-7.0000000000000711
 30
0.0
 40
2.8277919627000001
  0
LINE
  5
580E
  8
0
 10
-61.61567214064155
 20
-25.39999999999997
 30
0.0
 11
-61.61567214064155
 21
-0.9999960566999419
 31
0.0
  0
ENDBLK
  5
5811
  8
0
  0
BLOCK
  8
0
  2
*U5
 70
     1
 10
0.0
 20
0.0
 30
0.0
  3
*U5
  1

  0
TEXT
  5
6229
  8
0
 10
-322.4195792623774
 20
-22.17922133397829
 30
0.0
 40
7.8000001593418631
  1
HGW20CC
  0
TEXT
  5
622A
  8
0
 10
-322.63890154515627
 20
-35.277635444384742
 30
0.0
 40
7.8000001593418631
  1
C  : 1810 kgf 
  0
TEXT
  5
622B
  8
0
 10
-322.63890154515627
 20
-48.475662923805231
 30
0.0
 40
7.8000001593418631
  1
C
  0
TEXT
  5
622C
  8
0
 10
-314.95699799961841
 20
-43.665662825544423
 30
0.0
 40
5.4600001115393031
  1

  0
TEXT
  5
622D
  8
0
 10
-315.78561590272471
 20
-50.938264600128619
 30
0.0
 40
5.4600001115393031
  1
0
  0
TEXT
  5
622E
  8
0
 10
-311.34659142179839
 20
-48.476832923829143
 30
0.0
 40
7.8023401593896651
  1
: 3860 kgf
  0
ENDBLK
  5
6230
  8
0
  0
ENDSEC
  0
SECTION
  2
ENTITIES
  0
INSERT
  5
4D40
  8
0
  2
*U5
 10
0.0
 20
0.0
 30
0.0
  0
ARC
  5
5BF1
  8
0
 10
-192.56984271345721
 20
94.363438032292265
 30
0.0
 40
1.220011576012179
 50
180.9276427879976
 51
254.03697783117121
  0
LINE
  5
5BF2
  8
0
 10
-193.7896943923096
 20
96.343686394275153
 30
0.0
 11
-193.7896943923096
 21
94.343686394275153
 31
0.0
  0
ARC
  5
5BF3
  8
0
 10
-192.56984271345721
 20
96.323934756258041
 30
0.0
 40
1.220011576012179
 50
105.9630221688287
 51
179.0723572120024
  0
ARC
  5
5BF4
  8
0
 10
-192.56984271345721
 20
131.86343803229209
 30
0.0
 40
1.220011576012179
 50
180.9276427879976
 51
254.03697783117121
  0
LINE
  5
5BF5
  8
0
 10
-193.7896943923096
 20
133.8436863942751
 30
0.0
 11
-193.7896943923096
 21
131.8436863942751
 31
0.0
  0
ARC
  5
5BF6
  8
0
 10
-192.56984271345721
 20
133.82393475625801
 30
0.0
 40
1.220011576012179
 50
105.9630221688287
 51
179.0723572120024
  0
ARC
  5
5BF7
  8
0
 10
-117.50954607116201
 20
131.86343803229209
 30
0.0
 40
1.220011576012179
 50
285.96302216882867
 51
359.07235721200237
  0
LINE
  5
5BF8
  8
0
 10
-116.2896943923097
 20
133.8436863942751
 30
0.0
 11
-116.2896943923097
 21
131.8436863942751
 31
0.0
  0
ARC
  5
5BF9
  8
0
 10
-117.50954607116201
 20
133.82393475625801
 30
0.0
 40
1.220011576012179
 50
0.9276427879975832
 51
74.036977831171271
  0
ARC
  5
5BFA
  8
0
 10
-117.50954607116211
 20
94.363438032292194
 30
0.0
 40
1.220011576012179
 50
285.96302216882867
 51
359.07235721200237
  0
LINE
  5
5BFB
  8
0
 10
-116.2896943923098
 20
96.343686394275096
 30
0.0
 11
-116.2896943923098
 21
94.343686394275096
 31
0.0
  0
ARC
  5
5BFC
  8
0
 10
-117.50954607116211
 20
96.323934756257984
 30
0.0
 40
1.220011576012179
 50
0.9276427879975832
 51
74.036977831171271
  0
ARC
  5
5BFD
  8
0
 10
-117.5095460711623
 20
23.546300454145019
 30
0.0
 40
1.220011576012179
 50
285.96302216882867
 51
359.07235721200271
  0
LINE
  5
5BFE
  8
0
 10
-116.2896943923098
 20
25.52654881612791
 30
0.0
 11
-116.2896943923098
 21
23.52654881612791
 31
0.0
  0
ARC
  5
5BFF
  8
0
 10
-117.5095460711623
 20
25.506797178110801
 30
0.0
 40
1.220011576012179
 50
0.9276427879975832
 51
74.036977831171271
  0
ARC
  5
5C00
  8
0
 10
-192.56984271345729
 20
23.546300454145019
 30
0.0
 40
1.220011576012179
 50
180.9276427879976
 51
254.03697783117121
  0
LINE
  5
5C01
  8
0
 10
-193.7896943923098
 20
25.52654881612791
 30
0.0
 11
-193.7896943923098
 21
23.52654881612791
 31
0.0
  0
ARC
  5
5C02
  8
0
 10
-192.56984271345729
 20
25.506797178110801
 30
0.0
 40
1.220011576012179
 50
105.9630221688287
 51
179.0723572120024
  0
LINE
  5
5C03
  8
0
 10
-192.90536653295149
 20
12.12655275952778
 30
0.0
 11
-117.17402225166821
 21
12.12655275952778
 31
0.0
  0
LINE
  5
5C04
  8
¤¤¤ß˝u
 10
-163.37123703313259
 20
5.853545431790109
 30
0.0
 11
-163.37123703313259
 21
12.87082791252948
 31
0.0
  0
LINE
  5
5C05
  8
µę˝u
 10
-159.87138618503531
 20
7.5267483773574853
 30
0.0
 11
-160.37135430593381
 21
8.0267300642418142
 31
0.0
  0
LINE
  5
5C06
  8
µę˝u
 10
-166.871139274569
 20
7.5267483773573991
 30
0.0
 11
-166.37111688929539
 21
8.0267707626312088
 31
0.0
  0
LINE
  5
5C07
  8
µę˝u
 10
-166.3711745474767
 20
8.0267707626310987
 30
0.0
 11
-160.37111688929539
 21
8.0267707626310987
 31
0.0
  0
LINE
  5
5C08
  8
µę˝u
 10
-160.37111688929539
 20
12.126944008945729
 30
0.0
 11
-160.37111688929539
 21
8.0267707626312088
 31
0.0
  0
LINE
  5
5C09
  8
µę˝u
 10
-166.37111688929539
 20
12.126944008945729
 30
0.0
 11
-166.37111688929539
 21
8.0267707626312088
 31
0.0
  0
LINE
  5
5C0A
  8
0
 10
-243.3712370331327
 20
7.526552759528033
 30
0.0
 11
-243.3712370331327
 21
25.026552759528158
 31
0.0
  0
LINE
  5
5C0B
  8
¤¤¤ß˝u
 10
-223.3712370331327
 20
7.026552759527906
 30
0.0
 11
-223.3712370331327
 21
25.626552759527922
 31
0.0
  0
LINE
  5
5C0C
  8
0
 10
-226.8716336185482
 20
7.5265527595281192
 30
0.0
 11
-226.37161123327439
 21
8.0265751448016012
 31
0.0
  0
LINE
  5
5C0D
  8
0
 10
-226.37161123327439
 20
8.0265751448016012
 30
0.0
 11
-220.3718486499134
 21
8.0265344464125441
 31
0.0
  0
LINE
  5
5C0E
  8
0
 10
-219.8718805290145
 20
7.5265527595281192
 30
0.0
 11
-220.3718486499134
 21
8.0265344464125441
 31
0.0
  0
LINE
  5
5C0F
  8
0
 10
-220.37161123327459
 20
16.22655275952792
 30
0.0
 11
-220.37161123327459
 21
8.0265751448016012
 31
0.0
  0
LINE
  5
5C10
  8
0
 10
-220.37173333327451
 20
16.22655275952792
 30
0.0
 11
-220.07173333327441
 21
16.526552759528109
 31
0.0
  0
LINE
  5
5C11
  8
0
 10
-226.37161123327439
 20
16.22655275952792
 30
0.0
 11
-226.37161123327439
 21
8.0265751448016012
 31
0.0
  0
LINE
  5
5C12
  8
0
 10
-226.37161123327439
 20
16.22655275952792
 30
0.0
 11
-226.67161123327449
 21
16.526552759528109
 31
0.0
  0
LINE
  5
5C13
  8
0
 10
-228.12161123327451
 20
16.526552759528109
 30
0.0
 11
-218.62161123327459
 21
16.526552759528109
 31
0.0
  0
LINE
  5
5C14
  8
0
 10
-226.37161123327439
 20
16.22655275952792
 30
0.0
 11
-220.37161123327459
 21
16.22655275952792
 31
0.0
  0
LINE
  5
5C15
  8
0
 10
-228.12161123327451
 20
24.626552759528021
 30
0.0
 11
-228.12161123327451
 21
16.526552759528109
 31
0.0
  0
LINE
  5
5C16
  8
0
 10
-228.1216114150333
 20
24.62655208119504
 30
0.0
 11
-228.35255191434521
 21
25.026552759528101
 31
0.0
  0
LINE
  5
5C17
  8
0
 10
-218.62161123327459
 20
24.626552759528021
 30
0.0
 11
-218.62161123327459
 21
16.526552759528109
 31
0.0
  0
LINE
  5
5C18
  8
0
 10
-218.6216110515156
 20
24.62655208119504
 30
0.0
 11
-218.390670552204
 21
25.026552759528101
 31
0.0
  0
LINE
  5
5C19
  8
0
 10
-228.12161258994109
 20
24.626552759528021
 30
0.0
 11
-218.62161123327459
 21
24.626552759528021
 31
0.0
  0
LINE
  5
5C1A
  8
0
 10
-192.90536653295149
 20
14.97660810892792
 30
0.0
 11
-209.56903009661411
 21
14.976608108927911
 31
0.0
  0
LINE
  5
5C1B
  8
0
 10
-192.90536653295149
 20
17.40656600892812
 30
0.0
 11
-210.1207899514701
 21
17.40656600892812
 31
0.0
  0
LINE
  5
5C1C
  8
0
 10
-192.90536653295149
 20
18.628742607755619
 30
0.0
 11
-209.6314757090278
 21
18.628742607755619
 31
0.0
  0
LINE
  5
5C1D
  8
0
 10
-192.90536653295149
 20
20.33440956067103
 30
0.0
 11
-208.94858983662149
 21
20.334409560671009
 31
0.0
  0
LINE
  5
5C1E
  8
0
 10
-192.90536653295149
 20
22.186561008927988
 30
0.0
 11
-209.50616394575499
 21
22.186561008927988
 31
0.0
  0
LINE
  5
5C1F
  8
0
 10
-192.90536653295149
 20
20.856528008927921
 30
0.0
 11
-209.08154537411539
 21
20.856528008927921
 31
0.0
  0
LINE
  5
5C20
  8
0
 10
-193.46811878744609
 20
22.721144406006331
 30
0.0
 11
-209.67683192052669
 21
22.721144406006331
 31
0.0
  0
LINE
  5
5C21
  8
0
 10
-193.7896943923098
 20
24.412457673966681
 30
0.0
 11
-210.21679072157619
 21
24.412457673966699
 31
0.0
  0
LINE
  5
5C22
  8
0
 10
-193.7896943923098
 20
25.02655275952802
 30
0.0
 11
-243.3712370331327
 21
25.026552759528158
 31
0.0
  0
LINE
  5
5C23
  8
«Řşc˝u
 10
-210.3477351179541
 20
12.858202252900879
 30
0.0
 11
-209.45804525953989
 21
7.526552759527827
 31
0.0
  0
LINE
  5
5C24
  8
«Řşc˝u
 10
-209.19066780963809
 20
16.005912996483691
 30
0.0
 11
-210.3477351179541
 21
12.858202252900879
 31
0.0
  0
LINE
  5
5C25
  8
«Řşc˝u
 10
-210.19018967286991
 20
17.233223996571109
 30
0.0
 11
-209.19066780963809
 21
16.005912996483691
 31
0.0
  0
LINE
  5
5C26
  8
«Řşc˝u
 10
-208.9298223233142
 20
20.381285808269698
 30
0.0
 11
-210.19018967286991
 21
17.233223996571109
 31
0.0
  0
LINE
  5
5C27
  8
«Řşc˝u
 10
-210.41284313387089
 20
25.02655275952791
 30
0.0
 11
-208.9298223233142
 21
20.381285808269698
 31
0.0
  0
LINE
  5
5C28
  8
µę˝u
 10
-106.8716336185482
 20
7.5265527595277284
 30
0.0
 11
-106.37161123327439
 21
8.0265751448012246
 31
0.0
  0
LINE
  5
5C29
  8
µę˝u
 10
-106.37161123327439
 20
8.0265751448012246
 30
0.0
 11
-100.3718486499132
 21
8.0265344464121569
 31
0.0
  0
LINE
  5
5C2A
  8
µę˝u
 10
-99.871880529014675
 20
7.5265527595277284
 30
0.0
 11
-100.3718486499132
 21
8.0265344464121569
 31
0.0
  0
LINE
  5
5C2B
  8
µę˝u
 10
-100.37161123327439
 20
16.226552759527529
 30
0.0
 11
-100.37161123327439
 21
8.0265751448012246
 31
0.0
  0
LINE
  5
5C2C
  8
µę˝u
 10
-100.37173333327441
 20
16.226552759527529
 30
0.0
 11
-100.07173333327439
 21
16.526552759527728
 31
0.0
  0
LINE
  5
5C2D
  8
µę˝u
 10
-106.37161123327439
 20
16.226552759527529
 30
0.0
 11
-106.37161123327439
 21
8.0265751448012246
 31
0.0
  0
LINE
  5
5C2E
  8
µę˝u
 10
-106.37161123327439
 20
16.226552759527529
 30
0.0
 11
-106.6716112332745
 21
16.526552759527728
 31
0.0
  0
LINE
  5
5C2F
  8
µę˝u
 10
-108.12161123327439
 20
16.526552759527728
 30
0.0
 11
-98.621611233274621
 21
16.526552759527728
 31
0.0
  0
LINE
  5
5C30
  8
µę˝u
 10
-106.37161123327439
 20
16.226552759527529
 30
0.0
 11
-100.37161123327439
 21
16.226552759527529
 31
0.0
  0
LINE
  5
5C31
  8
µę˝u
 10
-108.12161123327439
 20
24.62655275952763
 30
0.0
 11
-108.12161123327439
 21
16.526552759527728
 31
0.0
  0
LINE
  5
5C32
  8
µę˝u
 10
-108.1216114150334
 20
24.626552081194649
 30
0.0
 11
-108.3525519143451
 21
25.026552759527739
 31
0.0
  0
LINE
  5
5C33
  8
µę˝u
 10
-98.621611233274621
 20
24.62655275952763
 30
0.0
 11
-98.621611233274621
 21
16.526552759527728
 31
0.0
  0
LINE
  5
5C34
  8
µę˝u
 10
-98.621611051515742
 20
24.626552081194649
 30
0.0
 11
-98.390670552203815
 21
25.026552759527739
 31
0.0
  0
LINE
  5
5C35
  8
µę˝u
 10
-108.12161258994109
 20
24.62655275952763
 30
0.0
 11
-98.621611233274621
 21
24.62655275952763
 31
0.0
  0
LINE
  5
5C36
  8
0
 10
-83.371237033132957
 20
25.026552759528101
 30
0.0
 11
-116.2896943923098
 21
25.026552759527871
 31
0.0
  0
LINE
  5
5C37
  8
0
 10
-83.371237033132957
 20
24.412457673966799
 30
0.0
 11
-116.2896943923098
 21
24.41245767396671
 31
0.0
  0
LINE
  5
5C38
  8
0
 10
-83.371237033132957
 20
22.721144406006381
 30
0.0
 11
-116.61126999717359
 21
22.721144406006129
 31
0.0
  0
LINE
  5
5C39
  8
0
 10
-83.371237033132957
 20
22.186561008927988
 30
0.0
 11
-117.1740222516683
 21
22.186561008927988
 31
0.0
  0
LINE
  5
5C3A
  8
0
 10
-83.371237033132957
 20
20.856528008927921
 30
0.0
 11
-117.1740222516683
 21
20.856528008927921
 31
0.0
  0
LINE
  5
5C3B
  8
0
 10
-83.371237033132957
 20
20.33440956067103
 30
0.0
 11
-117.1740222516683
 21
20.33440956067103
 31
0.0
  0
LINE
  5
5C3C
  8
0
 10
-83.371237033132957
 20
18.628742607755619
 30
0.0
 11
-117.1740222516683
 21
18.628742607755619
 31
0.0
  0
LINE
  5
5C3D
  8
0
 10
-83.371237033132957
 20
17.406566008927889
 30
0.0
 11
-117.1740222516683
 21
17.406566008928142
 31
0.0
  0
LINE
  5
5C3E
  8
0
 10
-83.371237033132957
 20
14.97660810892803
 30
0.0
 11
-117.1740222516683
 21
14.97660810892774
 31
0.0
  0
LINE
  5
5C3F
  8
¤¤¤ß˝u
 10
-103.3712370331329
 20
7.0265527595280011
 30
0.0
 11
-103.3712370331329
 21
25.62655275952801
 31
0.0
  0
LINE
  5
5C40
  8
0
 10
-83.371237033132957
 20
7.5265527595280011
 30
0.0
 11
-83.371237033132957
 21
25.026552759527991
 31
0.0
  0
LINE
  5
5C41
  8
0
 10
-83.371237033132957
 20
11.526699908927879
 30
0.0
 11
-210.12554794429249
 21
11.526699908927879
 31
0.0
  0
LINE
  5
5C42
  8
0
 10
-83.371237033132957
 20
8.5269440089280195
 30
0.0
 11
-209.6249800796447
 21
8.5269440089280195
 31
0.0
  0
LINE
  5
5C43
  8
0
 10
-83.371237033132957
 20
7.5265527595277213
 30
0.0
 11
-243.3712370331327
 21
7.526552759528033
 31
0.0
  0
LINE
  5
5C44
  8
0
 10
-191.40536653295129
 20
12.126552759527909
 30
0.0
 11
-191.40536653295129
 21
36.526556702827932
 31
0.0
  0
CIRCLE
  5
5C45
  8
0
 10
-186.70536653295119
 20
30.526552759527799
 30
0.0
 40
2.8277919627000001
  0
CIRCLE
  5
5C46
  8
0
 10
-186.70536653295119
 20
30.526552759527799
 30
0.0
 40
2.4999999728999991
  0
CIRCLE
  5
5C47
  8
0
 10
-186.70536653295119
 20
30.526552759527799
 30
0.0
 40
3.1447818619999981
  0
LINE
  5
5C48
  8
¤¤¤ß˝u
 10
-186.70536653295119
 20
26.776552759527799
 30
0.0
 11
-186.70536653295119
 21
34.276552759527803
 31
0.0
  0
LINE
  5
5C49
  8
¤¤¤ß˝u
 10
-190.45536653295139
 20
30.526552759527799
 30
0.0
 11
-182.95536653295139
 21
30.526552759527799
 31
0.0
  0
CIRCLE
  5
5C4A
  8
0
 10
-186.70536653295119
 20
30.526552759527799
 30
0.0
 40
1.0
  0
LINE
  5
5C4B
  8
0
 10
-180.2896943923098
 20
35.026556702827918
 30
0.0
 11
-191.40536653295129
 21
35.026556702827918
 31
0.0
  0
LINE
  5
5C4C
  8
0
 10
-192.90536653295149
 20
12.12655275952778
 30
0.0
 11
-192.90536653295149
 21
36.526552759527867
 31
0.0
  0
LINE
  5
5C4D
  8
0
 10
-180.2896943923098
 20
13.626548816127871
 30
0.0
 11
-192.90536653295149
 21
13.626548816127871
 31
0.0
  0
LINE
  5
5C4E
  8
0
 10
-191.40536653295129
 20
35.026552759527881
 30
0.0
 11
-192.90536653295149
 21
35.026552759527881
 31
0.0
  0
LINE
  5
5C4F
  8
0
 10
-180.2896943923098
 20
36.526552759527867
 30
0.0
 11
-192.90536653295149
 21
36.526552759527867
 31
0.0
  0
LINE
  5
5C50
  8
¤¤¤ß˝u
 10
-207.90536477393471
 20
31.526552759527998
 30
0.0
 11
-192.6008966593979
 21
31.526552759527998
 31
0.0
  0
ARC
  5
5C51
  8
0
 10
-193.71374953295151
 20
29.526572090628051
 30
0.0
 40
2.9541109999999762
 50
137.38859300450039
 51
222.61140699760159
  0
ARC
  5
5C52
  8
0
 10
-193.71374853295151
 20
33.526572090627937
 30
0.0
 40
2.954111999999975
 50
137.3885980021999
 51
222.61140199989759
  0
POLYLINE
  5
5C53
  8
0
 66
     1
 10
0.0
 20
0.0
 30
0.0
  0
VERTEX
  5
6251
  8
0
 10
-203.99657753295151
 20
31.526572090627969
 30
0.0
  0
VERTEX
  5
6252
  8
0
 10
-204.02939553295141
 20
31.73682709062799
 30
0.0
  0
VERTEX
  5
6253
  8
0
 10
-204.07354253295139
 20
31.842314090627969
 30
0.0
  0
VERTEX
  5
6254
  8
0
 10
-204.13657553295141
 20
31.940093090627968
 30
0.0
  0
VERTEX
  5
6255
  8
0
 10
-204.2160515329515
 20
32.02420609062797
 30
0.0
  0
VERTEX
  5
6256
  8
0
 10
-204.30754253295149
 20
32.090079090627981
 30
0.0
  0
VERTEX
  5
6257
  8
0
 10
-204.40546253295139
 20
32.135360090627913
 30
0.0
  0
VERTEX
  5
6258
  8
0
 10
-204.53809853295149
 20
32.164301090627951
 30
0.0
  0
VERTEX
  5
6259
  8
0
 10
-204.66110753295149
 20
32.16164209062795
 30
0.0
  0
VERTEX
  5
625A
  8
0
 10
-204.7680315329514
 20
32.136136090627943
 30
0.0
  0
VERTEX
  5
625B
  8
0
 10
-204.88423653295149
 20
32.080368090627942
 30
0.0
  0
VERTEX
  5
625C
  8
0
 10
-204.99480653295149
 20
31.990879090627988
 30
0.0
  0
VERTEX
  5
625D
  8
0
 10
-205.0830365329515
 20
31.87632909062798
 30
0.0
  0
VERTEX
  5
625E
  8
0
 10
-205.13967053295141
 20
31.75649009062802
 30
0.0
  0
VERTEX
  5
625F
  8
0
 10
-205.1675215329515
 20
31.652834090627969
 30
0.0
  0
VERTEX
  5
6260
  8
0
 10
-205.17914253295129
 20
31.526572090627969
 30
0.0
  0
VERTEX
  5
6261
  8
0
 10
-205.1463245329515
 20
31.316317090628001
 30
0.0
  0
VERTEX
  5
6262
  8
0
 10
-205.10217653295149
 20
31.210829090627971
 30
0.0
  0
VERTEX
  5
6263
  8
0
 10
-205.0391445329515
 20
31.113051090627959
 30
0.0
  0
VERTEX
  5
6264
  8
0
 10
-204.95966853295141
 20
31.02893809062796
 30
0.0
  0
VERTEX
  5
6265
  8
0
 10
-204.86817753295151
 20
30.96306509062795
 30
0.0
  0
VERTEX
  5
6266
  8
0
 10
-204.77025753295149
 20
30.917784090627961
 30
0.0
  0
VERTEX
  5
6267
  8
0
 10
-204.6376215329515
 20
30.888842090627929
 30
0.0
  0
VERTEX
  5
6268
  8
0
 10
-204.5146125329515
 20
30.891502090627981
 30
0.0
  0
VERTEX
  5
6269
  8
0
 10
-204.40768853295151
 20
30.91700709062799
 30
0.0
  0
VERTEX
  5
626A
  8
0
 10
-204.2914835329515
 20
30.972775090627991
 30
0.0
  0
VERTEX
  5
626B
  8
0
 10
-204.18091353295139
 20
31.06226509062795
 30
0.0
  0
VERTEX
  5
626C
  8
0
 10
-204.0926835329515
 20
31.17681409062795
 30
0.0
  0
VERTEX
  5
626D
  8
0
 10
-204.03604953295149
 20
31.29665309062797
 30
0.0
  0
VERTEX
  5
626E
  8
0
 10
-204.0081975329515
 20
31.400310090628022
 30
0.0
  0
VERTEX
  5
626F
  8
0
 10
-203.99657753295151
 20
31.526572090627969
 30
0.0
  0
SEQEND
  5
6270
  8
0
  0
ARC
  5
5C54
  8
0
 10
-200.41620053295151
 20
31.526572090628001
 30
0.0
 40
3.999999999999968
 50
90.0
 51
131.40962199959861
  0
ARC
  5
5C55
  8
0
 10
-200.41620053295151
 20
31.526572090628001
 30
0.0
 40
3.999999999999968
 50
228.59037799730089
 51
270.0
  0
LINE
  5
5C56
  8
0
 10
-192.90536653295149
 20
35.526572090627987
 30
0.0
 11
-200.41620053295151
 21
35.526572090627987
 31
0.0
  0
LINE
  5
5C57
  8
0
 10
-195.8878645329514
 20
31.526572090628001
 30
0.0
 11
-192.90536653295149
 21
31.526572090628001
 31
0.0
  0
LINE
  5
5C58
  8
0
 10
-200.41620053295151
 20
27.526572090628001
 30
0.0
 11
-192.90536653295149
 21
27.526572090628001
 31
0.0
  0
LINE
  5
5C59
  8
0
 10
-196.66786053295149
 20
35.526572090627987
 30
0.0
 11
-196.66786053295149
 21
27.526572090628001
 31
0.0
  0
LINE
  5
5C5A
  8
0
 10
-203.94363753295141
 20
34.526572090627972
 30
0.0
 11
-200.04386153295141
 21
34.526572090627972
 31
0.0
  0
LINE
  5
5C5B
  8
0
 10
-204.19003053295151
 20
28.988499090628
 30
0.0
 11
-203.94363753295141
 21
28.526572090628019
 31
0.0
  0
LINE
  5
5C5C
  8
0
 10
-203.94363753295141
 20
34.526572090627972
 30
0.0
 11
-204.19003053295151
 21
34.064645090627991
 31
0.0
  0
LINE
  5
5C5D
  8
0
 10
-199.14301953295151
 20
31.526572090628001
 30
0.0
 11
-198.44365553295151
 21
31.526572090628001
 31
0.0
  0
LINE
  5
5C5E
  8
0
 10
-200.04386153295141
 20
34.526572090627972
 30
0.0
 11
-198.44365553295151
 21
31.526572090628001
 31
0.0
  0
LINE
  5
5C5F
  8
0
 10
-200.04386153295141
 20
28.526572090628019
 30
0.0
 11
-203.94363753295141
 21
28.526572090628019
 31
0.0
  0
LINE
  5
5C60
  8
0
 10
-198.44365553295151
 20
31.526572090628001
 30
0.0
 11
-200.04386153295141
 21
28.526572090628019
 31
0.0
  0
LINE
  5
5C61
  8
0
 10
-203.82255853295129
 20
34.056106090627978
 30
0.0
 11
-203.40409153295141
 21
34.298210090627961
 31
0.0
  0
LINE
  5
5C62
  8
0
 10
-203.82255853295129
 20
28.997037090628041
 30
0.0
 11
-203.40409153295141
 21
28.754933090628001
 31
0.0
  0
LINE
  5
5C63
  8
0
 10
-203.40409153295141
 20
34.298210090627961
 30
0.0
 11
-202.88415153295151
 21
34.468928090627927
 31
0.0
  0
LINE
  5
5C64
  8
0
 10
-203.40409153295141
 20
28.754933090628001
 30
0.0
 11
-202.88415153295151
 21
28.584216090628061
 31
0.0
  0
LINE
  5
5C65
  8
0
 10
-202.88415153295151
 20
34.468928090627927
 30
0.0
 11
-202.3434315329514
 21
34.526572090627972
 31
0.0
  0
LINE
  5
5C66
  8
0
 10
-202.88415153295151
 20
28.584216090628061
 30
0.0
 11
-202.3434315329514
 21
28.526572090628019
 31
0.0
  0
LINE
  5
5C67
  8
0
 10
-202.3434315329514
 20
34.526572090627972
 30
0.0
 11
-201.80271153295149
 21
34.468928090627927
 31
0.0
  0
LINE
  5
5C68
  8
0
 10
-202.3434315329514
 20
28.526572090628019
 30
0.0
 11
-201.80271153295149
 21
28.584216090628061
 31
0.0
  0
LINE
  5
5C69
  8
0
 10
-201.80271153295149
 20
34.468928090627927
 30
0.0
 11
-201.2827715329515
 21
34.298210090627961
 31
0.0
  0
LINE
  5
5C6A
  8
0
 10
-201.80271153295149
 20
28.584216090628061
 30
0.0
 11
-201.2827715329515
 21
28.754933090628001
 31
0.0
  0
LINE
  5
5C6B
  8
0
 10
-201.2827715329515
 20
34.298210090627961
 30
0.0
 11
-200.80359153295149
 21
34.020981090627977
 31
0.0
  0
LINE
  5
5C6C
  8
0
 10
-201.2827715329515
 20
28.754933090628001
 30
0.0
 11
-200.80359153295149
 21
29.032163090628011
 31
0.0
  0
LINE
  5
5C6D
  8
0
 10
-200.80359153295149
 20
34.020981090627977
 30
0.0
 11
-200.3835875329514
 21
33.647892090627991
 31
0.0
  0
LINE
  5
5C6E
  8
0
 10
-200.80359153295149
 20
29.032163090628011
 30
0.0
 11
-200.3835875329514
 21
29.405251090627971
 31
0.0
  0
LINE
  5
5C6F
  8
0
 10
-200.74322553295141
 20
34.526572090627972
 30
0.0
 11
-199.14301953295151
 21
31.526572090628001
 31
0.0
  0
LINE
  5
5C70
  8
0
 10
-199.14301953295151
 20
31.526572090628001
 30
0.0
 11
-200.74322553295141
 21
28.526572090628019
 31
0.0
  0
LINE
  5
5C71
  8
0
 10
-200.3835875329514
 20
33.647892090627991
 30
0.0
 11
-200.03889853295149
 21
33.193282090627989
 31
0.0
  0
LINE
  5
5C72
  8
0
 10
-200.03889853295149
 20
29.85986109062797
 30
0.0
 11
-200.3835875329514
 21
29.405251090627971
 31
0.0
  0
LINE
  5
5C73
  8
0
 10
-200.03889853295149
 20
33.193282090627989
 30
0.0
 11
-199.78277153295139
 21
32.674622090627977
 31
0.0
  0
LINE
  5
5C74
  8
0
 10
-199.78277153295139
 20
30.378521090628041
 30
0.0
 11
-200.03889853295149
 21
29.85986109062797
 31
0.0
  0
LINE
  5
5C75
  8
0
 10
-199.78277153295139
 20
32.674622090627977
 30
0.0
 11
-199.62504953295149
 21
32.111843090628028
 31
0.0
  0
LINE
  5
5C76
  8
0
 10
-199.62504953295149
 20
30.94130109062796
 30
0.0
 11
-199.78277153295139
 21
30.378521090628041
 31
0.0
  0
LINE
  5
5C77
  8
0
 10
-199.62504953295149
 20
32.111843090628028
 30
0.0
 11
-199.57179353295149
 21
31.526572090628001
 31
0.0
  0
LINE
  5
5C78
  8
0
 10
-199.57179353295149
 20
31.526572090628001
 30
0.0
 11
-199.62504953295149
 21
30.94130109062796
 31
0.0
  0
LINE
  5
5C79
  8
0
 10
-205.24732853295151
 20
33.166799090627947
 30
0.0
 11
-205.24435753295151
 21
33.165184090627989
 31
0.0
  0
LINE
  5
5C7A
  8
0
 10
-205.24732853295151
 20
29.886344090628011
 30
0.0
 11
-205.24435753295151
 21
29.887960090627999
 31
0.0
  0
LINE
  5
5C7B
  8
0
 10
-206.36003853295139
 20
32.024714090628002
 30
0.0
 11
-206.4053665329514
 21
31.526572090628001
 31
0.0
  0
LINE
  5
5C7C
  8
0
 10
-206.22579653295139
 20
32.503712090627978
 30
0.0
 11
-206.36003853295139
 21
32.024714090628002
 31
0.0
  0
LINE
  5
5C7D
  8
0
 10
-206.4053665329514
 20
31.526572090628001
 30
0.0
 11
-206.36003853295139
 21
31.028430090627989
 31
0.0
  0
LINE
  5
5C7E
  8
0
 10
-206.0077995329514
 20
32.945160090628001
 30
0.0
 11
-206.22579653295139
 21
32.503712090627978
 31
0.0
  0
LINE
  5
5C7F
  8
0
 10
-206.36003853295139
 20
31.028430090627989
 30
0.0
 11
-206.22579653295139
 21
30.54943109062798
 31
0.0
  0
LINE
  5
5C80
  8
0
 10
-205.7144235329514
 20
33.332092090628031
 30
0.0
 11
-206.0077995329514
 21
32.945160090628001
 31
0.0
  0
LINE
  5
5C81
  8
0
 10
-206.22579653295139
 20
30.54943109062798
 30
0.0
 11
-206.0077995329514
 21
30.107984090627991
 31
0.0
  0
LINE
  5
5C82
  8
0
 10
-205.7144235329514
 20
33.332092090628031
 30
0.0
 11
-205.3569455329515
 21
33.649639090627993
 31
0.0
  0
LINE
  5
5C83
  8
0
 10
-206.0077995329514
 20
30.107984090627991
 30
0.0
 11
-205.7144235329514
 21
29.72105209062796
 31
0.0
  0
LINE
  5
5C84
  8
0
 10
-206.2113355329513
 20
31.876108090628001
 30
0.0
 11
-206.24314153295151
 21
31.526572090628001
 31
0.0
  0
LINE
  5
5C85
  8
0
 10
-206.11714053295151
 20
32.212212090628
 30
0.0
 11
-206.2113355329513
 21
31.876108090628001
 31
0.0
  0
LINE
  5
5C86
  8
0
 10
-206.24314153295151
 20
31.526572090628001
 30
0.0
 11
-206.2113355329513
 21
31.17703609062799
 31
0.0
  0
LINE
  5
5C87
  8
0
 10
-205.9641765329514
 20
32.521967090627967
 30
0.0
 11
-206.11714053295151
 21
32.212212090628
 31
0.0
  0
LINE
  5
5C88
  8
0
 10
-206.2113355329513
 20
31.17703609062799
 30
0.0
 11
-206.11714053295151
 21
30.84093209062798
 31
0.0
  0
LINE
  5
5C89
  8
0
 10
-205.3569455329515
 20
33.649639090627993
 30
0.0
 11
-204.94910053295141
 21
33.885598090627973
 31
0.0
  0
LINE
  5
5C8A
  8
0
 10
-205.7144235329514
 20
29.72105209062796
 30
0.0
 11
-205.3569455329515
 21
29.403505090627998
 31
0.0
  0
LINE
  5
5C8B
  8
0
 10
-205.75832053295139
 20
32.793469090628001
 30
0.0
 11
-205.9641765329514
 21
32.521967090627967
 31
0.0
  0
LINE
  5
5C8C
  8
0
 10
-206.11714053295151
 20
30.84093209062798
 30
0.0
 11
-205.9641765329514
 21
30.53117709062802
 31
0.0
  0
LINE
  5
5C8D
  8
0
 10
-204.94910053295141
 20
33.885598090627973
 30
0.0
 11
-204.50656353295139
 21
34.030900090627917
 31
0.0
  0
LINE
  5
5C8E
  8
0
 10
-205.3569455329515
 20
29.403505090627998
 30
0.0
 11
-204.94910053295141
 21
29.16754609062799
 31
0.0
  0
LINE
  5
5C8F
  8
0
 10
-205.75832053295139
 20
32.793469090628001
 30
0.0
 11
-205.50748553295139
 21
33.016286090627958
 31
0.0
  0
LINE
  5
5C90
  8
0
 10
-205.9641765329514
 20
30.53117709062802
 30
0.0
 11
-205.75832053295139
 21
30.259674090628049
 31
0.0
  0
LINE
  5
5C91
  8
0
 10
-204.50656353295139
 20
34.030900090627917
 30
0.0
 11
-204.04634053295149
 21
34.07996309062797
 31
0.0
  0
LINE
  5
5C92
  8
0
 10
-204.94910053295141
 20
29.16754609062799
 30
0.0
 11
-204.50656353295139
 21
29.022243090627981
 31
0.0
  0
LINE
  5
5C93
  8
0
 10
-205.50748553295139
 20
33.016286090627958
 30
0.0
 11
-205.22130853295141
 21
33.181853090627939
 31
0.0
  0
LINE
  5
5C94
  8
0
 10
-205.75832053295139
 20
30.259674090628049
 30
0.0
 11
-205.50748553295139
 21
30.03685809062803
 31
0.0
  0
LINE
  5
5C95
  8
0
 10
-203.44168153295149
 20
34.00355309062796
 30
0.0
 11
-203.0039775329515
 21
33.859837090627948
 31
0.0
  0
LINE
  5
5C96
  8
0
 10
-205.22130853295141
 20
33.181853090627939
 30
0.0
 11
-204.9107895329515
 21
33.283809090627969
 31
0.0
  0
LINE
  5
5C97
  8
0
 10
-205.50748553295139
 20
30.03685809062803
 30
0.0
 11
-205.22130853295141
 21
29.871290090628019
 31
0.0
  0
LINE
  5
5C98
  8
0
 10
-203.5861175329515
 20
34.030900090627917
 30
0.0
 11
-203.44168153295149
 21
34.00355309062796
 31
0.0
  0
LINE
  5
5C99
  8
0
 10
-204.04634053295149
 20
34.07996309062797
 30
0.0
 11
-203.5861175329515
 21
34.030900090627917
 31
0.0
  0
LINE
  5
5C9A
  8
0
 10
-204.50656353295139
 20
29.022243090627981
 30
0.0
 11
-204.04634053295149
 21
28.973181090628021
 31
0.0
  0
LINE
  5
5C9B
  8
0
 10
-203.0039775329515
 20
33.859837090627948
 30
0.0
 11
-202.6005865329513
 21
33.626455090627971
 31
0.0
  0
LINE
  5
5C9C
  8
0
 10
-203.44168153295149
 20
29.049591090628031
 30
0.0
 11
-203.0039775329515
 21
29.193307090628029
 31
0.0
  0
LINE
  5
5C9D
  8
0
 10
-202.6005865329513
 20
33.626455090627971
 30
0.0
 11
-202.24701153295149
 21
33.312376090627978
 31
0.0
  0
LINE
  5
5C9E
  8
0
 10
-203.0039775329515
 20
29.193307090628029
 30
0.0
 11
-202.6005865329513
 21
29.42668909062801
 31
0.0
  0
LINE
  5
5C9F
  8
0
 10
-204.9107895329515
 20
33.283809090627969
 30
0.0
 11
-204.58785953295151
 21
33.318235090627986
 31
0.0
  0
LINE
  5
5CA0
  8
0
 10
-205.22130853295141
 20
29.871290090628019
 30
0.0
 11
-204.9107895329515
 21
29.769334090627989
 31
0.0
  0
LINE
  5
5CA1
  8
0
 10
-203.5861175329515
 20
34.030900090627917
 30
0.0
 11
-203.1435805329514
 21
33.885598090627973
 31
0.0
  0
LINE
  5
5CA2
  8
0
 10
-203.5861175329515
 20
29.022243090627981
 30
0.0
 11
-203.44168153295149
 21
29.049591090628031
 31
0.0
  0
LINE
  5
5CA3
  8
0
 10
-204.04634053295149
 20
28.973181090628021
 30
0.0
 11
-203.5861175329515
 21
29.022243090627981
 31
0.0
  0
LINE
  5
5CA4
  8
0
 10
-202.24701153295149
 20
33.312376090627978
 30
0.0
 11
-201.95684053295139
 21
32.929669090627968
 31
0.0
  0
LINE
  5
5CA5
  8
0
 10
-202.6005865329513
 20
29.42668909062801
 30
0.0
 11
-202.24701153295149
 21
29.740768090627981
 31
0.0
  0
LINE
  5
5CA6
  8
0
 10
-204.58785953295151
 20
33.318235090627986
 30
0.0
 11
-204.26493053295141
 21
33.283809090627969
 31
0.0
  0
LINE
  5
5CA7
  8
0
 10
-204.9107895329515
 20
29.769334090627989
 30
0.0
 11
-204.58785953295151
 21
29.734908090628021
 31
0.0
  0
LINE
  5
5CA8
  8
0
 10
-203.1435805329514
 20
33.885598090627973
 30
0.0
 11
-202.73573653295139
 21
33.649639090627993
 31
0.0
  0
LINE
  5
5CA9
  8
0
 10
-203.5861175329515
 20
29.022243090627981
 30
0.0
 11
-203.1435805329514
 21
29.16754609062799
 31
0.0
  0
LINE
  5
5CAA
  8
0
 10
-201.95684053295139
 20
32.929669090627968
 30
0.0
 11
-201.74122353295149
 21
32.493042090627981
 31
0.0
  0
LINE
  5
5CAB
  8
0
 10
-201.95684053295139
 20
30.12347509062802
 30
0.0
 11
-202.24701153295149
 21
29.740768090627981
 31
0.0
  0
LINE
  5
5CAC
  8
0
 10
-201.74122353295149
 20
32.493042090627981
 30
0.0
 11
-201.60844753295149
 21
32.019274090628002
 31
0.0
  0
LINE
  5
5CAD
  8
0
 10
-201.74122353295149
 20
30.560102090628
 30
0.0
 11
-201.95684053295139
 21
30.12347509062802
 31
0.0
  0
LINE
  5
5CAE
  8
0
 10
-202.73573653295139
 20
33.649639090627993
 30
0.0
 11
-202.37825753295149
 21
33.332092090628031
 31
0.0
  0
LINE
  5
5CAF
  8
0
 10
-203.1435805329514
 20
29.16754609062799
 30
0.0
 11
-202.73573653295139
 21
29.403505090627998
 31
0.0
  0
LINE
  5
5CB0
  8
0
 10
-201.60844753295149
 20
32.019274090628002
 30
0.0
 11
-201.56361453295139
 21
31.526572090628001
 31
0.0
  0
LINE
  5
5CB1
  8
0
 10
-201.60844753295149
 20
31.033870090627989
 30
0.0
 11
-201.74122353295149
 21
30.560102090628
 31
0.0
  0
LINE
  5
5CB2
  8
0
 10
-204.26493053295141
 20
33.283809090627969
 30
0.0
 11
-203.9544115329515
 21
33.181853090627939
 31
0.0
  0
LINE
  5
5CB3
  8
0
 10
-204.58785953295151
 20
29.734908090628021
 30
0.0
 11
-204.26493053295141
 21
29.769334090627989
 31
0.0
  0
LINE
  5
5CB4
  8
0
 10
-201.56361453295139
 20
31.526572090628001
 30
0.0
 11
-201.60844753295149
 21
31.033870090627989
 31
0.0
  0
LINE
  5
5CB5
  8
0
 10
-202.37825753295149
 20
33.332092090628031
 30
0.0
 11
-202.0848825329515
 21
32.945160090628001
 31
0.0
  0
LINE
  5
5CB6
  8
0
 10
-202.73573653295139
 20
29.403505090627998
 30
0.0
 11
-202.37825753295149
 21
29.72105209062796
 31
0.0
  0
LINE
  5
5CB7
  8
0
 10
-203.9544115329515
 20
33.181853090627939
 30
0.0
 11
-203.66823453295149
 21
33.016286090627958
 31
0.0
  0
LINE
  5
5CB8
  8
0
 10
-204.26493053295141
 20
29.769334090627989
 30
0.0
 11
-203.9544115329515
 21
29.871290090628019
 31
0.0
  0
LINE
  5
5CB9
  8
0
 10
-202.0848825329515
 20
32.945160090628001
 30
0.0
 11
-201.8668855329515
 21
32.503712090627978
 31
0.0
  0
LINE
  5
5CBA
  8
0
 10
-202.0848825329515
 20
30.107984090627991
 30
0.0
 11
-202.37825753295149
 21
29.72105209062796
 31
0.0
  0
LINE
  5
5CBB
  8
0
 10
-201.8668855329515
 20
32.503712090627978
 30
0.0
 11
-201.7326425329515
 21
32.024714090628002
 31
0.0
  0
LINE
  5
5CBC
  8
0
 10
-201.8668855329515
 20
30.54943109062798
 30
0.0
 11
-202.0848825329515
 21
30.107984090627991
 31
0.0
  0
LINE
  5
5CBD
  8
0
 10
-203.66823453295149
 20
33.016286090627958
 30
0.0
 11
-203.41739953295149
 21
32.793469090628001
 31
0.0
  0
LINE
  5
5CBE
  8
0
 10
-203.9544115329515
 20
29.871290090628019
 30
0.0
 11
-203.66823453295149
 21
30.03685809062803
 31
0.0
  0
LINE
  5
5CBF
  8
0
 10
-201.7326425329515
 20
32.024714090628002
 30
0.0
 11
-201.68731453295149
 21
31.526572090628001
 31
0.0
  0
LINE
  5
5CC0
  8
0
 10
-201.7326425329515
 20
31.028430090627989
 30
0.0
 11
-201.8668855329515
 21
30.54943109062798
 31
0.0
  0
LINE
  5
5CC1
  8
0
 10
-201.68731453295149
 20
31.526572090628001
 30
0.0
 11
-201.7326425329515
 21
31.028430090627989
 31
0.0
  0
LINE
  5
5CC2
  8
0
 10
-203.41739953295149
 20
32.793469090628001
 30
0.0
 11
-203.21154353295151
 21
32.521967090627967
 31
0.0
  0
LINE
  5
5CC3
  8
0
 10
-203.66823453295149
 20
30.03685809062803
 30
0.0
 11
-203.41739953295149
 21
30.259674090628049
 31
0.0
  0
LINE
  5
5CC4
  8
0
 10
-203.21154353295151
 20
32.521967090627967
 30
0.0
 11
-203.0585795329514
 21
32.212212090628
 31
0.0
  0
LINE
  5
5CC5
  8
0
 10
-203.21154353295151
 20
30.53117709062802
 30
0.0
 11
-203.41739953295149
 21
30.259674090628049
 31
0.0
  0
LINE
  5
5CC6
  8
0
 10
-203.0585795329514
 20
32.212212090628
 30
0.0
 11
-202.9643845329515
 21
31.876108090628001
 31
0.0
  0
LINE
  5
5CC7
  8
0
 10
-203.0585795329514
 20
30.84093209062798
 30
0.0
 11
-203.21154353295151
 21
30.53117709062802
 31
0.0
  0
LINE
  5
5CC8
  8
0
 10
-202.9643845329515
 20
31.876108090628001
 30
0.0
 11
-202.93257853295151
 21
31.526572090628001
 31
0.0
  0
LINE
  5
5CC9
  8
0
 10
-202.9643845329515
 20
31.17703609062799
 30
0.0
 11
-203.0585795329514
 21
30.84093209062798
 31
0.0
  0
LINE
  5
5CCA
  8
0
 10
-202.93257853295151
 20
31.526572090628001
 30
0.0
 11
-202.9643845329515
 21
31.17703609062799
 31
0.0
  0
POINT
  5
5CCB
  8
0
 10
-206.4053665329514
 20
31.526572090628001
 30
0.0
1001
PNTFLAG
1000
endpoint
  0
LINE
  5
5CCC
  8
0
 10
-129.7896943923098
 20
36.526552759527867
 30
0.0
 11
-117.17402225166821
 21
36.526552759527867
 31
0.0
  0
LINE
  5
5CCD
  8
0
 10
-129.7896943923098
 20
35.026556702827918
 30
0.0
 11
-118.6740222516683
 21
35.026556702827918
 31
0.0
  0
CIRCLE
  5
5CCE
  8
0
 10
-123.37402225166829
 20
30.526552759527799
 30
0.0
 40
1.0
  0
LINE
  5
5CCF
  8
¤¤¤ß˝u
 10
-119.62402225166829
 20
30.526552759527799
 30
0.0
 11
-127.12402225166841
 21
30.526552759527799
 31
0.0
  0
LINE
  5
5CD0
  8
¤¤¤ß˝u
 10
-123.37402225166829
 20
26.776552759527799
 30
0.0
 11
-123.37402225166829
 21
34.276552759527803
 31
0.0
  0
CIRCLE
  5
5CD1
  8
0
 10
-123.37402225166829
 20
30.526552759527799
 30
0.0
 40
3.1447818619999981
  0
CIRCLE
  5
5CD2
  8
0
 10
-123.37402225166829
 20
30.526552759527799
 30
0.0
 40
2.4999999728999991
  0
CIRCLE
  5
5CD3
  8
0
 10
-123.37402225166829
 20
30.526552759527799
 30
0.0
 40
2.8277919627000001
  0
LINE
  5
5CD4
  8
0
 10
-118.6740222516683
 20
12.126552759527909
 30
0.0
 11
-118.6740222516683
 21
36.526556702827932
 31
0.0
  0
LINE
  5
5CD5
  8
0
 10
-117.17402225166821
 20
12.12655275952778
 30
0.0
 11
-117.17402225166821
 21
36.526552759527867
 31
0.0
  0
LINE
  5
5CD6
  8
0
 10
-118.6740222516683
 20
35.026552759527881
 30
0.0
 11
-117.17402225166821
 21
35.026552759527881
 31
0.0
  0
LINE
  5
5CD7
  8
0
 10
-129.7896943923098
 20
13.626548816127871
 30
0.0
 11
-117.17402225166821
 21
13.626548816127871
 31
0.0
  0
LINE
  5
5CD8
  8
¤¤¤ß˝u
 10
-114.106047213764
 20
113.9936863942751
 30
0.0
 11
-195.9733415708555
 21
113.9936863942751
 31
0.0
  0
LINE
  5
5CD9
  8
0
 10
-180.17933465831129
 20
145.49368639427499
 30
0.0
 11
-180.17933465831129
 21
82.493686394275102
 31
0.0
  0
LINE
  5
5CDA
  8
¤¤¤ß˝u
 10
-154.92933465831121
 20
147.06868639427501
 30
0.0
 11
-154.9293346583114
 21
80.918686394275056
 31
0.0
  0
LINE
  5
5CDB
  8
0
 10
-129.67933465831109
 20
145.49368639427499
 30
0.0
 11
-129.67933465831109
 21
82.493686394275102
 31
0.0
  0
LINE
  5
5CDC
  8
0
 10
-180.17933465831129
 20
82.493686394275102
 30
0.0
 11
-129.67933465831109
 21
82.493686394275102
 31
0.0
  0
LINE
  5
5CDD
  8
0
 10
-180.17933465831129
 20
83.493686394275102
 30
0.0
 11
-129.67933465831109
 21
83.493686394275102
 31
0.0
  0
LINE
  5
5CDE
  8
0
 10
-180.17933465831129
 20
92.493686394275102
 30
0.0
 11
-129.67933465831109
 21
92.493686394275102
 31
0.0
  0
LINE
  5
5CDF
  8
0
 10
-180.17933465831129
 20
93.407899956675038
 30
0.0
 11
-129.67933465831109
 21
93.407899956675038
 31
0.0
  0
LINE
  5
5CE0
  8
0
 10
-180.17933465831129
 20
108.07947283187519
 30
0.0
 11
-129.67933465831109
 21
108.07947283187519
 31
0.0
  0
LINE
  5
5CE1
  8
0
 10
-180.17933465831129
 20
108.9936863942751
 30
0.0
 11
-129.67933465831109
 21
108.993686394275
 31
0.0
  0
LINE
  5
5CE2
  8
0
 10
-180.17933465831129
 20
118.9936863942751
 30
0.0
 11
-129.67933465831109
 21
118.9936863942751
 31
0.0
  0
LINE
  5
5CE3
  8
0
 10
-180.17933465831129
 20
119.9078999566751
 30
0.0
 11
-129.67933465831109
 21
119.9078999566751
 31
0.0
  0
INSERT
  5
5CE4
  8
0
  2
A$C02B53278
 10
-174.92933465831121
 20
87.493686394275102
 30
0.0
 50
270.0
  0
INSERT
  5
5CE5
  8
0
  2
A$C02B53278
 10
-134.92933465831129
 20
87.493686394275102
 30
0.0
 50
270.0
  0
LINE
  5
5CE6
  8
0
 10
-180.17933465831129
 20
134.57947283187519
 30
0.0
 11
-129.67933465831109
 21
134.57947283187519
 31
0.0
  0
LINE
  5
5CE7
  8
0
 10
-180.17933465831129
 20
135.4936863942751
 30
0.0
 11
-129.67933465831109
 21
135.4936863942751
 31
0.0
  0
LINE
  5
5CE8
  8
0
 10
-180.17933465831129
 20
144.49368639427499
 30
0.0
 11
-129.67933465831109
 21
144.49368639427499
 31
0.0
  0
LINE
  5
5CE9
  8
0
 10
-180.17933465831129
 20
145.49368639427499
 30
0.0
 11
-129.67933465831109
 21
145.49368639427499
 31
0.0
  0
INSERT
  5
5CEA
  8
0
  2
A$C02B53278
 10
-174.92933465831121
 20
140.4936863942751
 30
0.0
 50
270.0
  0
INSERT
  5
5CEB
  8
0
  2
A$C02B53278
 10
-134.92933465831129
 20
140.4936863942751
 30
0.0
 50
270.0
  0
LINE
  5
5CEC
  8
0
 10
-137.27103769561651
 20
14.07559086520474
 30
0.0
 11
-172.8083510890028
 21
14.07559086520474
 31
0.0
  0
LINE
  5
5CED
  8
0
 10
-180.2896943923098
 20
36.526552759527867
 30
0.0
 11
-129.7896943923098
 21
36.526552759527867
 31
0.0
  0
LINE
  5
5CEE
  8
0
 10
-139.2907671373155
 20
27.526552759527881
 30
0.0
 11
-170.7886216473041
 21
27.526552759527881
 31
0.0
  0
LINE
  5
5CEF
  8
0
 10
-180.2896943923098
 20
37.526552759527881
 30
0.0
 11
-129.7896943923098
 21
37.526552759527881
 31
0.0
  0
LINE
  5
5CF0
  8
¤¤¤ß˝u
 10
-175.0396943923098
 20
26.526552759527881
 30
0.0
 11
-175.0396943923098
 21
38.526552759527881
 31
0.0
  0
LINE
  5
5CF1
  8
µę˝u
 10
-172.0396943923094
 20
37.02655275952776
 30
0.0
 11
-172.0396943923094
 21
28.72655275952804
 31
0.0
  0
LINE
  5
5CF2
  8
µę˝u
 10
-172.5396943923094
 20
37.02655275952776
 30
0.0
 11
-172.5396943923098
 21
28.72655275952804
 31
0.0
  0
LINE
  5
5CF3
  8
µę˝u
 10
-178.0396943923096
 20
37.026552759527881
 30
0.0
 11
-178.0396943923096
 21
28.72655275952792
 31
0.0
  0
LINE
  5
5CF4
  8
µę˝u
 10
-177.5396943923096
 20
37.026552759527881
 30
0.0
 11
-177.5396943923098
 21
28.72655275952792
 31
0.0
  0
LINE
  5
5CF5
  8
0
 10
-180.2896943923098
 20
37.526552759527881
 30
0.0
 11
-180.2896943923098
 21
12.126552759527851
 31
0.0
  0
LINE
  5
5CF6
  8
0
 10
-177.2722488465923
 20
14.07559086520474
 30
0.0
 11
-180.2896943923098
 21
14.07559086520474
 31
0.0
  0
LINE
  5
5CF7
  8
0
 10
-179.2907671373155
 20
28.026552759527881
 30
0.0
 11
-170.78862164730401
 21
28.026552759527881
 31
0.0
  0
LINE
  5
5CF8
  8
µę˝u
 10
-178.0396943923096
 20
28.72655275952792
 30
0.0
 11
-178.7396943923095
 21
28.026552759527881
 31
0.0
  0
LINE
  5
5CF9
  8
0
 10
-179.2907671373155
 20
27.526552759527881
 30
0.0
 11
-180.2896943923098
 21
27.526552759527881
 31
0.0
  0
LINE
  5
5CFA
  8
0
 10
-179.2907671373155
 20
28.026552759527881
 30
0.0
 11
-179.2907671373155
 21
24.38277612095164
 31
0.0
  0
LINE
  5
5CFB
  8
0
 10
-170.78862164730401
 20
28.026552759527881
 30
0.0
 11
-170.78862164730401
 21
24.38277612095164
 31
0.0
  0
LINE
  5
5CFC
  8
µę˝u
 10
-172.0396943923094
 20
28.72655275952804
 30
0.0
 11
-171.33969439230961
 21
28.026552759527881
 31
0.0
  0
LINE
  5
5CFD
  8
µę˝u
 10
-178.0396943923096
 20
28.72655275952792
 30
0.0
 11
-172.0396943923094
 21
28.72655275952804
 31
0.0
  0
LINE
  5
5CFE
  8
µę˝u
 10
-172.0396943923094
 20
37.02655275952776
 30
0.0
 11
-171.5396943923098
 21
37.526552759527881
 31
0.0
  0
LINE
  5
5CFF
  8
µę˝u
 10
-178.0396943923096
 20
37.026552759527881
 30
0.0
 11
-178.53969439230951
 21
37.526552759527881
 31
0.0
  0
LINE
  5
5D00
  8
µę˝u
 10
-178.0396943923096
 20
37.026552759527881
 30
0.0
 11
-172.0396943923094
 21
37.02655275952776
 31
0.0
  0
LINE
  5
5D01
  8
¤¤¤ß˝u
 10
-135.0396943923098
 20
26.526552759527881
 30
0.0
 11
-135.0396943923098
 21
38.526552759527881
 31
0.0
  0
LINE
  5
5D02
  8
µę˝u
 10
-132.0396943923098
 20
37.02655275952776
 30
0.0
 11
-132.0396943923098
 21
28.72655275952804
 31
0.0
  0
LINE
  5
5D03
  8
µę˝u
 10
-132.5396943923096
 20
37.02655275952776
 30
0.0
 11
-132.5396943923098
 21
28.72655275952804
 31
0.0
  0
LINE
  5
5D04
  8
µę˝u
 10
-138.03969439230951
 20
37.026552759527881
 30
0.0
 11
-138.03969439230951
 21
28.72655275952792
 31
0.0
  0
LINE
  5
5D05
  8
µę˝u
 10
-137.53969439230951
 20
37.026552759527881
 30
0.0
 11
-137.5396943923098
 21
28.72655275952792
 31
0.0
  0
LINE
  5
5D06
  8
0
 10
-129.7896943923098
 20
12.126552759527851
 30
0.0
 11
-129.7896943923098
 21
37.526552759527881
 31
0.0
  0
LINE
  5
5D07
  8
0
 10
-130.7886216473041
 20
28.026552759527881
 30
0.0
 11
-139.2907671373155
 21
28.026552759527881
 31
0.0
  0
LINE
  5
5D08
  8
0
 10
-139.2907671373155
 20
28.026552759527881
 30
0.0
 11
-139.2907671373155
 21
24.38277612095164
 31
0.0
  0
LINE
  5
5D09
  8
0
 10
-129.7896943923098
 20
14.07559086520474
 30
0.0
 11
-132.80713993802709
 21
14.07559086520474
 31
0.0
  0
LINE
  5
5D0A
  8
µę˝u
 10
-132.0396943923098
 20
28.72655275952804
 30
0.0
 11
-131.33969439230989
 21
28.026552759527881
 31
0.0
  0
LINE
  5
5D0B
  8
µę˝u
 10
-138.03969439230991
 20
28.72655275952792
 30
0.0
 11
-138.73969439230979
 21
28.026552759527881
 31
0.0
  0
LINE
  5
5D0C
  8
µę˝u
 10
-138.03969439230951
 20
28.72655275952792
 30
0.0
 11
-132.0396943923098
 21
28.72655275952804
 31
0.0
  0
LINE
  5
5D0D
  8
0
 10
-129.7896943923098
 20
27.526552759527881
 30
0.0
 11
-130.7886216473041
 21
27.526552759527881
 31
0.0
  0
LINE
  5
5D0E
  8
0
 10
-130.7886216473041
 20
28.026552759527881
 30
0.0
 11
-130.7886216473041
 21
24.38277612095164
 31
0.0
  0
LINE
  5
5D0F
  8
µę˝u
 10
-132.0396943923098
 20
37.02655275952776
 30
0.0
 11
-131.5396943923098
 21
37.526552759527881
 31
0.0
  0
LINE
  5
5D10
  8
µę˝u
 10
-138.03969439230991
 20
37.026552759527881
 30
0.0
 11
-138.5396943923096
 21
37.526552759527881
 31
0.0
  0
LINE
  5
5D11
  8
µę˝u
 10
-138.03969439230951
 20
37.026552759527881
 30
0.0
 11
-132.0396943923098
 21
37.02655275952776
 31
0.0
  0
LINE
  5
5D12
  8
0
 10
-130.7886216473041
 20
24.351054603476381
 30
0.0
 11
-130.79305015820589
 21
24.29731069362948
 31
0.0
  0
LINE
  5
5D13
  8
0
 10
-130.79305015820589
 20
24.29731069362948
 30
0.0
 11
-130.8058449289567
 21
24.216215717677191
 31
0.0
  0
LINE
  5
5D14
  8
0
 10
-130.8058449289567
 20
24.216215717677191
 30
0.0
 11
-130.8117070780076
 21
24.18363889802988
 31
0.0
  0
LINE
  5
5D15
  8
0
 10
-130.8117070780076
 20
24.18363889802988
 30
0.0
 11
-130.83556167797499
 21
24.057354832257101
 31
0.0
  0
LINE
  5
5D16
  8
0
 10
-130.83556167797499
 20
24.057354832257101
 30
0.0
 11
-130.85735664736779
 21
23.94100380281709
 31
0.0
  0
LINE
  5
5D17
  8
0
 10
-130.85735664736779
 20
23.94100380281709
 30
0.0
 11
-130.89497118316029
 21
23.719768501323419
 31
0.0
  0
LINE
  5
5D18
  8
0
 10
-130.89497118316029
 20
23.719768501323419
 30
0.0
 11
-130.92999197509579
 21
23.460192900655279
 31
0.0
  0
LINE
  5
5D19
  8
0
 10
-130.92999197509579
 20
23.460192900655279
 30
0.0
 11
-130.93965415665659
 21
23.367912232153301
 31
0.0
  0
LINE
  5
5D1A
  8
0
 10
-130.93965415665659
 20
23.367912232153301
 30
0.0
 11
-130.9529340120547
 21
23.207871660483431
 31
0.0
  0
LINE
  5
5D1B
  8
0
 10
-130.9529340120547
 20
23.207871660483431
 30
0.0
 11
-130.9650816009075
 21
23.052576749378211
 31
0.0
  0
LINE
  5
5D1C
  8
0
 10
-130.9650816009075
 20
23.052576749378211
 30
0.0
 11
-130.99168935287449
 21
22.731261044107789
 31
0.0
  0
LINE
  5
5D1D
  8
0
 10
-130.99168935287449
 20
22.731261044107789
 30
0.0
 11
-131.04961774473949
 21
22.10272372881105
 31
0.0
  0
LINE
  5
5D1E
  8
0
 10
-131.04961774473949
 20
22.10272372881105
 30
0.0
 11
-131.16383658143701
 21
21.058639769025671
 31
0.0
  0
LINE
  5
5D1F
  8
0
 10
-131.16383658143701
 20
21.058639769025671
 30
0.0
 11
-131.30631252387599
 21
19.98841800051088
 31
0.0
  0
LINE
  5
5D20
  8
0
 10
-131.30631252387599
 20
19.98841800051088
 30
0.0
 11
-131.3598696030231
 21
19.63247230978676
 31
0.0
  0
LINE
  5
5D21
  8
0
 10
-131.3598696030231
 20
19.63247230978676
 30
0.0
 11
-131.53525839034501
 21
18.594718321510701
 31
0.0
  0
LINE
  5
5D22
  8
0
 10
-131.53525839034501
 20
18.594718321510701
 30
0.0
 11
-131.69182011667459
 21
17.798462770341541
 31
0.0
  0
LINE
  5
5D23
  8
0
 10
-131.69182011667459
 20
17.798462770341541
 30
0.0
 11
-131.82802984802751
 21
17.181972523638709
 31
0.0
  0
LINE
  5
5D24
  8
0
 10
-131.82802984802751
 20
17.181972523638709
 30
0.0
 11
-132.0019551498111
 21
16.477487689471399
 31
0.0
  0
LINE
  5
5D25
  8
0
 10
-132.0019551498111
 20
16.477487689471399
 30
0.0
 11
-132.15197554655771
 21
15.933158265453081
 31
0.0
  0
LINE
  5
5D26
  8
0
 10
-132.15197554655771
 20
15.933158265453081
 30
0.0
 11
-132.3566896452331
 21
15.26976029279076
 31
0.0
  0
LINE
  5
5D27
  8
0
 10
-132.3566896452331
 20
15.26976029279076
 30
0.0
 11
-132.5341712199787
 21
14.759398428690259
 31
0.0
  0
LINE
  5
5D28
  8
0
 10
-132.5341712199787
 20
14.759398428690259
 30
0.0
 11
-132.77185242726591
 21
14.15708797065947
 31
0.0
  0
LINE
  5
5D29
  8
0
 10
-132.77185242726591
 20
14.15708797065947
 30
0.0
 11
-132.833677149876
 21
14.01430272371004
 31
0.0
  0
LINE
  5
5D2A
  8
0
 10
-132.833677149876
 20
14.01430272371004
 30
0.0
 11
-132.8655352500675
 21
13.94373091375804
 31
0.0
  0
LINE
  5
5D2B
  8
0
 10
-132.8655352500675
 20
13.94373091375804
 30
0.0
 11
-132.91208778138869
 21
13.85807854227302
 31
0.0
  0
LINE
  5
5D2C
  8
0
 10
-132.91208778138869
 20
13.85807854227302
 30
0.0
 11
-133.02455694324539
 21
13.70638538210609
 31
0.0
  0
LINE
  5
5D2D
  8
0
 10
-133.02455694324539
 20
13.70638538210609
 30
0.0
 11
-133.12787994800269
 21
13.60413798660881
 31
0.0
  0
LINE
  5
5D2E
  8
0
 10
-133.12787994800269
 20
13.60413798660881
 30
0.0
 11
-133.27913272567761
 21
13.490326323934489
 31
0.0
  0
LINE
  5
5D2F
  8
0
 10
-133.27913272567761
 20
13.490326323934489
 30
0.0
 11
-133.48180376395351
 21
13.37921986783914
 31
0.0
  0
LINE
  5
5D30
  8
0
 10
-133.48180376395351
 20
13.37921986783914
 30
0.0
 11
-133.65000977509919
 21
13.31054151746946
 31
0.0
  0
LINE
  5
5D31
  8
0
 10
-133.65000977509919
 20
13.31054151746946
 30
0.0
 11
-133.89500084519199
 21
13.236200481620941
 31
0.0
  0
LINE
  5
5D32
  8
0
 10
-133.89500084519199
 20
13.236200481620941
 30
0.0
 11
-134.24521137916111
 21
13.167187138824159
 31
0.0
  0
LINE
  5
5D33
  8
0
 10
-134.24521137916111
 20
13.167187138824159
 30
0.0
 11
-134.6086427626268
 21
13.127421063758341
 31
0.0
  0
LINE
  5
5D34
  8
0
 10
-134.6086427626268
 20
13.127421063758341
 30
0.0
 11
-134.89508873955211
 21
13.113822607563529
 31
0.0
  0
LINE
  5
5D35
  8
0
 10
-134.89508873955211
 20
13.113822607563529
 30
0.0
 11
-135.28561961691321
 21
13.11695764263818
 31
0.0
  0
LINE
  5
5D36
  8
0
 10
-135.28561961691321
 20
13.11695764263818
 30
0.0
 11
-135.5874337931763
 21
13.137296961523599
 31
0.0
  0
LINE
  5
5D37
  8
0
 10
-135.5874337931763
 20
13.137296961523599
 30
0.0
 11
-135.9619658711176
 21
13.18817065090065
 31
0.0
  0
LINE
  5
5D38
  8
0
 10
-135.9619658711176
 20
13.18817065090065
 30
0.0
 11
-136.24411533507549
 21
13.25207580175028
 31
0.0
  0
LINE
  5
5D39
  8
0
 10
-136.24411533507549
 20
13.25207580175028
 30
0.0
 11
-136.49662514038471
 21
13.33581356982917
 31
0.0
  0
LINE
  5
5D3A
  8
0
 10
-136.49662514038471
 20
13.33581356982917
 30
0.0
 11
-136.6804544959017
 21
13.42020663054876
 31
0.0
  0
LINE
  5
5D3B
  8
0
 10
-136.6804544959017
 20
13.42020663054876
 30
0.0
 11
-136.81474034729891
 21
13.49995957158081
 31
0.0
  0
LINE
  5
5D3C
  8
0
 10
-136.81474034729891
 20
13.49995957158081
 30
0.0
 11
-136.9708943150832
 21
13.62145120233675
 31
0.0
  0
LINE
  5
5D3D
  8
0
 10
-136.9708943150832
 20
13.62145120233675
 30
0.0
 11
-137.07788747033669
 21
13.733139392534451
 31
0.0
  0
LINE
  5
5D3E
  8
0
 10
-137.07788747033669
 20
13.733139392534451
 30
0.0
 11
-137.18015887103459
 21
13.879826845717281
 31
0.0
  0
LINE
  5
5D3F
  8
0
 10
-137.18015887103459
 20
13.879826845717281
 30
0.0
 11
-137.21746439645011
 21
13.951308866721391
 31
0.0
  0
LINE
  5
5D40
  8
0
 10
-137.21746439645011
 20
13.951308866721391
 30
0.0
 11
-137.2491208851643
 21
14.02203493403437
 31
0.0
  0
LINE
  5
5D41
  8
0
 10
-137.2491208851643
 20
14.02203493403437
 30
0.0
 11
-137.4850554979181
 21
14.59856489531183
 31
0.0
  0
LINE
  5
5D42
  8
0
 10
-137.4850554979181
 20
14.59856489531183
 30
0.0
 11
-137.7203689768175
 21
15.26266163947362
 31
0.0
  0
LINE
  5
5D43
  8
0
 10
-137.7203689768175
 20
15.26266163947362
 30
0.0
 11
-137.8840071110059
 21
15.785277672083859
 31
0.0
  0
LINE
  5
5D44
  8
0
 10
-137.8840071110059
 20
15.785277672083859
 30
0.0
 11
-138.08995448586481
 21
16.5246430029683
 31
0.0
  0
LINE
  5
5D45
  8
0
 10
-138.08995448586481
 20
16.5246430029683
 30
0.0
 11
-138.30822384932981
 21
17.431005708335931
 31
0.0
  0
LINE
  5
5D46
  8
0
 10
-138.30822384932981
 20
17.431005708335931
 30
0.0
 11
-138.45719644429801
 21
18.14039679250283
 31
0.0
  0
LINE
  5
5D47
  8
0
 10
-138.45719644429801
 20
18.14039679250283
 30
0.0
 11
-138.64167284739889
 21
19.149623285757571
 31
0.0
  0
LINE
  5
5D48
  8
0
 10
-138.64167284739889
 20
19.149623285757571
 30
0.0
 11
-138.80220490957689
 21
20.191494481510009
 31
0.0
  0
LINE
  5
5D49
  8
0
 10
-138.80220490957689
 20
20.191494481510009
 30
0.0
 11
-138.84978004687241
 21
20.539598761365379
 31
0.0
  0
LINE
  5
5D4A
  8
0
 10
-138.84978004687241
 20
20.539598761365379
 30
0.0
 11
-138.96871926087911
 21
21.51842576935093
 31
0.0
  0
LINE
  5
5D4B
  8
0
 10
-138.96871926087911
 20
21.51842576935093
 30
0.0
 11
-139.06971427243059
 21
22.526653285510982
 31
0.0
  0
LINE
  5
5D4C
  8
0
 10
-139.06971427243059
 20
22.526653285510982
 30
0.0
 11
-139.09886120371081
 21
22.863127877621089
 31
0.0
  0
LINE
  5
5D4D
  8
0
 10
-139.09886120371081
 20
22.863127877621089
 30
0.0
 11
-139.12278892668459
 21
23.16038297927884
 31
0.0
  0
LINE
  5
5D4E
  8
0
 10
-139.12278892668459
 20
23.16038297927884
 30
0.0
 11
-139.1339645895367
 21
23.30399440339006
 31
0.0
  0
LINE
  5
5D4F
  8
0
 10
-139.1339645895367
 20
23.30399440339006
 30
0.0
 11
-139.1473658833055
 21
23.442129862902618
 31
0.0
  0
LINE
  5
5D50
  8
0
 10
-139.1473658833055
 20
23.442129862902618
 30
0.0
 11
-139.17668728104061
 21
23.669040024441479
 31
0.0
  0
LINE
  5
5D51
  8
0
 10
-139.17668728104061
 20
23.669040024441479
 30
0.0
 11
-139.21073913446779
 21
23.878220525145998
 31
0.0
  0
LINE
  5
5D52
  8
0
 10
-139.21073913446779
 20
23.878220525145998
 30
0.0
 11
-139.22212743000691
 21
23.94152405598232
 31
0.0
  0
LINE
  5
5D53
  8
0
 10
-139.22212743000691
 20
23.94152405598232
 30
0.0
 11
-139.24985039706141
 21
24.089333545706332
 31
0.0
  0
LINE
  5
5D54
  8
0
 10
-139.24985039706141
 20
24.089333545706332
 30
0.0
 11
-139.27064304953461
 21
24.200481609884729
 31
0.0
  0
LINE
  5
5D55
  8
0
 10
-139.27064304953461
 20
24.200481609884729
 30
0.0
 11
-139.28522684011961
 21
24.288888386119719
 31
0.0
  0
LINE
  5
5D56
  8
0
 10
-139.28522684011961
 20
24.288888386119719
 30
0.0
 11
-139.28815974700919
 21
24.312128671662101
 31
0.0
  0
LINE
  5
5D57
  8
0
 10
-139.28815974700919
 20
24.312128671662101
 30
0.0
 11
-139.29045698248919
 21
24.360522705448609
 31
0.0
  0
LINE
  5
5D58
  8
0
 10
-139.29045698248919
 20
24.360522705448609
 30
0.0
 11
-139.2856837886375
 21
24.379406660369071
 31
0.0
  0
LINE
  5
5D59
  8
0
 10
-139.2856837886375
 20
24.379406660369071
 30
0.0
 11
-139.2807217023155
 21
24.382502432333531
 31
0.0
  0
LINE
  5
5D5A
  8
0
 10
-179.2907671373155
 20
24.351054603476381
 30
0.0
 11
-179.28633862641351
 21
24.29731069362948
 31
0.0
  0
LINE
  5
5D5B
  8
0
 10
-179.28633862641351
 20
24.29731069362948
 30
0.0
 11
-179.27354385566289
 21
24.216215717677191
 31
0.0
  0
LINE
  5
5D5C
  8
0
 10
-179.27354385566289
 20
24.216215717677191
 30
0.0
 11
-179.267681706612
 21
24.18363889802988
 31
0.0
  0
LINE
  5
5D5D
  8
0
 10
-179.267681706612
 20
24.18363889802988
 30
0.0
 11
-179.2438271066444
 21
24.057354832257101
 31
0.0
  0
LINE
  5
5D5E
  8
0
 10
-179.2438271066444
 20
24.057354832257101
 30
0.0
 11
-179.22203213725149
 21
23.94100380281709
 31
0.0
  0
LINE
  5
5D5F
  8
0
 10
-179.22203213725149
 20
23.94100380281709
 30
0.0
 11
-179.18441760145919
 21
23.719768501323419
 31
0.0
  0
LINE
  5
5D60
  8
0
 10
-179.18441760145919
 20
23.719768501323419
 30
0.0
 11
-179.14939680952349
 21
23.460192900655279
 31
0.0
  0
LINE
  5
5D61
  8
0
 10
-179.14939680952349
 20
23.460192900655279
 30
0.0
 11
-179.13973462796289
 21
23.367912232153301
 31
0.0
  0
LINE
  5
5D62
  8
0
 10
-179.13973462796289
 20
23.367912232153301
 30
0.0
 11
-179.1264547725647
 21
23.207871660483431
 31
0.0
  0
LINE
  5
5D63
  8
0
 10
-179.1264547725647
 20
23.207871660483431
 30
0.0
 11
-179.1143071837121
 21
23.052576749378211
 31
0.0
  0
LINE
  5
5D64
  8
0
 10
-179.1143071837121
 20
23.052576749378211
 30
0.0
 11
-179.08769943174491
 21
22.731261044107789
 31
0.0
  0
LINE
  5
5D65
  8
0
 10
-179.08769943174491
 20
22.731261044107789
 30
0.0
 11
-179.02977103987971
 21
22.10272372881105
 31
0.0
  0
LINE
  5
5D66
  8
0
 10
-179.02977103987971
 20
22.10272372881105
 30
0.0
 11
-178.9155522031825
 21
21.058639769025671
 31
0.0
  0
LINE
  5
5D67
  8
0
 10
-178.9155522031825
 20
21.058639769025671
 30
0.0
 11
-178.77307626074349
 21
19.98841800051088
 31
0.0
  0
LINE
  5
5D68
  8
0
 10
-178.77307626074349
 20
19.98841800051088
 30
0.0
 11
-178.7195191815963
 21
19.63247230978676
 31
0.0
  0
LINE
  5
5D69
  8
0
 10
-178.7195191815963
 20
19.63247230978676
 30
0.0
 11
-178.54413039427459
 21
18.594718321510701
 31
0.0
  0
LINE
  5
5D6A
  8
0
 10
-178.54413039427459
 20
18.594718321510701
 30
0.0
 11
-178.38756866794481
 21
17.798462770341541
 31
0.0
  0
LINE
  5
5D6B
  8
0
 10
-178.38756866794481
 20
17.798462770341541
 30
0.0
 11
-178.25135893659211
 21
17.181972523638709
 31
0.0
  0
LINE
  5
5D6C
  8
0
 10
-178.25135893659211
 20
17.181972523638709
 30
0.0
 11
-178.07743363480839
 21
16.477487689471399
 31
0.0
  0
LINE
  5
5D6D
  8
0
 10
-178.07743363480839
 20
16.477487689471399
 30
0.0
 11
-177.9274132380618
 21
15.933158265453081
 31
0.0
  0
LINE
  5
5D6E
  8
0
 10
-177.9274132380618
 20
15.933158265453081
 30
0.0
 11
-177.72269913938629
 21
15.26976029279076
 31
0.0
  0
LINE
  5
5D6F
  8
0
 10
-177.72269913938629
 20
15.26976029279076
 30
0.0
 11
-177.54521756464069
 21
14.759398428690259
 31
0.0
  0
LINE
  5
5D70
  8
0
 10
-177.54521756464069
 20
14.759398428690259
 30
0.0
 11
-177.30753635735351
 21
14.15708797065947
 31
0.0
  0
LINE
  5
5D71
  8
0
 10
-177.30753635735351
 20
14.15708797065947
 30
0.0
 11
-177.24571163474349
 21
14.01430272371004
 31
0.0
  0
LINE
  5
5D72
  8
0
 10
-177.24571163474349
 20
14.01430272371004
 30
0.0
 11
-177.2138535345521
 21
13.94373091375804
 31
0.0
  0
LINE
  5
5D73
  8
0
 10
-177.2138535345521
 20
13.94373091375804
 30
0.0
 11
-177.1673010032307
 21
13.85807854227302
 31
0.0
  0
LINE
  5
5D74
  8
0
 10
-177.1673010032307
 20
13.85807854227302
 30
0.0
 11
-177.05483184137401
 21
13.70638538210609
 31
0.0
  0
LINE
  5
5D75
  8
0
 10
-177.05483184137401
 20
13.70638538210609
 30
0.0
 11
-176.95150883661671
 21
13.60413798660881
 31
0.0
  0
LINE
  5
5D76
  8
0
 10
-176.95150883661671
 20
13.60413798660881
 30
0.0
 11
-176.8002560589419
 21
13.490326323934489
 31
0.0
  0
LINE
  5
5D77
  8
0
 10
-176.8002560589419
 20
13.490326323934489
 30
0.0
 11
-176.597585020666
 21
13.37921986783914
 31
0.0
  0
LINE
  5
5D78
  8
0
 10
-176.597585020666
 20
13.37921986783914
 30
0.0
 11
-176.4293790095202
 21
13.31054151746946
 31
0.0
  0
LINE
  5
5D79
  8
0
 10
-176.4293790095202
 20
13.31054151746946
 30
0.0
 11
-176.18438793942749
 21
13.236200481620941
 31
0.0
  0
LINE
  5
5D7A
  8
0
 10
-176.18438793942749
 20
13.236200481620941
 30
0.0
 11
-175.83417740545841
 21
13.167187138824159
 31
0.0
  0
LINE
  5
5D7B
  8
0
 10
-175.83417740545841
 20
13.167187138824159
 30
0.0
 11
-175.4707460219926
 21
13.127421063758341
 31
0.0
  0
LINE
  5
5D7C
  8
0
 10
-175.4707460219926
 20
13.127421063758341
 30
0.0
 11
-175.18430004506749
 21
13.113822607563529
 31
0.0
  0
LINE
  5
5D7D
  8
0
 10
-175.18430004506749
 20
13.113822607563529
 30
0.0
 11
-174.7937691677063
 21
13.11695764263818
 31
0.0
  0
LINE
  5
5D7E
  8
0
 10
-174.7937691677063
 20
13.11695764263818
 30
0.0
 11
-174.49195499144309
 21
13.137296961523599
 31
0.0
  0
LINE
  5
5D7F
  8
0
 10
-174.49195499144309
 20
13.137296961523599
 30
0.0
 11
-174.1174229135018
 21
13.18817065090065
 31
0.0
  0
LINE
  5
5D80
  8
0
 10
-174.1174229135018
 20
13.18817065090065
 30
0.0
 11
-173.83527344954399
 21
13.25207580175028
 31
0.0
  0
LINE
  5
5D81
  8
0
 10
-173.83527344954399
 20
13.25207580175028
 30
0.0
 11
-173.5827636442348
 21
13.33581356982917
 31
0.0
  0
LINE
  5
5D82
  8
0
 10
-173.5827636442348
 20
13.33581356982917
 30
0.0
 11
-173.3989342887177
 21
13.42020663054876
 31
0.0
  0
LINE
  5
5D83
  8
0
 10
-173.3989342887177
 20
13.42020663054876
 30
0.0
 11
-173.26464843732029
 21
13.49995957158081
 31
0.0
  0
LINE
  5
5D84
  8
0
 10
-173.26464843732029
 20
13.49995957158081
 30
0.0
 11
-173.1084944695362
 21
13.62145120233675
 31
0.0
  0
LINE
  5
5D85
  8
0
 10
-173.1084944695362
 20
13.62145120233675
 30
0.0
 11
-173.00150131428271
 21
13.733139392534451
 31
0.0
  0
LINE
  5
5D86
  8
0
 10
-173.00150131428271
 20
13.733139392534451
 30
0.0
 11
-172.89922991358489
 21
13.879826845717281
 31
0.0
  0
LINE
  5
5D87
  8
0
 10
-172.89922991358489
 20
13.879826845717281
 30
0.0
 11
-172.86192438816931
 21
13.951308866721391
 31
0.0
  0
LINE
  5
5D88
  8
0
 10
-172.86192438816931
 20
13.951308866721391
 30
0.0
 11
-172.83026789945521
 21
14.02203493403437
 31
0.0
  0
LINE
  5
5D89
  8
0
 10
-172.83026789945521
 20
14.02203493403437
 30
0.0
 11
-172.5943332867013
 21
14.59856489531183
 31
0.0
  0
LINE
  5
5D8A
  8
0
 10
-172.5943332867013
 20
14.59856489531183
 30
0.0
 11
-172.3590198078019
 21
15.26266163947362
 31
0.0
  0
LINE
  5
5D8B
  8
0
 10
-172.3590198078019
 20
15.26266163947362
 30
0.0
 11
-172.19538167361381
 21
15.785277672083859
 31
0.0
  0
LINE
  5
5D8C
  8
0
 10
-172.19538167361381
 20
15.785277672083859
 30
0.0
 11
-171.98943429875459
 21
16.5246430029683
 31
0.0
  0
LINE
  5
5D8D
  8
0
 10
-171.98943429875459
 20
16.5246430029683
 30
0.0
 11
-171.7711649352897
 21
17.431005708335931
 31
0.0
  0
LINE
  5
5D8E
  8
0
 10
-171.7711649352897
 20
17.431005708335931
 30
0.0
 11
-171.62219234032159
 21
18.14039679250283
 31
0.0
  0
LINE
  5
5D8F
  8
0
 10
-171.62219234032159
 20
18.14039679250283
 30
0.0
 11
-171.43771593722039
 21
19.149623285757571
 31
0.0
  0
LINE
  5
5D90
  8
0
 10
-171.43771593722039
 20
19.149623285757571
 30
0.0
 11
-171.27718387504251
 21
20.191494481510009
 31
0.0
  0
LINE
  5
5D91
  8
0
 10
-171.27718387504251
 20
20.191494481510009
 30
0.0
 11
-171.22960873774721
 21
20.539598761365379
 31
0.0
  0
LINE
  5
5D92
  8
0
 10
-171.22960873774721
 20
20.539598761365379
 30
0.0
 11
-171.1106695237404
 21
21.51842576935093
 31
0.0
  0
LINE
  5
5D93
  8
0
 10
-171.1106695237404
 20
21.51842576935093
 30
0.0
 11
-171.00967451218901
 21
22.526653285510982
 31
0.0
  0
LINE
  5
5D94
  8
0
 10
-171.00967451218901
 20
22.526653285510982
 30
0.0
 11
-170.98052758090861
 21
22.863127877621089
 31
0.0
  0
LINE
  5
5D95
  8
0
 10
-170.98052758090861
 20
22.863127877621089
 30
0.0
 11
-170.95659985793489
 21
23.16038297927884
 31
0.0
  0
LINE
  5
5D96
  8
0
 10
-170.95659985793489
 20
23.16038297927884
 30
0.0
 11
-170.94542419508289
 21
23.30399440339006
 31
0.0
  0
LINE
  5
5D97
  8
0
 10
-170.94542419508289
 20
23.30399440339006
 30
0.0
 11
-170.93202290131401
 21
23.442129862902618
 31
0.0
  0
LINE
  5
5D98
  8
0
 10
-170.93202290131401
 20
23.442129862902618
 30
0.0
 11
-170.9027015035787
 21
23.669040024441479
 31
0.0
  0
LINE
  5
5D99
  8
0
 10
-170.9027015035787
 20
23.669040024441479
 30
0.0
 11
-170.8686496501517
 21
23.878220525145998
 31
0.0
  0
LINE
  5
5D9A
  8
0
 10
-170.8686496501517
 20
23.878220525145998
 30
0.0
 11
-170.85726135461249
 21
23.94152405598232
 31
0.0
  0
LINE
  5
5D9B
  8
0
 10
-170.85726135461249
 20
23.94152405598232
 30
0.0
 11
-170.82953838755799
 21
24.089333545706332
 31
0.0
  0
LINE
  5
5D9C
  8
0
 10
-170.82953838755799
 20
24.089333545706332
 30
0.0
 11
-170.8087457350849
 21
24.200481609884729
 31
0.0
  0
LINE
  5
5D9D
  8
0
 10
-170.8087457350849
 20
24.200481609884729
 30
0.0
 11
-170.7941619444999
 21
24.288888386119719
 31
0.0
  0
LINE
  5
5D9E
  8
0
 10
-170.7941619444999
 20
24.288888386119719
 30
0.0
 11
-170.79122903761009
 21
24.312128671662101
 31
0.0
  0
LINE
  5
5D9F
  8
0
 10
-170.79122903761009
 20
24.312128671662101
 30
0.0
 11
-170.78893180213021
 21
24.360522705448609
 31
0.0
  0
LINE
  5
5DA0
  8
0
 10
-170.78893180213021
 20
24.360522705448609
 30
0.0
 11
-170.79370499598201
 21
24.379406660369071
 31
0.0
  0
LINE
  5
5DA1
  8
0
 10
-170.79370499598201
 20
24.379406660369071
 30
0.0
 11
-170.79866708230381
 21
24.382502432333531
 31
0.0
  0
CIRCLE
  5
5DA2
  8
0
 10
-103.3712370331328
 20
114.0906433881447
 30
0.0
 40
2.999879856162456
  0
CIRCLE
  5
5DA3
  8
0
 10
-103.3712370331328
 20
114.0906433881447
 30
0.0
 40
4.7498798561624724
  0
LINE
  5
5DA4
  8
¤¤¤ß˝u
 10
-109.14424883591499
 20
114.0906433881447
 30
0.0
 11
-97.598225230350295
 21
114.0906433881447
 31
0.0
  0
LINE
  5
5DA5
  8
¤¤¤ß˝u
 10
-103.3712370331328
 20
108.31763158536231
 30
0.0
 11
-103.3712370331328
 21
119.86365519092701
 31
0.0
  0
LINE
  5
5DA6
  8
0
 10
-83.371237033132715
 20
104.0902086689336
 30
0.0
 11
-83.371237033132715
 21
124.0902086783826
 31
0.0
  0
LINE
  5
5DA7
  8
0
 10
-129.7896943923098
 20
92.593686394275096
 30
0.0
 11
-117.17402225166811
 21
92.593686394275096
 31
0.0
  0
LINE
  5
5DA8
  8
0
 10
-118.67402225166811
 20
92.593686394275096
 30
0.0
 11
-118.67402225166801
 21
135.5936863942751
 31
0.0
  0
LINE
  5
5DA9
  8
0
 10
-117.17402225166811
 20
92.593686394275096
 30
0.0
 11
-117.17402225166801
 21
135.5936863942751
 31
0.0
  0
LINE
  5
5DAA
  8
0
 10
-129.7896943923098
 20
135.5936863942751
 30
0.0
 11
-117.17402225166801
 21
135.5936863942751
 31
0.0
  0
LINE
  5
5DAB
  8
0
 10
-117.17402225166811
 20
124.0909434064036
 30
0.0
 11
-83.371237033132715
 21
124.0902086783826
 31
0.0
  0
LINE
  5
5DAC
  8
0
 10
-117.17402225166811
 20
104.0909433969547
 30
0.0
 11
-83.371237033132715
 21
104.0902086689336
 31
0.0
  0
CIRCLE
  5
5DAD
  8
0
 10
-223.3712370331327
 20
114.0906433881448
 30
0.0
 40
2.999879856162456
  0
CIRCLE
  5
5DAE
  8
0
 10
-223.3712370331327
 20
114.0906433881448
 30
0.0
 40
4.7498798561624724
  0
LINE
  5
5DAF
  8
¤¤¤ß˝u
 10
-229.14424883591499
 20
114.0906433881448
 30
0.0
 11
-217.59822523035061
 21
114.0906433881448
 31
0.0
  0
LINE
  5
5DB0
  8
¤¤¤ß˝u
 10
-223.3712370331327
 20
108.31763158536241
 30
0.0
 11
-223.3712370331327
 21
119.8636551909271
 31
0.0
  0
LINE
  5
5DB1
  8
0
 10
-180.2896943923096
 20
135.5936863942751
 30
0.0
 11
-192.90536653295121
 21
135.5936863942751
 31
0.0
  0
LINE
  5
5DB2
  8
0
 10
-180.2896943923096
 20
92.593686394275153
 30
0.0
 11
-192.90536653295121
 21
92.593686394275153
 31
0.0
  0
LINE
  5
5DB3
  8
0
 10
-201.21391284999669
 20
104.09318796773979
 30
0.0
 11
-192.90536653295121
 21
104.09300737546759
 31
0.0
  0
LINE
  5
5DB4
  8
0
 10
-243.3712370331327
 20
124.0936863942752
 30
0.0
 11
-192.90536653295121
 21
124.092589482026
 31
0.0
  0
LINE
  5
5DB5
  8
0
 10
-243.37167174761919
 20
104.0936863942751
 30
0.0
 11
-206.66786053295141
 21
104.0928886103526
 31
0.0
  0
LINE
  5
5DB6
  8
0
  6
CONTINUOUS
 10
-196.32860799084199
 20
118.6936863942751
 30
0.0
 11
-192.90536653295121
 21
118.6936863942751
 31
0.0
  0
LINE
  5
5DB7
  8
0
  6
CONTINUOUS
 10
-196.32860799084199
 20
116.3936861950892
 30
0.0
 11
-192.90536653295121
 21
116.3936861950892
 31
0.0
  0
ARC
  5
5DB8
  8
0
  6
CONTINUOUS
 10
-194.54885055590529
 20
117.54368649386799
 30
0.0
 40
2.119009977045994
 50
147.13277999893791
 51
212.86722000106201
  0
LINE
  5
5DB9
  8
0
  6
CONTINUOUS
 10
-200.2664193554366
 20
118.0936863942751
 30
0.0
 11
-196.59523844493631
 21
118.0936863942751
 31
0.0
  0
LINE
  5
5DBA
  8
0
  6
CONTINUOUS
 10
-196.32860799084199
 20
111.7936865934609
 30
0.0
 11
-192.90536653295121
 21
111.7936865934609
 31
0.0
  0
LINE
  5
5DBB
  8
0
  6
CONTINUOUS
 10
-196.32860799084199
 20
109.4936863942751
 30
0.0
 11
-192.90536653295121
 21
109.4936863942751
 31
0.0
  0
ARC
  5
5DBC
  8
0
  6
CONTINUOUS
 10
-194.54885055590529
 20
110.6436862946821
 30
0.0
 40
2.119009977045994
 50
147.13277999893791
 51
212.86722000106201
  0
LINE
  5
5DBD
  8
0
  6
CONTINUOUS
 10
-204.03926894281619
 20
110.24413722982101
 30
0.0
 11
-203.46719167430081
 21
111.62525393019681
 31
0.0
  0
ARC
  5
5DBE
  8
0
  6
CONTINUOUS
 10
-204.1621655994559
 20
104.6885229763993
 30
0.0
 40
6.9715047321794721
 50
50.721349997912071
 51
84.278650002089492
  0
ARC
  5
5DBF
  8
0
  6
CONTINUOUS
 10
-198.79505190189781
 20
109.7575075276838
 30
0.0
 40
1.8541337299152449
 50
214.6327799989362
 51
280.36722000106028
  0
ARC
  5
5DC0
  8
0
  6
CONTINUOUS
 10
-198.74849042745581
 20
105.8455269641854
 30
0.0
 40
2.0596736098176041
 50
89.152098834939196
 51
159.15209883493981
  0
ARC
  5
5DC1
  8
0
  6
CONTINUOUS
 10
-199.6256802213446
 20
115.64056750174301
 30
0.0
 40
6.9715047321794721
 50
230.721349997912
 51
264.27865000208948
  0
LINE
  5
5DC2
  8
0
  6
CONTINUOUS
 10
-200.32065414649989
 20
108.7038365479455
 30
0.0
 11
-199.74857687798419
 21
110.0849532483213
 31
0.0
  0
LINE
  5
5DC3
  8
0
  6
CONTINUOUS
 10
-205.898576663016
 20
111.01428770415281
 30
0.0
 11
-205.3264993945003
 21
112.39540440452851
 31
0.0
  0
ARC
  5
5DC4
  8
0
  6
CONTINUOUS
 10
-203.92407830671101
 20
105.9802974083898
 30
0.0
 40
2.860349020536761
 50
118.5864858262625
 51
163.5864858262627
  0
ARC
  5
5DC5
  8
0
  6
CONTINUOUS
 10
-207.1720866590951
 20
109.3346947672853
 30
0.0
 40
2.0596736098176041
 50
335.84790116505968
 51
45.847901165062119
  0
ARC
  5
5DC6
  8
0
  6
CONTINUOUS
 10
-204.99279391890261
 20
110.57158295045851
 30
0.0
 40
1.8541337299152449
 50
34.632779998936222
 51
100.3672200010603
  0
ARC
  5
5DC7
  8
0
  6
CONTINUOUS
 10
-204.3729747404555
 20
112.067958817285
 30
0.0
 40
1.8541337299152449
 50
214.6327799989362
 51
280.36722000106028
  0
LINE
  5
5DC8
  8
0
  6
CONTINUOUS
 10
-204.28324765907499
 20
112.28457915406609
 30
0.0
 11
-198.70532482051721
 21
109.9741278644648
 31
0.0
  0
LINE
  5
5DC9
  8
0
  6
CONTINUOUS
 10
-205.1079358078602
 20
108.41542135081269
 30
0.0
 11
-200.85808995830831
 21
106.6550775619333
 31
0.0
  0
LINE
  5
5DCA
  8
0
  6
CONTINUOUS
 10
-205.08252100028321
 20
110.3549626136775
 30
0.0
 11
-199.50459816172551
 21
108.0445113240763
 31
0.0
  0
LINE
  5
5DCB
  8
0
  6
CONTINUOUS
 10
-203.04938055468381
 20
102.2577202630527
 30
0.0
 11
-200.90543564915041
 21
104.40166516858601
 31
0.0
  0
LINE
  5
5DCC
  8
0
  6
CONTINUOUS
 10
-206.66786053295141
 20
103.75654374522659
 30
0.0
 11
-203.04938055468381
 21
102.2577202630527
 31
0.0
  0
LINE
  5
5DCD
  8
0
  6
CONTINUOUS
 10
-206.66786053295141
 20
106.7885397076126
 30
0.0
 11
-200.90543564915041
 21
104.40166516858601
 31
0.0
  0
LINE
  5
5DCE
  8
0
  6
CONTINUOUS
 10
-206.66786053295141
 20
103.75654374522659
 30
0.0
 11
-206.66786053295141
 21
106.7885397076126
 31
0.0
  0
ARC
  5
5DCF
  8
0
  6
CONTINUOUS
 10
-203.41709627804661
 20
105.77029857623749
 30
0.0
 40
2.860349020536761
 50
331.41351417373562
 51
16.413514173737251
  0
LINE
  5
5DD0
  8
0
  6
CONTINUOUS
 10
-199.1328160547956
 20
110.0936863942751
 30
0.0
 11
-196.59523844493631
 21
110.0936863942751
 31
0.0
  0
ARC
  5
5DD1
  8
0
  6
CONTINUOUS
 10
-199.41487108034511
 20
108.2611316608574
 30
0.0
 40
1.8541337299152449
 50
34.632779998936222
 51
100.3672200010603
  0
LINE
  5
5DD2
  8
0
  6
CONTINUOUS
 10
-198.46138867834671
 20
107.9336432943432
 30
0.0
 11
-197.88926878498069
 21
109.3148629002105
 31
0.0
  0
LINE
  5
5DD3
  8
0
  6
CONTINUOUS
 10
-196.6678605329511
 20
110.6436862946821
 30
0.0
 11
-196.6678605329511
 21
117.54368649386799
 31
0.0
  0
ARC
  5
5DD4
  8
0
  6
CONTINUOUS
 10
-200.2664193554366
 20
114.0936863942751
 30
0.0
 40
4.0
 50
90.0
 51
210.83520489408511
  0
ARC
  5
5DD5
  8
0
  6
CONTINUOUS
 10
-188.7004265533177
 20
114.0936863942751
 30
0.0
 40
7.9674339796336779
 50
163.2213499979128
 51
196.7786500020872
  0
LINE
  5
5DD6
  8
0
 10
-243.37167174761919
 20
104.0936863942751
 30
0.0
 11
-243.3712370331327
 21
124.0936863942752
 31
0.0
  0
LINE
  5
5DD7
  8
0
 10
-192.90536653295121
 20
92.593686394275153
 30
0.0
 11
-192.90536653295121
 21
135.5936863942751
 31
0.0
  0
LINE
  5
5DD8
  8
0
 10
-191.40536653295109
 20
92.593686394275153
 30
0.0
 11
-191.40536653295109
 21
135.5936863942751
 31
0.0
  0
LINE
  5
60B2
  8
«ü˝u
 10
-311.57287315613371
 20
25.074848126618239
 30
0.0
 11
-309.43420051477068
 21
25.074569396153279
 31
0.0
  0
LINE
  5
60B3
  8
«ü˝u
 10
-311.5730426754165
 20
23.978930149484381
 30
0.0
 11
-309.43437003405347
 21
23.978651419019169
 31
0.0
  0
LINE
  5
60B4
  8
«ü˝u
 10
-312.66895101053041
 20
23.979099773174369
 30
0.0
 11
-312.6691059875497
 21
22.977196695338311
 31
0.0
  0
LINE
  5
60B5
  8
«ü˝u
 10
-311.5730426754165
 20
23.978930149484381
 30
0.0
 11
-311.57319765221649
 21
22.977027071653058
 31
0.0
  0
LINE
  5
60B6
  8
«ü˝u
 10
-312.66862651444751
 20
26.076920828139539
 30
0.0
 11
-312.66878149124761
 21
25.075017750308479
 31
0.0
  0
LINE
  5
60B7
  8
«ü˝u
 10
-311.57271817911447
 20
26.076751204454538
 30
0.0
 11
-311.57287315613371
 21
25.074848126618239
 31
0.0
  0
ARC
  5
60B8
  8
«ü˝u
 10
-312.11273260267131
 20
24.526750737989431
 30
0.0
 40
1.640957465861105
 50
19.507530631701929
 51
70.786756774813483
  0
ARC
  5
60B9
  8
«ü˝u
 10
-312.11273260267131
 20
24.526750737989431
 30
0.0
 40
1.640957465861105
 50
289.19551791561452
 51
340.49299983582353
  0
LINE
  5
60BA
  8
«ü˝u
 10
-312.66878149124761
 20
25.075017750308479
 30
0.0
 11
-314.80306198632741
 21
25.075400379544881
 31
0.0
  0
LINE
  5
60BB
  8
«ü˝u
 10
-312.66895101053041
 20
23.979099773174369
 30
0.0
 11
-314.80323150561043
 21
23.97948240241076
 31
0.0
  0
ARC
  5
60BC
  8
«ü˝u
 10
-312.1127251598387
 20
24.526750737974069
 30
0.0
 40
1.640957465861105
 50
199.4892768756599
 51
250.18050078877511
  0
ARC
  5
60BD
  8
«ü˝u
 10
-312.1127251598387
 20
24.526750737974069
 30
0.0
 40
1.640957465861105
 50
109.80177390166099
 51
160.47474608153229
  0
CIRCLE
  5
60BE
  8
«ü˝u
 10
-312.11273260267131
 20
24.526750737989431
 30
0.0
 40
2.7389206369020842
  0
ARC
  5
60BF
  8
«ü˝u
 10
-274.61273260267131
 20
24.526750737989431
 30
0.0
 40
1.640957465861105
 50
199.4892768756599
 51
250.18050078877511
  0
ARC
  5
60C0
  8
«ü˝u
 10
-274.61273260267131
 20
24.526750737989431
 30
0.0
 40
1.640957465861105
 50
289.19551791561452
 51
340.49299983582353
  0
ARC
  5
60C1
  8
«ü˝u
 10
-274.61273260267131
 20
24.526750737989431
 30
0.0
 40
1.640957465861105
 50
19.507530631701929
 51
70.786756774813483
  0
ARC
  5
60C2
  8
«ü˝u
 10
-274.61273260267131
 20
24.526750737989431
 30
0.0
 40
1.640957465861105
 50
109.80177390166099
 51
160.47474608153229
  0
CIRCLE
  5
60C3
  8
«ü˝u
 10
-274.61273260267131
 20
24.526750737989431
 30
0.0
 40
2.7389206369020842
  0
LINE
  5
60C4
  8
«ü˝u
 10
-274.07271817911459
 20
26.076751204454538
 30
0.0
 11
-274.07287315613371
 21
25.074848126618239
 31
0.0
  0
LINE
  5
60C5
  8
«ü˝u
 10
-275.16863395728029
 20
26.076920828154911
 30
0.0
 11
-275.1687889340804
 21
25.075017750323841
 31
0.0
  0
LINE
  5
60C6
  8
«ü˝u
 10
-274.0730426754165
 20
23.978930149484381
 30
0.0
 11
-274.07319765221649
 21
22.977027071653058
 31
0.0
  0
LINE
  5
60C7
  8
«ü˝u
 10
-275.16895845336308
 20
23.979099773189741
 30
0.0
 11
-275.16911343038242
 21
22.97719669535368
 31
0.0
  0
LINE
  5
60C8
  8
«ü˝u
 10
-274.0730426754165
 20
23.978930149484381
 30
0.0
 11
-271.93437003405347
 21
23.978651419019169
 31
0.0
  0
LINE
  5
60C9
  8
«ü˝u
 10
-274.07287315613371
 20
25.074848126618239
 30
0.0
 11
-271.93420051477068
 21
25.074569396153279
 31
0.0
  0
LINE
  5
60CA
  8
«ü˝u
 10
-275.16895845336308
 20
23.979099773189741
 30
0.0
 11
-277.3032389484431
 21
23.979482402426129
 31
0.0
  0
LINE
  5
60CB
  8
«ü˝u
 10
-275.1687889340804
 20
25.075017750323841
 30
0.0
 11
-277.30306942916008
 21
25.07540037956025
 31
0.0
  0
LINE
  5
60CC
  8
0
 10
-262.86253462428812
 20
37.52655275952803
 30
0.0
 11
-261.86273260267137
 21
36.5267507379113
 31
0.0
  0
LINE
  5
60CD
  8
µę˝u
 10
-269.86273260267137
 20
37.0267507379113
 30
0.0
 11
-270.3627326026712
 21
37.5267507379113
 31
0.0
  0
LINE
  5
60CE
  8
µę˝u
 10
-263.8627326026712
 20
37.026750737911193
 30
0.0
 11
-263.36273260267137
 21
37.5267507379113
 31
0.0
  0
LINE
  5
60CF
  8
µę˝u
 10
-269.8627326026712
 20
37.0267507379113
 30
0.0
 11
-263.8627326026712
 21
37.026750737911193
 31
0.0
  0
LINE
  5
60D0
  8
0
 10
-272.0698393838581
 20
37.319643956724747
 30
0.0
 11
-271.86293058105468
 21
37.526552759528002
 31
0.0
  0
ARC
  5
60D1
  8
0
 10
-272.77694616504448
 20
38.026750737911307
 30
0.0
 40
1.0
 50
270.0
 51
315.00000000000051
  0
LINE
  5
60D2
  8
0
 10
-271.86273260267137
 20
35.026754681389413
 30
0.0
 11
-273.36273260267137
 21
36.526754681389413
 31
0.0
  0
LINE
  5
60D3
  8
µę˝u
 10
-316.8627326026712
 20
37.026750737911193
 30
0.0
 11
-316.36273260267131
 21
37.5267507379113
 31
0.0
  0
LINE
  5
60D4
  8
0
 10
-314.6556258214847
 20
37.319643956724747
 30
0.0
 11
-314.86253462428812
 21
37.52655275952803
 31
0.0
  0
ARC
  5
60D5
  8
0
 10
-313.94851904029832
 20
38.026750737911307
 30
0.0
 40
1.0
 50
224.9999999999996
 51
270.0
  0
LINE
  5
60D6
  8
0
 10
-313.36273260267137
 20
36.526754681389413
 30
0.0
 11
-314.86273260267137
 21
35.026754681389413
 31
0.0
  0
LINE
  5
60D7
  8
0
 10
-313.94851904029832
 20
37.0267507379113
 30
0.0
 11
-299.27694616504459
 21
37.0267507379113
 31
0.0
  0
LINE
  5
60D8
  8
0
 10
-272.77694616504448
 20
37.0267507379113
 30
0.0
 11
-287.44851904029832
 21
37.0267507379113
 31
0.0
  0
LINE
  5
60D9
  8
0
 10
-273.36273260267137
 20
36.526754681389413
 30
0.0
 11
-313.36273260267137
 21
36.526754681389413
 31
0.0
  0
LINE
  5
60DA
  8
0
 10
-261.86273260267137
 20
28.0267507379113
 30
0.0
 11
-262.36273260267137
 21
27.5267507379113
 31
0.0
  0
ARC
  5
60DB
  8
0
 10
-265.80884074024669
 20
25.5267507379113
 30
0.0
 40
2.0
 50
90.0
 51
165.00000000000341
  0
LINE
  5
60DC
  8
µę˝u
 10
-269.86273260267137
 20
28.726750737911349
 30
0.0
 11
-270.56273260267119
 21
28.0267507379113
 31
0.0
  0
LINE
  5
60DD
  8
µę˝u
 10
-269.8627326026712
 20
28.726750737911349
 30
0.0
 11
-263.8627326026712
 21
28.726750737911459
 31
0.0
  0
LINE
  5
60DE
  8
0
 10
-265.80884074024669
 20
27.5267507379113
 30
0.0
 11
-262.36273260267137
 21
27.5267507379113
 31
0.0
  0
LINE
  5
60DF
  8
µę˝u
 10
-263.8627326026712
 20
28.726750737911459
 30
0.0
 11
-263.16273260267133
 21
28.0267507379113
 31
0.0
  0
LINE
  5
60E0
  8
0
 10
-269.86273260267137
 20
28.0267507379113
 30
0.0
 11
-261.86273260267137
 21
28.0267507379113
 31
0.0
  0
LINE
  5
60E1
  8
0
 10
-267.74069239282471
 20
26.044388828116269
 30
0.0
 11
-270.94766909320998
 21
14.07578884358815
 31
0.0
  0
LINE
  5
60E2
  8
0
 10
-269.86273260267137
 20
18.124826949264389
 30
0.0
 11
-269.86273260267137
 21
28.0267507379113
 31
0.0
  0
ARC
  5
60E3
  8
0
 10
-274.61273260267131
 20
24.526750737989431
 30
0.0
 40
3.0
 50
90.0
 51
270.0
  0
LINE
  5
60E4
  8
0
 10
-271.86273260267137
 20
21.526750737989431
 30
0.0
 11
-274.61273260267131
 21
21.526750737989431
 31
0.0
  0
LINE
  5
60E5
  8
0
 10
-271.86272515983882
 20
27.526750737974059
 30
0.0
 11
-274.6127251598387
 21
27.526750737974059
 31
0.0
  0
LINE
  5
60E6
  8
0
 10
-273.36276299629378
 20
12.12675073797403
 30
0.0
 11
-271.86276299629361
 21
13.626750737974019
 31
0.0
  0
LINE
  5
60E7
  8
µę˝u
 10
-271.86273260267131
 20
13.16072533412683
 30
0.0
 11
-271.86273260267137
 21
28.0267507379113
 31
0.0
  0
LINE
  5
60E8
  8
µę˝u
 10
-269.86273260267137
 20
28.0267507379113
 30
0.0
 11
-271.86273260267137
 21
28.0267507379113
 31
0.0
  0
LINE
  5
60E9
  8
0
 10
-272.89690517727001
 20
12.126552759527939
 30
0.0
 11
-270.94766909321032
 21
14.075788843587761
 31
0.0
  0
LINE
  5
60EA
  8
µę˝u
 10
-316.8627326026712
 20
28.726750737911459
 30
0.0
 11
-316.16273260267138
 21
28.0267507379113
 31
0.0
  0
LINE
  5
60EB
  8
µę˝u
 10
-316.86273260267137
 20
28.0267507379113
 30
0.0
 11
-314.86273260267137
 21
28.0267507379113
 31
0.0
  0
LINE
  5
60EC
  8
0
 10
-314.86273260267137
 20
27.526750737989431
 30
0.0
 11
-312.11273260267131
 21
27.526750737989431
 31
0.0
  0
LINE
  5
60ED
  8
0
 10
-314.86273260267137
 20
21.526750737989431
 30
0.0
 11
-312.11273260267131
 21
21.526750737989431
 31
0.0
  0
ARC
  5
60EE
  8
0
 10
-312.11273260267131
 20
24.526750737989431
 30
0.0
 40
3.0
 50
270.0
 51
90.0
  0
LINE
  5
60EF
  8
0
 10
-313.82856002807279
 20
12.126552759527939
 30
0.0
 11
-315.77779611213208
 21
14.075788843587651
 31
0.0
  0
LINE
  5
60F0
  8
0
 10
-314.86273260267137
 20
13.62675073798939
 30
0.0
 11
-313.36273260267137
 21
12.126750737989401
 31
0.0
  0
LINE
  5
60F1
  8
µę˝u
 10
-314.86273260267137
 20
13.16072533412683
 30
0.0
 11
-314.86273260267137
 21
28.0267507379113
 31
0.0
  0
LINE
  5
60F2
  8
0
 10
-316.86273260267137
 20
18.124826949264389
 30
0.0
 11
-316.86273260267137
 21
28.0267507379113
 31
0.0
  0
LINE
  5
60F3
  8
µę˝u
 10
-317.3627326026712
 20
37.026750737911193
 30
0.0
 11
-317.36273260267137
 21
28.726750737911459
 31
0.0
  0
LINE
  5
60F4
  8
µę˝u
 10
-316.8627326026712
 20
37.026750737911193
 30
0.0
 11
-316.8627326026712
 21
28.726750737911459
 31
0.0
  0
LINE
  5
60F5
  8
¤¤¤ß˝u
 10
-266.86273260267137
 20
26.5267507379113
 30
0.0
 11
-266.86273260267137
 21
40.749002550160981
 31
0.0
  0
LINE
  5
60F6
  8
µę˝u
 10
-264.3627326026712
 20
37.026750737911193
 30
0.0
 11
-264.36273260267137
 21
28.726750737911459
 31
0.0
  0
LINE
  5
60F7
  8
µę˝u
 10
-263.8627326026712
 20
37.026750737911193
 30
0.0
 11
-263.8627326026712
 21
28.726750737911459
 31
0.0
  0
LINE
  5
60F8
  8
0
 10
-261.86273260267137
 20
28.0267507379113
 30
0.0
 11
-261.86273260267137
 21
36.5267507379113
 31
0.0
  0
LINE
  5
60F9
  8
0
 10
-314.86273260267137
 20
35.026754681389413
 30
0.0
 11
-314.86273260267137
 21
13.62675073798939
 31
0.0
  0
LINE
  5
60FA
  8
µę˝u
 10
-269.3627326026712
 20
37.0267507379113
 30
0.0
 11
-269.36273260267137
 21
28.726750737911349
 31
0.0
  0
LINE
  5
60FB
  8
µę˝u
 10
-269.8627326026712
 20
37.0267507379113
 30
0.0
 11
-269.8627326026712
 21
28.726750737911349
 31
0.0
  0
LINE
  5
60FC
  8
0
 10
-271.86273260267137
 20
13.62675073798939
 30
0.0
 11
-271.86273260267137
 21
35.026754681389413
 31
0.0
  0
LINE
  5
60FD
  8
µę˝u
 10
-322.86273260267137
 20
37.0267507379113
 30
0.0
 11
-323.3627326026712
 21
37.5267507379113
 31
0.0
  0
LINE
  5
60FE
  8
0
 10
-323.86293058105468
 20
37.526552759527988
 30
0.0
 11
-324.86273260267137
 21
36.5267507379113
 31
0.0
  0
LINE
  5
60FF
  8
0
 10
-320.91662446509611
 20
27.5267507379113
 30
0.0
 11
-323.86273260267137
 21
27.5267507379113
 31
0.0
  0
ARC
  5
6100
  8
0
 10
-320.91662446509611
 20
25.5267507379113
 30
0.0
 40
2.0
 50
14.99999999999646
 51
90.0
  0
LINE
  5
6101
  8
µę˝u
 10
-322.86273260267137
 20
28.726750737911349
 30
0.0
 11
-323.56273260267119
 21
28.0267507379113
 31
0.0
  0
LINE
  5
6102
  8
0
 10
-324.36273260267137
 20
28.0267507379113
 30
0.0
 11
-323.86273260267137
 21
27.5267507379113
 31
0.0
  0
LINE
  5
6103
  8
0
 10
-324.36273260267137
 20
29.0267507379113
 30
0.0
 11
-324.36273260267137
 21
28.0267507379113
 31
0.0
  0
LINE
  5
6104
  8
0
 10
-324.86273260267137
 20
29.5267507379113
 30
0.0
 11
-324.36273260267137
 21
29.0267507379113
 31
0.0
  0
LINE
  5
6105
  8
¤¤¤ß˝u
 10
-319.86273260267137
 20
26.5267507379113
 30
0.0
 11
-319.86273260267137
 21
40.749002550160981
 31
0.0
  0
LINE
  5
6106
  8
µę˝u
 10
-322.3627326026712
 20
37.0267507379113
 30
0.0
 11
-322.36273260267137
 21
28.726750737911349
 31
0.0
  0
LINE
  5
6107
  8
µę˝u
 10
-322.8627326026712
 20
37.0267507379113
 30
0.0
 11
-322.8627326026712
 21
28.726750737911349
 31
0.0
  0
LINE
  5
6108
  8
0
 10
-324.86273260267137
 20
36.5267507379113
 30
0.0
 11
-324.86273260267137
 21
29.5267507379113
 31
0.0
  0
LINE
  5
6109
  8
0
 10
-316.86273260267137
 20
28.0267507379113
 30
0.0
 11
-324.36273260267137
 21
28.0267507379113
 31
0.0
  0
LINE
  5
610A
  8
µę˝u
 10
-322.8627326026712
 20
28.726750737911349
 30
0.0
 11
-316.8627326026712
 21
28.726750737911459
 31
0.0
  0
LINE
  5
610B
  8
0
 10
-318.98477281251797
 20
26.044388828116269
 30
0.0
 11
-315.77779611213248
 21
14.07578884358788
 31
0.0
  0
LINE
  5
610C
  8
µę˝u
 10
-322.8627326026712
 20
37.0267507379113
 30
0.0
 11
-316.8627326026712
 21
37.026750737911193
 31
0.0
  0
LINE
  5
610D
  8
0
 10
-288.15562582148459
 20
37.319643956724747
 30
0.0
 11
-288.36253462428812
 21
37.52655275952803
 31
0.0
  0
ARC
  5
610E
  8
0
 10
-287.44851904029832
 20
38.026750737911307
 30
0.0
 40
1.0
 50
224.9999999999996
 51
270.0
  0
LINE
  5
610F
  8
0
 10
-298.36293058105468
 20
37.526552759527988
 30
0.0
 11
-298.56983938385798
 21
37.319643956724747
 31
0.0
  0
ARC
  5
6110
  8
0
 10
-299.27694616504459
 20
38.026750737911307
 30
0.0
 40
1.0
 50
270.0
 51
315.00000000000051
  0
POINT
  5
6111
  8
0
 10
-283.60581617127127
 20
31.526750737989431
 30
0.0
1001
PNTFLAG
1000
endpoint
  0
LINE
  5
6112
  8
¤¤¤ß˝u
 10
-282.10581617127127
 20
31.526750737989431
 30
0.0
 11
-300.11273260267137
 21
31.526750737989431
 31
0.0
  0
LINE
  5
6113
  8
0
 10
-287.07891305157148
 20
33.440552338289422
 30
0.0
 11
-287.02815840347159
 21
33.474015135589411
 31
0.0
  0
LINE
  5
6114
  8
0
 10
-287.29143594927132
 20
29.590665990189429
 30
0.0
 11
-287.24308209367149
 21
29.588612557789439
 31
0.0
  0
LINE
  5
6115
  8
0
 10
-287.07891305157148
 20
29.61294780168944
 30
0.0
 11
-287.02815840347159
 21
29.579485004389419
 31
0.0
  0
LINE
  5
6116
  8
0
 10
-286.57593969957151
 20
31.526750737989431
 30
0.0
 11
-286.55716355257152
 21
32.024891777189431
 31
0.0
  0
LINE
  5
6117
  8
0
 10
-284.97709614137159
 20
31.526750737989431
 30
0.0
 11
-284.96392184327152
 21
31.876287137589429
 31
0.0
  0
LINE
  5
6118
  8
0
 10
-284.96392184327152
 20
31.177214338389408
 30
0.0
 11
-284.97709614137159
 21
31.526750737989431
 31
0.0
  0
LINE
  5
6119
  8
0
 10
-286.55716355257152
 20
31.028608362789431
 30
0.0
 11
-286.57593969957151
 21
31.526750737989431
 31
0.0
  0
LINE
  5
611A
  8
0
 10
-284.96392184327152
 20
31.876287137589429
 30
0.0
 11
-284.92490395707142
 21
32.212390054989413
 31
0.0
  0
LINE
  5
611B
  8
0
 10
-286.55716355257152
 20
32.024891777189431
 30
0.0
 11
-286.50155922377132
 21
32.503890605389422
 31
0.0
  0
LINE
  5
611C
  8
0
 10
-284.92490395707142
 20
30.84111008498941
 30
0.0
 11
-284.96392184327152
 21
31.177214338389408
 31
0.0
  0
LINE
  5
611D
  8
0
 10
-286.50155922377132
 20
30.549609534589411
 30
0.0
 11
-286.55716355257152
 21
31.028608362789431
 31
0.0
  0
LINE
  5
611E
  8
0
 10
-284.92490395707142
 20
32.212390054989413
 30
0.0
 11
-284.86154414697143
 21
32.522145712289429
 31
0.0
  0
LINE
  5
611F
  8
0
 10
-286.50155922377132
 20
32.503890605389422
 30
0.0
 11
-286.41126164137142
 21
32.945338475489422
 31
0.0
  0
LINE
  5
6120
  8
0
 10
-284.86154414697143
 20
30.531355763689419
 30
0.0
 11
-284.92490395707142
 21
30.84111008498941
 31
0.0
  0
LINE
  5
6121
  8
0
 10
-286.41126164137142
 20
30.108161664389421
 30
0.0
 11
-286.50155922377132
 21
30.549609534589411
 31
0.0
  0
LINE
  5
6122
  8
0
 10
-284.86154414697143
 20
32.522145712289429
 30
0.0
 11
-284.77627660537149
 21
32.793647675389408
 31
0.0
  0
LINE
  5
6123
  8
0
 10
-286.41126164137142
 20
32.945338475489422
 30
0.0
 11
-286.28974173407158
 21
33.332270857089433
 31
0.0
  0
LINE
  5
6124
  8
0
 10
-284.77627660537149
 20
30.259852464589422
 30
0.0
 11
-284.86154414697143
 21
30.531355763689419
 31
0.0
  0
LINE
  5
6125
  8
0
 10
-286.28974173407158
 20
29.721230618889422
 30
0.0
 11
-286.41126164137142
 21
30.108161664389421
 31
0.0
  0
LINE
  5
6126
  8
0
 10
-284.77627660537149
 20
32.793647675389408
 30
0.0
 11
-284.67237720487128
 21
33.01646445488943
 31
0.0
  0
LINE
  5
6127
  8
0
 10
-286.28974173407158
 20
33.332270857089433
 30
0.0
 11
-286.14166882247139
 21
33.649816731589411
 31
0.0
  0
LINE
  5
6128
  8
0
 10
-284.67237720487128
 20
30.037035685089428
 30
0.0
 11
-284.77627660537149
 21
30.259852464589422
 31
0.0
  0
LINE
  5
6129
  8
0
 10
-284.67237720487128
 20
33.01646445488943
 30
0.0
 11
-284.55383925007141
 21
33.182030953189411
 31
0.0
  0
LINE
  5
612A
  8
0
 10
-286.14166882247139
 20
29.403683408389419
 30
0.0
 11
-286.28974173407158
 21
29.721230618889422
 31
0.0
  0
LINE
  5
612B
  8
0
 10
-287.67996217907142
 20
31.526750737989431
 30
0.0
 11
-287.66561487277158
 21
31.907429302489408
 31
0.0
  0
LINE
  5
612C
  8
0
 10
-287.66561487277158
 20
31.146070837489411
 30
0.0
 11
-287.67996217907142
 21
31.526750737989431
 31
0.0
  0
LINE
  5
612D
  8
0
 10
-287.66561487277158
 20
31.907429302489408
 30
0.0
 11
-287.62312071407149
 21
32.273478664689407
 31
0.0
  0
LINE
  5
612E
  8
0
 10
-290.85803547637141
 20
31.526750737989431
 30
0.0
 11
-290.83597544087138
 21
32.112021702989431
 31
0.0
  0
LINE
  5
612F
  8
0
 10
-290.83597544087138
 20
30.94147977288943
 30
0.0
 11
-290.85803547637141
 21
31.526750737989431
 31
0.0
  0
LINE
  5
6130
  8
0
 10
-287.62312071407149
 20
30.780021475289431
 30
0.0
 11
-287.66561487277158
 21
31.146070837489411
 31
0.0
  0
LINE
  5
6131
  8
0
 10
-287.62312071407149
 20
32.273478664689407
 30
0.0
 11
-287.55411630307128
 21
32.610832078389407
 31
0.0
  0
LINE
  5
6132
  8
0
 10
-286.14166882247139
 20
33.649816731589411
 30
0.0
 11
-285.9727342676714
 21
33.885775745089418
 31
0.0
  0
LINE
  5
6133
  8
0
 10
-284.55383925007141
 20
29.871469186789419
 30
0.0
 11
-284.67237720487128
 21
30.037035685089428
 31
0.0
  0
LINE
  5
6134
  8
0
 10
-284.55383925007141
 20
33.182030953189411
 30
0.0
 11
-284.42521716557133
 21
33.283987809389423
 31
0.0
  0
LINE
  5
6135
  8
0
 10
-290.83597544087138
 20
32.112021702989431
 30
0.0
 11
-290.77064503047148
 21
32.674801104489411
 31
0.0
  0
LINE
  5
6136
  8
0
 10
-290.77064503047148
 20
30.37870037148943
 30
0.0
 11
-290.83597544087138
 21
30.94147977288943
 31
0.0
  0
LINE
  5
6137
  8
0
 10
-287.55411630307128
 20
30.44266806158943
 30
0.0
 11
-287.62312071407149
 21
30.780021475289431
 31
0.0
  0
LINE
  5
6138
  8
0
 10
-285.9727342676714
 20
29.167724394889419
 30
0.0
 11
-286.14166882247139
 21
29.403683408389419
 31
0.0
  0
LINE
  5
6139
  8
0
 10
-287.55411630307128
 20
32.610832078389407
 30
0.0
 11
-287.4612509282714
 21
32.906524997389411
 31
0.0
  0
LINE
  5
613A
  8
0
 10
-290.77064503047148
 20
32.674801104489411
 30
0.0
 11
-290.66455458967158
 21
33.193460434989419
 31
0.0
  0
LINE
  5
613B
  8
0
 10
-290.66455458967158
 20
29.860039704989401
 30
0.0
 11
-290.77064503047148
 21
30.37870037148943
 31
0.0
  0
LINE
  5
613C
  8
0
 10
-287.4612509282714
 20
30.146975142589429
 30
0.0
 11
-287.55411630307128
 21
30.44266806158943
 31
0.0
  0
LINE
  5
613D
  8
0
 10
-284.42521716557133
 20
33.283987809389423
 30
0.0
 11
-284.29145548837158
 21
33.318413862889408
 31
0.0
  0
LINE
  5
613E
  8
0
 10
-285.9727342676714
 20
33.885775745089418
 30
0.0
 11
-285.78942969447149
 21
34.031079128189411
 31
0.0
  0
LINE
  5
613F
  8
0
 10
-284.55383925007141
 20
29.871469186789419
 30
0.0
 11
-284.42521716557133
 21
29.769512330589421
 31
0.0
  0
LINE
  5
6140
  8
0
 10
-287.4612509282714
 20
32.906524997389411
 30
0.0
 11
-287.34809438237141
 21
33.149193403989429
 31
0.0
  0
LINE
  5
6141
  8
0
 10
-285.9727342676714
 20
29.167724394889419
 30
0.0
 11
-285.78942969447149
 21
29.02242234778943
 31
0.0
  0
LINE
  5
6142
  8
0
 10
-287.34809438237141
 20
29.904306735989419
 30
0.0
 11
-287.4612509282714
 21
30.146975142589429
 31
0.0
  0
LINE
  5
6143
  8
0
 10
-290.66455458967158
 20
33.193460434989419
 30
0.0
 11
-290.52177891897128
 21
33.64807057928941
 31
0.0
  0
LINE
  5
6144
  8
0
 10
-290.52177891897128
 20
29.40542956068942
 30
0.0
 11
-290.66455458967158
 21
29.860039704989401
 31
0.0
  0
LINE
  5
6145
  8
0
 10
-287.34809438237141
 20
33.149193403989429
 30
0.0
 11
-287.21899400977139
 21
33.329512016589419
 31
0.0
  0
LINE
  5
6146
  8
0
 10
-286.64347451027152
 20
33.705060340289407
 30
0.0
 11
-286.47421129937152
 21
33.83923216968941
 31
0.0
  0
LINE
  5
6147
  8
0
 10
-285.78942969447149
 20
34.031079128189411
 30
0.0
 11
-285.59879849617153
 21
34.080141063989423
 31
0.0
  0
LINE
  5
6148
  8
0
 10
-284.29145548837158
 20
33.318413862889408
 30
0.0
 11
-284.15769381107151
 21
33.283987809389423
 31
0.0
  0
LINE
  5
6149
  8
0
 10
-284.42521716557133
 20
29.769512330589421
 30
0.0
 11
-284.29145548837158
 21
29.735086277089412
 31
0.0
  0
LINE
  5
614A
  8
0
 10
-287.21899400977139
 20
29.723988123389411
 30
0.0
 11
-287.34809438237141
 21
29.904306735989419
 31
0.0
  0
LINE
  5
614B
  8
0
 10
-291.0356393366713
 20
31.526750737989431
 30
0.0
 11
-290.37281222327158
 21
34.526749902989408
 31
0.0
  0
LINE
  5
614C
  8
0
 10
-290.37281222327158
 20
28.526750236989422
 30
0.0
 11
-291.0356393366713
 21
31.526750737989431
 31
0.0
  0
LINE
  5
614D
  8
0
 10
-286.47421129937152
 20
33.83923216968941
 30
0.0
 11
-286.14817915157158
 21
34.003731203789428
 31
0.0
  0
LINE
  5
614E
  8
0
 10
-286.14817915157158
 20
34.003731203789428
 30
0.0
 11
-285.95963077757148
 21
34.052258739489417
 31
0.0
  0
LINE
  5
614F
  8
0
 10
-285.78942969447149
 20
29.02242234778943
 30
0.0
 11
-285.59879849617153
 21
28.973359075989411
 31
0.0
  0
LINE
  5
6150
  8
0
 10
-290.52177891897128
 20
33.64807057928941
 30
0.0
 11
-290.34780764327132
 21
34.021159326589412
 31
0.0
  0
LINE
  5
6151
  8
0
 10
-290.34780764327132
 20
29.032340813389421
 30
0.0
 11
-290.52177891897128
 21
29.40542956068942
 31
0.0
  0
LINE
  5
6152
  8
0
 10
-287.21899400977139
 20
33.329512016589419
 30
0.0
 11
-287.07891305157148
 21
33.440552338289422
 31
0.0
  0
LINE
  5
6153
  8
0
 10
-287.02815840347159
 20
33.474015135589411
 30
0.0
 11
-286.47421129937152
 21
33.83923216968941
 31
0.0
  0
LINE
  5
6154
  8
0
 10
-286.14817915157158
 20
29.04976893618943
 30
0.0
 11
-285.95963077757148
 21
29.001242736389418
 31
0.0
  0
LINE
  5
6155
  8
0
 10
-286.47421129937152
 20
29.21426797028942
 30
0.0
 11
-286.14817915157158
 21
29.04976893618943
 31
0.0
  0
LINE
  5
6156
  8
0
 10
-287.21899400977139
 20
29.723988123389411
 30
0.0
 11
-287.07891305157148
 21
29.61294780168944
 31
0.0
  0
LINE
  5
6157
  8
0
 10
-285.95963077757148
 20
34.052258739489417
 30
0.0
 11
-285.59879849617153
 21
34.080141063989423
 31
0.0
  0
LINE
  5
6158
  8
0
 10
-285.59879849617153
 20
34.080141063989423
 30
0.0
 11
-285.40816863387141
 21
34.031079128189411
 31
0.0
  0
LINE
  5
6159
  8
0
 10
-284.15769381107151
 20
33.283987809389423
 30
0.0
 11
-284.02907306257151
 21
33.182030953189411
 31
0.0
  0
LINE
  5
615A
  8
0
 10
-285.40816863387141
 20
34.031079128189411
 30
0.0
 11
-284.15769381107151
 21
33.283987809389423
 31
0.0
  0
LINE
  5
615B
  8
0
 10
-284.29145548837158
 20
29.735086277089412
 30
0.0
 11
-284.15769381107151
 21
29.769512330589421
 31
0.0
  0
LINE
  5
615C
  8
0
 10
-287.02815840347159
 20
29.579485004389419
 30
0.0
 11
-286.47421129937152
 21
29.21426797028942
 31
0.0
  0
LINE
  5
615D
  8
0
 10
-285.95963077757148
 20
29.001242736389418
 30
0.0
 11
-285.59879849617153
 21
28.973359075989411
 31
0.0
  0
LINE
  5
615E
  8
0
 10
-285.59879849617153
 20
28.973359075989411
 30
0.0
 11
-285.40816863387141
 21
29.02242234778943
 31
0.0
  0
LINE
  5
615F
  8
0
 10
-290.34780764327132
 20
34.021159326589412
 30
0.0
 11
-290.14932477177149
 21
34.298388722689431
 31
0.0
  0
LINE
  5
6160
  8
0
 10
-290.14932477177149
 20
28.75511141728942
 30
0.0
 11
-290.34780764327132
 21
29.032340813389421
 31
0.0
  0
LINE
  5
6161
  8
0
 10
-292.06122657967143
 20
28.526750236989422
 30
0.0
 11
-292.72405369307143
 21
31.526750737989431
 31
0.0
  0
LINE
  5
6162
  8
0
 10
-292.72405369307143
 20
31.526750737989431
 30
0.0
 11
-291.0356393366713
 21
31.526750737989431
 31
0.0
  0
LINE
  5
6163
  8
0
 10
-292.72405369307143
 20
31.526750737989431
 30
0.0
 11
-292.06122657967143
 21
34.526749902989408
 31
0.0
  0
LINE
  5
6164
  8
0
 10
-283.91053510777158
 20
33.01646445488943
 30
0.0
 11
-284.02907306257151
 21
33.182030953189411
 31
0.0
  0
LINE
  5
6165
  8
0
 10
-284.15769381107151
 20
29.769512330589421
 30
0.0
 11
-284.02907306257151
 21
29.871469186789419
 31
0.0
  0
LINE
  5
6166
  8
0
 10
-285.40816863387141
 20
29.02242234778943
 30
0.0
 11
-284.15769381107151
 21
29.769512330589421
 31
0.0
  0
LINE
  5
6167
  8
0
 10
-287.24308209367149
 20
33.464888918189423
 30
0.0
 11
-287.02815840347159
 21
33.474015135589411
 31
0.0
  0
LINE
  5
6168
  8
0
 10
-287.24308209367149
 20
29.588612557789439
 30
0.0
 11
-287.02815840347159
 21
29.579485004389419
 31
0.0
  0
LINE
  5
6169
  8
0
 10
-290.14932477177149
 20
34.298388722689431
 30
0.0
 11
-289.93395886547148
 21
34.469105501789407
 31
0.0
  0
LINE
  5
616A
  8
0
 10
-290.14932477177149
 20
28.75511141728942
 30
0.0
 11
-289.93395886547148
 21
28.58439463818943
 31
0.0
  0
LINE
  5
616B
  8
0
 10
-283.80663570727143
 20
32.793647675389408
 30
0.0
 11
-283.91053510777158
 21
33.01646445488943
 31
0.0
  0
LINE
  5
616C
  8
0
 10
-284.02907306257151
 20
29.871469186789419
 30
0.0
 11
-283.91053510777158
 21
30.037035685089428
 31
0.0
  0
LINE
  5
616D
  8
0
 10
-287.48420474797149
 20
33.563290677789432
 30
0.0
 11
-287.24308209367149
 21
33.464888918189423
 31
0.0
  0
LINE
  5
616E
  8
0
 10
-287.48420474797149
 20
29.490209462189419
 30
0.0
 11
-287.24308209367149
 21
29.588612557789439
 31
0.0
  0
LINE
  5
616F
  8
0
 10
-283.72136682967152
 20
32.522145712289429
 30
0.0
 11
-283.80663570727143
 21
32.793647675389408
 31
0.0
  0
LINE
  5
6170
  8
0
 10
-283.91053510777158
 20
30.037035685089428
 30
0.0
 11
-283.80663570727143
 21
30.259852464589422
 31
0.0
  0
LINE
  5
6171
  8
0
 10
-289.93395886547148
 20
34.469105501789407
 30
0.0
 11
-289.70998510987158
 21
34.526749902989408
 31
0.0
  0
LINE
  5
6172
  8
0
 10
-289.93395886547148
 20
28.58439463818943
 30
0.0
 11
-289.70998510987158
 21
28.526750236989422
 31
0.0
  0
LINE
  5
6173
  8
0
 10
-283.65800701957141
 20
32.212390054989413
 30
0.0
 11
-283.72136682967152
 21
32.522145712289429
 31
0.0
  0
LINE
  5
6174
  8
0
 10
-284.56599017197169
 20
29.888441733489419
 30
0.0
 11
-284.5640917156714
 21
29.889370253589409
 31
0.0
  0
LINE
  5
6175
  8
0
 10
-283.80663570727143
 20
30.259852464589422
 30
0.0
 11
-283.72136682967152
 21
30.531355763689419
 31
0.0
  0
LINE
  5
6176
  8
0
 10
-283.61899046937151
 20
31.876287137589429
 30
0.0
 11
-283.65800701957141
 21
32.212390054989413
 31
0.0
  0
LINE
  5
6177
  8
0
 10
-283.72136682967152
 20
30.531355763689419
 30
0.0
 11
-283.65800701957141
 21
30.84111008498941
 31
0.0
  0
LINE
  5
6178
  8
0
 10
-289.48601135427151
 20
34.469105501789407
 30
0.0
 11
-287.48420474797149
 21
33.563290677789432
 31
0.0
  0
LINE
  5
6179
  8
0
 10
-289.70998510987158
 20
34.526749902989408
 30
0.0
 11
-289.48601135427151
 21
34.469105501789407
 31
0.0
  0
LINE
  5
617A
  8
0
 10
-289.70998510987158
 20
28.526750236989422
 30
0.0
 11
-289.48601135427151
 21
28.58439463818943
 31
0.0
  0
LINE
  5
617B
  8
0
 10
-283.60581617127127
 20
31.526750737989431
 30
0.0
 11
-283.61899046937151
 21
31.876287137589429
 31
0.0
  0
LINE
  5
617C
  8
0
 10
-283.65800701957141
 20
30.84111008498941
 30
0.0
 11
-283.61899046937151
 21
31.177214338389408
 31
0.0
  0
LINE
  5
617D
  8
0
 10
-283.61899046937151
 20
31.177214338389408
 30
0.0
 11
-283.60581617127127
 21
31.526750737989431
 31
0.0
  0
LINE
  5
617E
  8
0
 10
-289.48601135427151
 20
28.58439463818943
 30
0.0
 11
-287.48420474797149
 21
29.490209462189419
 31
0.0
  0
LINE
  5
617F
  8
0
 10
-292.06122657967143
 20
34.526749902989408
 30
0.0
 11
-289.04715799647153
 21
34.526749902989408
 31
0.0
  0
LINE
  5
6180
  8
0
 10
-289.04715799647153
 20
28.526750236989422
 30
0.0
 11
-288.9842591064716
 21
28.811437186289421
 31
0.0
  0
LINE
  5
6181
  8
0
 10
-288.9842591064716
 20
34.242062953689427
 30
0.0
 11
-289.04715799647153
 21
34.526749902989408
 31
0.0
  0
LINE
  5
6182
  8
0
 10
-292.06122657967143
 20
28.526750236989422
 30
0.0
 11
-289.04715799647153
 21
28.526750236989422
 31
0.0
  0
LINE
  5
6183
  8
0
 10
-290.47598083167128
 20
28.526750236989422
 30
0.0
 11
-291.05333065147141
 21
27.526750069989419
 31
0.0
  0
LINE
  5
6184
  8
0
 10
-291.05333065147141
 20
27.526750069989419
 30
0.0
 11
-295.67213321787159
 21
27.526750069989419
 31
0.0
  0
LINE
  5
6185
  8
0
 10
-297.98153383307158
 20
31.526750737989431
 30
0.0
 11
-295.67213321787159
 21
27.526750069989419
 31
0.0
  0
LINE
  5
6186
  8
0
 10
-295.67212577503881
 20
35.526750069974042
 30
0.0
 11
-297.98152639023891
 21
31.526750737974059
 31
0.0
  0
LINE
  5
6187
  8
0
 10
-295.67213321787159
 20
35.526750069989419
 30
0.0
 11
-291.05333198747121
 21
35.526750069989419
 31
0.0
  0
LINE
  5
6188
  8
0
 10
-290.47598083167128
 20
34.526749902989408
 30
0.0
 11
-291.05333198747121
 21
35.526750069989419
 31
0.0
  0
ARC
  5
6189
  8
0
 10
-293.36273260267131
 20
31.526750737989431
 30
0.0
 40
3.999999331999998
 50
48.59037799889893
 51
311.40962200319859
  0
POLYLINE
  5
618A
  8
0
 66
     1
 10
0.0
 20
0.0
 30
0.0
  0
VERTEX
  5
6271
  8
0
 10
-284.41104487537137
 20
31.526750737989421
 30
0.0
  0
VERTEX
  5
6272
  8
0
 10
-284.37749657397148
 20
31.309713495489412
 30
0.0
  0
VERTEX
  5
6273
  8
0
 10
-284.34460558477127
 20
31.246809261489439
 30
0.0
  0
VERTEX
  5
6274
  8
0
 10
-284.30803525097122
 20
31.217267624789422
 30
0.0
  0
VERTEX
  5
6275
  8
0
 10
-284.27405809357151
 20
31.21757490478943
 30
0.0
  0
VERTEX
  5
6276
  8
0
 10
-284.23756524777127
 20
31.247779197589431
 30
0.0
  0
VERTEX
  5
6277
  8
0
 10
-284.20622134677131
 20
31.307549175089409
 30
0.0
  0
VERTEX
  5
6278
  8
0
 10
-284.1768346860714
 20
31.43762215578942
 30
0.0
  0
VERTEX
  5
6279
  8
0
 10
-284.17186743727137
 20
31.526750737989421
 30
0.0
  0
VERTEX
  5
627A
  8
0
 10
-284.20541440267141
 20
31.743786644489411
 30
0.0
  0
VERTEX
  5
627B
  8
0
 10
-284.23830672787147
 20
31.80669087848942
 30
0.0
  0
VERTEX
  5
627C
  8
0
 10
-284.27487706167142
 20
31.83623251518943
 30
0.0
  0
VERTEX
  5
627D
  8
0
 10
-284.30885288307132
 20
31.835925235089409
 30
0.0
  0
VERTEX
  5
627E
  8
0
 10
-284.3453470648717
 20
31.805720942289419
 30
0.0
  0
VERTEX
  5
627F
  8
0
 10
-284.37668962987169
 20
31.745950964789419
 30
0.0
  0
VERTEX
  5
6280
  8
0
 10
-284.40607762657129
 20
31.61587798418941
 30
0.0
  0
VERTEX
  5
6281
  8
0
 10
-284.41104487537137
 20
31.526750737989421
 30
0.0
  0
SEQEND
  5
6282
  8
0
  0
ARC
  5
618B
  8
0
 10
-293.36273260267131
 20
31.526750737989431
 30
0.0
 40
5.2499999999999929
 50
30.243297773998631
 51
329.75669075929898
  0
LINE
  5
618C
  8
µę˝u
 10
-290.362362261388
 20
16.226552759527749
 30
0.0
 11
-290.362362261388
 21
8.0265751448014431
 31
0.0
  0
LINE
  5
618D
  8
µę˝u
 10
-296.362362261388
 20
16.226552759527749
 30
0.0
 11
-296.362362261388
 21
8.0265751448014431
 31
0.0
  0
LINE
  5
618E
  8
0
 10
-303.36273260267137
 20
8.5269721698848162
 30
0.0
 11
-302.36231187548941
 21
7.5265527595279682
 31
0.0
  0
LINE
  5
618F
  8
µę˝u
 10
-296.362362261388
 20
8.0265751448014431
 30
0.0
 11
-290.36259967802681
 21
8.0265344464123931
 31
0.0
  0
LINE
  5
6190
  8
0
 10
-284.36162871198758
 20
7.5265527595279682
 30
0.0
 11
-290.36244060197367
 21
7.5265527595279682
 31
0.0
  0
LINE
  5
6191
  8
µę˝u
 10
-289.862631557128
 20
7.5265527595279682
 30
0.0
 11
-290.36259967802681
 21
8.0265344464123931
 31
0.0
  0
LINE
  5
6192
  8
0
 10
-290.86244057137071
 20
8.0265527595279398
 30
0.0
 11
-290.36244060197367
 21
7.5265527595279682
 31
0.0
  0
LINE
  5
6193
  8
0
 10
-283.36273260267131
 20
8.5254488682449665
 30
0.0
 11
-284.36162871198758
 21
7.5265527595279682
 31
0.0
  0
LINE
  5
6194
  8
0
 10
-296.36164863605308
 20
7.5265527595279682
 30
0.0
 11
-302.36231187548941
 21
7.5265527595279682
 31
0.0
  0
LINE
  5
6195
  8
µę˝u
 10
-296.86238464666172
 20
7.5265527595279682
 30
0.0
 11
-296.362362261388
 21
8.0265751448014431
 31
0.0
  0
LINE
  5
6196
  8
0
 10
-296.36164863605308
 20
7.5265527595279682
 30
0.0
 11
-295.86164868142242
 21
8.0265527595279398
 31
0.0
  0
LINE
  5
6197
  8
0
 10
-295.86164868142242
 20
8.0265527595279398
 30
0.0
 11
-290.86244057137071
 21
8.0265527595279398
 31
0.0
  0
LINE
  5
6198
  8
µę˝u
 10
-288.612362261388
 20
24.626552759527861
 30
0.0
 11
-288.612362261388
 21
16.526552759527959
 31
0.0
  0
LINE
  5
6199
  8
µę˝u
 10
-290.36248436138789
 20
16.226552759527749
 30
0.0
 11
-290.06248436138799
 21
16.526552759527959
 31
0.0
  0
LINE
  5
619A
  8
µę˝u
 10
-288.61236207962912
 20
24.62655208119488
 30
0.0
 11
-288.38142158031752
 21
25.026552759527959
 31
0.0
  0
LINE
  5
619B
  8
µę˝u
 10
-298.11236226138789
 20
24.626552759527861
 30
0.0
 11
-298.11236226138789
 21
16.526552759527959
 31
0.0
  0
LINE
  5
619C
  8
µę˝u
 10
-296.362362261388
 20
16.226552759527749
 30
0.0
 11
-296.6623622613879
 21
16.526552759527959
 31
0.0
  0
LINE
  5
619D
  8
µę˝u
 10
-298.11236244314682
 20
24.62655208119488
 30
0.0
 11
-298.34330294245848
 21
25.026552759527959
 31
0.0
  0
LINE
  5
619E
  8
µę˝u
 10
-298.11236226138789
 20
16.526552759527959
 30
0.0
 11
-288.612362261388
 21
16.526552759527959
 31
0.0
  0
LINE
  5
619F
  8
µę˝u
 10
-296.362362261388
 20
16.226552759527749
 30
0.0
 11
-290.362362261388
 21
16.226552759527749
 31
0.0
  0
LINE
  5
61A0
  8
µę˝u
 10
-298.11236361805459
 20
24.626552759527861
 30
0.0
 11
-288.612362261388
 21
24.626552759527861
 31
0.0
  0
LINE
  5
61A1
  8
¤¤¤ß˝u
 10
-293.36273260267131
 20
43.166899582363257
 30
0.0
 11
-293.36273260267131
 21
3.4014617186973002
 31
0.0
  0
LINE
  5
61A2
  8
0
 10
-298.36273260267137
 20
36.526754681389413
 30
0.0
 11
-298.36273260267137
 21
33.127531797347601
 31
0.0
  0
LINE
  5
61A3
  8
0
 10
-288.36273260267137
 20
36.526754681389413
 30
0.0
 11
-288.36273260267137
 21
33.96082336230532
 31
0.0
  0
LINE
  5
61A4
  8
0
 10
-286.81253556138847
 20
17.405788460826098
 30
0.0
 11
-286.81253556138762
 21
14.976581160519009
 31
0.0
  0
LINE
  5
61A5
  8
0
 10
-300.52162846116812
 20
25.02655276047691
 30
0.0
 11
-286.20254766132439
 21
25.02655276047691
 31
0.0
  0
LINE
  5
61A6
  8
0
 10
-286.20254766132439
 20
25.02655276047691
 30
0.0
 11
-285.7032040183966
 21
24.527209035399281
 31
0.0
  0
LINE
  5
61A7
  8
0
 10
-283.77001670387631
 20
20.448306892635109
 30
0.0
 11
-283.36258436138769
 21
20.855738760940518
 31
0.0
  0
LINE
  5
61A8
  8
0
 10
-283.36258436138792
 20
22.18658976031751
 30
0.0
 11
-283.36258436138769
 21
20.855738760940518
 31
0.0
  0
LINE
  5
61A9
  8
0
 10
-283.78160534027779
 20
22.605610580357421
 30
0.0
 11
-283.36258436138792
 21
22.18658976031751
 31
0.0
  0
LINE
  5
61AA
  8
0
 10
-286.81253556138847
 20
17.405788460826098
 30
0.0
 11
-285.70426004945739
 21
18.514062970238829
 31
0.0
  0
ARC
  5
61AB
  8
0
 10
-283.58252771127019
 20
18.326574610359248
 30
0.0
 40
2.129999999999999
 50
95.049881965107744
 51
174.95013512119701
  0
ARC
  5
61AC
  8
0
 10
-283.58252771127019
 20
24.72628691059473
 30
0.0
 40
2.129999999999999
 50
185.362908113374
 51
264.6370985380517
  0
LINE
  5
61AD
  8
0
 10
-286.81273060287128
 20
17.406039639038379
 30
0.0
 11
-286.81273060287128
 21
14.976899365538349
 31
0.0
  0
LINE
  5
61AE
  8
0
 10
-283.78176040527143
 20
22.605822741538368
 30
0.0
 11
-283.36273260267137
 21
22.18679493893837
 31
0.0
  0
ARC
  5
61AF
  8
0
 10
-283.58253175247143
 20
24.72648488903836
 30
0.0
 40
2.129999999999999
 50
185.36698178750041
 51
264.63301821250087
  0
LINE
  5
61B0
  8
0
 10
-283.36273260267137
 20
22.18679493893837
 30
0.0
 11
-283.36273260267137
 21
20.856036739338361
 31
0.0
  0
ARC
  5
61B1
  8
0
 10
-283.58277595247142
 20
18.326772588838349
 30
0.0
 40
2.129999999999999
 50
95.049881965097967
 51
174.95013512120019
  0
LINE
  5
61B2
  8
0
 10
-283.36273260267137
 20
20.856036739338361
 30
0.0
 11
-283.77026494517128
 21
20.448504871138351
 31
0.0
  0
LINE
  5
61B3
  8
0
 10
-285.70450829067158
 20
18.514260948738361
 30
0.0
 11
-286.81273060287128
 21
17.406039639038379
 31
0.0
  0
LINE
  5
61B4
  8
0
 10
-286.10268840267128
 20
24.92675073893837
 30
0.0
 11
-285.70319390007148
 21
24.527256236338371
 31
0.0
  0
LINE
  5
61B5
  8
0
 10
-284.57273060287127
 20
16.478200665838379
 30
0.0
 11
-283.76608734853409
 21
17.284843190442139
 31
0.0
  0
LINE
  5
61B6
  8
0
 10
-285.6127306028713
 20
15.47395564033835
 30
0.0
 11
-285.6127306028713
 21
16.90898304623839
 31
0.0
  0
LINE
  5
61B7
  8
0
 10
-286.81273060287128
 20
17.406039639038379
 30
0.0
 11
-284.57273060287127
 21
16.478200665838379
 31
0.0
  0
LINE
  5
61B8
  8
0
 10
-280.79454561810979
 20
12.12655276047686
 30
0.0
 11
-284.57273060287127
 21
15.904737745238361
 31
0.0
  0
LINE
  5
61B9
  8
0
 10
-284.57273060287127
 20
15.904737745238361
 30
0.0
 11
-284.57273060287127
 21
16.478200665838379
 31
0.0
  0
LINE
  5
61BA
  8
0
 10
-286.81273060287128
 20
14.976899365538349
 30
0.0
 11
-284.57273060287127
 21
15.904737745238361
 31
0.0
  0
LINE
  5
61BB
  8
0
 10
-282.26532772300988
 20
12.12655276047686
 30
0.0
 11
-285.6127306028713
 21
15.47395564033835
 31
0.0
  0
LINE
  5
61BC
  8
0
 10
-286.81217530258908
 20
14.97641483892048
 30
0.0
 11
-283.36273260267137
 21
11.526971739056471
 31
0.0
  0
LINE
  5
61BD
  8
0
 10
-285.60563212777163
 20
26.126750738938359
 30
0.0
 11
-301.11978887747131
 21
26.126750738938359
 31
0.0
  0
LINE
  5
61BE
  8
0
 10
-281.12273260267142
 20
19.92819521913837
 30
0.0
 11
-281.12273260267142
 21
23.114633318638351
 31
0.0
  0
LINE
  5
61BF
  8
0
 10
-282.16273260267138
 20
20.35898005533836
 30
0.0
 11
-282.16273260267138
 21
22.683851213838359
 31
0.0
  0
LINE
  5
61C0
  8
0
 10
-283.36273260267137
 20
22.18679493893837
 30
0.0
 11
-281.12273260267142
 21
23.114633318638351
 31
0.0
  0
LINE
  5
61C1
  8
0
 10
-282.5408460788945
 20
18.510083393313021
 30
0.0
 11
-281.12273260267142
 21
19.92819521913837
 31
0.0
  0
LINE
  5
61C2
  8
0
 10
-283.36273260267137
 20
20.856036739338361
 30
0.0
 11
-281.12273260267142
 21
19.92819521913837
 31
0.0
  0
ARC
  5
61C3
  8
0
 10
-282.89439926375519
 20
18.863636989638721
 30
0.0
 40
0.5
 50
254.9597677363551
 51
314.9999666596168
  0
ARC
  5
61C4
  8
0
 10
-284.11964057920522
 20
17.638396740957301
 30
0.0
 40
0.5
 50
314.999974083533
 51
15.04018237847438
  0
LINE
  5
61C5
  8
0
 10
-285.70450829067158
 20
18.514260948738361
 30
0.0
 11
-284.47089216967152
 21
18.05082044653836
 31
0.0
  0
ARC
  5
61C6
  8
0
 10
-283.58277595247142
 20
18.326772588838349
 30
0.0
 40
0.9300000000000001
 50
72.739198784101262
 51
197.2608688119
  0
LINE
  5
61C7
  8
0
 10
-283.36273260267137
 20
20.856036739338361
 30
0.0
 11
-283.77026494517128
 21
20.448504871138351
 31
0.0
  0
LINE
  5
61C8
  8
0
 10
-283.77026494517128
 20
20.448504871138351
 30
0.0
 11
-283.30682488107129
 21
19.214889192838349
 31
0.0
  0
LINE
  5
61C9
  8
0
 10
-283.30682493257132
 20
19.214889141338379
 30
0.0
 11
-282.85977320848752
 21
18.364837394313511
 31
0.0
  0
ARC
  5
61CA
  8
0
 10
-283.15389650407133
 20
17.89789314043837
 30
0.0
 40
0.5
 50
74.959767736355147
 51
195.0401823784741
  0
LINE
  5
61CB
  8
0
 10
-285.6127306028713
 20
16.90898304623839
 30
0.0
 11
-284.47089216967152
 21
18.05082044653836
 31
0.0
  0
LINE
  5
61CC
  8
0
 10
-284.47089216967152
 20
18.05082044653836
 30
0.0
 11
-283.62084103232303
 21
17.603769987861071
 31
0.0
  0
LINE
  5
61CD
  8
0
 10
-283.30682488107129
 20
19.214889192838349
 30
0.0
 11
-282.16273266227131
 21
20.35898008013838
 31
0.0
  0
LINE
  5
61CE
  8
0
 10
-281.12273260267142
 20
23.114633318638351
 30
0.0
 11
-282.54623714883758
 21
24.53813786488929
 31
0.0
  0
ARC
  5
61CF
  8
0
 10
-282.89979053944143
 20
24.184584474306551
 30
0.0
 40
0.5
 50
44.999999998295372
 51
105.0114234594156
  0
ARC
  5
61D0
  8
0
 10
-284.12467636729991
 20
25.409470302180509
 30
0.0
 40
0.5
 50
344.98857653986789
 51
44.999999999994891
  0
ARC
  5
61D1
  8
0
 10
-283.15880216277151
 20
25.150458678838369
 30
0.0
 40
0.5
 50
164.98857653986499
 51
285.0114234594156
  0
LINE
  5
61D2
  8
0
 10
-284.4731461219713
 20
24.994264733138358
 30
0.0
 11
-285.60563212777163
 21
26.126750738938359
 31
0.0
  0
LINE
  5
61D3
  8
0
 10
-286.10268840267128
 20
24.92675073893837
 30
0.0
 11
-285.17485002287123
 21
27.166750738938369
 31
0.0
  0
LINE
  5
61D4
  8
0
 10
-284.4731461219713
 20
24.994264733138358
 30
0.0
 11
-283.62585926275989
 21
25.443843201654222
 31
0.0
  0
LINE
  5
61D5
  8
0
 10
-285.70319390007148
 20
24.527256236338371
 30
0.0
 11
-284.4731461219713
 21
24.994264733138358
 31
0.0
  0
LINE
  5
61D6
  8
0
 10
-286.10268840267128
 20
24.92675073893837
 30
0.0
 11
-285.70319390007148
 21
24.527256236338371
 31
0.0
  0
LINE
  5
61D7
  8
0
 10
-283.31475190847129
 20
23.835870519638359
 30
0.0
 11
-282.86537501160399
 21
24.683398639546152
 31
0.0
  0
LINE
  5
61D8
  8
0
 10
-283.77112297670658
 20
25.763023692773778
 30
0.0
 11
-285.17485002287123
 21
27.166750738938369
 31
0.0
  0
LINE
  5
61D9
  8
0
 10
-282.16273260267138
 20
22.683851213838359
 30
0.0
 11
-283.31475190847129
 21
23.835870519638359
 31
0.0
  0
ARC
  5
61DA
  8
0
 10
-283.58253175247143
 20
24.72648488903836
 30
0.0
 40
0.9300000000000001
 50
163.26561328090079
 51
286.73438671910122
  0
LINE
  5
61DB
  8
0
 10
-283.78176040527143
 20
22.605822741538368
 30
0.0
 11
-283.31475190847129
 21
23.835870519638359
 31
0.0
  0
LINE
  5
61DC
  8
0
 10
-299.91238906138801
 20
17.406401460520069
 30
0.0
 11
-299.91238906138801
 21
14.976075260487139
 31
0.0
  0
LINE
  5
61DD
  8
0
 10
-301.02206781878971
 20
24.526113649806721
 30
0.0
 11
-300.52162846116812
 21
25.02655276047691
 31
0.0
  0
LINE
  5
61DE
  8
0
 10
-301.02099211657929
 20
18.515004880374541
 30
0.0
 11
-299.91238906138801
 21
17.406401460520069
 31
0.0
  0
LINE
  5
61DF
  8
0
 10
-303.3625843613882
 20
20.856596360562801
 30
0.0
 11
-302.95421166758132
 21
20.4482235875344
 31
0.0
  0
LINE
  5
61E0
  8
0
 10
-303.36258436138792
 20
22.185597361147771
 30
0.0
 11
-303.3625843613882
 21
20.856596360562801
 31
0.0
  0
LINE
  5
61E1
  8
0
 10
-303.36258436138792
 20
22.185597361147771
 30
0.0
 11
-302.94246741542969
 21
22.60571374952859
 31
0.0
  0
ARC
  5
61E2
  8
0
 10
-303.1426410115057
 20
24.72628691059473
 30
0.0
 40
2.129999999999999
 50
275.39251268205282
 51
354.60749637709438
  0
ARC
  5
61E3
  8
0
 10
-303.1426410115057
 20
18.326574610359248
 30
0.0
 40
2.129999999999999
 50
5.0753009504653557
 51
84.924724058901901
  0
LINE
  5
61E4
  8
0
 10
-299.91273060287131
 20
14.97684631233837
 30
0.0
 11
-299.91273060287131
 21
17.40669273923838
 31
0.0
  0
LINE
  5
61E5
  8
0
 10
-303.36273260267137
 20
22.186750738938361
 30
0.0
 11
-302.94366060007133
 21
22.605822741538368
 31
0.0
  0
ARC
  5
61E6
  8
0
 10
-303.1428892527714
 20
24.72648488903836
 30
0.0
 40
2.129999999999999
 50
275.36698178749913
 51
354.63301821250087
  0
LINE
  5
61E7
  8
0
 10
-303.36273260267137
 20
20.856694339038349
 30
0.0
 11
-303.36273260267137
 21
22.186750738938361
 31
0.0
  0
LINE
  5
61E8
  8
0
 10
-302.95445990887151
 20
20.448421566038391
 30
0.0
 11
-303.36273260267137
 21
20.856694339038349
 31
0.0
  0
ARC
  5
61E9
  8
0
 10
-303.1428892527714
 20
18.326772588838349
 30
0.0
 40
2.129999999999999
 50
5.0753009505001119
 51
84.924724058898633
  0
LINE
  5
61EA
  8
0
 10
-299.91273060287131
 20
17.40669273923838
 30
0.0
 11
-301.02124035787131
 21
18.515202858838371
 31
0.0
  0
LINE
  5
61EB
  8
0
 10
-301.02222710527133
 20
24.527256236338371
 30
0.0
 11
-300.62273260267131
 21
24.92675073893837
 31
0.0
  0
LINE
  5
61EC
  8
0
 10
-299.91273060287131
 20
17.40669273923838
 30
0.0
 11
-302.15273060287132
 21
16.478854575338389
 31
0.0
  0
LINE
  5
61ED
  8
0
 10
-301.1127306028713
 20
16.90963658003837
 30
0.0
 11
-301.1127306028713
 21
15.47390258723839
 31
0.0
  0
LINE
  5
61EE
  8
0
 10
-302.9593963661971
 20
17.285520604023429
 30
0.0
 11
-302.15273060287132
 21
16.478854575338389
 31
0.0
  0
LINE
  5
61EF
  8
0
 10
-304.4600804296328
 20
12.12655276047686
 30
0.0
 11
-301.1127306028713
 21
15.47390258723839
 31
0.0
  0
LINE
  5
61F0
  8
0
 10
-302.15273060287132
 20
15.904684692138391
 30
0.0
 11
-305.93086253453282
 21
12.12655276047686
 31
0.0
  0
LINE
  5
61F1
  8
0
 10
-299.91273060287131
 20
14.97684631233837
 30
0.0
 11
-302.15273060287132
 21
15.904684692138391
 31
0.0
  0
LINE
  5
61F2
  8
0
 10
-302.15273060287132
 20
16.478854575338389
 30
0.0
 11
-302.15273060287132
 21
15.904684692138391
 31
0.0
  0
LINE
  5
61F3
  8
0
 10
-303.36273260267137
 20
11.525933938868491
 30
0.0
 11
-299.91221950258921
 21
14.97644683892052
 31
0.0
  0
ARC
  5
61F4
  8
0
 10
-303.83058748104821
 20
18.863819037794411
 30
0.0
 40
0.5
 50
224.99999444431111
 51
284.99998426762022
  0
ARC
  5
61F5
  8
0
 10
-303.82568208757402
 20
24.1845328525493
 30
0.0
 40
0.5
 50
74.999999999998778
 51
135.00000000000961
  0
LINE
  5
61F6
  8
0
 10
-303.36273260267137
 20
20.856694339038349
 30
0.0
 11
-305.60273260267132
 21
19.928857653338369
 31
0.0
  0
LINE
  5
61F7
  8
0
 10
-304.56273263367132
 20
20.359638119438369
 30
0.0
 11
-303.41818668007141
 21
19.21509194383837
 31
0.0
  0
LINE
  5
61F8
  8
0
 10
-303.36273260267137
 20
22.186750738938361
 30
0.0
 11
-305.60273260267132
 21
23.11458911863836
 31
0.0
  0
LINE
  5
61F9
  8
0
 10
-303.41066909687157
 20
23.835870519638359
 30
0.0
 11
-304.56273260267119
 21
22.683807013838369
 31
0.0
  0
LINE
  5
61FA
  8
0
 10
-304.56273260267119
 20
22.683807013838369
 30
0.0
 11
-304.56273260267119
 21
20.359638132338361
 31
0.0
  0
LINE
  5
61FB
  8
0
 10
-305.60273260267132
 20
23.11458911863836
 30
0.0
 11
-305.60273260267132
 21
19.928857653338369
 31
0.0
  0
LINE
  5
61FC
  8
0
 10
-305.60273260267132
 20
19.928857653338369
 30
0.0
 11
-304.1841409059237
 21
18.5102656814834
 31
0.0
  0
LINE
  5
61FD
  8
0
 10
-304.17923547816719
 20
24.538086243142558
 30
0.0
 11
-305.60273260267132
 21
23.11458911863836
 31
0.0
  0
ARC
  5
61FE
  8
0
 10
-302.6058429174517
 20
17.63907393646458
 30
0.0
 40
0.5
 50
164.9999905762399
 51
224.99999057604359
  0
LINE
  5
61FF
  8
0
 10
-301.02124035787131
 20
18.515202858838371
 30
0.0
 11
-302.25456961857128
 21
18.05147597133838
 31
0.0
  0
LINE
  5
6200
  8
0
 10
-302.95445990887151
 20
20.448421566038391
 30
0.0
 11
-303.41818668007141
 21
19.21509194383837
 31
0.0
  0
LINE
  5
6201
  8
0
 10
-303.41818670687121
 20
19.215091970638369
 30
0.0
 11
-303.86554029310162
 21
18.365042233071549
 31
0.0
  0
ARC
  5
6202
  8
0
 10
-303.1428892527714
 20
18.326772588838349
 30
0.0
 40
0.9300000000000001
 50
342.78141675980129
 51
107.2186346986017
  0
LINE
  5
6203
  8
0
 10
-302.25456961857128
 20
18.05147597133838
 30
0.0
 11
-301.1127306028713
 21
16.90963658003837
 31
0.0
  0
ARC
  5
6204
  8
0
 10
-303.57176870117132
 20
17.89789314043837
 30
0.0
 40
0.5
 50
344.9999905762399
 51
104.99998426762021
  0
LINE
  5
6205
  8
0
 10
-302.25456961857128
 20
18.05147597133838
 30
0.0
 11
-303.10461974671642
 21
17.604121474624989
 31
0.0
  0
LINE
  5
6206
  8
0
 10
-300.62273260267131
 20
24.92675073893837
 30
0.0
 11
-301.55057098237143
 21
27.166750738938369
 31
0.0
  0
LINE
  5
6207
  8
0
 10
-301.11978887747131
 20
26.126750738938359
 30
0.0
 11
-302.2522748832713
 21
24.994264733138358
 31
0.0
  0
LINE
  5
6208
  8
0
 10
-301.02222710527133
 20
24.527256236338371
 30
0.0
 11
-302.2522748832713
 21
24.994264733138358
 31
0.0
  0
ARC
  5
6209
  8
0
 10
-303.56686304247131
 20
25.150458678838369
 30
0.0
 40
0.5
 50
254.99999999999881
 51
14.99999999999841
  0
LINE
  5
620A
  8
0
 10
-303.41066909687157
 20
23.835870519638359
 30
0.0
 11
-303.86018038112832
 21
24.68334130049486
 31
0.0
  0
LINE
  5
620B
  8
0
 10
-302.2522748832713
 20
24.994264733138358
 30
0.0
 11
-303.09974566412848
 21
25.44377601748387
 31
0.0
  0
ARC
  5
620C
  8
0
 10
-303.1428892527714
 20
24.72648488903836
 30
0.0
 40
0.9300000000000001
 50
253.2656132808988
 51
16.734386719098961
  0
LINE
  5
620D
  8
0
 10
-302.94366060007133
 20
22.605822741538368
 30
0.0
 11
-303.41066909687157
 21
23.835870519638359
 31
0.0
  0
LINE
  5
620E
  8
0
 10
-296.28699641373998
 20
27.166750738938379
 30
0.0
 11
-301.55057098237143
 21
27.166750738938369
 31
0.0
  0
ARC
  5
620F
  8
0
 10
-302.60093721618227
 20
25.409277723940921
 30
0.0
 40
0.5
 50
135.0000000000004
 51
194.99999999999841
  0
LINE
  5
6210
  8
0
 10
-301.55057098237143
 20
27.166750738938369
 30
0.0
 11
-302.95449060677549
 21
25.76283111453413
 31
0.0
  0
LINE
  5
6211
  8
0
 10
-285.17485002287123
 20
27.166750738938369
 30
0.0
 11
-290.43792810903562
 21
27.166750738938369
 31
0.0
  0
LINE
  5
6212
  8
0
 10
-303.36273260267137
 20
11.525933938868491
 30
0.0
 11
-303.36273260267137
 21
8.5269721698848162
 31
0.0
  0
LINE
  5
6213
  8
0
 10
-283.36273260267137
 20
11.526971739056471
 30
0.0
 11
-283.36273260267131
 21
8.5254488682449665
 31
0.0
  0
LINE
  5
6214
  8
0
 10
-272.89690517727001
 20
12.126552759527939
 30
0.0
 11
-283.96231355362431
 21
12.126552759527939
 31
0.0
  0
LINE
  5
6215
  8
0
 10
-302.76211374719333
 20
12.126552759527939
 30
0.0
 11
-313.82856002807279
 21
12.126552759527939
 31
0.0
  0
LINE
  5
6216
  8
0
 10
-288.36253462428812
 20
37.52655275952803
 30
0.0
 11
-298.36293058105468
 21
37.526552759527988
 31
0.0
  0
LINE
  5
6217
  8
0
 10
-314.86253462428812
 20
37.52655275952803
 30
0.0
 11
-323.86293058105468
 21
37.526552759527988
 31
0.0
  0
LINE
  5
6218
  8
0
 10
-262.86253462428812
 20
37.52655275952803
 30
0.0
 11
-271.86293058105468
 21
37.526552759528002
 31
0.0
  0
ENDSEC
  0
EOF
