  0
SECTION
  2
HEADER
  9
$ACADVER
  1
AC1009
  9
$INSBASE
 10
0.0
 20
0.0
 30
0.0
  9
$EXTMIN
 10
-316.17611320340029
 20
-55.280008748844388
 30
0.0
  9
$EXTMAX
 10
-74.684617626916861
 20
126.6991663584419
 30
0.0
  9
$LIMMIN
 10
-10.0
 20
-15.0
  9
$LIMMAX
 10
120.0
 20
90.0
  9
$ORTHOMODE
 70
     1
  9
$REGENMODE
 70
     0
  9
$FILLMODE
 70
     1
  9
$QTEXTMODE
 70
     0
  9
$MIRRTEXT
 70
     0
  9
$DRAGMODE
 70
     2
  9
$LTSCALE
 40
20.0
  9
$OSMODE
 70
  3071
  9
$ATTMODE
 70
     1
  9
$TEXTSIZE
 40
3.0
  9
$TRACEWID
 40
1.0
  9
$TEXTSTYLE
  7
STANDARD
  9
$CLAYER
  8
0
  9
$CELTYPE
  6
ByLayer
  9
$CECOLOR
 62
   256
  9
$DIMSCALE
 40
1.0
  9
$DIMASZ
 40
3.0
  9
$DIMEXO
 40
1.0
  9
$DIMDLI
 40
6.0
  9
$DIMRND
 40
0.0
  9
$DIMDLE
 40
0.0
  9
$DIMEXE
 40
1.0
  9
$DIMTP
 40
0.0
  9
$DIMTM
 40
0.0
  9
$DIMTXT
 40
3.0
  9
$DIMCEN
 40
1.5
  9
$DIMTSZ
 40
0.0
  9
$DIMTOL
 70
     0
  9
$DIMLIM
 70
     0
  9
$DIMTIH
 70
     1
  9
$DIMTOH
 70
     1
  9
$DIMSE1
 70
     0
  9
$DIMSE2
 70
     0
  9
$DIMTAD
 70
     0
  9
$DIMZIN
 70
     0
  9
$DIMBLK
  1

  9
$DIMASO
 70
     1
  9
$DIMSHO
 70
     0
  9
$DIMPOST
  1

  9
$DIMAPOST
  1

  9
$DIMALT
 70
     0
  9
$DIMALTD
 70
     2
  9
$DIMALTF
 40
25.399999999999999
  9
$DIMLFAC
 40
1.0
  9
$DIMTOFL
 70
     1
  9
$DIMTVP
 40
0.0
  9
$DIMTIX
 70
     0
  9
$DIMSOXD
 70
     0
  9
$DIMSAH
 70
     0
  9
$DIMBLK1
  1

  9
$DIMBLK2
  1

  9
$DIMSTYLE
  2
STANDARD
  9
$DIMCLRD
 70
     0
  9
$DIMCLRE
 70
     0
  9
$DIMCLRT
 70
     0
  9
$DIMTFAC
 40
1.0
  9
$DIMGAP
 40
0.09
  9
$LUNITS
 70
     2
  9
$LUPREC
 70
     4
  9
$SKETCHINC
 40
0.5
  9
$FILLETRAD
 40
0.0
  9
$AUNITS
 70
     0
  9
$AUPREC
 70
     0
  9
$MENU
  1
ACAD
  9
$ELEVATION
 40
0.0
  9
$PELEVATION
 40
0.0
  9
$THICKNESS
 40
0.0
  9
$LIMCHECK
 70
     0
  9
$BLIPMODE
 70
     0
  9
$CHAMFERA
 40
0.0
  9
$CHAMFERB
 40
0.0
  9
$SKPOLY
 70
     0
  9
$TDCREATE
 40
2444975.333333334
  9
$TDUPDATE
 40
2453686.6400669101
  9
$TDINDWG
 40
0.0384603241
  9
$TDUSRTIMER
 40
0.0
  9
$USRTIMER
 70
     0
  9
$ANGBASE
 50
0.0
  9
$ANGDIR
 70
     0
  9
$PDMODE
 70
   171
  9
$PDSIZE
 40
0.001
  9
$PLINEWID
 40
0.0
  9
$COORDS
 70
     2
  9
$SPLFRAME
 70
     0
  9
$SPLINETYPE
 70
     6
  9
$SPLINESEGS
 70
     8
  9
$ATTDIA
 70
     0
  9
$ATTREQ
 70
     1
  9
$HANDLING
 70
     1
  9
$HANDSEED
  5
5EA0
  9
$SURFTAB1
 70
     6
  9
$SURFTAB2
 70
     6
  9
$SURFTYPE
 70
     6
  9
$SURFU
 70
     6
  9
$SURFV
 70
     6
  9
$UCSNAME
  2

  9
$UCSORG
 10
0.0
 20
0.0
 30
0.0
  9
$UCSXDIR
 10
1.0
 20
0.0
 30
0.0
  9
$UCSYDIR
 10
0.0
 20
1.0
 30
0.0
  9
$PUCSNAME
  2

  9
$PUCSORG
 10
0.0
 20
0.0
 30
0.0
  9
$PUCSXDIR
 10
1.0
 20
0.0
 30
0.0
  9
$PUCSYDIR
 10
0.0
 20
1.0
 30
0.0
  9
$USERI1
 70
     0
  9
$USERI2
 70
     0
  9
$USERI3
 70
     0
  9
$USERI4
 70
     0
  9
$USERI5
 70
     0
  9
$USERR1
 40
0.0
  9
$USERR2
 40
0.0
  9
$USERR3
 40
0.0
  9
$USERR4
 40
0.0
  9
$USERR5
 40
0.0
  9
$WORLDVIEW
 70
     1
  9
$SHADEDGE
 70
     3
  9
$SHADEDIF
 70
    70
  9
$TILEMODE
 70
     1
  9
$MAXACTVP
 70
    48
  9
$PLIMCHECK
 70
     0
  9
$PEXTMIN
 10
1.0000000000000000E+020
 20
1.0000000000000000E+020
 30
1.0000000000000000E+020
  9
$PEXTMAX
 10
-1.0000000000000000E+020
 20
-1.0000000000000000E+020
 30
-1.0000000000000000E+020
  9
$PLIMMIN
 10
0.0
 20
0.0
  9
$PLIMMAX
 10
12.0
 20
9.0
  9
$UNITMODE
 70
     0
  9
$VISRETAIN
 70
     1
  9
$PLINEGEN
 70
     0
  9
$PSLTSCALE
 70
     0
  0
ENDSEC
  0
SECTION
  2
TABLES
  0
TABLE
  2
VPORT
 70
     2
  0
VPORT
  2
*ACTIVE
 70
     0
 10
0.0
 20
0.0
 11
1.0
 21
1.0
 12
-197.8297276462267
 22
48.388152357298708
 13
457.99999999999972
 23
1082.0
 14
10.0
 24
10.0
 15
10.0
 25
10.0
 16
0.0
 26
0.0
 36
1.0
 17
0.0
 27
0.0
 37
0.0
 40
261.11041642297982
 41
1.7038081805359659
 42
1.0
 43
0.0
 44
0.0
 50
0.0
 51
0.0
 71
     0
 72
   100
 73
     1
 74
     1
 75
     0
 76
     0
 77
     0
 78
     0
  0
ENDTAB
  0
TABLE
  2
LTYPE
 70
     5
  0
LTYPE
  2
ByBlock
 70
     0
  3

 72
    65
 73
     0
 40
0.0
  0
LTYPE
  2
ByLayer
 70
     0
  3

 72
    65
 73
     0
 40
0.0
  0
LTYPE
  2
CONTINUOUS
 70
     0
  3
łsÄň˝u ________________________
 72
    65
 73
     2
 40
200000.0
 49
200000.0
 49
0.0
  0
LTYPE
  2
CENTER2
 70
     0
  3
Center (.5x) ___ _ ___ _ ___ _ ___ _ ___ _ ___
 72
    65
 73
     4
 40
1.125
 49
0.75
 49
-0.125
 49
0.125
 49
-0.125
  0
LTYPE
  2
DASHED2
 70
     0
  3
Dashed (.5x) _ _ _ _ _ _ _ _ _ _ _ _ _ _ _ _ _
 72
    65
 73
     2
 40
0.375
 49
0.25
 49
-0.125
  0
ENDTAB
  0
TABLE
  2
LAYER
 70
     9
  0
LAYER
  2
0
 70
     0
 62
     7
  6
CONTINUOUS
  0
LAYER
  2
¤¤¤ß˝u
 70
     0
 62
     4
  6
CENTER2
  0
LAYER
  2
µę˝u
 70
     0
 62
     6
  6
DASHED2
  0
LAYER
  2
«ü˝u
 70
     0
 62
     3
  6
CONTINUOUS
  0
LAYER
  2
«Řşc˝u
 70
     0
 62
     1
  6
CONTINUOUS
  0
LAYER
  2
AM4
 70
     0
 62
     3
  6
CONTINUOUS
  0
LAYER
  2
AM7
 70
     0
 62
     4
  6
CENTER2
  0
LAYER
  2
AM5
 70
     0
 62
     3
  6
CONTINUOUS
  0
LAYER
  2
0_15
 70
     0
 62
     1
  6
CONTINUOUS
  0
ENDTAB
  0
TABLE
  2
STYLE
 70
     1
  0
STYLE
  2
STANDARD
 70
     0
 40
0.0
 41
1.0
 50
0.0
 71
     0
 42
3.0
  3
txt
  4

  0
ENDTAB
  0
TABLE
  2
VIEW
 70
     0
  0
ENDTAB
  0
TABLE
  2
UCS
 70
     0
  0
ENDTAB
  0
TABLE
  2
APPID
 70
     4
  0
APPID
  2
ACAD
 70
     0
  0
APPID
  2
TCAD
 70
     0
  0
APPID
  2
PNTFLAG
 70
     0
  0
APPID
  2
CONTENTBLOCKICON
 70
     0
  0
ENDTAB
  0
TABLE
  2
DIMSTYLE
 70
     2
  0
DIMSTYLE
  2
STANDARD
 70
     0
  3

  4

  5

  6

  7

 40
1.0
 41
0.18
 42
0.0625
 43
0.38
 44
0.18
 45
0.0
 46
0.0
 47
0.0
 48
0.0
140
0.18
141
0.09
142
0.0
143
25.399999999999999
144
1.0
145
0.0
146
1.0
147
0.09
 71
     0
 72
     0
 73
     1
 74
     1
 75
     0
 76
     0
 77
     0
 78
     0
170
     0
171
     2
172
     0
173
     0
174
     0
175
     0
176
     0
177
     0
178
     0
  0
DIMSTYLE
  2
ISO-25
 70
     0
  3

  4

  5

  6

  7

 40
1.0
 41
1.1999999999999991
 42
0.7
 43
3.75
 44
0.3
 45
0.0
 46
0.0
 47
0.0
 48
0.0
140
1.5
141
2.5
142
0.0
143
0.03937007874016
144
1.0
145
0.0
146
1.0
147
0.5
 71
     0
 72
     0
 73
     0
 74
     0
 75
     0
 76
     0
 77
     1
 78
     1
170
     0
171
     3
172
     1
173
     0
174
     0
175
     0
176
     3
177
     3
178
     2
  0
ENDTAB
  0
ENDSEC
  0
SECTION
  2
BLOCKS
  0
BLOCK
  8
0
  2
$MODEL_SPACE
 70
     0
 10
0.0
 20
0.0
 30
0.0
  3
$MODEL_SPACE
  1

  0
ENDBLK
  5
255
  8
0
  0
BLOCK
 67
     1
  8
0
  2
$PAPER_SPACE
 70
     0
 10
0.0
 20
0.0
 30
0.0
  3
$PAPER_SPACE
  1

  0
ENDBLK
  5
253
 67
     1
  8
0
  0
BLOCK
  8
0
  2
I1
 70
     0
 10
0.0
 20
0.0
 30
0.0
  3
I1
  1

  0
LINE
  5
4030
  8
¤¤¤ß˝u
 10
-1.783849796371328
 20
0.0
 30
0.0
 11
3.967787178009643
 21
0.0
 31
0.0
  0
ARC
  5
4031
  8
0
 10
0.335523819494028
 20
0.9802483619828871
 30
0.0
 40
1.220011576012179
 50
105.9630221688284
 51
179.0723572120024
  0
LINE
  5
4032
  8
0
 10
-0.88432785935845
 20
1.0
 30
0.0
 11
-0.88432785935845
 21
-1.0
 31
0.0
  0
ARC
  5
4033
  8
0
 10
0.335523819494028
 20
-0.9802483619828871
 30
0.0
 40
1.220011576012179
 50
180.92764278799751
 51
254.0369778311715
  0
ENDBLK
  5
4035
  8
0
  0
BLOCK
  8
0
  2
HGW20HC_F
 70
     0
 10
0.0
 20
0.0
 30
0.0
  3
HGW20HC_F
  1

  0
LINE
  5
4B1D
  8
0
 10
17.768656696693139
 20
1.9490381056768911
 30
0.0
 11
-17.768656696693139
 21
1.9490381056768911
 31
0.0
  0
LINE
  5
4B1E
  8
0
 10
-32.600000000000023
 20
0.0
 30
0.0
 11
32.600000000000023
 21
0.0
 31
0.0
  0
LINE
  5
4B1F
  8
0
 10
-24.251072745005668
 20
15.900000000000031
 30
0.0
 11
-15.74892725499433
 21
15.900000000000031
 31
0.0
  0
POLYLINE
  5
4B20
  8
0
 66
     1
 10
0.0
 20
0.0
 30
0.0
  0
VERTEX
  5
5D3D
  8
0
 10
-24.251072745005668
 20
12.224501843948531
 30
0.0
  0
VERTEX
  5
5D3E
  8
0
 10
-24.246644234103769
 20
12.17075793410163
 30
0.0
  0
VERTEX
  5
5D3F
  8
0
 10
-24.233849463353181
 20
12.08966295814934
 30
0.0
  0
VERTEX
  5
5D40
  8
0
 10
-24.227987314302251
 20
12.057086138502029
 30
0.0
  0
VERTEX
  5
5D41
  8
0
 10
-24.204132714334602
 20
11.93080207272925
 30
0.0
  0
VERTEX
  5
5D42
  8
0
 10
-24.18233774494183
 20
11.814451043289241
 30
0.0
  0
VERTEX
  5
5D43
  8
0
 10
-24.144723209149561
 20
11.59321574179557
 30
0.0
  0
VERTEX
  5
5D44
  8
0
 10
-24.109702417213839
 20
11.333640141127431
 30
0.0
  0
VERTEX
  5
5D45
  8
0
 10
-24.100040235653069
 20
11.24135947262544
 30
0.0
  0
VERTEX
  5
5D46
  8
0
 10
-24.08676038025499
 20
11.08131890095558
 30
0.0
  0
VERTEX
  5
5D47
  8
0
 10
-24.07461279140227
 20
10.926023989850361
 30
0.0
  0
VERTEX
  5
5D48
  8
0
 10
-24.048005039435228
 20
10.604708284579941
 30
0.0
  0
VERTEX
  5
5D49
  8
0
 10
-23.990076647570049
 20
9.9761709692832028
 30
0.0
  0
VERTEX
  5
5D4A
  8
0
 10
-23.875857810872731
 20
8.9320870094978204
 30
0.0
  0
VERTEX
  5
5D4B
  8
0
 10
-23.733381868433639
 20
7.8618652409830361
 30
0.0
  0
VERTEX
  5
5D4C
  8
0
 10
-23.679824789286609
 20
7.5059195502589091
 30
0.0
  0
VERTEX
  5
5D4D
  8
0
 10
-23.504436001964791
 20
6.4681655619828566
 30
0.0
  0
VERTEX
  5
5D4E
  8
0
 10
-23.347874275635149
 20
5.6719100108136891
 30
0.0
  0
VERTEX
  5
5D4F
  8
0
 10
-23.211664544282371
 20
5.0554197641108649
 30
0.0
  0
VERTEX
  5
5D50
  8
0
 10
-23.037739242498791
 20
4.3509349299435476
 30
0.0
  0
VERTEX
  5
5D51
  8
0
 10
-22.88771884575203
 20
3.8066055059252331
 30
0.0
  0
VERTEX
  5
5D52
  8
0
 10
-22.683004747076659
 20
3.1432075332629088
 30
0.0
  0
VERTEX
  5
5D53
  8
0
 10
-22.505523172330982
 20
2.632845669162406
 30
0.0
  0
VERTEX
  5
5D54
  8
0
 10
-22.267841965043889
 20
2.0305352111316211
 30
0.0
  0
VERTEX
  5
5D55
  8
0
 10
-22.206017242433742
 20
1.8877499641822051
 30
0.0
  0
VERTEX
  5
5D56
  8
0
 10
-22.174159142242271
 20
1.817178154230191
 30
0.0
  0
VERTEX
  5
5D57
  8
0
 10
-22.127606610921021
 20
1.7315257827451651
 30
0.0
  0
VERTEX
  5
5D58
  8
0
 10
-22.015137449064241
 20
1.5798326225782371
 30
0.0
  0
VERTEX
  5
5D59
  8
0
 10
-21.91181444430697
 20
1.4775852270809651
 30
0.0
  0
VERTEX
  5
5D5A
  8
0
 10
-21.76056166663227
 20
1.363773564406642
 30
0.0
  0
VERTEX
  5
5D5B
  8
0
 10
-21.557890628356169
 20
1.2526671083112999
 30
0.0
  0
VERTEX
  5
5D5C
  8
0
 10
-21.389684617210492
 20
1.1839887579416191
 30
0.0
  0
VERTEX
  5
5D5D
  8
0
 10
-21.144693547117761
 20
1.109647722093086
 30
0.0
  0
VERTEX
  5
5D5E
  8
0
 10
-20.794483013148579
 20
1.0406343792963071
 30
0.0
  0
VERTEX
  5
5D5F
  8
0
 10
-20.43105162968288
 20
1.0008683042304931
 30
0.0
  0
VERTEX
  5
5D60
  8
0
 10
-20.144605652757718
 20
0.9872698480356802
 30
0.0
  0
VERTEX
  5
5D61
  8
0
 10
-19.754074775396361
 20
0.9904048831103295
 30
0.0
  0
VERTEX
  5
5D62
  8
0
 10
-19.45226059913341
 20
1.010744201995748
 30
0.0
  0
VERTEX
  5
5D63
  8
0
 10
-19.077728521192061
 20
1.061617891372804
 30
0.0
  0
VERTEX
  5
5D64
  8
0
 10
-18.79557905723436
 20
1.1255230422224249
 30
0.0
  0
VERTEX
  5
5D65
  8
0
 10
-18.54306925192509
 20
1.209260810301316
 30
0.0
  0
VERTEX
  5
5D66
  8
0
 10
-18.359239896408099
 20
1.2936538710209211
 30
0.0
  0
VERTEX
  5
5D67
  8
0
 10
-18.224954045010801
 20
1.3734068120529619
 30
0.0
  0
VERTEX
  5
5D68
  8
0
 10
-18.068800077226449
 20
1.4948984428089029
 30
0.0
  0
VERTEX
  5
5D69
  8
0
 10
-17.96180692197299
 20
1.6065866330066001
 30
0.0
  0
VERTEX
  5
5D6A
  8
0
 10
-17.85953552127512
 20
1.7532740861894349
 30
0.0
  0
VERTEX
  5
5D6B
  8
0
 10
-17.822229995859509
 20
1.8247561071935361
 30
0.0
  0
VERTEX
  5
5D6C
  8
0
 10
-17.790573507145378
 20
1.895482174506526
 30
0.0
  0
VERTEX
  5
5D6D
  8
0
 10
-17.55463889439158
 20
2.4720121357839839
 30
0.0
  0
VERTEX
  5
5D6E
  8
0
 10
-17.319325415492131
 20
3.1361088799457661
 30
0.0
  0
VERTEX
  5
5D6F
  8
0
 10
-17.15568728130404
 20
3.6587249125560102
 30
0.0
  0
VERTEX
  5
5D70
  8
0
 10
-16.94973990644484
 20
4.3980902434404348
 30
0.0
  0
VERTEX
  5
5D71
  8
0
 10
-16.731470542979991
 20
5.3044529488080912
 30
0.0
  0
VERTEX
  5
5D72
  8
0
 10
-16.582497948011788
 20
6.013844032974986
 30
0.0
  0
VERTEX
  5
5D73
  8
0
 10
-16.398021544910758
 20
7.0230705262297297
 30
0.0
  0
VERTEX
  5
5D74
  8
0
 10
-16.237489482732709
 20
8.0649417219821657
 30
0.0
  0
VERTEX
  5
5D75
  8
0
 10
-16.18991434543727
 20
8.4130460018375288
 30
0.0
  0
VERTEX
  5
5D76
  8
0
 10
-16.0709751314306
 20
9.3918730098230867
 30
0.0
  0
VERTEX
  5
5D77
  8
0
 10
-15.96998011987932
 20
10.400100525983129
 30
0.0
  0
VERTEX
  5
5D78
  8
0
 10
-15.940833188598839
 20
10.73657511809324
 30
0.0
  0
VERTEX
  5
5D79
  8
0
 10
-15.916905465625289
 20
11.033830219750991
 30
0.0
  0
VERTEX
  5
5D7A
  8
0
 10
-15.90572980277318
 20
11.17744164386221
 30
0.0
  0
VERTEX
  5
5D7B
  8
0
 10
-15.892328509004299
 20
11.31557710337478
 30
0.0
  0
VERTEX
  5
5D7C
  8
0
 10
-15.8630071112691
 20
11.54248726491363
 30
0.0
  0
VERTEX
  5
5D7D
  8
0
 10
-15.82895525784204
 20
11.75166776561815
 30
0.0
  0
VERTEX
  5
5D7E
  8
0
 10
-15.817566962302861
 20
11.81497129645447
 30
0.0
  0
VERTEX
  5
5D7F
  8
0
 10
-15.789843995248249
 20
11.962780786178479
 30
0.0
  0
VERTEX
  5
5D80
  8
0
 10
-15.76905134277524
 20
12.07392885035688
 30
0.0
  0
VERTEX
  5
5D81
  8
0
 10
-15.75446755219013
 20
12.162335626591871
 30
0.0
  0
VERTEX
  5
5D82
  8
0
 10
-15.75153464530046
 20
12.185575912134251
 30
0.0
  0
VERTEX
  5
5D83
  8
0
 10
-15.749237409820459
 20
12.23396994592076
 30
0.0
  0
VERTEX
  5
5D84
  8
0
 10
-15.754010603672331
 20
12.25285390084122
 30
0.0
  0
VERTEX
  5
5D85
  8
0
 10
-15.758972689994151
 20
12.255949672805681
 30
0.0
  0
SEQEND
  5
5D86
  8
0
  0
LINE
  5
4B21
  8
0
 10
-32.600000000000023
 20
24.400000000000031
 30
0.0
 11
32.600000000000023
 21
24.400000000000031
 31
0.0
  0
LINE
  5
4B22
  8
0
 10
-32.600000000000023
 20
25.400000000000041
 30
0.0
 11
32.600000000000023
 21
25.400000000000041
 31
0.0
  0
LINE
  5
4B23
  8
µę˝u
 10
-22.99999999999989
 20
16.60000000000008
 30
0.0
 11
-16.999999999999879
 21
16.60000000000019
 31
0.0
  0
LINE
  5
4B24
  8
µę˝u
 10
-22.99999999999989
 20
24.900000000000041
 30
0.0
 11
-16.999999999999879
 21
24.89999999999992
 31
0.0
  0
LINE
  5
4B25
  8
µę˝u
 10
-17.499999999999879
 20
24.89999999999992
 30
0.0
 11
-17.50000000000011
 21
16.60000000000019
 31
0.0
  0
LINE
  5
4B26
  8
µę˝u
 10
-22.49999999999989
 20
24.900000000000041
 30
0.0
 11
-22.50000000000011
 21
16.60000000000008
 31
0.0
  0
LINE
  5
4B27
  8
µę˝u
 10
-22.99999999999989
 20
24.900000000000041
 30
0.0
 11
-22.99999999999989
 21
16.60000000000008
 31
0.0
  0
LINE
  5
4B28
  8
¤¤¤ß˝u
 10
-20.0
 20
14.400000000000031
 30
0.0
 11
-20.0
 21
26.400000000000041
 31
0.0
  0
LINE
  5
4B29
  8
0
 10
-41.600000000000023
 20
0.0000000000000568
 30
0.0
 11
-41.600000000000023
 21
24.400003943300081
 31
0.0
  0
LINE
  5
4B2A
  8
0
 10
-32.600000000000023
 20
25.400000000000041
 30
0.0
 11
-32.600000000000023
 21
0.0
 31
0.0
  0
LINE
  5
4B2B
  8
¤¤¤ß˝u
 10
-41.649999999999977
 20
18.400000000000031
 30
0.0
 11
-34.149999999999977
 21
18.400000000000031
 31
0.0
  0
LINE
  5
4B2C
  8
0
 10
-32.600000000000023
 20
22.900003943300081
 30
0.0
 11
-41.600000000000023
 21
22.900003943300081
 31
0.0
  0
LINE
  5
4B2D
  8
0
 10
-32.600000000000023
 20
1.500000000000056
 30
0.0
 11
-41.600000000000023
 21
1.500000000000056
 31
0.0
  0
LINE
  5
4B2E
  8
0
 10
-32.600000000000023
 20
0.0000000000000568
 30
0.0
 11
-41.600000000000023
 21
0.0000000000000568
 31
0.0
  0
CIRCLE
  5
4B2F
  8
0
 10
-37.899999999999977
 20
18.400000000000031
 30
0.0
 40
1.0
  0
LINE
  5
4B30
  8
¤¤¤ß˝u
 10
-37.899999999999977
 20
14.650000000000031
 30
0.0
 11
-37.899999999999977
 21
22.150000000000031
 31
0.0
  0
CIRCLE
  5
4B31
  8
0
 10
-37.899999999999977
 20
18.400000000000031
 30
0.0
 40
2.4999999728999991
  0
CIRCLE
  5
4B32
  8
0
 10
-37.899999999999977
 20
18.400000000000031
 30
0.0
 40
3.144781861999999
  0
CIRCLE
  5
4B33
  8
0
 10
-37.899999999999977
 20
18.400000000000031
 30
0.0
 40
2.8277919627000001
  0
LINE
  5
4B34
  8
0
 10
-22.232554454282649
 20
1.9490381056768911
 30
0.0
 11
-32.600000000000023
 21
1.9490381056768911
 31
0.0
  0
LINE
  5
4B35
  8
0
 10
-24.251072745005668
 20
15.400000000000031
 30
0.0
 11
-32.600000000000023
 21
15.400000000000031
 31
0.0
  0
LINE
  5
4B36
  8
µę˝u
 10
-23.00000000000011
 20
16.60000000000008
 30
0.0
 11
-23.699999999999928
 21
15.900000000000031
 31
0.0
  0
LINE
  5
4B37
  8
0
 10
-24.251072745005668
 20
15.900000000000031
 30
0.0
 11
-24.251072745005668
 21
12.256223361423791
 31
0.0
  0
LINE
  5
4B38
  8
0
 10
-32.600000000000023
 20
24.400003943300081
 30
0.0
 11
-41.600000000000023
 21
24.400003943300081
 31
0.0
  0
LINE
  5
4B39
  8
µę˝u
 10
-23.00000000000011
 20
24.900000000000041
 30
0.0
 11
-23.499999999999879
 21
25.400000000000041
 31
0.0
  0
LINE
  5
4B3A
  8
µę˝u
 10
22.50000000000011
 20
24.89999999999992
 30
0.0
 11
22.49999999999989
 21
16.60000000000019
 31
0.0
  0
LINE
  5
4B3B
  8
µę˝u
 10
23.00000000000011
 20
24.89999999999992
 30
0.0
 11
23.00000000000011
 21
16.60000000000019
 31
0.0
  0
LINE
  5
4B3C
  8
µę˝u
 10
17.50000000000011
 20
24.900000000000041
 30
0.0
 11
17.499999999999879
 21
16.60000000000008
 31
0.0
  0
LINE
  5
4B3D
  8
µę˝u
 10
17.00000000000011
 20
24.900000000000041
 30
0.0
 11
17.00000000000011
 21
16.60000000000008
 31
0.0
  0
LINE
  5
4B3E
  8
¤¤¤ß˝u
 10
20.0
 20
14.400000000000031
 30
0.0
 11
20.0
 21
26.400000000000041
 31
0.0
  0
LINE
  5
4B3F
  8
0
 10
32.600000000000023
 20
0.0
 30
0.0
 11
32.600000000000023
 21
25.400000000000041
 31
0.0
  0
LINE
  5
4B40
  8
0
 10
41.600000000000023
 20
0.0000000000000568
 30
0.0
 11
41.600000000000023
 21
24.400003943300081
 31
0.0
  0
LINE
  5
4B41
  8
µę˝u
 10
-16.999999999999879
 20
24.89999999999992
 30
0.0
 11
-16.999999999999879
 21
16.60000000000019
 31
0.0
  0
LINE
  5
4B42
  8
0
 10
24.251072745005668
 20
15.900000000000031
 30
0.0
 11
15.74892725499433
 21
15.900000000000031
 31
0.0
  0
POLYLINE
  5
4B43
  8
0
 66
     1
 10
0.0
 20
0.0
 30
0.0
  0
VERTEX
  5
5D87
  8
0
 10
24.251072745005668
 20
12.224501843948531
 30
0.0
  0
VERTEX
  5
5D88
  8
0
 10
24.246644234103769
 20
12.17075793410163
 30
0.0
  0
VERTEX
  5
5D89
  8
0
 10
24.233849463353181
 20
12.08966295814934
 30
0.0
  0
VERTEX
  5
5D8A
  8
0
 10
24.227987314302251
 20
12.057086138502029
 30
0.0
  0
VERTEX
  5
5D8B
  8
0
 10
24.204132714334602
 20
11.93080207272925
 30
0.0
  0
VERTEX
  5
5D8C
  8
0
 10
24.18233774494183
 20
11.814451043289241
 30
0.0
  0
VERTEX
  5
5D8D
  8
0
 10
24.144723209149561
 20
11.59321574179557
 30
0.0
  0
VERTEX
  5
5D8E
  8
0
 10
24.109702417213839
 20
11.333640141127431
 30
0.0
  0
VERTEX
  5
5D8F
  8
0
 10
24.100040235653069
 20
11.24135947262544
 30
0.0
  0
VERTEX
  5
5D90
  8
0
 10
24.08676038025499
 20
11.08131890095558
 30
0.0
  0
VERTEX
  5
5D91
  8
0
 10
24.07461279140227
 20
10.926023989850361
 30
0.0
  0
VERTEX
  5
5D92
  8
0
 10
24.048005039435228
 20
10.604708284579941
 30
0.0
  0
VERTEX
  5
5D93
  8
0
 10
23.990076647570049
 20
9.9761709692832028
 30
0.0
  0
VERTEX
  5
5D94
  8
0
 10
23.875857810872731
 20
8.9320870094978204
 30
0.0
  0
VERTEX
  5
5D95
  8
0
 10
23.733381868433639
 20
7.8618652409830361
 30
0.0
  0
VERTEX
  5
5D96
  8
0
 10
23.679824789286609
 20
7.5059195502589091
 30
0.0
  0
VERTEX
  5
5D97
  8
0
 10
23.504436001964791
 20
6.4681655619828566
 30
0.0
  0
VERTEX
  5
5D98
  8
0
 10
23.347874275635149
 20
5.6719100108136891
 30
0.0
  0
VERTEX
  5
5D99
  8
0
 10
23.211664544282371
 20
5.0554197641108649
 30
0.0
  0
VERTEX
  5
5D9A
  8
0
 10
23.037739242498791
 20
4.3509349299435476
 30
0.0
  0
VERTEX
  5
5D9B
  8
0
 10
22.88771884575203
 20
3.8066055059252331
 30
0.0
  0
VERTEX
  5
5D9C
  8
0
 10
22.683004747076659
 20
3.1432075332629088
 30
0.0
  0
VERTEX
  5
5D9D
  8
0
 10
22.505523172330982
 20
2.632845669162406
 30
0.0
  0
VERTEX
  5
5D9E
  8
0
 10
22.267841965043889
 20
2.0305352111316211
 30
0.0
  0
VERTEX
  5
5D9F
  8
0
 10
22.206017242433742
 20
1.8877499641822051
 30
0.0
  0
VERTEX
  5
5DA0
  8
0
 10
22.174159142242271
 20
1.817178154230191
 30
0.0
  0
VERTEX
  5
5DA1
  8
0
 10
22.127606610921021
 20
1.7315257827451651
 30
0.0
  0
VERTEX
  5
5DA2
  8
0
 10
22.015137449064241
 20
1.5798326225782371
 30
0.0
  0
VERTEX
  5
5DA3
  8
0
 10
21.91181444430697
 20
1.4775852270809651
 30
0.0
  0
VERTEX
  5
5DA4
  8
0
 10
21.76056166663227
 20
1.363773564406642
 30
0.0
  0
VERTEX
  5
5DA5
  8
0
 10
21.557890628356169
 20
1.2526671083112999
 30
0.0
  0
VERTEX
  5
5DA6
  8
0
 10
21.389684617210492
 20
1.1839887579416191
 30
0.0
  0
VERTEX
  5
5DA7
  8
0
 10
21.144693547117761
 20
1.109647722093086
 30
0.0
  0
VERTEX
  5
5DA8
  8
0
 10
20.794483013148579
 20
1.0406343792963071
 30
0.0
  0
VERTEX
  5
5DA9
  8
0
 10
20.43105162968288
 20
1.0008683042304931
 30
0.0
  0
VERTEX
  5
5DAA
  8
0
 10
20.144605652757718
 20
0.9872698480356802
 30
0.0
  0
VERTEX
  5
5DAB
  8
0
 10
19.754074775396361
 20
0.9904048831103295
 30
0.0
  0
VERTEX
  5
5DAC
  8
0
 10
19.45226059913341
 20
1.010744201995748
 30
0.0
  0
VERTEX
  5
5DAD
  8
0
 10
19.077728521192061
 20
1.061617891372804
 30
0.0
  0
VERTEX
  5
5DAE
  8
0
 10
18.79557905723436
 20
1.1255230422224249
 30
0.0
  0
VERTEX
  5
5DAF
  8
0
 10
18.54306925192509
 20
1.209260810301316
 30
0.0
  0
VERTEX
  5
5DB0
  8
0
 10
18.359239896408099
 20
1.2936538710209211
 30
0.0
  0
VERTEX
  5
5DB1
  8
0
 10
18.224954045010801
 20
1.3734068120529619
 30
0.0
  0
VERTEX
  5
5DB2
  8
0
 10
18.068800077226449
 20
1.4948984428089029
 30
0.0
  0
VERTEX
  5
5DB3
  8
0
 10
17.96180692197299
 20
1.6065866330066001
 30
0.0
  0
VERTEX
  5
5DB4
  8
0
 10
17.85953552127512
 20
1.7532740861894349
 30
0.0
  0
VERTEX
  5
5DB5
  8
0
 10
17.822229995859509
 20
1.8247561071935361
 30
0.0
  0
VERTEX
  5
5DB6
  8
0
 10
17.790573507145378
 20
1.895482174506526
 30
0.0
  0
VERTEX
  5
5DB7
  8
0
 10
17.55463889439158
 20
2.4720121357839839
 30
0.0
  0
VERTEX
  5
5DB8
  8
0
 10
17.319325415492131
 20
3.1361088799457661
 30
0.0
  0
VERTEX
  5
5DB9
  8
0
 10
17.15568728130404
 20
3.6587249125560102
 30
0.0
  0
VERTEX
  5
5DBA
  8
0
 10
16.94973990644484
 20
4.3980902434404348
 30
0.0
  0
VERTEX
  5
5DBB
  8
0
 10
16.731470542979991
 20
5.3044529488080912
 30
0.0
  0
VERTEX
  5
5DBC
  8
0
 10
16.582497948011788
 20
6.013844032974986
 30
0.0
  0
VERTEX
  5
5DBD
  8
0
 10
16.398021544910758
 20
7.0230705262297297
 30
0.0
  0
VERTEX
  5
5DBE
  8
0
 10
16.237489482732709
 20
8.0649417219821657
 30
0.0
  0
VERTEX
  5
5DBF
  8
0
 10
16.18991434543727
 20
8.4130460018375288
 30
0.0
  0
VERTEX
  5
5DC0
  8
0
 10
16.0709751314306
 20
9.3918730098230867
 30
0.0
  0
VERTEX
  5
5DC1
  8
0
 10
15.96998011987932
 20
10.400100525983129
 30
0.0
  0
VERTEX
  5
5DC2
  8
0
 10
15.940833188598839
 20
10.73657511809324
 30
0.0
  0
VERTEX
  5
5DC3
  8
0
 10
15.916905465625289
 20
11.033830219750991
 30
0.0
  0
VERTEX
  5
5DC4
  8
0
 10
15.90572980277318
 20
11.17744164386221
 30
0.0
  0
VERTEX
  5
5DC5
  8
0
 10
15.892328509004299
 20
11.31557710337478
 30
0.0
  0
VERTEX
  5
5DC6
  8
0
 10
15.8630071112691
 20
11.54248726491363
 30
0.0
  0
VERTEX
  5
5DC7
  8
0
 10
15.82895525784204
 20
11.75166776561815
 30
0.0
  0
VERTEX
  5
5DC8
  8
0
 10
15.817566962302861
 20
11.81497129645447
 30
0.0
  0
VERTEX
  5
5DC9
  8
0
 10
15.789843995248249
 20
11.962780786178479
 30
0.0
  0
VERTEX
  5
5DCA
  8
0
 10
15.76905134277524
 20
12.07392885035688
 30
0.0
  0
VERTEX
  5
5DCB
  8
0
 10
15.75446755219013
 20
12.162335626591871
 30
0.0
  0
VERTEX
  5
5DCC
  8
0
 10
15.75153464530046
 20
12.185575912134251
 30
0.0
  0
VERTEX
  5
5DCD
  8
0
 10
15.749237409820459
 20
12.23396994592076
 30
0.0
  0
VERTEX
  5
5DCE
  8
0
 10
15.754010603672331
 20
12.25285390084122
 30
0.0
  0
VERTEX
  5
5DCF
  8
0
 10
15.758972689994151
 20
12.255949672805681
 30
0.0
  0
SEQEND
  5
5DD0
  8
0
  0
LINE
  5
4B44
  8
0
 10
15.74892725499433
 20
15.400000000000031
 30
0.0
 11
-15.74892725499433
 21
15.400000000000031
 31
0.0
  0
LINE
  5
4B45
  8
µę˝u
 10
-16.999999999999879
 20
16.60000000000019
 30
0.0
 11
-16.300000000000072
 21
15.900000000000031
 31
0.0
  0
LINE
  5
4B46
  8
0
 10
-15.74892725499433
 20
15.900000000000031
 30
0.0
 11
-15.74892725499433
 21
12.256223361423791
 31
0.0
  0
LINE
  5
4B47
  8
0
 10
15.74892725499433
 20
15.900000000000031
 30
0.0
 11
15.74892725499433
 21
12.256223361423791
 31
0.0
  0
LINE
  5
4B48
  8
0
 10
32.600000000000023
 20
22.900003943300081
 30
0.0
 11
41.600000000000023
 21
22.900003943300081
 31
0.0
  0
LINE
  5
4B49
  8
0
 10
32.600000000000023
 20
0.0000000000000568
 30
0.0
 11
41.600000000000023
 21
0.0000000000000568
 31
0.0
  0
LINE
  5
4B4A
  8
0
 10
32.600000000000023
 20
1.500000000000056
 30
0.0
 11
41.600000000000023
 21
1.500000000000056
 31
0.0
  0
LINE
  5
4B4B
  8
0
 10
32.600000000000023
 20
1.9490381056768911
 30
0.0
 11
22.232554454282649
 21
1.9490381056768911
 31
0.0
  0
LINE
  5
4B4C
  8
0
 10
32.600000000000023
 20
15.400000000000031
 30
0.0
 11
24.251072745005668
 21
15.400000000000031
 31
0.0
  0
LINE
  5
4B4D
  8
µę˝u
 10
23.00000000000011
 20
16.60000000000019
 30
0.0
 11
23.699999999999928
 21
15.900000000000031
 31
0.0
  0
LINE
  5
4B4E
  8
µę˝u
 10
16.999999999999879
 20
16.60000000000008
 30
0.0
 11
16.300000000000072
 21
15.900000000000031
 31
0.0
  0
LINE
  5
4B4F
  8
µę˝u
 10
17.00000000000011
 20
16.60000000000008
 30
0.0
 11
23.00000000000011
 21
16.60000000000019
 31
0.0
  0
LINE
  5
4B50
  8
0
 10
24.251072745005668
 20
15.900000000000031
 30
0.0
 11
24.251072745005668
 21
12.256223361423791
 31
0.0
  0
CIRCLE
  5
4B51
  8
0
 10
37.900000000000198
 20
18.400000000000031
 30
0.0
 40
1.0
  0
CIRCLE
  5
4B52
  8
0
 10
37.900000000000198
 20
18.400000000000031
 30
0.0
 40
2.8277919622000001
  0
CIRCLE
  5
4B53
  8
0
 10
37.900000000000198
 20
18.400000000000031
 30
0.0
 40
2.4999999728999991
  0
CIRCLE
  5
4B54
  8
0
 10
37.900000000000198
 20
18.400000000000031
 30
0.0
 40
3.1447818687999991
  0
LINE
  5
4B55
  8
¤¤¤ß˝u
 10
34.325000000000159
 20
18.400000000000031
 30
0.0
 11
41.475000000000023
 21
18.400000000000031
 31
0.0
  0
LINE
  5
4B56
  8
¤¤¤ß˝u
 10
37.900000000000198
 20
14.82500000000004
 30
0.0
 11
37.900000000000198
 21
21.975000000000019
 31
0.0
  0
LINE
  5
4B57
  8
µę˝u
 10
-16.999999999999879
 20
24.89999999999992
 30
0.0
 11
-16.50000000000011
 21
25.400000000000041
 31
0.0
  0
LINE
  5
4B58
  8
0
 10
32.600000000000023
 20
24.400003943300081
 30
0.0
 11
41.600000000000023
 21
24.400003943300081
 31
0.0
  0
LINE
  5
4B59
  8
µę˝u
 10
23.00000000000011
 20
24.89999999999992
 30
0.0
 11
23.499999999999879
 21
25.400000000000041
 31
0.0
  0
LINE
  5
4B5A
  8
µę˝u
 10
16.999999999999879
 20
24.900000000000041
 30
0.0
 11
16.50000000000011
 21
25.400000000000041
 31
0.0
  0
LINE
  5
4B5B
  8
µę˝u
 10
17.00000000000011
 20
24.900000000000041
 30
0.0
 11
23.00000000000011
 21
24.89999999999992
 31
0.0
  0
ENDBLK
  5
4B5D
  8
0
  0
BLOCK
  8
0
  2
A$C02B53278
 70
     0
 10
0.0
 20
0.0
 30
0.0
  3
A$C02B53278
  1

  0
LINE
  5
4C31
  8
AM7
 10
-3.5
 20
0.0
 30
0.0
 11
3.5
 21
0.0
 31
0.0
  0
ARC
  5
4C32
  8
AM4
 10
0.0
 20
0.0
 30
0.0
 40
2.9999999999998859
 50
266.17744627072591
 51
183.82255372927409
  0
LINE
  5
4C33
  8
AM7
 10
0.0
 20
-3.5
 30
0.0
 11
0.0
 21
3.5
 31
0.0
  0
CIRCLE
  5
4C34
  8
0
 10
0.0
 20
0.0
 30
0.0
 40
2.4999999999999138
  0
ENDBLK
  5
4C36
  8
0
  0
BLOCK
  8
0
  2
A$C781E382E
 70
     0
 10
0.0
 20
0.0
 30
0.0
  3
A$C781E382E
  1

  0
ARC
  5
4F96
  8
0
 10
9.7800566501177855
 20
17.199734150117798
 30
0.0
 40
2.129999999999999
 50
185.36290811337429
 51
264.6370985380525
  0
ARC
  5
4F97
  8
0
 10
9.7800566501177855
 20
10.800021849882331
 30
0.0
 40
2.129999999999999
 50
95.049881965108554
 51
174.95013512119729
  0
ARC
  5
4F98
  8
0
 10
-9.7800566501177855
 20
10.800021849882331
 30
0.0
 40
2.129999999999999
 50
5.0753009504657109
 51
84.924724058902711
  0
ARC
  5
4F99
  8
0
 10
-9.7800566501177855
 20
17.199734150117798
 30
0.0
 40
2.129999999999999
 50
275.39251268205442
 51
354.60749637709461
  0
LINE
  5
4F9A
  8
0
 10
9.9999999999997655
 20
4.0000768000366378
 30
0.0
 11
9.9999999999997655
 21
0.9991443500001233
 31
0.0
  0
LINE
  5
4F9B
  8
0
 10
-10.000000000000229
 20
3.9993274000223238
 30
0.0
 11
-10.0
 21
1.000171169400176
 31
0.0
  0
LINE
  5
4F9C
  8
µę˝u
 10
3.0001220999999978
 20
8.6999999999997968
 30
0.0
 11
3.0001220999999978
 21
0.5000223852734829
 31
0.0
  0
LINE
  5
4F9D
  8
µę˝u
 10
-2.9998779000000009
 20
8.6999999999997968
 30
0.0
 11
-2.9998779000000009
 21
0.5000223852734829
 31
0.0
  0
LINE
  5
4F9E
  8
¤¤¤ß˝u
 10
0.0
 20
0.0
 30
0.0
 11
0.0
 21
18.382972174047129
 31
0.0
  0
LINE
  5
4F9F
  8
0
 10
-10.0
 20
1.000171169400176
 30
0.0
 11
-8.9998275141015256
 21
0.0000000000000009
 31
0.0
  0
LINE
  5
4FA0
  8
µę˝u
 10
-2.9998779000000009
 20
0.5000223852734829
 30
0.0
 11
2.999884683361187
 21
0.4999816868844258
 31
0.0
  0
LINE
  5
4FA1
  8
0
 10
9.0008556494003642
 20
0.0000000000000009
 30
0.0
 11
3.0000437594142109
 21
0.0000000000000009
 31
0.0
  0
LINE
  5
4FA2
  8
µę˝u
 10
3.4998528042599442
 20
0.0000000000000009
 30
0.0
 11
2.999884683361187
 21
0.4999816868844258
 31
0.0
  0
LINE
  5
4FA3
  8
0
 10
2.500043790017116
 20
0.4999999999999725
 30
0.0
 11
3.0000437594142109
 21
0.0000000000000009
 31
0.0
  0
LINE
  5
4FA4
  8
0
 10
9.9999999999997655
 20
0.9991443500001233
 30
0.0
 11
9.0008556494003642
 21
0.0000000000000009
 31
0.0
  0
LINE
  5
4FA5
  8
0
 10
-2.9991642746651901
 20
0.0000000000000009
 30
0.0
 11
-8.9998275141015256
 21
0.0000000000000009
 31
0.0
  0
LINE
  5
4FA6
  8
µę˝u
 10
-3.499900285273724
 20
0.0000000000000009
 30
0.0
 11
-2.9998779000000009
 21
0.5000223852734829
 31
0.0
  0
LINE
  5
4FA7
  8
0
 10
-2.9991642746651901
 20
0.0000000000000009
 30
0.0
 11
-2.4991643200344238
 21
0.4999999999999654
 31
0.0
  0
LINE
  5
4FA8
  8
0
 10
-2.4991643200344238
 20
0.4999999999999654
 30
0.0
 11
2.500043790017116
 21
0.4999999999999725
 31
0.0
  0
LINE
  5
4FA9
  8
0
 10
-10.000000000000229
 20
3.9993274000223238
 30
0.0
 11
-6.5498047000000952
 21
7.4495225000102261
 31
0.0
  0
LINE
  5
4FAA
  8
0
 10
-10.0
 20
14.659044600670841
 30
0.0
 11
-9.5798830540417725
 21
15.079160989051671
 31
0.0
  0
LINE
  5
4FAB
  8
0
 10
-10.0
 20
14.659044600670841
 30
0.0
 11
-10.000000000000229
 21
13.33004360008588
 31
0.0
  0
LINE
  5
4FAC
  8
0
 10
-10.000000000000229
 20
13.33004360008588
 30
0.0
 11
-9.5916273061934163
 21
12.92167082705747
 31
0.0
  0
LINE
  5
4FAD
  8
µę˝u
 10
4.7501220999999978
 20
17.099999999999891
 30
0.0
 11
4.7501220999999978
 21
8.9999999999999911
 31
0.0
  0
LINE
  5
4FAE
  8
0
 10
6.5500487999995576
 20
9.8792357003491773
 30
0.0
 11
7.6583243119304916
 21
10.98751020976191
 31
0.0
  0
LINE
  5
4FAF
  8
µę˝u
 10
3.0
 20
8.6999999999997968
 30
0.0
 11
3.2999999999999541
 21
8.9999999999999911
 31
0.0
  0
LINE
  5
4FB0
  8
0
 10
9.5809790211101742
 20
15.0790578198805
 30
0.0
 11
10.0
 21
14.660036999840591
 31
0.0
  0
LINE
  5
4FB1
  8
0
 10
10.0
 20
14.660036999840591
 30
0.0
 11
10.000000000000229
 21
13.32918600046359
 31
0.0
  0
LINE
  5
4FB2
  8
0
 10
9.5925676575115446
 20
12.92175413215819
 30
0.0
 11
10.000000000000229
 21
13.32918600046359
 31
0.0
  0
LINE
  5
4FB3
  8
0
 10
7.1600367000635279
 20
17.499999999999989
 30
0.0
 11
7.6593803429912759
 21
17.00065627492236
 31
0.0
  0
LINE
  5
4FB4
  8
µę˝u
 10
4.750122281758876
 20
17.09999932166691
 30
0.0
 11
4.9810627810704773
 21
17.499999999999989
 31
0.0
  0
LINE
  5
4FB5
  8
µę˝u
 10
-4.7498779000000013
 20
17.099999999999891
 30
0.0
 11
-4.7498779000000013
 21
8.9999999999999911
 31
0.0
  0
LINE
  5
4FB6
  8
0
 10
-7.6584077551914609
 20
10.988452119897611
 30
0.0
 11
-6.5498047000000952
 21
9.8798487000431532
 31
0.0
  0
LINE
  5
4FB7
  8
µę˝u
 10
-2.9998779000000009
 20
8.6999999999997968
 30
0.0
 11
-3.299877899999955
 21
8.9999999999999911
 31
0.0
  0
LINE
  5
4FB8
  8
µę˝u
 10
-4.7498780817588786
 20
17.09999932166691
 30
0.0
 11
-4.9808185810707073
 21
17.499999999999989
 31
0.0
  0
LINE
  5
4FB9
  8
0
 10
-7.6594834574018194
 20
16.9995608893298
 30
0.0
 11
-7.1590440997802034
 21
17.499999999999989
 31
0.0
  0
LINE
  5
4FBA
  8
µę˝u
 10
-4.7498779000000013
 20
8.9999999999999911
 30
0.0
 11
4.7501220999999978
 21
8.9999999999999911
 31
0.0
  0
LINE
  5
4FBB
  8
µę˝u
 10
-2.9998779000000009
 20
8.6999999999997968
 30
0.0
 11
3.0001220999999978
 21
8.6999999999997968
 31
0.0
  0
LINE
  5
4FBC
  8
0
 10
-7.1590440997802034
 20
17.499999999999989
 30
0.0
 11
7.1600367000635279
 21
17.499999999999989
 31
0.0
  0
LINE
  5
4FBD
  8
µę˝u
 10
-4.7498792566666452
 20
17.099999999999891
 30
0.0
 11
4.7501220999999978
 21
17.099999999999891
 31
0.0
  0
LINE
  5
4FBE
  8
0
 10
6.5500488000002397
 20
7.45002840004208
 30
0.0
 11
9.9999999999997655
 21
4.0000768000366378
 31
0.0
  0
LINE
  5
4FBF
  8
0
 10
-6.5498047000000952
 20
9.8798487000431532
 30
0.0
 11
-6.5498047000000952
 21
7.4495225000102261
 31
0.0
  0
LINE
  5
4FC0
  8
0
 10
6.5500487999995576
 20
9.8792357003491773
 30
0.0
 11
6.5500488000002397
 21
7.45002840004208
 31
0.0
  0
ENDBLK
  5
4FC1
  8
0
  0
BLOCK
  8
0
  2
*U4
 70
     1
 10
0.0
 20
0.0
 30
0.0
  3
*U4
  1

  0
TEXT
  5
5DD2
  8
0
 10
-308.20012018656121
 20
-24.68616869724454
 30
0.0
 40
7.8000001593418631
  1
HGW20HC
  0
TEXT
  5
5DD3
  8
0
 10
-308.41944246934003
 20
-37.784582807650992
 30
0.0
 40
7.8000001593418631
  1
C : 2160 kgf
  0
TEXT
  5
5DD4
  8
0
 10
-308.41944246934003
 20
-50.982610287071488
 30
0.0
 40
7.8000001593418631
  1
C
  0
TEXT
  5
5DD5
  8
0
 10
-300.73753892380211
 20
-46.172610188810673
 30
0.0
 40
5.4600001115393031
  1

  0
TEXT
  5
5DD6
  8
0
 10
-301.56615682690841
 20
-53.445211963394868
 30
0.0
 40
5.4600001115393031
  1
0
  0
TEXT
  5
5DD7
  8
0
 10
-297.12713234598209
 20
-50.983780287095392
 30
0.0
 40
7.8023401593896651
  1
: 4980 kgf
  0
ENDBLK
  5
5DD9
  8
0
  0
ENDSEC
  0
SECTION
  2
ENTITIES
  0
INSERT
  5
4C2A
  8
0
  2
*U4
 10
0.0
 20
0.0
 30
0.0
  0
ARC
  5
58F9
  8
0
 10
-198.5832233072415
 20
73.893917996459024
 30
0.0
 40
1.220011576012179
 50
180.9276427879976
 51
254.03697783117121
  0
LINE
  5
58FA
  8
0
 10
-199.803074986094
 20
75.874166358441926
 30
0.0
 11
-199.803074986094
 21
73.874166358441926
 31
0.0
  0
ARC
  5
58FB
  8
0
 10
-198.5832233072415
 20
75.854414720424785
 30
0.0
 40
1.220011576012179
 50
105.9630221688287
 51
179.0723572120024
  0
ARC
  5
58FC
  8
0
 10
-198.5832233072415
 20
111.393917996459
 30
0.0
 40
1.220011576012179
 50
180.92764278799589
 51
254.03697783117121
  0
LINE
  5
58FD
  8
0
 10
-199.803074986094
 20
113.3741663584419
 30
0.0
 11
-199.803074986094
 21
111.3741663584419
 31
0.0
  0
ARC
  5
58FE
  8
0
 10
-198.5832233072415
 20
113.3544147204248
 30
0.0
 40
1.220011576012179
 50
105.9630221688287
 51
179.0723572120007
  0
ARC
  5
58FF
  8
0
 10
-108.8229266649461
 20
111.393917996459
 30
0.0
 40
1.220011576012179
 50
285.96302216882867
 51
359.07235721200408
  0
LINE
  5
5900
  8
0
 10
-107.6030749860938
 20
113.3741663584419
 30
0.0
 11
-107.6030749860938
 21
111.3741663584419
 31
0.0
  0
ARC
  5
5901
  8
0
 10
-108.8229266649461
 20
113.3544147204248
 30
0.0
 40
1.220011576012179
 50
0.9276427879992114
 51
74.036977831171257
  0
ARC
  5
5902
  8
0
 10
-108.8229266649461
 20
73.893917996459024
 30
0.0
 40
1.220011576012179
 50
285.96302216882867
 51
359.07235721200237
  0
LINE
  5
5903
  8
0
 10
-107.6030749860938
 20
75.874166358441926
 30
0.0
 11
-107.6030749860938
 21
73.874166358441926
 31
0.0
  0
ARC
  5
5904
  8
0
 10
-108.8229266649461
 20
75.854414720424785
 30
0.0
 40
1.220011576012179
 50
0.9276427879975832
 51
74.036977831171257
  0
ARC
  5
5905
  8
0
 10
-101.4729266718913
 20
16.588235732544181
 30
0.0
 40
1.220011576012179
 50
285.96302216882867
 51
359.07235721200237
  0
LINE
  5
5906
  8
0
 10
-100.25307499303879
 20
18.56848409452709
 30
0.0
 11
-100.25307499303879
 21
16.56848409452709
 31
0.0
  0
ARC
  5
5907
  8
0
 10
-101.4729266718913
 20
18.548732456509981
 30
0.0
 40
1.220011576012179
 50
0.9276427879975832
 51
74.036977831171257
  0
ARC
  5
5908
  8
0
 10
-191.2332233141862
 20
16.588235732544181
 30
0.0
 40
1.220011576012179
 50
180.9276427879976
 51
254.03697783117121
  0
LINE
  5
5909
  8
0
 10
-192.4530749930386
 20
18.56848409452709
 30
0.0
 11
-192.4530749930386
 21
16.56848409452709
 31
0.0
  0
ARC
  5
590A
  8
0
 10
-191.2332233141862
 20
18.548732456509981
 30
0.0
 40
1.220011576012179
 50
105.9630221688287
 51
179.0723572120024
  0
LINE
  5
590B
  8
0
 10
-101.1374028523972
 20
5.1684880379269771
 30
0.0
 11
-191.5687471336802
 21
5.168488037927176
 31
0.0
  0
LINE
  5
590C
  8
µę˝u
 10
-99.434992015762305
 20
17.668487359593879
 30
0.0
 11
-99.665932515073905
 21
18.068488037926979
 31
0.0
  0
LINE
  5
590D
  8
µę˝u
 10
-99.434991834003185
 20
17.66848803792692
 30
0.0
 11
-99.434991834003185
 21
9.5684880379268975
 31
0.0
  0
LINE
  5
590E
  8
0
 10
-74.684617633861762
 20
0.5684880379271818
 30
0.0
 11
-74.684617633861762
 21
18.068488037927182
 31
0.0
  0
LINE
  5
590F
  8
¤¤¤ß˝u
 10
-94.684617633861635
 20
0.0684880379271817
 30
0.0
 11
-94.684617633861635
 21
18.668488037927169
 31
0.0
  0
LINE
  5
5910
  8
0
 10
-74.684617633861762
 20
8.0185433873271847
 30
0.0
 11
-101.1374028523972
 21
8.0185433873269858
 31
0.0
  0
LINE
  5
5911
  8
0
 10
-74.684617633861762
 20
10.448501287327071
 30
0.0
 11
-101.1374028523972
 21
10.44850128732727
 31
0.0
  0
LINE
  5
5912
  8
0
 10
-74.684617633861762
 20
11.670677886154751
 30
0.0
 11
-101.1374028523972
 21
11.67067788615492
 31
0.0
  0
LINE
  5
5913
  8
0
 10
-74.684617633861762
 20
13.37634483907018
 30
0.0
 11
-101.1374028523972
 21
13.37634483907018
 31
0.0
  0
LINE
  5
5914
  8
0
 10
-74.684617633861762
 20
13.89846328732707
 30
0.0
 11
-101.1374028523972
 21
13.898463287327189
 31
0.0
  0
LINE
  5
5915
  8
0
 10
-74.684617633861762
 20
15.22849628732717
 30
0.0
 11
-101.1374028523972
 21
15.22849628732717
 31
0.0
  0
LINE
  5
5916
  8
0
 10
-74.684617633861762
 20
15.76307968440557
 30
0.0
 11
-100.57429118303919
 21
15.763079684405371
 31
0.0
  0
LINE
  5
5917
  8
0
 10
-74.684617633861762
 20
17.454392952365961
 30
0.0
 11
-100.2530749930386
 21
17.454392952365879
 31
0.0
  0
LINE
  5
5918
  8
0
 10
-74.684617633861762
 20
18.068488037927239
 30
0.0
 11
-100.2530749930386
 21
18.068488037927182
 31
0.0
  0
LINE
  5
5919
  8
µę˝u
 10
-99.434993190670085
 20
17.66848803792692
 30
0.0
 11
-89.934991834003313
 21
17.66848803792692
 31
0.0
  0
LINE
  5
591A
  8
µę˝u
 10
-89.934991652244435
 20
17.668487359593879
 30
0.0
 11
-89.704051152932834
 21
18.068488037926979
 31
0.0
  0
LINE
  5
591B
  8
µę˝u
 10
-89.934991834003313
 20
17.66848803792692
 30
0.0
 11
-89.934991834003313
 21
9.5684880379268975
 31
0.0
  0
LINE
  5
591C
  8
µę˝u
 10
-97.684991834003199
 20
9.2684880379266872
 30
0.0
 11
-91.684991834003313
 21
9.2684880379266872
 31
0.0
  0
LINE
  5
591D
  8
µę˝u
 10
-99.434991834003185
 20
9.5684880379268975
 30
0.0
 11
-89.934991834003313
 21
9.5684880379268975
 31
0.0
  0
LINE
  5
591E
  8
µę˝u
 10
-97.684991834003199
 20
9.2684880379266872
 30
0.0
 11
-97.984991834003267
 21
9.5684880379268975
 31
0.0
  0
LINE
  5
591F
  8
µę˝u
 10
-97.684991834003199
 20
9.2684880379266872
 30
0.0
 11
-97.684991834003199
 21
1.068510423200393
 31
0.0
  0
LINE
  5
5920
  8
µę˝u
 10
-91.685113934003198
 20
9.2684880379266872
 30
0.0
 11
-91.385113934003357
 21
9.5684880379268975
 31
0.0
  0
LINE
  5
5921
  8
µę˝u
 10
-91.684991834003313
 20
9.2684880379266872
 30
0.0
 11
-91.684991834003313
 21
1.068510423200393
 31
0.0
  0
LINE
  5
5922
  8
µę˝u
 10
-91.185261129743495
 20
0.5684880379268975
 30
0.0
 11
-91.685229250641996
 21
1.068469724811393
 31
0.0
  0
LINE
  5
5923
  8
µę˝u
 10
-97.684991834003199
 20
1.068510423200393
 30
0.0
 11
-91.685229250641996
 21
1.068469724811393
 31
0.0
  0
LINE
  5
5924
  8
µę˝u
 10
-98.185014219276923
 20
0.5684880379268975
 30
0.0
 11
-97.684991834003199
 21
1.068510423200393
 31
0.0
  0
LINE
  5
5925
  8
µę˝u
 10
-157.68449749002411
 20
5.1688792873449074
 30
0.0
 11
-157.68449749002411
 21
1.068706041030395
 31
0.0
  0
LINE
  5
5926
  8
µę˝u
 10
-151.68449749002411
 20
5.1688792873449074
 30
0.0
 11
-151.68449749002411
 21
1.068706041030395
 31
0.0
  0
LINE
  5
5927
  8
µę˝u
 10
-157.6845551482055
 20
1.0687060410302529
 30
0.0
 11
-151.68449749002411
 21
1.0687060410302529
 31
0.0
  0
LINE
  5
5928
  8
µę˝u
 10
-158.18451987529781
 20
0.5686836557566153
 30
0.0
 11
-157.68449749002411
 21
1.068706041030395
 31
0.0
  0
LINE
  5
5929
  8
µę˝u
 10
-151.1847667857642
 20
0.5686836557566722
 30
0.0
 11
-151.68473490666261
 21
1.0686653426409689
 31
0.0
  0
LINE
  5
592A
  8
¤¤¤ß˝u
 10
-154.68461763386159
 20
-1.1045192898107239
 30
0.0
 11
-154.68461763386159
 21
5.9127631909286711
 31
0.0
  0
LINE
  5
592B
  8
0
 10
-74.684617633861762
 20
0.5684880379268975
 30
0.0
 11
-234.68461763386151
 21
0.568488037927267
 31
0.0
  0
LINE
  5
592C
  8
0
 10
-74.684617633861762
 20
1.5688792873271771
 30
0.0
 11
-200.93836068037351
 21
1.5688792873271771
 31
0.0
  0
LINE
  5
592D
  8
0
 10
-74.684617633861762
 20
4.5686351873270894
 30
0.0
 11
-201.43892854502121
 21
4.5686351873270894
 31
0.0
  0
LINE
  5
592E
  8
«Řşc˝u
 10
-201.72622373459981
 20
18.0684880379271
 30
0.0
 11
-200.243202924043
 21
13.423221086668891
 31
0.0
  0
LINE
  5
592F
  8
«Řşc˝u
 10
-200.243202924043
 20
13.423221086668891
 30
0.0
 11
-201.5035702735988
 21
10.27515927497026
 31
0.0
  0
LINE
  5
5930
  8
«Řşc˝u
 10
-201.5035702735988
 20
10.27515927497026
 30
0.0
 11
-200.50404841036689
 21
9.0478482748829094
 31
0.0
  0
LINE
  5
5931
  8
«Řşc˝u
 10
-200.50404841036689
 20
9.0478482748829094
 30
0.0
 11
-201.66111571868291
 21
5.9001375313000599
 31
0.0
  0
LINE
  5
5932
  8
«Řşc˝u
 10
-201.66111571868291
 20
5.9001375313000599
 30
0.0
 11
-200.77142586026881
 21
0.5684880379269828
 31
0.0
  0
LINE
  5
5933
  8
0
 10
-191.56874713368009
 20
13.89846328732707
 30
0.0
 11
-200.39492597484411
 21
13.89846328732707
 31
0.0
  0
LINE
  5
5934
  8
0
 10
-191.56874713368009
 20
15.22849628732717
 30
0.0
 11
-200.8195445464838
 21
15.22849628732717
 31
0.0
  0
LINE
  5
5935
  8
0
 10
-191.56874713368009
 20
13.37634483907018
 30
0.0
 11
-200.2619704373503
 21
13.37634483907018
 31
0.0
  0
LINE
  5
5936
  8
0
 10
-191.56874713368009
 20
11.670677886154751
 30
0.0
 11
-200.9448563097566
 21
11.670677886154751
 31
0.0
  0
LINE
  5
5937
  8
0
 10
-191.56874713368009
 20
10.448501287327391
 30
0.0
 11
-201.43417055219899
 21
10.44850128732727
 31
0.0
  0
LINE
  5
5938
  8
0
 10
-191.56874713368009
 20
8.0185433873270995
 30
0.0
 11
-200.88241069734289
 21
8.0185433873270995
 31
0.0
  0
LINE
  5
5939
  8
0
 10
-219.43499319067001
 20
17.668488037927169
 30
0.0
 11
-209.93499183400331
 21
17.668488037927169
 31
0.0
  0
LINE
  5
593A
  8
0
 10
-209.93499165224441
 20
17.66848735959428
 30
0.0
 11
-209.70405115293281
 21
18.068488037927239
 31
0.0
  0
LINE
  5
593B
  8
0
 10
-209.93499183400331
 20
17.668488037927169
 30
0.0
 11
-209.93499183400331
 21
9.5684880379272386
 31
0.0
  0
LINE
  5
593C
  8
0
 10
-219.43499201576211
 20
17.66848735959428
 30
0.0
 11
-219.66593251507399
 21
18.068488037927239
 31
0.0
  0
LINE
  5
593D
  8
0
 10
-219.43499183400331
 20
17.668488037927169
 30
0.0
 11
-219.43499183400331
 21
9.5684880379272386
 31
0.0
  0
LINE
  5
593E
  8
0
 10
-217.68499183400331
 20
9.2684880379271135
 30
0.0
 11
-211.68499183400331
 21
9.2684880379271135
 31
0.0
  0
LINE
  5
593F
  8
0
 10
-219.43499183400331
 20
9.5684880379272386
 30
0.0
 11
-209.93499183400331
 21
9.5684880379272386
 31
0.0
  0
LINE
  5
5940
  8
0
 10
-217.68499183400331
 20
9.2684880379271135
 30
0.0
 11
-217.98499183400321
 21
9.5684880379272386
 31
0.0
  0
LINE
  5
5941
  8
0
 10
-217.68499183400331
 20
9.2684880379271135
 30
0.0
 11
-217.68499183400331
 21
1.0685104232007909
 31
0.0
  0
LINE
  5
5942
  8
0
 10
-211.68511393400331
 20
9.2684880379271135
 30
0.0
 11
-211.3851139340033
 21
9.5684880379272386
 31
0.0
  0
LINE
  5
5943
  8
0
 10
-211.68499183400331
 20
9.2684880379271135
 30
0.0
 11
-211.68499183400331
 21
1.0685104232007909
 31
0.0
  0
LINE
  5
5944
  8
0
 10
-211.1852611297432
 20
0.5684880379273807
 30
0.0
 11
-211.68522925064221
 21
1.0684697248118189
 31
0.0
  0
LINE
  5
5945
  8
0
 10
-217.68499183400331
 20
1.0685104232007909
 30
0.0
 11
-211.68522925064221
 21
1.0684697248118189
 31
0.0
  0
LINE
  5
5946
  8
0
 10
-218.18501421927681
 20
0.5684880379273807
 30
0.0
 11
-217.68499183400331
 21
1.0685104232007909
 31
0.0
  0
LINE
  5
5947
  8
¤¤¤ß˝u
 10
-214.68461763386171
 20
0.068488037927068
 30
0.0
 11
-214.68461763386171
 21
18.668488037927091
 31
0.0
  0
LINE
  5
5948
  8
0
 10
-234.68461763386151
 20
0.568488037927267
 30
0.0
 11
-234.68461763386151
 21
18.068488037927409
 31
0.0
  0
LINE
  5
5949
  8
0
 10
-192.13185880303789
 20
15.763079684405479
 30
0.0
 11
-200.99021252125539
 21
15.763079684405479
 31
0.0
  0
LINE
  5
594A
  8
0
 10
-192.45307499303851
 20
18.068488037927182
 30
0.0
 11
-234.68461763386151
 21
18.068488037927409
 31
0.0
  0
LINE
  5
594B
  8
0
 10
-192.4530749930386
 20
17.454392952365879
 30
0.0
 11
-201.53017132230491
 21
17.454392952365879
 31
0.0
  0
LINE
  5
594C
  8
¤¤¤ß˝u
 10
-106.3580250006632
 20
93.624166358442025
 30
0.0
 11
-201.91792297947819
 21
93.624166358442025
 31
0.0
  0
LINE
  5
594D
  8
0
 10
-186.3030749860938
 20
125.124166358442
 30
0.0
 11
-186.3030749860938
 21
62.124166358441919
 31
0.0
  0
LINE
  5
594E
  8
0
 10
-121.1030749860938
 20
125.1241663584419
 30
0.0
 11
-121.1030749860938
 21
62.124166358441919
 31
0.0
  0
LINE
  5
594F
  8
¤¤¤ß˝u
 10
-153.70307498609381
 20
126.6991663584419
 30
0.0
 11
-153.7030749860939
 21
60.549166358442022
 31
0.0
  0
LINE
  5
5950
  8
0
 10
-186.3030749860938
 20
62.124166358441919
 30
0.0
 11
-121.1030749860938
 21
62.124166358441919
 31
0.0
  0
LINE
  5
5951
  8
0
 10
-186.3030749860938
 20
87.70995279604216
 30
0.0
 11
-121.1030749860938
 21
87.70995279604216
 31
0.0
  0
LINE
  5
5952
  8
0
 10
-186.3030749860938
 20
88.624166358441983
 30
0.0
 11
-121.1030749860938
 21
88.624166358441983
 31
0.0
  0
LINE
  5
5953
  8
0
 10
-186.3030749860938
 20
98.624166358442054
 30
0.0
 11
-121.1030749860938
 21
98.624166358442054
 31
0.0
  0
LINE
  5
5954
  8
0
 10
-186.3030749860938
 20
99.538379920841919
 30
0.0
 11
-121.1030749860938
 21
99.538379920841919
 31
0.0
  0
LINE
  5
5955
  8
0
 10
-186.3030749860938
 20
72.124166358441983
 30
0.0
 11
-121.1030749860938
 21
72.124166358441983
 31
0.0
  0
LINE
  5
5956
  8
0
 10
-186.3030749860938
 20
73.038379920841862
 30
0.0
 11
-121.1030749860938
 21
73.038379920841862
 31
0.0
  0
LINE
  5
5957
  8
0
 10
-186.3030749860938
 20
63.124166358441983
 30
0.0
 11
-121.1030749860938
 21
63.124166358441983
 31
0.0
  0
INSERT
  5
5958
  8
0
  2
A$C02B53278
 10
-173.70307498609381
 20
67.124166358441983
 30
0.0
 50
270.0
  0
LINE
  5
5959
  8
AM7
 10
-178.10307498609379
 20
93.624166358442025
 30
0.0
 11
-174.10307498609379
 21
93.624166358442025
 31
0.0
  0
INSERT
  5
595A
  8
0
  2
A$C02B53278
 10
-133.70307498609381
 20
67.124166358441983
 30
0.0
 50
270.0
  0
LINE
  5
595B
  8
AM7
 10
-133.3030749860938
 20
93.624166358442025
 30
0.0
 11
-129.3030749860938
 21
93.624166358442025
 31
0.0
  0
LINE
  5
595C
  8
0
 10
-186.3030749860938
 20
114.2099527960421
 30
0.0
 11
-121.1030749860938
 21
114.209952796042
 31
0.0
  0
LINE
  5
595D
  8
0
 10
-186.3030749860938
 20
115.124166358442
 30
0.0
 11
-121.1030749860938
 21
115.124166358442
 31
0.0
  0
LINE
  5
595E
  8
0
 10
-186.3030749860938
 20
124.124166358442
 30
0.0
 11
-121.1030749860938
 21
124.124166358442
 31
0.0
  0
LINE
  5
595F
  8
0
 10
-186.3030749860938
 20
125.124166358442
 30
0.0
 11
-121.1030749860938
 21
125.1241663584419
 31
0.0
  0
INSERT
  5
5960
  8
0
  2
A$C02B53278
 10
-173.70307498609381
 20
120.124166358442
 30
0.0
 50
270.0
  0
INSERT
  5
5961
  8
0
  2
A$C02B53278
 10
-133.70307498609381
 20
120.124166358442
 30
0.0
 50
270.0
  0
LINE
  5
5962
  8
0
 10
-128.58441829634549
 20
7.1175261436039809
 30
0.0
 11
-164.12173168973189
 21
7.1175261436039809
 31
0.0
  0
LINE
  5
5963
  8
0
 10
-170.60414773804439
 20
21.0684880379271
 30
0.0
 11
-162.10200224803299
 21
21.0684880379271
 31
0.0
  0
POLYLINE
  5
5964
  8
0
 66
     1
 10
0.0
 20
0.0
 30
0.0
  0
VERTEX
  5
5DDA
  8
0
 10
-170.60414773804439
 20
17.392989881875511
 30
0.0
  0
VERTEX
  5
5DDB
  8
0
 10
-170.59971922714249
 20
17.339245972028579
 30
0.0
  0
VERTEX
  5
5DDC
  8
0
 10
-170.58692445639181
 20
17.258150996076409
 30
0.0
  0
VERTEX
  5
5DDD
  8
0
 10
-170.58106230734089
 20
17.225574176428982
 30
0.0
  0
VERTEX
  5
5DDE
  8
0
 10
-170.55720770737321
 20
17.09929011065628
 30
0.0
  0
VERTEX
  5
5DDF
  8
0
 10
-170.53541273798049
 20
16.982939081216269
 30
0.0
  0
VERTEX
  5
5DE0
  8
0
 10
-170.49779820218811
 20
16.761703779722659
 30
0.0
  0
VERTEX
  5
5DE1
  8
0
 10
-170.46277741025239
 20
16.502128179054491
 30
0.0
  0
VERTEX
  5
5DE2
  8
0
 10
-170.45311522869179
 20
16.409847510552481
 30
0.0
  0
VERTEX
  5
5DE3
  8
0
 10
-170.4398353732937
 20
16.249806938882671
 30
0.0
  0
VERTEX
  5
5DE4
  8
0
 10
-170.42768778444099
 20
16.09451202777748
 30
0.0
  0
VERTEX
  5
5DE5
  8
0
 10
-170.40108003247391
 20
15.773196322506919
 30
0.0
  0
VERTEX
  5
5DE6
  8
0
 10
-170.34315164060871
 20
15.14465900721029
 30
0.0
  0
VERTEX
  5
5DE7
  8
0
 10
-170.2289328039115
 20
14.100575047424879
 30
0.0
  0
VERTEX
  5
5DE8
  8
0
 10
-170.0864568614723
 20
13.03035327891007
 30
0.0
  0
VERTEX
  5
5DE9
  8
0
 10
-170.03289978232519
 20
12.67440758818597
 30
0.0
  0
VERTEX
  5
5DEA
  8
0
 10
-169.85751099500351
 20
11.63665359990989
 30
0.0
  0
VERTEX
  5
5DEB
  8
0
 10
-169.70094926867381
 20
10.840398048740781
 30
0.0
  0
VERTEX
  5
5DEC
  8
0
 10
-169.56473953732089
 20
10.2239078020379
 30
0.0
  0
VERTEX
  5
5DED
  8
0
 10
-169.3908142355375
 20
9.5194229678704971
 30
0.0
  0
VERTEX
  5
5DEE
  8
0
 10
-169.24079383879081
 20
8.9750935438522674
 30
0.0
  0
VERTEX
  5
5DEF
  8
0
 10
-169.0360797401153
 20
8.311695571189972
 30
0.0
  0
VERTEX
  5
5DF0
  8
0
 10
-168.85859816536961
 20
7.8013337070894968
 30
0.0
  0
VERTEX
  5
5DF1
  8
0
 10
-168.62091695808249
 20
7.1990232490586834
 30
0.0
  0
VERTEX
  5
5DF2
  8
0
 10
-168.55909223547249
 20
7.056238002109267
 30
0.0
  0
VERTEX
  5
5DF3
  8
0
 10
-168.52723413528091
 20
6.9856661921572822
 30
0.0
  0
VERTEX
  5
5DF4
  8
0
 10
-168.48068160395979
 20
6.9000138206721706
 30
0.0
  0
VERTEX
  5
5DF5
  8
0
 10
-168.3682124421029
 20
6.7483206605052706
 30
0.0
  0
VERTEX
  5
5DF6
  8
0
 10
-168.26488943734569
 20
6.6460732650080843
 30
0.0
  0
VERTEX
  5
5DF7
  8
0
 10
-168.1136366596709
 20
6.5322616023336764
 30
0.0
  0
VERTEX
  5
5DF8
  8
0
 10
-167.91096562139481
 20
6.42115514623839
 30
0.0
  0
VERTEX
  5
5DF9
  8
0
 10
-167.74275961024921
 20
6.3524767958686823
 30
0.0
  0
VERTEX
  5
5DFA
  8
0
 10
-167.49776854015639
 20
6.2781357600201773
 30
0.0
  0
VERTEX
  5
5DFB
  8
0
 10
-167.1475580061873
 20
6.2091224172233694
 30
0.0
  0
VERTEX
  5
5DFC
  8
0
 10
-166.78412662272149
 20
6.1693563421575837
 30
0.0
  0
VERTEX
  5
5DFD
  8
0
 10
-166.49768064579641
 20
6.1557578859627711
 30
0.0
  0
VERTEX
  5
5DFE
  8
0
 10
-166.10714976843491
 20
6.1588929210373911
 30
0.0
  0
VERTEX
  5
5DFF
  8
0
 10
-165.80533559217201
 20
6.1792322399227819
 30
0.0
  0
VERTEX
  5
5E00
  8
0
 10
-165.4308035142306
 20
6.2301059292998948
 30
0.0
  0
VERTEX
  5
5E01
  8
0
 10
-165.14865405027291
 20
6.2940110801494882
 30
0.0
  0
VERTEX
  5
5E02
  8
0
 10
-164.89614424496409
 20
6.3777488482283777
 30
0.0
  0
VERTEX
  5
5E03
  8
0
 10
-164.7123148894467
 20
6.4621419089479843
 30
0.0
  0
VERTEX
  5
5E04
  8
0
 10
-164.57802903804961
 20
6.5418948499799683
 30
0.0
  0
VERTEX
  5
5E05
  8
0
 10
-164.421875070265
 20
6.6633864807359942
 30
0.0
  0
VERTEX
  5
5E06
  8
0
 10
-164.3148819150116
 20
6.7750746709336616
 30
0.0
  0
VERTEX
  5
5E07
  8
0
 10
-164.21261051431389
 20
6.9217621241164968
 30
0.0
  0
VERTEX
  5
5E08
  8
0
 10
-164.17530498889809
 20
6.9932441451204852
 30
0.0
  0
VERTEX
  5
5E09
  8
0
 10
-164.1436485001839
 20
7.0639702124336159
 30
0.0
  0
VERTEX
  5
5E0A
  8
0
 10
-163.90771388743039
 20
7.6405001737110751
 30
0.0
  0
VERTEX
  5
5E0B
  8
0
 10
-163.67240040853079
 20
8.3045969178727717
 30
0.0
  0
VERTEX
  5
5E0C
  8
0
 10
-163.50876227434281
 20
8.8272129504831014
 30
0.0
  0
VERTEX
  5
5E0D
  8
0
 10
-163.30281489948351
 20
9.5665782813674962
 30
0.0
  0
VERTEX
  5
5E0E
  8
0
 10
-163.08454553601891
 20
10.47294098673509
 30
0.0
  0
VERTEX
  5
5E0F
  8
0
 10
-162.93557294105051
 20
11.182332070902079
 30
0.0
  0
VERTEX
  5
5E10
  8
0
 10
-162.75109653794951
 20
12.191558564156789
 30
0.0
  0
VERTEX
  5
5E11
  8
0
 10
-162.5905644757712
 20
13.233429759909169
 30
0.0
  0
VERTEX
  5
5E12
  8
0
 10
-162.54298933847591
 20
13.581534039764589
 30
0.0
  0
VERTEX
  5
5E13
  8
0
 10
-162.4240501244692
 20
14.560361047750179
 30
0.0
  0
VERTEX
  5
5E14
  8
0
 10
-162.3230551129179
 20
15.56858856391019
 30
0.0
  0
VERTEX
  5
5E15
  8
0
 10
-162.29390818163751
 20
15.905063156020271
 30
0.0
  0
VERTEX
  5
5E16
  8
0
 10
-162.26998045866409
 20
16.20231825767809
 30
0.0
  0
VERTEX
  5
5E17
  8
0
 10
-162.25880479581201
 20
16.345929681789212
 30
0.0
  0
VERTEX
  5
5E18
  8
0
 10
-162.24540350204299
 20
16.48406514130178
 30
0.0
  0
VERTEX
  5
5E19
  8
0
 10
-162.21608210430759
 20
16.710975302840659
 30
0.0
  0
VERTEX
  5
5E1A
  8
0
 10
-162.18203025088081
 20
16.92015580354516
 30
0.0
  0
VERTEX
  5
5E1B
  8
0
 10
-162.17064195534161
 20
16.983459334381561
 30
0.0
  0
VERTEX
  5
5E1C
  8
0
 10
-162.14291898828691
 20
17.13126882410549
 30
0.0
  0
VERTEX
  5
5E1D
  8
0
 10
-162.1221263358139
 20
17.242416888283969
 30
0.0
  0
VERTEX
  5
5E1E
  8
0
 10
-162.10754254522891
 20
17.33082366451896
 30
0.0
  0
VERTEX
  5
5E1F
  8
0
 10
-162.10460963833901
 20
17.3540639500612
 30
0.0
  0
VERTEX
  5
5E20
  8
0
 10
-162.10231240285921
 20
17.402457983847881
 30
0.0
  0
VERTEX
  5
5E21
  8
0
 10
-162.10708559671099
 20
17.421341938768279
 30
0.0
  0
VERTEX
  5
5E22
  8
0
 10
-162.1120476830327
 20
17.424437710732771
 30
0.0
  0
SEQEND
  5
5E23
  8
0
  0
LINE
  5
5965
  8
0
 10
-178.9530749930386
 20
29.5684880379271
 30
0.0
 11
-113.7530749930386
 21
29.5684880379271
 31
0.0
  0
LINE
  5
5966
  8
0
 10
-178.9530749930386
 20
30.5684880379271
 30
0.0
 11
-113.7530749930386
 21
30.5684880379271
 31
0.0
  0
LINE
  5
5967
  8
µę˝u
 10
-169.35307499303849
 20
21.76848803792717
 30
0.0
 11
-163.35307499303849
 21
21.768488037927259
 31
0.0
  0
LINE
  5
5968
  8
µę˝u
 10
-169.35307499303849
 20
30.0684880379271
 30
0.0
 11
-163.35307499303849
 21
30.068488037926979
 31
0.0
  0
LINE
  5
5969
  8
µę˝u
 10
-163.85307499303849
 20
30.068488037926979
 30
0.0
 11
-163.8530749930386
 21
21.768488037927259
 31
0.0
  0
LINE
  5
596A
  8
µę˝u
 10
-168.85307499303849
 20
30.0684880379271
 30
0.0
 11
-168.8530749930388
 21
21.76848803792717
 31
0.0
  0
LINE
  5
596B
  8
µę˝u
 10
-169.35307499303849
 20
30.0684880379271
 30
0.0
 11
-169.35307499303849
 21
21.76848803792717
 31
0.0
  0
LINE
  5
596C
  8
¤¤¤ß˝u
 10
-166.3530749930386
 20
19.568488037927089
 30
0.0
 11
-166.3530749930386
 21
31.5684880379271
 31
0.0
  0
LINE
  5
596D
  8
0
 10
-178.9530749930386
 20
30.5684880379271
 30
0.0
 11
-178.9530749930386
 21
5.1684880379270899
 31
0.0
  0
LINE
  5
596E
  8
0
 10
-168.58562944732131
 20
7.1175261436039809
 30
0.0
 11
-178.9530749930386
 21
7.1175261436039809
 31
0.0
  0
LINE
  5
596F
  8
0
 10
-170.60414773804439
 20
20.5684880379271
 30
0.0
 11
-178.9530749930386
 21
20.5684880379271
 31
0.0
  0
LINE
  5
5970
  8
µę˝u
 10
-169.35307499303869
 20
21.76848803792717
 30
0.0
 11
-170.05307499303871
 21
21.0684880379271
 31
0.0
  0
LINE
  5
5971
  8
0
 10
-170.60414773804439
 20
21.0684880379271
 30
0.0
 11
-170.60414773804439
 21
17.424711399350912
 31
0.0
  0
LINE
  5
5972
  8
µę˝u
 10
-169.35307499303869
 20
30.0684880379271
 30
0.0
 11
-169.85307499303849
 21
30.5684880379271
 31
0.0
  0
LINE
  5
5973
  8
µę˝u
 10
-123.8530749930385
 20
30.068488037926979
 30
0.0
 11
-123.8530749930387
 21
21.768488037927259
 31
0.0
  0
LINE
  5
5974
  8
µę˝u
 10
-123.3530749930385
 20
30.068488037926979
 30
0.0
 11
-123.3530749930385
 21
21.768488037927259
 31
0.0
  0
LINE
  5
5975
  8
µę˝u
 10
-128.85307499303849
 20
30.0684880379271
 30
0.0
 11
-128.85307499303889
 21
21.76848803792717
 31
0.0
  0
LINE
  5
5976
  8
µę˝u
 10
-129.35307499303849
 20
30.0684880379271
 30
0.0
 11
-129.35307499303849
 21
21.76848803792717
 31
0.0
  0
LINE
  5
5977
  8
¤¤¤ß˝u
 10
-126.3530749930386
 20
19.568488037927089
 30
0.0
 11
-126.3530749930386
 21
31.5684880379271
 31
0.0
  0
LINE
  5
5978
  8
0
 10
-113.7530749930386
 20
5.1684880379270899
 30
0.0
 11
-113.7530749930386
 21
30.5684880379271
 31
0.0
  0
LINE
  5
5979
  8
µę˝u
 10
-163.35307499303849
 20
30.068488037926979
 30
0.0
 11
-163.35307499303849
 21
21.768488037927259
 31
0.0
  0
LINE
  5
597A
  8
0
 10
-122.102002248033
 20
21.0684880379271
 30
0.0
 11
-130.60414773804411
 21
21.0684880379271
 31
0.0
  0
POLYLINE
  5
597B
  8
0
 66
     1
 10
0.0
 20
0.0
 30
0.0
  0
VERTEX
  5
5E24
  8
0
 10
-122.102002248033
 20
17.392989881875511
 30
0.0
  0
VERTEX
  5
5E25
  8
0
 10
-122.10643075893501
 20
17.339245972028579
 30
0.0
  0
VERTEX
  5
5E26
  8
0
 10
-122.11922552968559
 20
17.258150996076409
 30
0.0
  0
VERTEX
  5
5E27
  8
0
 10
-122.12508767873651
 20
17.225574176428982
 30
0.0
  0
VERTEX
  5
5E28
  8
0
 10
-122.148942278704
 20
17.09929011065628
 30
0.0
  0
VERTEX
  5
5E29
  8
0
 10
-122.1707372480967
 20
16.982939081216269
 30
0.0
  0
VERTEX
  5
5E2A
  8
0
 10
-122.2083517838891
 20
16.761703779722659
 30
0.0
  0
VERTEX
  5
5E2B
  8
0
 10
-122.24337257582479
 20
16.502128179054491
 30
0.0
  0
VERTEX
  5
5E2C
  8
0
 10
-122.25303475738561
 20
16.409847510552481
 30
0.0
  0
VERTEX
  5
5E2D
  8
0
 10
-122.2663146127838
 20
16.249806938882671
 30
0.0
  0
VERTEX
  5
5E2E
  8
0
 10
-122.2784622016365
 20
16.09451202777748
 30
0.0
  0
VERTEX
  5
5E2F
  8
0
 10
-122.30506995360329
 20
15.773196322506919
 30
0.0
  0
VERTEX
  5
5E30
  8
0
 10
-122.3629983454687
 20
15.14465900721029
 30
0.0
  0
VERTEX
  5
5E31
  8
0
 10
-122.4772171821658
 20
14.100575047424879
 30
0.0
  0
VERTEX
  5
5E32
  8
0
 10
-122.61969312460489
 20
13.03035327891007
 30
0.0
  0
VERTEX
  5
5E33
  8
0
 10
-122.673250203752
 20
12.67440758818597
 30
0.0
  0
VERTEX
  5
5E34
  8
0
 10
-122.8486389910738
 20
11.63665359990989
 30
0.0
  0
VERTEX
  5
5E35
  8
0
 10
-123.0052007174035
 20
10.840398048740781
 30
0.0
  0
VERTEX
  5
5E36
  8
0
 10
-123.1414104487564
 20
10.2239078020379
 30
0.0
  0
VERTEX
  5
5E37
  8
0
 10
-123.3153357505399
 20
9.5194229678704971
 30
0.0
  0
VERTEX
  5
5E38
  8
0
 10
-123.4653561472864
 20
8.9750935438522674
 30
0.0
  0
VERTEX
  5
5E39
  8
0
 10
-123.67007024596199
 20
8.311695571189972
 30
0.0
  0
VERTEX
  5
5E3A
  8
0
 10
-123.84755182070759
 20
7.8013337070894968
 30
0.0
  0
VERTEX
  5
5E3B
  8
0
 10
-124.0852330279949
 20
7.1990232490586834
 30
0.0
  0
VERTEX
  5
5E3C
  8
0
 10
-124.1470577506049
 20
7.056238002109267
 30
0.0
  0
VERTEX
  5
5E3D
  8
0
 10
-124.1789158507964
 20
6.9856661921572822
 30
0.0
  0
VERTEX
  5
5E3E
  8
0
 10
-124.2254683821177
 20
6.9000138206721706
 30
0.0
  0
VERTEX
  5
5E3F
  8
0
 10
-124.33793754397431
 20
6.7483206605052706
 30
0.0
  0
VERTEX
  5
5E40
  8
0
 10
-124.4412605487318
 20
6.6460732650080843
 30
0.0
  0
VERTEX
  5
5E41
  8
0
 10
-124.5925133264064
 20
6.5322616023336764
 30
0.0
  0
VERTEX
  5
5E42
  8
0
 10
-124.7951843646825
 20
6.42115514623839
 30
0.0
  0
VERTEX
  5
5E43
  8
0
 10
-124.9633903758281
 20
6.3524767958686823
 30
0.0
  0
VERTEX
  5
5E44
  8
0
 10
-125.20838144592091
 20
6.2781357600201773
 30
0.0
  0
VERTEX
  5
5E45
  8
0
 10
-125.55859197989
 20
6.2091224172233694
 30
0.0
  0
VERTEX
  5
5E46
  8
0
 10
-125.92202336335581
 20
6.1693563421575837
 30
0.0
  0
VERTEX
  5
5E47
  8
0
 10
-126.208469340281
 20
6.1557578859627711
 30
0.0
  0
VERTEX
  5
5E48
  8
0
 10
-126.5990002176424
 20
6.1588929210373911
 30
0.0
  0
VERTEX
  5
5E49
  8
0
 10
-126.90081439390519
 20
6.1792322399227819
 30
0.0
  0
VERTEX
  5
5E4A
  8
0
 10
-127.2753464718465
 20
6.2301059292998948
 30
0.0
  0
VERTEX
  5
5E4B
  8
0
 10
-127.5574959358044
 20
6.2940110801494882
 30
0.0
  0
VERTEX
  5
5E4C
  8
0
 10
-127.8100057411137
 20
6.3777488482283777
 30
0.0
  0
VERTEX
  5
5E4D
  8
0
 10
-127.99383509663051
 20
6.4621419089479843
 30
0.0
  0
VERTEX
  5
5E4E
  8
0
 10
-128.1281209480278
 20
6.5418948499799683
 30
0.0
  0
VERTEX
  5
5E4F
  8
0
 10
-128.28427491581209
 20
6.6633864807359942
 30
0.0
  0
VERTEX
  5
5E50
  8
0
 10
-128.39126807106581
 20
6.7750746709336616
 30
0.0
  0
VERTEX
  5
5E51
  8
0
 10
-128.49353947176351
 20
6.9217621241164968
 30
0.0
  0
VERTEX
  5
5E52
  8
0
 10
-128.53084499717909
 20
6.9932441451204852
 30
0.0
  0
VERTEX
  5
5E53
  8
0
 10
-128.56250148589319
 20
7.0639702124336159
 30
0.0
  0
VERTEX
  5
5E54
  8
0
 10
-128.79843609864719
 20
7.6405001737110751
 30
0.0
  0
VERTEX
  5
5E55
  8
0
 10
-129.03374957754639
 20
8.3045969178727717
 30
0.0
  0
VERTEX
  5
5E56
  8
0
 10
-129.19738771173451
 20
8.8272129504831014
 30
0.0
  0
VERTEX
  5
5E57
  8
0
 10
-129.40333508659381
 20
9.5665782813674962
 30
0.0
  0
VERTEX
  5
5E58
  8
0
 10
-129.6216044500587
 20
10.47294098673509
 30
0.0
  0
VERTEX
  5
5E59
  8
0
 10
-129.7705770450269
 20
11.182332070902079
 30
0.0
  0
VERTEX
  5
5E5A
  8
0
 10
-129.95505344812801
 20
12.191558564156789
 30
0.0
  0
VERTEX
  5
5E5B
  8
0
 10
-130.115585510306
 20
13.233429759909169
 30
0.0
  0
VERTEX
  5
5E5C
  8
0
 10
-130.1631606476015
 20
13.581534039764589
 30
0.0
  0
VERTEX
  5
5E5D
  8
0
 10
-130.28209986160809
 20
14.560361047750179
 30
0.0
  0
VERTEX
  5
5E5E
  8
0
 10
-130.38309487315931
 20
15.56858856391019
 30
0.0
  0
VERTEX
  5
5E5F
  8
0
 10
-130.41224180443999
 20
15.905063156020271
 30
0.0
  0
VERTEX
  5
5E60
  8
0
 10
-130.4361695274132
 20
16.20231825767809
 30
0.0
  0
VERTEX
  5
5E61
  8
0
 10
-130.44734519026559
 20
16.345929681789212
 30
0.0
  0
VERTEX
  5
5E62
  8
0
 10
-130.4607464840345
 20
16.48406514130178
 30
0.0
  0
VERTEX
  5
5E63
  8
0
 10
-130.49006788176951
 20
16.710975302840659
 30
0.0
  0
VERTEX
  5
5E64
  8
0
 10
-130.52411973519651
 20
16.92015580354516
 30
0.0
  0
VERTEX
  5
5E65
  8
0
 10
-130.53550803073591
 20
16.983459334381561
 30
0.0
  0
VERTEX
  5
5E66
  8
0
 10
-130.5632309977903
 20
17.13126882410549
 30
0.0
  0
VERTEX
  5
5E67
  8
0
 10
-130.5840236502633
 20
17.242416888283969
 30
0.0
  0
VERTEX
  5
5E68
  8
0
 10
-130.5986074408485
 20
17.33082366451896
 30
0.0
  0
VERTEX
  5
5E69
  8
0
 10
-130.60154034773831
 20
17.3540639500612
 30
0.0
  0
VERTEX
  5
5E6A
  8
0
 10
-130.60383758321831
 20
17.402457983847881
 30
0.0
  0
VERTEX
  5
5E6B
  8
0
 10
-130.59906438936639
 20
17.421341938768279
 30
0.0
  0
VERTEX
  5
5E6C
  8
0
 10
-130.59410230304439
 20
17.424437710732771
 30
0.0
  0
SEQEND
  5
5E6D
  8
0
  0
LINE
  5
597C
  8
0
 10
-130.60414773804411
 20
20.5684880379271
 30
0.0
 11
-162.10200224803299
 21
20.5684880379271
 31
0.0
  0
LINE
  5
597D
  8
µę˝u
 10
-163.35307499303849
 20
21.768488037927259
 30
0.0
 11
-162.65307499303859
 21
21.0684880379271
 31
0.0
  0
LINE
  5
597E
  8
0
 10
-162.10200224803299
 20
21.0684880379271
 30
0.0
 11
-162.10200224803299
 21
17.424711399350912
 31
0.0
  0
LINE
  5
597F
  8
0
 10
-130.60414773804411
 20
21.0684880379271
 30
0.0
 11
-130.60414773804411
 21
17.424711399350912
 31
0.0
  0
LINE
  5
5980
  8
0
 10
-113.7530749930386
 20
7.1175261436039809
 30
0.0
 11
-124.120520538756
 21
7.1175261436039809
 31
0.0
  0
LINE
  5
5981
  8
0
 10
-113.7530749930386
 20
20.5684880379271
 30
0.0
 11
-122.102002248033
 21
20.5684880379271
 31
0.0
  0
LINE
  5
5982
  8
µę˝u
 10
-123.3530749930385
 20
21.768488037927259
 30
0.0
 11
-122.6530749930386
 21
21.0684880379271
 31
0.0
  0
LINE
  5
5983
  8
µę˝u
 10
-129.35307499303889
 20
21.76848803792717
 30
0.0
 11
-130.05307499303859
 21
21.0684880379271
 31
0.0
  0
LINE
  5
5984
  8
µę˝u
 10
-129.35307499303849
 20
21.76848803792717
 30
0.0
 11
-123.3530749930385
 21
21.768488037927259
 31
0.0
  0
LINE
  5
5985
  8
0
 10
-122.102002248033
 20
21.0684880379271
 30
0.0
 11
-122.102002248033
 21
17.424711399350912
 31
0.0
  0
LINE
  5
5986
  8
µę˝u
 10
-163.35307499303849
 20
30.068488037926979
 30
0.0
 11
-162.85307499303889
 21
30.5684880379271
 31
0.0
  0
LINE
  5
5987
  8
µę˝u
 10
-123.3530749930385
 20
30.068488037926979
 30
0.0
 11
-122.8530749930386
 21
30.5684880379271
 31
0.0
  0
LINE
  5
5988
  8
µę˝u
 10
-129.35307499303889
 20
30.0684880379271
 30
0.0
 11
-129.85307499303849
 21
30.5684880379271
 31
0.0
  0
LINE
  5
5989
  8
µę˝u
 10
-129.35307499303849
 20
30.0684880379271
 30
0.0
 11
-123.3530749930385
 21
30.068488037926979
 31
0.0
  0
LINE
  5
598A
  8
0
 10
-113.7530749930386
 20
6.6684840945270869
 30
0.0
 11
-101.1374028523972
 21
6.6684840945270869
 31
0.0
  0
LINE
  5
598B
  8
0
 10
-102.637402852397
 20
28.0684880379271
 30
0.0
 11
-101.1374028523972
 21
28.0684880379271
 31
0.0
  0
LINE
  5
598C
  8
0
 10
-101.1374028523972
 20
5.1684880379269771
 30
0.0
 11
-101.1374028523972
 21
29.5684880379271
 31
0.0
  0
LINE
  5
598D
  8
0
 10
-102.637402852397
 20
5.1684880379270899
 30
0.0
 11
-102.637402852397
 21
29.568491981227091
 31
0.0
  0
CIRCLE
  5
598E
  8
0
 10
-107.33740285239691
 20
23.5684880379271
 30
0.0
 40
2.8277919627000001
  0
CIRCLE
  5
598F
  8
0
 10
-107.33740285239691
 20
23.5684880379271
 30
0.0
 40
2.4999999728999991
  0
CIRCLE
  5
5990
  8
0
 10
-107.33740285239691
 20
23.5684880379271
 30
0.0
 40
3.1447818619999981
  0
LINE
  5
5991
  8
¤¤¤ß˝u
 10
-107.33740285239691
 20
19.818488037926979
 30
0.0
 11
-107.33740285239691
 21
27.3184880379271
 31
0.0
  0
LINE
  5
5992
  8
¤¤¤ß˝u
 10
-103.58740285239691
 20
23.5684880379271
 30
0.0
 11
-111.0874028523971
 21
23.5684880379271
 31
0.0
  0
CIRCLE
  5
5993
  8
0
 10
-107.33740285239691
 20
23.5684880379271
 30
0.0
 40
1.0
  0
LINE
  5
5994
  8
0
 10
-113.7530749930386
 20
28.068491981227169
 30
0.0
 11
-102.637402852397
 21
28.068491981227169
 31
0.0
  0
LINE
  5
5995
  8
0
 10
-113.7530749930386
 20
29.5684880379271
 30
0.0
 11
-101.1374028523972
 21
29.5684880379271
 31
0.0
  0
LINE
  5
5996
  8
0
 10
-178.95307499303851
 20
6.6684840945270869
 30
0.0
 11
-191.5687471336802
 21
6.6684840945270869
 31
0.0
  0
POINT
  5
5997
  8
0
 10
-205.0687471336802
 20
24.568507369027181
 30
0.0
1001
PNTFLAG
1000
endpoint
  0
LINE
  5
5998
  8
0
 10
-201.5959591336802
 20
24.568507369027181
 30
0.0
 11
-201.62776513368021
 21
24.21897136902718
 31
0.0
  0
LINE
  5
5999
  8
0
 10
-201.62776513368021
 20
24.21897136902718
 30
0.0
 11
-201.7219601336802
 21
23.882867369027199
 31
0.0
  0
LINE
  5
599A
  8
0
 10
-201.62776513368021
 20
24.918043369027259
 30
0.0
 11
-201.5959591336802
 21
24.568507369027181
 31
0.0
  0
LINE
  5
599B
  8
0
 10
-201.7219601336802
 20
23.882867369027199
 30
0.0
 11
-201.8749241336802
 21
23.57311236902726
 31
0.0
  0
LINE
  5
599C
  8
0
 10
-201.7219601336802
 20
25.25414736902718
 30
0.0
 11
-201.62776513368021
 21
24.918043369027259
 31
0.0
  0
LINE
  5
599D
  8
0
 10
-201.8749241336802
 20
23.57311236902726
 30
0.0
 11
-202.08078013368021
 21
23.301609369027261
 31
0.0
  0
LINE
  5
599E
  8
0
 10
-201.8749241336802
 20
25.563902369027179
 30
0.0
 11
-201.7219601336802
 21
25.25414736902718
 31
0.0
  0
LINE
  5
599F
  8
0
 10
-202.3316151336804
 20
23.07879336902727
 30
0.0
 11
-202.08078013368021
 21
23.301609369027261
 31
0.0
  0
LINE
  5
59A0
  8
0
 10
-202.08078013368021
 20
25.835404369027181
 30
0.0
 11
-201.8749241336802
 21
25.563902369027179
 31
0.0
  0
LINE
  5
59A1
  8
0
 10
-200.3506951336802
 20
24.568507369027181
 30
0.0
 11
-200.39602313368019
 21
24.070365369027179
 31
0.0
  0
LINE
  5
59A2
  8
0
 10
-200.39602313368019
 20
24.070365369027179
 30
0.0
 11
-200.53026613368041
 21
23.591366369027181
 31
0.0
  0
LINE
  5
59A3
  8
0
 10
-200.39602313368019
 20
25.066649369027179
 30
0.0
 11
-200.3506951336802
 21
24.568507369027181
 31
0.0
  0
LINE
  5
59A4
  8
0
 10
-202.61779213368021
 20
22.913225369027259
 30
0.0
 11
-202.3316151336804
 21
23.07879336902727
 31
0.0
  0
LINE
  5
59A5
  8
0
 10
-202.3316151336804
 20
26.058221369027201
 30
0.0
 11
-202.08078013368021
 21
25.835404369027181
 31
0.0
  0
LINE
  5
59A6
  8
0
 10
-200.53026613368041
 20
23.591366369027181
 30
0.0
 11
-200.74826313368021
 21
23.149919369027259
 31
0.0
  0
LINE
  5
59A7
  8
0
 10
-200.53026613368041
 20
25.54564736902719
 30
0.0
 11
-200.39602313368019
 21
25.066649369027179
 31
0.0
  0
LINE
  5
59A8
  8
0
 10
-200.74826313368021
 20
23.149919369027259
 30
0.0
 11
-201.04163813368021
 21
22.762987369027169
 31
0.0
  0
LINE
  5
59A9
  8
0
 10
-200.74826313368021
 20
25.987095369027259
 30
0.0
 11
-200.53026613368041
 21
25.54564736902719
 31
0.0
  0
LINE
  5
59AA
  8
0
 10
-202.92831113368021
 20
22.811269369027169
 30
0.0
 11
-202.61779213368021
 21
22.913225369027259
 31
0.0
  0
LINE
  5
59AB
  8
0
 10
-202.61779213368021
 20
26.223788369027179
 30
0.0
 11
-202.3316151336804
 21
26.058221369027201
 31
0.0
  0
LINE
  5
59AC
  8
0
 10
-201.39911713368019
 20
22.445440369027271
 30
0.0
 11
-201.04163813368021
 21
22.762987369027169
 31
0.0
  0
LINE
  5
59AD
  8
0
 10
-201.04163813368021
 20
26.374027369027178
 30
0.0
 11
-200.74826313368021
 21
25.987095369027259
 31
0.0
  0
LINE
  5
59AE
  8
0
 10
-200.22699513368019
 20
24.568507369027181
 30
0.0
 11
-200.27182813368029
 21
24.07580536902719
 31
0.0
  0
LINE
  5
59AF
  8
0
 10
-203.2512401336804
 20
22.776843369027262
 30
0.0
 11
-202.92831113368021
 21
22.811269369027169
 31
0.0
  0
LINE
  5
59B0
  8
0
 10
-202.92831113368021
 20
26.325744369027181
 30
0.0
 11
-202.61779213368021
 21
26.223788369027179
 31
0.0
  0
LINE
  5
59B1
  8
0
 10
-200.27182813368029
 20
24.07580536902719
 30
0.0
 11
-200.40460413368021
 21
23.60203736902719
 31
0.0
  0
LINE
  5
59B2
  8
0
 10
-200.27182813368029
 20
25.061209369027271
 30
0.0
 11
-200.22699513368019
 21
24.568507369027181
 31
0.0
  0
LINE
  5
59B3
  8
0
 10
-201.8069611336802
 20
22.20948136902717
 30
0.0
 11
-201.39911713368019
 21
22.445440369027271
 31
0.0
  0
LINE
  5
59B4
  8
0
 10
-201.39911713368019
 20
26.691574369027251
 30
0.0
 11
-201.04163813368021
 21
26.374027369027178
 31
0.0
  0
LINE
  5
59B5
  8
0
 10
-200.40460413368021
 20
23.60203736902719
 30
0.0
 11
-200.62022113368019
 21
23.165410369027171
 31
0.0
  0
LINE
  5
59B6
  8
0
 10
-200.40460413368021
 20
25.534977369027189
 30
0.0
 11
-200.27182813368029
 21
25.061209369027271
 31
0.0
  0
LINE
  5
59B7
  8
0
 10
-200.62022113368019
 20
23.165410369027171
 30
0.0
 11
-200.9103921336802
 21
22.782703369027189
 31
0.0
  0
LINE
  5
59B8
  8
0
 10
-200.62022113368019
 20
25.97160436902718
 30
0.0
 11
-200.40460413368021
 21
25.534977369027189
 31
0.0
  0
LINE
  5
59B9
  8
0
 10
-202.24949813368019
 20
22.064178369027189
 30
0.0
 11
-201.8069611336802
 21
22.20948136902717
 31
0.0
  0
LINE
  5
59BA
  8
0
 10
-201.8069611336802
 20
26.92753336902706
 30
0.0
 11
-201.39911713368019
 21
26.691574369027251
 31
0.0
  0
LINE
  5
59BB
  8
0
 10
-203.5741701336803
 20
22.811269369027169
 30
0.0
 11
-203.2512401336804
 21
22.776843369027262
 31
0.0
  0
LINE
  5
59BC
  8
0
 10
-203.2512401336804
 20
26.36017036902718
 30
0.0
 11
-202.92831113368021
 21
26.325744369027181
 31
0.0
  0
LINE
  5
59BD
  8
0
 10
-201.26396713368021
 20
22.46862436902725
 30
0.0
 11
-200.9103921336802
 21
22.782703369027189
 31
0.0
  0
LINE
  5
59BE
  8
0
 10
-200.9103921336802
 20
26.35431136902719
 30
0.0
 11
-200.62022113368019
 21
25.97160436902718
 31
0.0
  0
LINE
  5
59BF
  8
0
 10
-202.7097211336802
 20
22.015116369027169
 30
0.0
 11
-202.24949813368019
 21
22.064178369027189
 31
0.0
  0
LINE
  5
59C0
  8
0
 10
-202.24949813368019
 20
22.064178369027189
 30
0.0
 11
-202.10506213368009
 21
22.091526369027271
 31
0.0
  0
LINE
  5
59C1
  8
0
 10
-202.24949813368019
 20
27.072835369027189
 30
0.0
 11
-201.8069611336802
 21
26.92753336902706
 31
0.0
  0
LINE
  5
59C2
  8
0
 10
-203.88468913368021
 20
22.913225369027259
 30
0.0
 11
-203.5741701336803
 21
22.811269369027169
 31
0.0
  0
LINE
  5
59C3
  8
0
 10
-203.5741701336803
 20
26.325744369027181
 30
0.0
 11
-203.2512401336804
 21
26.36017036902718
 31
0.0
  0
LINE
  5
59C4
  8
0
 10
-201.6673581336803
 20
22.235242369027191
 30
0.0
 11
-201.26396713368021
 21
22.46862436902725
 31
0.0
  0
LINE
  5
59C5
  8
0
 10
-201.26396713368021
 20
26.668390369027179
 30
0.0
 11
-200.9103921336802
 21
26.35431136902719
 31
0.0
  0
LINE
  5
59C6
  8
0
 10
-202.10506213368009
 20
22.091526369027271
 30
0.0
 11
-201.6673581336803
 21
22.235242369027191
 31
0.0
  0
LINE
  5
59C7
  8
0
 10
-201.6673581336803
 20
26.901772369027189
 30
0.0
 11
-201.26396713368021
 21
26.668390369027179
 31
0.0
  0
LINE
  5
59C8
  8
0
 10
-203.1699441336801
 20
22.064178369027189
 30
0.0
 11
-202.7097211336802
 21
22.015116369027169
 31
0.0
  0
LINE
  5
59C9
  8
0
 10
-202.7097211336802
 20
27.121898369027178
 30
0.0
 11
-202.24949813368019
 21
27.072835369027189
 31
0.0
  0
LINE
  5
59CA
  8
0
 10
-202.24949813368019
 20
27.072835369027189
 30
0.0
 11
-202.10506213368009
 21
27.045488369027169
 31
0.0
  0
LINE
  5
59CB
  8
0
 10
-204.17086613368019
 20
23.07879336902727
 30
0.0
 11
-203.88468913368021
 21
22.913225369027259
 31
0.0
  0
LINE
  5
59CC
  8
0
 10
-203.88468913368021
 20
26.223788369027179
 30
0.0
 11
-203.5741701336803
 21
26.325744369027181
 31
0.0
  0
LINE
  5
59CD
  8
0
 10
-202.10506213368009
 20
27.045488369027169
 30
0.0
 11
-201.6673581336803
 21
26.901772369027189
 31
0.0
  0
LINE
  5
59CE
  8
0
 10
-204.4217011336801
 20
23.301609369027261
 30
0.0
 11
-204.17086613368019
 21
23.07879336902727
 31
0.0
  0
LINE
  5
59CF
  8
0
 10
-204.17086613368019
 20
26.058221369027201
 30
0.0
 11
-203.88468913368021
 21
26.223788369027179
 31
0.0
  0
LINE
  5
59D0
  8
0
 10
-203.61248113368021
 20
22.20948136902717
 30
0.0
 11
-203.1699441336801
 21
22.064178369027189
 31
0.0
  0
LINE
  5
59D1
  8
0
 10
-203.1699441336801
 20
27.072835369027189
 30
0.0
 11
-202.7097211336802
 21
27.121898369027178
 31
0.0
  0
LINE
  5
59D2
  8
0
 10
-204.6275571336802
 20
23.57311236902726
 30
0.0
 11
-204.4217011336801
 21
23.301609369027261
 31
0.0
  0
LINE
  5
59D3
  8
0
 10
-204.4217011336801
 20
25.835404369027181
 30
0.0
 11
-204.17086613368019
 21
26.058221369027201
 31
0.0
  0
LINE
  5
59D4
  8
0
 10
-204.02032613368019
 20
22.445440369027271
 30
0.0
 11
-203.61248113368021
 21
22.20948136902717
 31
0.0
  0
LINE
  5
59D5
  8
0
 10
-203.61248113368021
 20
26.92753336902706
 30
0.0
 11
-203.1699441336801
 21
27.072835369027189
 31
0.0
  0
LINE
  5
59D6
  8
0
 10
-204.7805211336802
 20
23.882867369027199
 30
0.0
 11
-204.6275571336802
 21
23.57311236902726
 31
0.0
  0
LINE
  5
59D7
  8
0
 10
-204.4217011336801
 20
25.835404369027181
 30
0.0
 11
-204.6275571336802
 21
25.563902369027179
 31
0.0
  0
LINE
  5
59D8
  8
0
 10
-204.3778041336802
 20
22.762987369027169
 30
0.0
 11
-204.02032613368019
 21
22.445440369027271
 31
0.0
  0
LINE
  5
59D9
  8
0
 10
-204.02032613368019
 20
26.691574369027251
 30
0.0
 11
-203.61248113368021
 21
26.92753336902706
 31
0.0
  0
LINE
  5
59DA
  8
0
 10
-204.8747161336801
 20
24.21897136902718
 30
0.0
 11
-204.7805211336802
 21
23.882867369027199
 31
0.0
  0
LINE
  5
59DB
  8
0
 10
-204.6275571336802
 20
25.563902369027179
 30
0.0
 11
-204.7805211336802
 21
25.25414736902718
 31
0.0
  0
LINE
  5
59DC
  8
0
 10
-204.9065221336804
 20
24.568507369027181
 30
0.0
 11
-204.8747161336801
 21
24.21897136902718
 31
0.0
  0
LINE
  5
59DD
  8
0
 10
-204.7805211336802
 20
25.25414736902718
 30
0.0
 11
-204.8747161336801
 21
24.918043369027259
 31
0.0
  0
LINE
  5
59DE
  8
0
 10
-204.8747161336801
 20
24.918043369027259
 30
0.0
 11
-204.9065221336804
 21
24.568507369027181
 31
0.0
  0
LINE
  5
59DF
  8
0
 10
-204.6711801336802
 20
23.149919369027259
 30
0.0
 11
-204.3778041336802
 21
22.762987369027169
 31
0.0
  0
LINE
  5
59E0
  8
0
 10
-204.3778041336802
 20
26.374027369027178
 30
0.0
 11
-204.02032613368019
 21
26.691574369027251
 31
0.0
  0
LINE
  5
59E1
  8
0
 10
-204.88917713368019
 20
23.591366369027181
 30
0.0
 11
-204.6711801336802
 21
23.149919369027259
 31
0.0
  0
LINE
  5
59E2
  8
0
 10
-204.3778041336802
 20
26.374027369027178
 30
0.0
 11
-204.6711801336802
 21
25.987095369027259
 31
0.0
  0
LINE
  5
59E3
  8
0
 10
-205.02341913368019
 20
24.070365369027179
 30
0.0
 11
-204.88917713368019
 21
23.591366369027181
 31
0.0
  0
LINE
  5
59E4
  8
0
 10
-204.6711801336802
 20
25.987095369027259
 30
0.0
 11
-204.88917713368019
 21
25.54564736902719
 31
0.0
  0
LINE
  5
59E5
  8
0
 10
-205.0687471336802
 20
24.568507369027181
 30
0.0
 11
-205.02341913368019
 21
24.070365369027179
 31
0.0
  0
LINE
  5
59E6
  8
0
 10
-204.88917713368019
 20
25.54564736902719
 30
0.0
 11
-205.02341913368019
 21
25.066649369027179
 31
0.0
  0
LINE
  5
59E7
  8
0
 10
-205.02341913368019
 20
25.066649369027179
 30
0.0
 11
-205.0687471336802
 21
24.568507369027181
 31
0.0
  0
LINE
  5
59E8
  8
0
 10
-203.9107091336804
 20
22.928279369027191
 30
0.0
 11
-203.9077381336804
 21
22.929895369027179
 31
0.0
  0
LINE
  5
59E9
  8
0
 10
-203.9107091336804
 20
26.20873436902718
 30
0.0
 11
-203.9077381336804
 21
26.207119369027168
 31
0.0
  0
LINE
  5
59EA
  8
0
 10
-198.23517413368009
 20
24.568507369027181
 30
0.0
 11
-198.28843013368021
 21
23.9832363690272
 31
0.0
  0
LINE
  5
59EB
  8
0
 10
-198.28843013368021
 20
25.153778369027268
 30
0.0
 11
-198.23517413368009
 21
24.568507369027181
 31
0.0
  0
LINE
  5
59EC
  8
0
 10
-198.28843013368021
 20
23.9832363690272
 30
0.0
 11
-198.44615213368041
 21
23.420456369027189
 31
0.0
  0
LINE
  5
59ED
  8
0
 10
-198.44615213368041
 20
25.716557369027189
 30
0.0
 11
-198.28843013368021
 21
25.153778369027268
 31
0.0
  0
LINE
  5
59EE
  8
0
 10
-198.44615213368041
 20
23.420456369027189
 30
0.0
 11
-198.70227913368021
 21
22.901796369027181
 31
0.0
  0
LINE
  5
59EF
  8
0
 10
-198.70227913368021
 20
26.235217369027168
 30
0.0
 11
-198.44615213368041
 21
25.716557369027189
 31
0.0
  0
LINE
  5
59F0
  8
0
 10
-198.70227913368021
 20
22.901796369027181
 30
0.0
 11
-199.0469681336802
 21
22.447186369027179
 31
0.0
  0
LINE
  5
59F1
  8
0
 10
-199.0469681336802
 20
26.689827369027171
 30
0.0
 11
-198.70227913368021
 21
26.235217369027168
 31
0.0
  0
LINE
  5
59F2
  8
0
 10
-197.8064001336804
 20
24.568507369027181
 30
0.0
 11
-199.40660613368021
 21
21.568507369027259
 31
0.0
  0
LINE
  5
59F3
  8
0
 10
-199.40660613368021
 20
27.56850736902717
 30
0.0
 11
-197.8064001336804
 21
24.568507369027181
 31
0.0
  0
LINE
  5
59F4
  8
0
 10
-199.46697213368051
 20
22.07409836902718
 30
0.0
 11
-199.0469681336802
 21
22.447186369027179
 31
0.0
  0
LINE
  5
59F5
  8
0
 10
-199.46697213368051
 20
27.062916369027189
 30
0.0
 11
-199.0469681336802
 21
26.689827369027171
 31
0.0
  0
LINE
  5
59F6
  8
0
 10
-199.94615213368019
 20
21.79686836902718
 30
0.0
 11
-199.46697213368051
 21
22.07409836902718
 31
0.0
  0
LINE
  5
59F7
  8
0
 10
-199.94615213368019
 20
27.340145369027169
 30
0.0
 11
-199.46697213368051
 21
27.062916369027189
 31
0.0
  0
LINE
  5
59F8
  8
0
 10
-200.46609213368021
 20
21.626151369027191
 30
0.0
 11
-199.94615213368019
 21
21.79686836902718
 31
0.0
  0
LINE
  5
59F9
  8
0
 10
-200.46609213368021
 20
27.510863369027192
 30
0.0
 11
-199.94615213368019
 21
27.340145369027169
 31
0.0
  0
LINE
  5
59FA
  8
0
 10
-201.00681213368011
 20
21.568507369027259
 30
0.0
 11
-200.46609213368021
 21
21.626151369027191
 31
0.0
  0
LINE
  5
59FB
  8
0
 10
-201.00681213368011
 20
27.56850736902717
 30
0.0
 11
-200.46609213368021
 21
27.510863369027192
 31
0.0
  0
LINE
  5
59FC
  8
0
 10
-201.54753213368039
 20
21.626151369027191
 30
0.0
 11
-201.00681213368011
 21
21.568507369027259
 31
0.0
  0
LINE
  5
59FD
  8
0
 10
-201.54753213368039
 20
27.510863369027192
 30
0.0
 11
-201.00681213368011
 21
27.56850736902717
 31
0.0
  0
LINE
  5
59FE
  8
0
 10
-202.06747213368021
 20
21.79686836902718
 30
0.0
 11
-201.54753213368039
 21
21.626151369027191
 31
0.0
  0
LINE
  5
59FF
  8
0
 10
-202.06747213368021
 20
27.340145369027169
 30
0.0
 11
-201.54753213368039
 21
27.510863369027192
 31
0.0
  0
LINE
  5
5A00
  8
0
 10
-202.4859391336802
 20
22.038972369027189
 30
0.0
 11
-202.06747213368021
 21
21.79686836902718
 31
0.0
  0
LINE
  5
5A01
  8
0
 10
-202.4859391336802
 20
27.09804136902719
 30
0.0
 11
-202.06747213368021
 21
27.340145369027169
 31
0.0
  0
LINE
  5
5A02
  8
0
 10
-197.1070361336802
 20
24.568507369027181
 30
0.0
 11
-198.70724213368021
 21
21.568507369027259
 31
0.0
  0
LINE
  5
5A03
  8
0
 10
-198.70724213368021
 20
21.568507369027259
 30
0.0
 11
-202.6070181336801
 21
21.568507369027259
 31
0.0
  0
LINE
  5
5A04
  8
0
 10
-198.70724213368021
 20
27.56850736902717
 30
0.0
 11
-197.1070361336802
 21
24.568507369027181
 31
0.0
  0
LINE
  5
5A05
  8
0
 10
-197.8064001336804
 20
24.568507369027181
 30
0.0
 11
-197.1070361336802
 21
24.568507369027181
 31
0.0
  0
LINE
  5
5A06
  8
0
 10
-202.6070181336801
 20
27.56850736902717
 30
0.0
 11
-202.8534111336804
 21
27.106580369027171
 31
0.0
  0
LINE
  5
5A07
  8
0
 10
-202.8534111336804
 20
22.03043436902718
 30
0.0
 11
-202.6070181336801
 21
21.568507369027259
 31
0.0
  0
LINE
  5
5A08
  8
0
 10
-202.6070181336801
 20
27.56850736902717
 30
0.0
 11
-198.70724213368021
 21
27.56850736902717
 31
0.0
  0
LINE
  5
5A09
  8
0
 10
-195.33124113368021
 20
28.568507369027181
 30
0.0
 11
-195.33124113368021
 21
20.56850736902717
 31
0.0
  0
LINE
  5
5A0A
  8
0
 10
-199.07958113368019
 20
20.56850736902717
 30
0.0
 11
-191.5687471336802
 21
20.56850736902717
 31
0.0
  0
LINE
  5
5A0B
  8
0
 10
-194.5512451336804
 20
24.568507369027181
 30
0.0
 11
-191.5687471336802
 21
24.568507369027181
 31
0.0
  0
LINE
  5
5A0C
  8
0
 10
-191.5687471336802
 20
28.568507369027181
 30
0.0
 11
-199.07958113368019
 21
28.568507369027181
 31
0.0
  0
ARC
  5
5A0D
  8
0
 10
-199.07958113368019
 20
24.568507369027181
 30
0.0
 40
3.999999999999968
 50
228.59037799730081
 51
270.0
  0
ARC
  5
5A0E
  8
0
 10
-199.07958113368019
 20
24.568507369027181
 30
0.0
 40
3.999999999999968
 50
90.0
 51
131.40962199959881
  0
POLYLINE
  5
5A0F
  8
0
 66
     1
 10
0.0
 20
0.0
 30
0.0
  0
VERTEX
  5
5E6E
  8
0
 10
-202.65995813368019
 20
24.568507369027181
 30
0.0
  0
VERTEX
  5
5E6F
  8
0
 10
-202.69277613368021
 20
24.778762369027191
 30
0.0
  0
VERTEX
  5
5E70
  8
0
 10
-202.73692313368019
 20
24.88424936902717
 30
0.0
  0
VERTEX
  5
5E71
  8
0
 10
-202.79995613368021
 20
24.98202836902718
 30
0.0
  0
VERTEX
  5
5E72
  8
0
 10
-202.87943213368021
 20
25.066141369027179
 30
0.0
  0
VERTEX
  5
5E73
  8
0
 10
-202.97092313368029
 20
25.132014369027189
 30
0.0
  0
VERTEX
  5
5E74
  8
0
 10
-203.06884313368019
 20
25.17729536902706
 30
0.0
  0
VERTEX
  5
5E75
  8
0
 10
-203.20147913368021
 20
25.206236369027181
 30
0.0
  0
VERTEX
  5
5E76
  8
0
 10
-203.32448813368021
 20
25.20357736902719
 30
0.0
  0
VERTEX
  5
5E77
  8
0
 10
-203.4314121336802
 20
25.17807136902718
 30
0.0
  0
VERTEX
  5
5E78
  8
0
 10
-203.54761713368021
 20
25.122303369027179
 30
0.0
  0
VERTEX
  5
5E79
  8
0
 10
-203.6581871336804
 20
25.0328143690272
 30
0.0
  0
VERTEX
  5
5E7A
  8
0
 10
-203.74641713368021
 20
24.918264369027181
 30
0.0
  0
VERTEX
  5
5E7B
  8
0
 10
-203.80305113368021
 20
24.79842536902726
 30
0.0
  0
VERTEX
  5
5E7C
  8
0
 10
-203.83090213368021
 20
24.694769369027171
 30
0.0
  0
VERTEX
  5
5E7D
  8
0
 10
-203.8425231336802
 20
24.568507369027181
 30
0.0
  0
VERTEX
  5
5E7E
  8
0
 10
-203.80970513368021
 20
24.358252369027191
 30
0.0
  0
VERTEX
  5
5E7F
  8
0
 10
-203.7655571336802
 20
24.252764369027179
 30
0.0
  0
VERTEX
  5
5E80
  8
0
 10
-203.70252513368041
 20
24.154986369027061
 30
0.0
  0
VERTEX
  5
5E81
  8
0
 10
-203.62304913368021
 20
24.070873369027169
 30
0.0
  0
VERTEX
  5
5E82
  8
0
 10
-203.53155813368019
 20
24.00500036902719
 30
0.0
  0
VERTEX
  5
5E83
  8
0
 10
-203.43363813368029
 20
23.959719369027169
 30
0.0
  0
VERTEX
  5
5E84
  8
0
 10
-203.3010021336803
 20
23.930777369027169
 30
0.0
  0
VERTEX
  5
5E85
  8
0
 10
-203.17799313368019
 20
23.933437369027189
 30
0.0
  0
VERTEX
  5
5E86
  8
0
 10
-203.0710691336802
 20
23.95894236902717
 30
0.0
  0
VERTEX
  5
5E87
  8
0
 10
-202.95486413368019
 20
24.014710369027171
 30
0.0
  0
VERTEX
  5
5E88
  8
0
 10
-202.84429413368011
 20
24.104200369027179
 30
0.0
  0
VERTEX
  5
5E89
  8
0
 10
-202.75606413368041
 20
24.218749369027201
 30
0.0
  0
VERTEX
  5
5E8A
  8
0
 10
-202.69943013368021
 20
24.338588369027178
 30
0.0
  0
VERTEX
  5
5E8B
  8
0
 10
-202.67157813368021
 20
24.442245369027258
 30
0.0
  0
VERTEX
  5
5E8C
  8
0
 10
-202.65995813368019
 20
24.568507369027181
 30
0.0
  0
SEQEND
  5
5E8D
  8
0
  0
ARC
  5
5A10
  8
0
 10
-192.37712913368031
 20
26.56850736902717
 30
0.0
 40
2.954111999999975
 50
137.3885980022001
 51
222.61140199989731
  0
ARC
  5
5A11
  8
0
 10
-192.37713013368011
 20
22.568507369027259
 30
0.0
 40
2.9541109999999762
 50
137.38859300450039
 51
222.6114069976017
  0
LINE
  5
5A12
  8
¤¤¤ß˝u
 10
-206.56874537466351
 20
24.568488037927182
 30
0.0
 11
-191.26427726012651
 21
24.568488037927182
 31
0.0
  0
LINE
  5
5A13
  8
0
 10
-178.95307499303851
 20
29.5684880379271
 30
0.0
 11
-191.5687471336802
 21
29.5684880379271
 31
0.0
  0
LINE
  5
5A14
  8
0
 10
-190.0687471336802
 20
28.0684880379271
 30
0.0
 11
-191.5687471336802
 21
28.0684880379271
 31
0.0
  0
LINE
  5
5A15
  8
0
 10
-191.5687471336802
 20
5.168488037927176
 30
0.0
 11
-191.5687471336802
 21
29.5684880379271
 31
0.0
  0
LINE
  5
5A16
  8
0
 10
-178.95307499303851
 20
28.068491981227169
 30
0.0
 11
-190.0687471336802
 21
28.068491981227169
 31
0.0
  0
CIRCLE
  5
5A17
  8
0
 10
-185.3687471336801
 20
23.5684880379271
 30
0.0
 40
1.0
  0
LINE
  5
5A18
  8
¤¤¤ß˝u
 10
-189.11874713368019
 20
23.5684880379271
 30
0.0
 11
-181.6187471336801
 21
23.5684880379271
 31
0.0
  0
LINE
  5
5A19
  8
¤¤¤ß˝u
 10
-185.3687471336801
 20
19.818488037926979
 30
0.0
 11
-185.3687471336801
 21
27.3184880379271
 31
0.0
  0
CIRCLE
  5
5A1A
  8
0
 10
-185.3687471336801
 20
23.5684880379271
 30
0.0
 40
3.1447818619999981
  0
CIRCLE
  5
5A1B
  8
0
 10
-185.3687471336801
 20
23.5684880379271
 30
0.0
 40
2.4999999728999991
  0
CIRCLE
  5
5A1C
  8
0
 10
-185.3687471336801
 20
23.5684880379271
 30
0.0
 40
2.8277919627000001
  0
LINE
  5
5A1D
  8
0
 10
-190.0687471336802
 20
5.1684880379270899
 30
0.0
 11
-190.0687471336802
 21
29.568491981227091
 31
0.0
  0
LINE
  5
5A1E
  8
0
 10
-74.684617626916861
 20
83.620688633100414
 30
0.0
 11
-74.684617626916861
 21
103.6206886425495
 31
0.0
  0
LINE
  5
5A1F
  8
0
 10
-121.1030749860938
 20
72.124166358441926
 30
0.0
 11
-108.4874028454521
 21
72.124166358441926
 31
0.0
  0
LINE
  5
5A20
  8
0
 10
-109.9874028454521
 20
72.124166358441926
 30
0.0
 11
-109.9874028454521
 21
115.124166358442
 31
0.0
  0
LINE
  5
5A21
  8
0
 10
-108.4874028454521
 20
72.124166358441926
 30
0.0
 11
-108.4874028454521
 21
115.124166358442
 31
0.0
  0
LINE
  5
5A22
  8
0
 10
-108.4874028454521
 20
83.621423361121515
 30
0.0
 11
-74.684617626916861
 21
83.620688633100414
 31
0.0
  0
CIRCLE
  5
5A23
  8
0
 10
-94.684617626916634
 20
93.621123352311585
 30
0.0
 40
2.999879856162456
  0
CIRCLE
  5
5A24
  8
0
 10
-94.684617626916634
 20
93.621123352311585
 30
0.0
 40
4.7498798561624724
  0
LINE
  5
5A25
  8
¤¤¤ß˝u
 10
-100.4576294296992
 20
93.621123352311585
 30
0.0
 11
-88.911605824134526
 21
93.621123352311585
 31
0.0
  0
LINE
  5
5A26
  8
¤¤¤ß˝u
 10
-94.684617626916634
 20
87.848111549529094
 30
0.0
 11
-94.684617626916634
 21
99.394135155093934
 31
0.0
  0
LINE
  5
5A27
  8
0
 10
-108.4874028454521
 20
103.6214233705705
 30
0.0
 11
-74.684617626916861
 21
103.6206886425495
 31
0.0
  0
LINE
  5
5A28
  8
0
 10
-121.1030749860938
 20
115.124166358442
 30
0.0
 11
-108.4874028454521
 21
115.124166358442
 31
0.0
  0
ARC
  5
5A29
  8
0
 10
-214.68461762691689
 20
93.621123352311585
 30
0.0
 40
4.7498798561624724
 50
14.79960512823475
 51
311.76396533216842
  0
LINE
  5
5A2A
  8
¤¤¤ß˝u
 10
-214.68461762691689
 20
87.848111549529222
 30
0.0
 11
-214.68461762691689
 21
99.394135155094034
 31
0.0
  0
LINE
  5
5A2B
  8
0
 10
-186.3030749860938
 20
72.124166358441926
 30
0.0
 11
-198.91874712673561
 21
72.124166358441926
 31
0.0
  0
LINE
  5
5A2C
  8
0
 10
-207.2272934437807
 20
83.623667931906624
 30
0.0
 11
-198.91874712673561
 21
83.623487339634437
 31
0.0
  0
LINE
  5
5A2D
  8
0
 10
-234.68505234834811
 20
83.623846843294316
 30
0.0
 11
-212.68124112673561
 21
83.623368574519475
 31
0.0
  0
LINE
  5
5A2E
  8
0
  6
CONTINUOUS
 10
-202.34198858462611
 20
89.024166358441903
 30
0.0
 11
-198.91874712673561
 21
89.024166358441903
 31
0.0
  0
ARC
  5
5A2F
  8
0
  6
CONTINUOUS
 10
-200.5622311496895
 20
90.174166258849027
 30
0.0
 40
2.119009977045994
 50
147.13277999893791
 51
212.86722000106201
  0
ARC
  5
5A30
  8
0
  6
CONTINUOUS
 10
-210.17554619324011
 20
84.219002940566114
 30
0.0
 40
6.9715047321794721
 50
50.721349997912249
 51
84.278650002086209
  0
ARC
  5
5A31
  8
0
  6
CONTINUOUS
 10
-204.80843249568181
 20
89.287987491850615
 30
0.0
 40
1.8541337299152449
 50
214.6327799989364
 51
280.36722000106028
  0
ARC
  5
5A32
  8
0
  6
CONTINUOUS
 10
-204.76187102124001
 20
85.376006928352254
 30
0.0
 40
2.0596736098176041
 50
89.152098834939196
 51
159.15209883493981
  0
ARC
  5
5A33
  8
0
  6
CONTINUOUS
 10
-205.63906081512869
 20
95.171047465909908
 30
0.0
 40
6.9715047321794721
 50
230.7213499979122
 51
264.27865000208948
  0
LINE
  5
5A34
  8
0
  6
CONTINUOUS
 10
-206.33403474028421
 20
88.234316512112414
 30
0.0
 11
-205.76195747176831
 21
89.615433212488199
 31
0.0
  0
ARC
  5
5A35
  8
0
  6
CONTINUOUS
 10
-209.9374589004951
 20
85.510777372556646
 30
0.0
 40
2.860349020536761
 50
118.5864858262624
 51
163.5864858262625
  0
ARC
  5
5A36
  8
0
  6
CONTINUOUS
 10
-213.18546725287931
 20
88.865174731451987
 30
0.0
 40
2.0596736098176041
 50
335.84790116505968
 51
45.847901165062247
  0
LINE
  5
5A37
  8
0
  6
CONTINUOUS
 10
-210.29662825285919
 20
91.815059118232924
 30
0.0
 11
-204.7187054143013
 21
89.504607828631606
 31
0.0
  0
LINE
  5
5A38
  8
0
  6
CONTINUOUS
 10
-211.12131640164449
 20
87.945901314979551
 30
0.0
 11
-206.8714705520926
 21
86.185557526100098
 31
0.0
  0
LINE
  5
5A39
  8
0
  6
CONTINUOUS
 10
-211.0959015940673
 20
89.885442577844316
 30
0.0
 11
-205.5179787555098
 21
87.574991288243126
 31
0.0
  0
LINE
  5
5A3A
  8
0
  6
CONTINUOUS
 10
-209.06276114846801
 20
81.788200227219505
 30
0.0
 11
-206.91881624293461
 21
83.932145132752822
 31
0.0
  0
LINE
  5
5A3B
  8
0
  6
CONTINUOUS
 10
-212.68124112673561
 20
83.28702370939348
 30
0.0
 11
-209.06276114846801
 21
81.788200227219505
 31
0.0
  0
LINE
  5
5A3C
  8
0
  6
CONTINUOUS
 10
-212.68124112673561
 20
86.319019671779444
 30
0.0
 11
-206.91881624293461
 21
83.932145132752822
 31
0.0
  0
LINE
  5
5A3D
  8
0
  6
CONTINUOUS
 10
-212.68124112673561
 20
83.28702370939348
 30
0.0
 11
-212.68124112673561
 21
86.319019671779444
 31
0.0
  0
ARC
  5
5A3E
  8
0
  6
CONTINUOUS
 10
-209.43047687183059
 20
85.300778540404309
 30
0.0
 40
2.860349020536761
 50
331.41351417373647
 51
16.41351417373744
  0
LINE
  5
5A3F
  8
0
  6
CONTINUOUS
 10
-205.14619664857989
 20
89.624166358441926
 30
0.0
 11
-202.60861903872041
 21
89.624166358441926
 31
0.0
  0
ARC
  5
5A40
  8
0
  6
CONTINUOUS
 10
-205.4282516741292
 20
87.791611625024217
 30
0.0
 40
1.8541337299152449
 50
34.632779998936442
 51
100.3672200010636
  0
LINE
  5
5A41
  8
0
  6
CONTINUOUS
 10
-204.47476927213069
 20
87.464123258510114
 30
0.0
 11
-203.90264937876489
 21
88.845342864377358
 31
0.0
  0
LINE
  5
5A42
  8
0
 10
-198.91874712673561
 20
72.124166358441926
 30
0.0
 11
-198.91874712673561
 21
115.124166358442
 31
0.0
  0
LINE
  5
5A43
  8
0
 10
-197.41874712673541
 20
72.124166358441926
 30
0.0
 11
-197.41874712673541
 21
115.124166358442
 31
0.0
  0
CIRCLE
  5
5A44
  8
0
 10
-214.68461762691689
 20
93.621123352311585
 30
0.0
 40
2.999879856162456
  0
LINE
  5
5A45
  8
¤¤¤ß˝u
 10
-220.45762942969901
 20
93.621123352311713
 30
0.0
 11
-208.91160582413431
 21
93.621123352311585
 31
0.0
  0
LINE
  5
5A46
  8
0
 10
-234.68461763386159
 20
103.6238468432945
 30
0.0
 11
-198.91874712673561
 21
103.6230694461927
 31
0.0
  0
LINE
  5
5A47
  8
0
  6
CONTINUOUS
 10
-202.34198858462611
 20
98.224166358442005
 30
0.0
 11
-198.91874712673561
 21
98.224166358442005
 31
0.0
  0
LINE
  5
5A48
  8
0
  6
CONTINUOUS
 10
-202.34198858462611
 20
95.924166159256117
 30
0.0
 11
-198.91874712673561
 21
95.924166159256117
 31
0.0
  0
ARC
  5
5A49
  8
0
  6
CONTINUOUS
 10
-200.5622311496895
 20
97.074166458034938
 30
0.0
 40
2.119009977045994
 50
147.13277999893791
 51
212.86722000106201
  0
LINE
  5
5A4A
  8
0
  6
CONTINUOUS
 10
-206.2797999492206
 20
97.624166358441926
 30
0.0
 11
-202.60861903872041
 21
97.624166358441926
 31
0.0
  0
LINE
  5
5A4B
  8
0
  6
CONTINUOUS
 10
-202.34198858462611
 20
91.324166557627805
 30
0.0
 11
-198.91874712673561
 21
91.324166557627805
 31
0.0
  0
LINE
  5
5A4C
  8
0
  6
CONTINUOUS
 10
-210.0526495366006
 20
89.774617193987936
 30
0.0
 11
-209.48057226808501
 21
91.155733894363678
 31
0.0
  0
LINE
  5
5A4D
  8
0
  6
CONTINUOUS
 10
-211.91195725680021
 20
90.544767668319622
 30
0.0
 11
-211.33987998828471
 21
91.925884368695449
 31
0.0
  0
ARC
  5
5A4E
  8
0
  6
CONTINUOUS
 10
-211.00617451268681
 20
90.102062914625435
 30
0.0
 40
1.8541337299152449
 50
34.632779998936442
 51
100.3672200010636
  0
ARC
  5
5A4F
  8
0
  6
CONTINUOUS
 10
-210.38635533423951
 20
91.598438781451804
 30
0.0
 40
1.8541337299152449
 50
214.6327799989364
 51
280.36722000106028
  0
LINE
  5
5A50
  8
0
  6
CONTINUOUS
 10
-202.6812411267355
 20
90.174166258849027
 30
0.0
 11
-202.6812411267355
 21
97.074166458034938
 31
0.0
  0
ARC
  5
5A51
  8
0
  6
CONTINUOUS
 10
-206.2797999492206
 20
93.624166358441926
 30
0.0
 40
4.0
 50
90.0
 51
210.8352048940848
  0
ARC
  5
5A52
  8
0
  6
CONTINUOUS
 10
-194.7138071471019
 20
93.624166358441926
 30
0.0
 40
7.9674339796336779
 50
163.2213499979126
 51
196.7786500020874
  0
LINE
  5
5A53
  8
0
 10
-234.68505234834811
 20
83.623846843294316
 30
0.0
 11
-234.68461763386159
 21
103.6238468432945
 31
0.0
  0
LINE
  5
5A54
  8
0
 10
-186.3030749860938
 20
115.124166358442
 30
0.0
 11
-198.91874712673561
 21
115.124166358442
 31
0.0
  0
LINE
  5
5BC7
  8
«ü˝u
 10
-302.88625375686252
 20
18.116783405017468
 30
0.0
 11
-300.7475811154996
 21
18.116504674552509
 31
0.0
  0
LINE
  5
5BC8
  8
«ü˝u
 10
-302.88642327614531
 20
17.02086542788361
 30
0.0
 11
-300.74775063478239
 21
17.020586697418398
 31
0.0
  0
LINE
  5
5BC9
  8
«ü˝u
 10
-303.98233161125933
 20
17.021035051573602
 30
0.0
 11
-303.98248658827862
 21
16.019131973737551
 31
0.0
  0
LINE
  5
5BCA
  8
«ü˝u
 10
-302.88642327614531
 20
17.02086542788361
 30
0.0
 11
-302.88657825294541
 21
16.018962350052298
 31
0.0
  0
LINE
  5
5BCB
  8
«ü˝u
 10
-303.98200711517637
 20
19.118856106538772
 30
0.0
 11
-303.98216209197648
 21
18.116953028707709
 31
0.0
  0
LINE
  5
5BCC
  8
«ü˝u
 10
-302.88609877984339
 20
19.118686482853771
 30
0.0
 11
-302.88625375686252
 21
18.116783405017468
 31
0.0
  0
ARC
  5
5BCD
  8
«ü˝u
 10
-303.42611320340018
 20
17.568686016388661
 30
0.0
 40
1.640957465861105
 50
19.507530631701961
 51
70.786756774813483
  0
ARC
  5
5BCE
  8
«ü˝u
 10
-303.42611320340018
 20
17.568686016388661
 30
0.0
 40
1.640957465861105
 50
289.19551791561452
 51
340.49299983582353
  0
LINE
  5
5BCF
  8
«ü˝u
 10
-303.98216209197648
 20
18.116953028707709
 30
0.0
 11
-306.11644258705633
 21
18.11733565794411
 31
0.0
  0
LINE
  5
5BD0
  8
«ü˝u
 10
-303.98233161125933
 20
17.021035051573602
 30
0.0
 11
-306.11661210633929
 21
17.021417680809989
 31
0.0
  0
ARC
  5
5BD1
  8
«ü˝u
 10
-303.42610576056762
 20
17.568686016373292
 30
0.0
 40
1.640957465861105
 50
199.4892768756599
 51
250.18050078877511
  0
ARC
  5
5BD2
  8
«ü˝u
 10
-303.42610576056762
 20
17.568686016373292
 30
0.0
 40
1.640957465861105
 50
109.80177390166089
 51
160.47474608153229
  0
CIRCLE
  5
5BD3
  8
«ü˝u
 10
-303.42611320340018
 20
17.568686016388661
 30
0.0
 40
2.7389206369020842
  0
ARC
  5
5BD4
  8
«ü˝u
 10
-265.92611320340018
 20
17.568686016388661
 30
0.0
 40
1.640957465861105
 50
199.4892768756599
 51
250.18050078877511
  0
ARC
  5
5BD5
  8
«ü˝u
 10
-265.92611320340018
 20
17.568686016388661
 30
0.0
 40
1.640957465861105
 50
289.19551791561452
 51
340.49299983582353
  0
ARC
  5
5BD6
  8
«ü˝u
 10
-265.92611320340018
 20
17.568686016388661
 30
0.0
 40
1.640957465861105
 50
19.507530631701961
 51
70.786756774813483
  0
ARC
  5
5BD7
  8
«ü˝u
 10
-265.92611320340018
 20
17.568686016388661
 30
0.0
 40
1.640957465861105
 50
109.80177390166089
 51
160.47474608153229
  0
CIRCLE
  5
5BD8
  8
«ü˝u
 10
-265.92611320340018
 20
17.568686016388661
 30
0.0
 40
2.7389206369020842
  0
LINE
  5
5BD9
  8
«ü˝u
 10
-265.38609877984339
 20
19.118686482853771
 30
0.0
 11
-265.38625375686257
 21
18.116783405017468
 31
0.0
  0
LINE
  5
5BDA
  8
«ü˝u
 10
-266.4820145580091
 20
19.118856106554141
 30
0.0
 11
-266.4821695348092
 21
18.116953028723071
 31
0.0
  0
LINE
  5
5BDB
  8
«ü˝u
 10
-265.38642327614531
 20
17.02086542788361
 30
0.0
 11
-265.38657825294541
 21
16.018962350052298
 31
0.0
  0
LINE
  5
5BDC
  8
«ü˝u
 10
-266.48233905409188
 20
17.021035051588971
 30
0.0
 11
-266.48249403111129
 21
16.019131973752909
 31
0.0
  0
LINE
  5
5BDD
  8
«ü˝u
 10
-265.38642327614531
 20
17.02086542788361
 30
0.0
 11
-263.24775063478239
 21
17.020586697418398
 31
0.0
  0
LINE
  5
5BDE
  8
«ü˝u
 10
-265.38625375686257
 20
18.116783405017468
 30
0.0
 11
-263.2475811154996
 21
18.116504674552509
 31
0.0
  0
LINE
  5
5BDF
  8
«ü˝u
 10
-266.48233905409188
 20
17.021035051588971
 30
0.0
 11
-268.61661954917201
 21
17.021417680825358
 31
0.0
  0
LINE
  5
5BE0
  8
«ü˝u
 10
-266.4821695348092
 20
18.116953028723071
 30
0.0
 11
-268.61645002988899
 21
18.11733565795948
 31
0.0
  0
LINE
  5
5BE1
  8
0
 10
-254.17591522501701
 20
30.568488037927271
 30
0.0
 11
-253.17611320340029
 21
29.56868601631054
 31
0.0
  0
LINE
  5
5BE2
  8
µę˝u
 10
-261.17611320340029
 20
30.068686016310529
 30
0.0
 11
-261.67611320340001
 21
30.56868601631054
 31
0.0
  0
LINE
  5
5BE3
  8
µę˝u
 10
-255.17611320340009
 20
30.068686016310419
 30
0.0
 11
-254.67611320340029
 21
30.56868601631054
 31
0.0
  0
LINE
  5
5BE4
  8
µę˝u
 10
-261.17611320340012
 20
30.068686016310529
 30
0.0
 11
-255.17611320340009
 21
30.068686016310419
 31
0.0
  0
LINE
  5
5BE5
  8
0
 10
-263.38321998458702
 20
30.36157923512398
 30
0.0
 11
-263.1763111817836
 21
30.568488037927231
 31
0.0
  0
ARC
  5
5BE6
  8
0
 10
-264.0903267657734
 20
31.06868601631054
 30
0.0
 40
1.0
 50
270.0
 51
315.00000000000051
  0
LINE
  5
5BE7
  8
0
 10
-263.17611320340029
 20
28.068689959788632
 30
0.0
 11
-264.67611320340029
 21
29.568689959788639
 31
0.0
  0
LINE
  5
5BE8
  8
µę˝u
 10
-308.17611320340012
 20
30.068686016310419
 30
0.0
 11
-307.67611320340018
 21
30.56868601631054
 31
0.0
  0
LINE
  5
5BE9
  8
0
 10
-305.96900642221362
 20
30.36157923512398
 30
0.0
 11
-306.17591522501698
 21
30.56848803792726
 31
0.0
  0
ARC
  5
5BEA
  8
0
 10
-305.26189964102718
 20
31.06868601631054
 30
0.0
 40
1.0
 50
224.9999999999996
 51
270.0
  0
LINE
  5
5BEB
  8
0
 10
-304.67611320340029
 20
29.568689959788639
 30
0.0
 11
-306.17611320340029
 21
28.068689959788632
 31
0.0
  0
LINE
  5
5BEC
  8
0
 10
-305.26189964102718
 20
30.068686016310529
 30
0.0
 11
-290.5903267657734
 21
30.068686016310529
 31
0.0
  0
LINE
  5
5BED
  8
0
 10
-264.0903267657734
 20
30.068686016310529
 30
0.0
 11
-278.76189964102713
 21
30.068686016310529
 31
0.0
  0
LINE
  5
5BEE
  8
0
 10
-264.67611320340029
 20
29.568689959788639
 30
0.0
 11
-304.67611320340029
 21
29.568689959788639
 31
0.0
  0
LINE
  5
5BEF
  8
0
 10
-253.17611320340029
 20
21.068686016310529
 30
0.0
 11
-253.67611320340029
 21
20.56868601631054
 31
0.0
  0
ARC
  5
5BF0
  8
0
 10
-257.12222134097561
 20
18.568686016310529
 30
0.0
 40
2.0
 50
90.0
 51
165.0000000000035
  0
LINE
  5
5BF1
  8
µę˝u
 10
-261.17611320340029
 20
21.768686016310578
 30
0.0
 11
-261.87611320340011
 21
21.068686016310529
 31
0.0
  0
LINE
  5
5BF2
  8
µę˝u
 10
-261.17611320340012
 20
21.768686016310578
 30
0.0
 11
-255.17611320340009
 21
21.768686016310689
 31
0.0
  0
LINE
  5
5BF3
  8
0
 10
-257.12222134097561
 20
20.56868601631054
 30
0.0
 11
-253.67611320340029
 21
20.56868601631054
 31
0.0
  0
LINE
  5
5BF4
  8
µę˝u
 10
-255.17611320340009
 20
21.768686016310689
 30
0.0
 11
-254.47611320340019
 21
21.068686016310529
 31
0.0
  0
LINE
  5
5BF5
  8
0
 10
-261.17611320340029
 20
21.068686016310529
 30
0.0
 11
-253.17611320340029
 21
21.068686016310529
 31
0.0
  0
LINE
  5
5BF6
  8
0
 10
-259.05407299355358
 20
19.086324106515502
 30
0.0
 11
-262.2610496939389
 21
7.117724121987389
 31
0.0
  0
LINE
  5
5BF7
  8
0
 10
-261.17611320340029
 20
11.16676222766362
 30
0.0
 11
-261.17611320340029
 21
21.068686016310529
 31
0.0
  0
ARC
  5
5BF8
  8
0
 10
-265.92611320340018
 20
17.568686016388661
 30
0.0
 40
3.0
 50
90.0
 51
270.0
  0
LINE
  5
5BF9
  8
0
 10
-263.17611320340029
 20
14.568686016388661
 30
0.0
 11
-265.92611320340018
 21
14.568686016388661
 31
0.0
  0
LINE
  5
5BFA
  8
0
 10
-263.17610576056762
 20
20.568686016373292
 30
0.0
 11
-265.92610576056762
 21
20.568686016373292
 31
0.0
  0
LINE
  5
5BFB
  8
0
 10
-264.67614359702259
 20
5.1686860163732593
 30
0.0
 11
-263.17614359702247
 21
6.6686860163732593
 31
0.0
  0
LINE
  5
5BFC
  8
µę˝u
 10
-263.17611320340018
 20
6.202660612526059
 30
0.0
 11
-263.17611320340029
 21
21.068686016310529
 31
0.0
  0
LINE
  5
5BFD
  8
µę˝u
 10
-261.17611320340029
 20
21.068686016310529
 30
0.0
 11
-263.17611320340029
 21
21.068686016310529
 31
0.0
  0
LINE
  5
5BFE
  8
0
 10
-264.21028577799888
 20
5.1684880379271769
 30
0.0
 11
-262.26104969393913
 21
7.1177241219869947
 31
0.0
  0
LINE
  5
5BFF
  8
µę˝u
 10
-308.17611320340012
 20
21.768686016310689
 30
0.0
 11
-307.47611320340019
 21
21.068686016310529
 31
0.0
  0
LINE
  5
5C00
  8
µę˝u
 10
-308.17611320340029
 20
21.068686016310529
 30
0.0
 11
-306.17611320340029
 21
21.068686016310529
 31
0.0
  0
LINE
  5
5C01
  8
0
 10
-306.17611320340029
 20
20.568686016388661
 30
0.0
 11
-303.42611320340018
 21
20.568686016388661
 31
0.0
  0
LINE
  5
5C02
  8
0
 10
-306.17611320340029
 20
14.568686016388661
 30
0.0
 11
-303.42611320340018
 21
14.568686016388661
 31
0.0
  0
ARC
  5
5C03
  8
0
 10
-303.42611320340018
 20
17.568686016388661
 30
0.0
 40
3.0
 50
270.0
 51
90.0
  0
LINE
  5
5C04
  8
0
 10
-305.14194062880159
 20
5.1684880379271769
 30
0.0
 11
-307.091176712861
 21
7.1177241219868801
 31
0.0
  0
LINE
  5
5C05
  8
0
 10
-306.17611320340029
 20
6.6686860163886301
 30
0.0
 11
-304.67611320340029
 21
5.1686860163886301
 31
0.0
  0
LINE
  5
5C06
  8
µę˝u
 10
-306.17611320340029
 20
6.202660612526059
 30
0.0
 11
-306.17611320340029
 21
21.068686016310529
 31
0.0
  0
LINE
  5
5C07
  8
0
 10
-308.17611320340029
 20
11.16676222766362
 30
0.0
 11
-308.17611320340029
 21
21.068686016310529
 31
0.0
  0
LINE
  5
5C08
  8
µę˝u
 10
-308.67611320340012
 20
30.068686016310419
 30
0.0
 11
-308.67611320340029
 21
21.768686016310689
 31
0.0
  0
LINE
  5
5C09
  8
µę˝u
 10
-308.17611320340012
 20
30.068686016310419
 30
0.0
 11
-308.17611320340012
 21
21.768686016310689
 31
0.0
  0
LINE
  5
5C0A
  8
¤¤¤ß˝u
 10
-258.17611320340029
 20
19.568686016310529
 30
0.0
 11
-258.17611320340029
 21
33.790937828560217
 31
0.0
  0
LINE
  5
5C0B
  8
µę˝u
 10
-255.67611320340009
 20
30.068686016310419
 30
0.0
 11
-255.67611320340029
 21
21.768686016310689
 31
0.0
  0
LINE
  5
5C0C
  8
µę˝u
 10
-255.17611320340009
 20
30.068686016310419
 30
0.0
 11
-255.17611320340009
 21
21.768686016310689
 31
0.0
  0
LINE
  5
5C0D
  8
0
 10
-253.17611320340029
 20
21.068686016310529
 30
0.0
 11
-253.17611320340029
 21
29.56868601631054
 31
0.0
  0
LINE
  5
5C0E
  8
0
 10
-306.17611320340029
 20
28.068689959788632
 30
0.0
 11
-306.17611320340029
 21
6.6686860163886301
 31
0.0
  0
LINE
  5
5C0F
  8
µę˝u
 10
-260.67611320340012
 20
30.068686016310529
 30
0.0
 11
-260.67611320340029
 21
21.768686016310578
 31
0.0
  0
LINE
  5
5C10
  8
µę˝u
 10
-261.17611320340012
 20
30.068686016310529
 30
0.0
 11
-261.17611320340012
 21
21.768686016310578
 31
0.0
  0
LINE
  5
5C11
  8
0
 10
-263.17611320340029
 20
6.6686860163886301
 30
0.0
 11
-263.17611320340029
 21
28.068689959788632
 31
0.0
  0
LINE
  5
5C12
  8
µę˝u
 10
-314.17611320340029
 20
30.068686016310529
 30
0.0
 11
-314.67611320340012
 21
30.56868601631054
 31
0.0
  0
LINE
  5
5C13
  8
0
 10
-315.1763111817836
 20
30.568488037927221
 30
0.0
 11
-316.17611320340029
 21
29.56868601631054
 31
0.0
  0
LINE
  5
5C14
  8
0
 10
-312.23000506582503
 20
20.56868601631054
 30
0.0
 11
-315.17611320340029
 21
20.56868601631054
 31
0.0
  0
ARC
  5
5C15
  8
0
 10
-312.23000506582503
 20
18.568686016310529
 30
0.0
 40
2.0
 50
14.999999999996479
 51
90.0
  0
LINE
  5
5C16
  8
µę˝u
 10
-314.17611320340029
 20
21.768686016310578
 30
0.0
 11
-314.8761132034
 21
21.068686016310529
 31
0.0
  0
LINE
  5
5C17
  8
0
 10
-315.67611320340029
 20
21.068686016310529
 30
0.0
 11
-315.17611320340029
 21
20.56868601631054
 31
0.0
  0
LINE
  5
5C18
  8
0
 10
-315.67611320340029
 20
22.068686016310529
 30
0.0
 11
-315.67611320340029
 21
21.068686016310529
 31
0.0
  0
LINE
  5
5C19
  8
0
 10
-316.17611320340029
 20
22.568686016310529
 30
0.0
 11
-315.67611320340029
 21
22.068686016310529
 31
0.0
  0
LINE
  5
5C1A
  8
¤¤¤ß˝u
 10
-311.17611320340029
 20
19.568686016310529
 30
0.0
 11
-311.17611320340029
 21
33.790937828560217
 31
0.0
  0
LINE
  5
5C1B
  8
µę˝u
 10
-313.67611320340001
 20
30.068686016310529
 30
0.0
 11
-313.67611320340029
 21
21.768686016310578
 31
0.0
  0
LINE
  5
5C1C
  8
µę˝u
 10
-314.17611320340012
 20
30.068686016310529
 30
0.0
 11
-314.17611320340012
 21
21.768686016310578
 31
0.0
  0
LINE
  5
5C1D
  8
0
 10
-316.17611320340029
 20
29.56868601631054
 30
0.0
 11
-316.17611320340029
 21
22.568686016310529
 31
0.0
  0
LINE
  5
5C1E
  8
0
 10
-308.17611320340029
 20
21.068686016310529
 30
0.0
 11
-315.67611320340029
 21
21.068686016310529
 31
0.0
  0
LINE
  5
5C1F
  8
µę˝u
 10
-314.17611320340012
 20
21.768686016310578
 30
0.0
 11
-308.17611320340012
 21
21.768686016310689
 31
0.0
  0
LINE
  5
5C20
  8
0
 10
-310.29815341324678
 20
19.086324106515502
 30
0.0
 11
-307.0911767128614
 21
7.117724121987111
 31
0.0
  0
LINE
  5
5C21
  8
µę˝u
 10
-314.17611320340012
 20
30.068686016310529
 30
0.0
 11
-308.17611320340012
 21
30.068686016310419
 31
0.0
  0
LINE
  5
5C22
  8
0
 10
-279.4690064222134
 20
30.36157923512398
 30
0.0
 11
-279.67591522501698
 21
30.56848803792726
 31
0.0
  0
ARC
  5
5C23
  8
0
 10
-278.76189964102713
 20
31.06868601631054
 30
0.0
 40
1.0
 50
224.9999999999996
 51
270.0
  0
LINE
  5
5C24
  8
0
 10
-289.67631118178349
 20
30.568488037927221
 30
0.0
 11
-289.8832199845869
 21
30.36157923512398
 31
0.0
  0
ARC
  5
5C25
  8
0
 10
-290.5903267657734
 20
31.06868601631054
 30
0.0
 40
1.0
 50
270.0
 51
315.00000000000051
  0
POINT
  5
5C26
  8
0
 10
-274.91919677200019
 20
24.568686016388661
 30
0.0
1001
PNTFLAG
1000
endpoint
  0
LINE
  5
5C27
  8
¤¤¤ß˝u
 10
-273.41919677200019
 20
24.568686016388661
 30
0.0
 11
-291.42611320340029
 21
24.568686016388661
 31
0.0
  0
LINE
  5
5C28
  8
0
 10
-278.3922936523004
 20
26.482487616688658
 30
0.0
 11
-278.34153900420051
 21
26.515950413988641
 31
0.0
  0
LINE
  5
5C29
  8
0
 10
-278.60481655000018
 20
22.632601268588662
 30
0.0
 11
-278.55646269440041
 21
22.630547836188668
 31
0.0
  0
LINE
  5
5C2A
  8
0
 10
-278.3922936523004
 20
22.65488308008867
 30
0.0
 11
-278.34153900420051
 21
22.621420282788659
 31
0.0
  0
LINE
  5
5C2B
  8
0
 10
-277.88932030030043
 20
24.568686016388661
 30
0.0
 11
-277.87054415330039
 21
25.066827055588661
 31
0.0
  0
LINE
  5
5C2C
  8
0
 10
-276.29047674210051
 20
24.568686016388661
 30
0.0
 11
-276.27730244400038
 21
24.918222415988659
 31
0.0
  0
LINE
  5
5C2D
  8
0
 10
-276.27730244400038
 20
24.219149616788641
 30
0.0
 11
-276.29047674210051
 21
24.568686016388661
 31
0.0
  0
LINE
  5
5C2E
  8
0
 10
-277.87054415330039
 20
24.07054364118866
 30
0.0
 11
-277.88932030030043
 21
24.568686016388661
 31
0.0
  0
LINE
  5
5C2F
  8
0
 10
-276.27730244400038
 20
24.918222415988659
 30
0.0
 11
-276.23828455780028
 21
25.25432533338865
 31
0.0
  0
LINE
  5
5C30
  8
0
 10
-277.87054415330039
 20
25.066827055588661
 30
0.0
 11
-277.81493982450019
 21
25.545825883788648
 31
0.0
  0
LINE
  5
5C31
  8
0
 10
-276.23828455780028
 20
23.883045363388639
 30
0.0
 11
-276.27730244400038
 21
24.219149616788641
 31
0.0
  0
LINE
  5
5C32
  8
0
 10
-277.81493982450019
 20
23.591544812988641
 30
0.0
 11
-277.87054415330039
 21
24.07054364118866
 31
0.0
  0
LINE
  5
5C33
  8
0
 10
-276.23828455780028
 20
25.25432533338865
 30
0.0
 11
-276.17492474770029
 21
25.564080990688659
 31
0.0
  0
LINE
  5
5C34
  8
0
 10
-277.81493982450019
 20
25.545825883788648
 30
0.0
 11
-277.72464224210029
 21
25.987273753888651
 31
0.0
  0
LINE
  5
5C35
  8
0
 10
-276.17492474770029
 20
23.573291042088648
 30
0.0
 11
-276.23828455780028
 21
23.883045363388639
 31
0.0
  0
LINE
  5
5C36
  8
0
 10
-277.72464224210029
 20
23.15009694278865
 30
0.0
 11
-277.81493982450019
 21
23.591544812988641
 31
0.0
  0
LINE
  5
5C37
  8
0
 10
-276.17492474770029
 20
25.564080990688659
 30
0.0
 11
-276.08965720610041
 21
25.835582953788641
 31
0.0
  0
LINE
  5
5C38
  8
0
 10
-277.72464224210029
 20
25.987273753888651
 30
0.0
 11
-277.6031223348005
 21
26.374206135488659
 31
0.0
  0
LINE
  5
5C39
  8
0
 10
-276.08965720610041
 20
23.301787742988651
 30
0.0
 11
-276.17492474770029
 21
23.573291042088648
 31
0.0
  0
LINE
  5
5C3A
  8
0
 10
-277.6031223348005
 20
22.763165897288651
 30
0.0
 11
-277.72464224210029
 21
23.15009694278865
 31
0.0
  0
LINE
  5
5C3B
  8
0
 10
-276.08965720610041
 20
25.835582953788641
 30
0.0
 11
-275.98575780560009
 21
26.05839973328867
 31
0.0
  0
LINE
  5
5C3C
  8
0
 10
-277.6031223348005
 20
26.374206135488659
 30
0.0
 11
-277.45504942320019
 21
26.69175200998864
 31
0.0
  0
LINE
  5
5C3D
  8
0
 10
-275.98575780560009
 20
23.078970963488661
 30
0.0
 11
-276.08965720610041
 21
23.301787742988651
 31
0.0
  0
LINE
  5
5C3E
  8
0
 10
-275.98575780560009
 20
26.05839973328867
 30
0.0
 11
-275.86721985080032
 21
26.223966231588641
 31
0.0
  0
LINE
  5
5C3F
  8
0
 10
-277.45504942320019
 20
22.445618686788659
 30
0.0
 11
-277.6031223348005
 21
22.763165897288651
 31
0.0
  0
LINE
  5
5C40
  8
0
 10
-278.99334277980029
 20
24.568686016388661
 30
0.0
 11
-278.9789954735005
 21
24.949364580888641
 31
0.0
  0
LINE
  5
5C41
  8
0
 10
-278.9789954735005
 20
24.188006115888641
 30
0.0
 11
-278.99334277980029
 21
24.568686016388661
 31
0.0
  0
LINE
  5
5C42
  8
0
 10
-278.9789954735005
 20
24.949364580888641
 30
0.0
 11
-278.9365013148003
 21
25.31541394308864
 31
0.0
  0
LINE
  5
5C43
  8
0
 10
-282.17141607710028
 20
24.568686016388661
 30
0.0
 11
-282.1493560416003
 21
25.15395698138866
 31
0.0
  0
LINE
  5
5C44
  8
0
 10
-282.1493560416003
 20
23.983415051288659
 30
0.0
 11
-282.17141607710028
 21
24.568686016388661
 31
0.0
  0
LINE
  5
5C45
  8
0
 10
-278.9365013148003
 20
23.821956753688671
 30
0.0
 11
-278.9789954735005
 21
24.188006115888641
 31
0.0
  0
LINE
  5
5C46
  8
0
 10
-278.9365013148003
 20
25.31541394308864
 30
0.0
 11
-278.8674969038002
 21
25.65276735678864
 31
0.0
  0
LINE
  5
5C47
  8
0
 10
-277.45504942320019
 20
26.69175200998864
 30
0.0
 11
-277.2861148684002
 21
26.927711023488651
 31
0.0
  0
LINE
  5
5C48
  8
0
 10
-275.86721985080032
 20
22.913404465188659
 30
0.0
 11
-275.98575780560009
 21
23.078970963488661
 31
0.0
  0
LINE
  5
5C49
  8
0
 10
-275.86721985080032
 20
26.223966231588641
 30
0.0
 11
-275.73859776630019
 21
26.325923087788659
 31
0.0
  0
LINE
  5
5C4A
  8
0
 10
-282.1493560416003
 20
25.15395698138866
 30
0.0
 11
-282.08402563120029
 21
25.716736382888641
 31
0.0
  0
LINE
  5
5C4B
  8
0
 10
-282.08402563120029
 20
23.42063564988867
 30
0.0
 11
-282.1493560416003
 21
23.983415051288659
 31
0.0
  0
LINE
  5
5C4C
  8
0
 10
-278.8674969038002
 20
23.484603339988659
 30
0.0
 11
-278.9365013148003
 21
23.821956753688671
 31
0.0
  0
LINE
  5
5C4D
  8
0
 10
-277.2861148684002
 20
22.209659673288652
 30
0.0
 11
-277.45504942320019
 21
22.445618686788659
 31
0.0
  0
LINE
  5
5C4E
  8
0
 10
-278.8674969038002
 20
25.65276735678864
 30
0.0
 11
-278.77463152900032
 21
25.948460275788651
 31
0.0
  0
LINE
  5
5C4F
  8
0
 10
-282.08402563120029
 20
25.716736382888641
 30
0.0
 11
-281.9779351904005
 21
26.235395713388652
 31
0.0
  0
LINE
  5
5C50
  8
0
 10
-281.9779351904005
 20
22.90197498338863
 30
0.0
 11
-282.08402563120029
 21
23.42063564988867
 31
0.0
  0
LINE
  5
5C51
  8
0
 10
-278.77463152900032
 20
23.188910420988659
 30
0.0
 11
-278.8674969038002
 21
23.484603339988659
 31
0.0
  0
LINE
  5
5C52
  8
0
 10
-275.73859776630019
 20
26.325923087788659
 30
0.0
 11
-275.60483608910039
 21
26.360349141288651
 31
0.0
  0
LINE
  5
5C53
  8
0
 10
-277.2861148684002
 20
26.927711023488651
 30
0.0
 11
-277.10281029520041
 21
27.073014406588641
 31
0.0
  0
LINE
  5
5C54
  8
0
 10
-275.86721985080032
 20
22.913404465188659
 30
0.0
 11
-275.73859776630019
 21
22.811447608988651
 31
0.0
  0
LINE
  5
5C55
  8
0
 10
-278.77463152900032
 20
25.948460275788651
 30
0.0
 11
-278.66147498310028
 21
26.191128682388658
 31
0.0
  0
LINE
  5
5C56
  8
0
 10
-277.2861148684002
 20
22.209659673288652
 30
0.0
 11
-277.10281029520041
 21
22.064357626188659
 31
0.0
  0
LINE
  5
5C57
  8
0
 10
-278.66147498310028
 20
22.946242014388648
 30
0.0
 11
-278.77463152900032
 21
23.188910420988659
 31
0.0
  0
LINE
  5
5C58
  8
0
 10
-281.9779351904005
 20
26.235395713388652
 30
0.0
 11
-281.8351595197002
 21
26.69000585768865
 31
0.0
  0
LINE
  5
5C59
  8
0
 10
-281.8351595197002
 20
22.44736483908865
 30
0.0
 11
-281.9779351904005
 21
22.90197498338863
 31
0.0
  0
LINE
  5
5C5A
  8
0
 10
-278.66147498310028
 20
26.191128682388658
 30
0.0
 11
-278.5323746105002
 21
26.371447294988648
 31
0.0
  0
LINE
  5
5C5B
  8
0
 10
-277.95685511100032
 20
26.746995618688651
 30
0.0
 11
-277.78759190010032
 21
26.88116744808865
 31
0.0
  0
LINE
  5
5C5C
  8
0
 10
-277.10281029520041
 20
27.073014406588641
 30
0.0
 11
-276.91217909690039
 21
27.122076342388649
 31
0.0
  0
LINE
  5
5C5D
  8
0
 10
-275.60483608910039
 20
26.360349141288651
 30
0.0
 11
-275.47107441180037
 21
26.325923087788659
 31
0.0
  0
LINE
  5
5C5E
  8
0
 10
-275.73859776630019
 20
22.811447608988651
 30
0.0
 11
-275.60483608910039
 21
22.777021555488648
 31
0.0
  0
LINE
  5
5C5F
  8
0
 10
-278.5323746105002
 20
22.765923401788651
 30
0.0
 11
-278.66147498310028
 21
22.946242014388648
 31
0.0
  0
LINE
  5
5C60
  8
0
 10
-282.34901993740021
 20
24.568686016388661
 30
0.0
 11
-281.6861928240005
 21
27.568685181388648
 31
0.0
  0
LINE
  5
5C61
  8
0
 10
-281.6861928240005
 20
21.568685515388651
 30
0.0
 11
-282.34901993740021
 21
24.568686016388661
 31
0.0
  0
LINE
  5
5C62
  8
0
 10
-277.78759190010032
 20
26.88116744808865
 30
0.0
 11
-277.4615597523005
 21
27.045666482188661
 31
0.0
  0
LINE
  5
5C63
  8
0
 10
-277.4615597523005
 20
27.045666482188661
 30
0.0
 11
-277.2730113783004
 21
27.094194017888661
 31
0.0
  0
LINE
  5
5C64
  8
0
 10
-277.10281029520041
 20
22.064357626188659
 30
0.0
 11
-276.91217909690039
 21
22.01529435438864
 31
0.0
  0
LINE
  5
5C65
  8
0
 10
-281.8351595197002
 20
26.69000585768865
 30
0.0
 11
-281.66118824400019
 21
27.063094604988638
 31
0.0
  0
LINE
  5
5C66
  8
0
 10
-281.66118824400019
 20
22.074276091788661
 30
0.0
 11
-281.8351595197002
 21
22.44736483908865
 31
0.0
  0
LINE
  5
5C67
  8
0
 10
-278.5323746105002
 20
26.371447294988648
 30
0.0
 11
-278.3922936523004
 21
26.482487616688658
 31
0.0
  0
LINE
  5
5C68
  8
0
 10
-278.34153900420051
 20
26.515950413988641
 30
0.0
 11
-277.78759190010032
 21
26.88116744808865
 31
0.0
  0
LINE
  5
5C69
  8
0
 10
-277.4615597523005
 20
22.09170421458866
 30
0.0
 11
-277.2730113783004
 21
22.043178014788651
 31
0.0
  0
LINE
  5
5C6A
  8
0
 10
-277.78759190010032
 20
22.256203248688649
 30
0.0
 11
-277.4615597523005
 21
22.09170421458866
 31
0.0
  0
LINE
  5
5C6B
  8
0
 10
-278.5323746105002
 20
22.765923401788651
 30
0.0
 11
-278.3922936523004
 21
22.65488308008867
 31
0.0
  0
LINE
  5
5C6C
  8
0
 10
-277.2730113783004
 20
27.094194017888661
 30
0.0
 11
-276.91217909690039
 21
27.122076342388649
 31
0.0
  0
LINE
  5
5C6D
  8
0
 10
-276.91217909690039
 20
27.122076342388649
 30
0.0
 11
-276.72154923460027
 21
27.073014406588641
 31
0.0
  0
LINE
  5
5C6E
  8
0
 10
-275.47107441180037
 20
26.325923087788659
 30
0.0
 11
-275.34245366330032
 21
26.223966231588641
 31
0.0
  0
LINE
  5
5C6F
  8
0
 10
-276.72154923460027
 20
27.073014406588641
 30
0.0
 11
-275.47107441180037
 21
26.325923087788659
 31
0.0
  0
LINE
  5
5C70
  8
0
 10
-275.60483608910039
 20
22.777021555488648
 30
0.0
 11
-275.47107441180037
 21
22.811447608988651
 31
0.0
  0
LINE
  5
5C71
  8
0
 10
-278.34153900420051
 20
22.621420282788659
 30
0.0
 11
-277.78759190010032
 21
22.256203248688649
 31
0.0
  0
LINE
  5
5C72
  8
0
 10
-277.2730113783004
 20
22.043178014788651
 30
0.0
 11
-276.91217909690039
 21
22.01529435438864
 31
0.0
  0
LINE
  5
5C73
  8
0
 10
-276.91217909690039
 20
22.01529435438864
 30
0.0
 11
-276.72154923460027
 21
22.064357626188659
 31
0.0
  0
LINE
  5
5C74
  8
0
 10
-281.66118824400019
 20
27.063094604988638
 30
0.0
 11
-281.46270537250041
 21
27.340324001088661
 31
0.0
  0
LINE
  5
5C75
  8
0
 10
-281.46270537250041
 20
21.79704669568865
 30
0.0
 11
-281.66118824400019
 21
22.074276091788661
 31
0.0
  0
LINE
  5
5C76
  8
0
 10
-283.37460718040029
 20
21.568685515388651
 30
0.0
 11
-284.03743429380029
 21
24.568686016388661
 31
0.0
  0
LINE
  5
5C77
  8
0
 10
-284.03743429380029
 20
24.568686016388661
 30
0.0
 11
-282.34901993740021
 21
24.568686016388661
 31
0.0
  0
LINE
  5
5C78
  8
0
 10
-284.03743429380029
 20
24.568686016388661
 30
0.0
 11
-283.37460718040029
 21
27.568685181388648
 31
0.0
  0
LINE
  5
5C79
  8
0
 10
-275.22391570850039
 20
26.05839973328867
 30
0.0
 11
-275.34245366330032
 21
26.223966231588641
 31
0.0
  0
LINE
  5
5C7A
  8
0
 10
-275.47107441180037
 20
22.811447608988651
 30
0.0
 11
-275.34245366330032
 21
22.913404465188659
 31
0.0
  0
LINE
  5
5C7B
  8
0
 10
-276.72154923460027
 20
22.064357626188659
 30
0.0
 11
-275.47107441180037
 21
22.811447608988651
 31
0.0
  0
LINE
  5
5C7C
  8
0
 10
-278.55646269440041
 20
26.506824196588649
 30
0.0
 11
-278.34153900420051
 21
26.515950413988641
 31
0.0
  0
LINE
  5
5C7D
  8
0
 10
-278.55646269440041
 20
22.630547836188668
 30
0.0
 11
-278.34153900420051
 21
22.621420282788659
 31
0.0
  0
LINE
  5
5C7E
  8
0
 10
-281.46270537250041
 20
27.340324001088661
 30
0.0
 11
-281.2473394662004
 21
27.511040780188651
 31
0.0
  0
LINE
  5
5C7F
  8
0
 10
-281.46270537250041
 20
21.79704669568865
 30
0.0
 11
-281.2473394662004
 21
21.626329916588659
 31
0.0
  0
LINE
  5
5C80
  8
0
 10
-275.12001630800029
 20
25.835582953788641
 30
0.0
 11
-275.22391570850039
 21
26.05839973328867
 31
0.0
  0
LINE
  5
5C81
  8
0
 10
-275.34245366330032
 20
22.913404465188659
 30
0.0
 11
-275.22391570850039
 21
23.078970963488661
 31
0.0
  0
LINE
  5
5C82
  8
0
 10
-278.79758534870041
 20
26.605225956188661
 30
0.0
 11
-278.55646269440041
 21
26.506824196588649
 31
0.0
  0
LINE
  5
5C83
  8
0
 10
-278.79758534870041
 20
22.532144740588659
 30
0.0
 11
-278.55646269440041
 21
22.630547836188668
 31
0.0
  0
LINE
  5
5C84
  8
0
 10
-275.03474743040027
 20
25.564080990688659
 30
0.0
 11
-275.12001630800029
 21
25.835582953788641
 31
0.0
  0
LINE
  5
5C85
  8
0
 10
-275.22391570850039
 20
23.078970963488661
 30
0.0
 11
-275.12001630800029
 21
23.301787742988651
 31
0.0
  0
LINE
  5
5C86
  8
0
 10
-281.2473394662004
 20
27.511040780188651
 30
0.0
 11
-281.0233657106005
 21
27.568685181388648
 31
0.0
  0
LINE
  5
5C87
  8
0
 10
-281.2473394662004
 20
21.626329916588659
 30
0.0
 11
-281.0233657106005
 21
21.568685515388651
 31
0.0
  0
LINE
  5
5C88
  8
0
 10
-274.97138762030028
 20
25.25432533338865
 30
0.0
 11
-275.03474743040027
 21
25.564080990688659
 31
0.0
  0
LINE
  5
5C89
  8
0
 10
-275.8793707727005
 20
22.930377011888659
 30
0.0
 11
-275.87747231640031
 21
22.931305531988649
 31
0.0
  0
LINE
  5
5C8A
  8
0
 10
-275.12001630800029
 20
23.301787742988651
 30
0.0
 11
-275.03474743040027
 21
23.573291042088648
 31
0.0
  0
LINE
  5
5C8B
  8
0
 10
-274.93237107010032
 20
24.918222415988659
 30
0.0
 11
-274.97138762030028
 21
25.25432533338865
 31
0.0
  0
LINE
  5
5C8C
  8
0
 10
-275.03474743040027
 20
23.573291042088648
 30
0.0
 11
-274.97138762030028
 21
23.883045363388639
 31
0.0
  0
LINE
  5
5C8D
  8
0
 10
-280.79939195500037
 20
27.511040780188651
 30
0.0
 11
-278.79758534870041
 21
26.605225956188661
 31
0.0
  0
LINE
  5
5C8E
  8
0
 10
-281.0233657106005
 20
27.568685181388648
 30
0.0
 11
-280.79939195500037
 21
27.511040780188651
 31
0.0
  0
LINE
  5
5C8F
  8
0
 10
-281.0233657106005
 20
21.568685515388651
 30
0.0
 11
-280.79939195500037
 21
21.626329916588659
 31
0.0
  0
LINE
  5
5C90
  8
0
 10
-274.91919677200019
 20
24.568686016388661
 30
0.0
 11
-274.93237107010032
 21
24.918222415988659
 31
0.0
  0
LINE
  5
5C91
  8
0
 10
-274.97138762030028
 20
23.883045363388639
 30
0.0
 11
-274.93237107010032
 21
24.219149616788641
 31
0.0
  0
LINE
  5
5C92
  8
0
 10
-274.93237107010032
 20
24.219149616788641
 30
0.0
 11
-274.91919677200019
 21
24.568686016388661
 31
0.0
  0
LINE
  5
5C93
  8
0
 10
-280.79939195500037
 20
21.626329916588659
 30
0.0
 11
-278.79758534870041
 21
22.532144740588659
 31
0.0
  0
LINE
  5
5C94
  8
0
 10
-283.37460718040029
 20
27.568685181388648
 30
0.0
 11
-280.36053859720039
 21
27.568685181388648
 31
0.0
  0
LINE
  5
5C95
  8
0
 10
-280.36053859720039
 20
21.568685515388651
 30
0.0
 11
-280.2976397072004
 21
21.85337246468865
 31
0.0
  0
LINE
  5
5C96
  8
0
 10
-280.2976397072004
 20
27.28399823208866
 30
0.0
 11
-280.36053859720039
 21
27.568685181388648
 31
0.0
  0
LINE
  5
5C97
  8
0
 10
-283.37460718040029
 20
21.568685515388651
 30
0.0
 11
-280.36053859720039
 21
21.568685515388651
 31
0.0
  0
LINE
  5
5C98
  8
0
 10
-281.7893614324002
 20
21.568685515388651
 30
0.0
 11
-282.36671125220028
 21
20.568685348388652
 31
0.0
  0
LINE
  5
5C99
  8
0
 10
-282.36671125220028
 20
20.568685348388652
 30
0.0
 11
-286.98551381860051
 21
20.568685348388652
 31
0.0
  0
LINE
  5
5C9A
  8
0
 10
-289.29491443380039
 20
24.568686016388661
 30
0.0
 11
-286.98551381860051
 21
20.568685348388652
 31
0.0
  0
LINE
  5
5C9B
  8
0
 10
-286.98550637576773
 20
28.568685348373279
 30
0.0
 11
-289.29490699096777
 21
24.568686016373292
 31
0.0
  0
LINE
  5
5C9C
  8
0
 10
-286.98551381860051
 20
28.568685348388652
 30
0.0
 11
-282.36671258820002
 21
28.568685348388652
 31
0.0
  0
LINE
  5
5C9D
  8
0
 10
-281.7893614324002
 20
27.568685181388648
 30
0.0
 11
-282.36671258820002
 21
28.568685348388652
 31
0.0
  0
ARC
  5
5C9E
  8
0
 10
-284.67611320340018
 20
24.568686016388661
 30
0.0
 40
3.999999331999998
 50
48.590377998898909
 51
311.40962200319859
  0
POLYLINE
  5
5C9F
  8
0
 66
     1
 10
0.0
 20
0.0
 30
0.0
  0
VERTEX
  5
5E8E
  8
0
 10
-275.72442547610029
 20
24.56868601638865
 30
0.0
  0
VERTEX
  5
5E8F
  8
0
 10
-275.6908771747004
 20
24.351648773888641
 30
0.0
  0
VERTEX
  5
5E90
  8
0
 10
-275.65798618550019
 20
24.288744539888668
 30
0.0
  0
VERTEX
  5
5E91
  8
0
 10
-275.62141585170008
 20
24.259202903188651
 30
0.0
  0
VERTEX
  5
5E92
  8
0
 10
-275.58743869430037
 20
24.259510183188659
 30
0.0
  0
VERTEX
  5
5E93
  8
0
 10
-275.55094584850008
 20
24.28971447598866
 30
0.0
  0
VERTEX
  5
5E94
  8
0
 10
-275.51960194750018
 20
24.349484453488639
 30
0.0
  0
VERTEX
  5
5E95
  8
0
 10
-275.49021528680032
 20
24.479557434188649
 30
0.0
  0
VERTEX
  5
5E96
  8
0
 10
-275.48524803800029
 20
24.56868601638865
 30
0.0
  0
VERTEX
  5
5E97
  8
0
 10
-275.51879500340033
 20
24.785721922888641
 30
0.0
  0
VERTEX
  5
5E98
  8
0
 10
-275.55168732860039
 20
24.84862615688866
 30
0.0
  0
VERTEX
  5
5E99
  8
0
 10
-275.58825766240028
 20
24.878167793588659
 30
0.0
  0
VERTEX
  5
5E9A
  8
0
 10
-275.62223348380019
 20
24.877860513488638
 30
0.0
  0
VERTEX
  5
5E9B
  8
0
 10
-275.65872766560051
 20
24.847656220688648
 30
0.0
  0
VERTEX
  5
5E9C
  8
0
 10
-275.6900702306005
 20
24.787886243188652
 30
0.0
  0
VERTEX
  5
5E9D
  8
0
 10
-275.71945822730021
 20
24.65781326258865
 30
0.0
  0
VERTEX
  5
5E9E
  8
0
 10
-275.72442547610029
 20
24.56868601638865
 30
0.0
  0
SEQEND
  5
5E9F
  8
0
  0
ARC
  5
5CA0
  8
0
 10
-284.67611320340018
 20
24.568686016388661
 30
0.0
 40
5.2499999999999929
 50
30.24329777399867
 51
329.75669075929898
  0
LINE
  5
5CA1
  8
µę˝u
 10
-281.67574286211681
 20
9.2684880379269892
 30
0.0
 11
-281.67574286211681
 21
1.068510423200675
 31
0.0
  0
LINE
  5
5CA2
  8
µę˝u
 10
-287.67574286211692
 20
9.2684880379269892
 30
0.0
 11
-287.67574286211692
 21
1.068510423200675
 31
0.0
  0
LINE
  5
5CA3
  8
0
 10
-294.67611320340029
 20
1.568907448284049
 30
0.0
 11
-293.67569247621827
 21
0.5684880379272009
 31
0.0
  0
LINE
  5
5CA4
  8
µę˝u
 10
-287.67574286211692
 20
1.068510423200675
 30
0.0
 11
-281.67598027875562
 21
1.0684697248116251
 31
0.0
  0
LINE
  5
5CA5
  8
0
 10
-275.67500931271638
 20
0.5684880379272009
 30
0.0
 11
-281.67582120270259
 21
0.5684880379272009
 31
0.0
  0
LINE
  5
5CA6
  8
µę˝u
 10
-281.17601215785692
 20
0.5684880379272009
 30
0.0
 11
-281.67598027875562
 21
1.0684697248116251
 31
0.0
  0
LINE
  5
5CA7
  8
0
 10
-282.17582117209952
 20
1.068488037927172
 30
0.0
 11
-281.67582120270259
 21
0.5684880379272009
 31
0.0
  0
LINE
  5
5CA8
  8
0
 10
-274.67611320340018
 20
1.5673841466441989
 30
0.0
 11
-275.67500931271638
 21
0.5684880379272009
 31
0.0
  0
LINE
  5
5CA9
  8
0
 10
-287.675029236782
 20
0.5684880379272009
 30
0.0
 11
-293.67569247621827
 21
0.5684880379272009
 31
0.0
  0
LINE
  5
5CAA
  8
µę˝u
 10
-288.17576524739059
 20
0.5684880379272009
 30
0.0
 11
-287.67574286211692
 21
1.068510423200675
 31
0.0
  0
LINE
  5
5CAB
  8
0
 10
-287.675029236782
 20
0.5684880379272009
 30
0.0
 11
-287.17502928215129
 21
1.068488037927172
 31
0.0
  0
LINE
  5
5CAC
  8
0
 10
-287.17502928215129
 20
1.068488037927172
 30
0.0
 11
-282.17582117209952
 21
1.068488037927172
 31
0.0
  0
LINE
  5
5CAD
  8
µę˝u
 10
-279.92574286211681
 20
17.668488037927091
 30
0.0
 11
-279.92574286211681
 21
9.5684880379271906
 31
0.0
  0
LINE
  5
5CAE
  8
µę˝u
 10
-281.6758649621168
 20
9.2684880379269892
 30
0.0
 11
-281.37586496211679
 21
9.5684880379271906
 31
0.0
  0
LINE
  5
5CAF
  8
µę˝u
 10
-279.92574268035798
 20
17.66848735959411
 30
0.0
 11
-279.69480218104633
 21
18.068488037927182
 31
0.0
  0
LINE
  5
5CB0
  8
µę˝u
 10
-289.42574286211681
 20
17.668488037927091
 30
0.0
 11
-289.42574286211681
 21
9.5684880379271906
 31
0.0
  0
LINE
  5
5CB1
  8
µę˝u
 10
-287.67574286211692
 20
9.2684880379269892
 30
0.0
 11
-287.97574286211682
 21
9.5684880379271906
 31
0.0
  0
LINE
  5
5CB2
  8
µę˝u
 10
-289.42574304387568
 20
17.66848735959411
 30
0.0
 11
-289.6566835431874
 21
18.068488037927182
 31
0.0
  0
LINE
  5
5CB3
  8
µę˝u
 10
-289.42574286211681
 20
9.5684880379271906
 30
0.0
 11
-279.92574286211681
 21
9.5684880379271906
 31
0.0
  0
LINE
  5
5CB4
  8
µę˝u
 10
-287.67574286211692
 20
9.2684880379269892
 30
0.0
 11
-281.67574286211681
 21
9.2684880379269892
 31
0.0
  0
LINE
  5
5CB5
  8
µę˝u
 10
-289.42574421878339
 20
17.668488037927091
 30
0.0
 11
-279.92574286211681
 21
17.668488037927091
 31
0.0
  0
LINE
  5
5CB6
  8
¤¤¤ß˝u
 10
-284.67611320340018
 20
36.208834860762487
 30
0.0
 11
-284.67611320340018
 21
-3.5566030029034659
 31
0.0
  0
LINE
  5
5CB7
  8
0
 10
-289.67611320340029
 20
29.568689959788639
 30
0.0
 11
-289.67611320340029
 21
26.169467075746841
 31
0.0
  0
LINE
  5
5CB8
  8
0
 10
-279.67611320340029
 20
29.568689959788639
 30
0.0
 11
-279.67611320340029
 21
27.002758640704549
 31
0.0
  0
LINE
  5
5CB9
  8
0
 10
-278.12591616211728
 20
10.44772373922533
 30
0.0
 11
-278.12591616211648
 21
8.0185164389182422
 31
0.0
  0
LINE
  5
5CBA
  8
0
 10
-291.83500906189698
 20
18.06848803887614
 30
0.0
 11
-277.51592826205331
 21
18.06848803887614
 31
0.0
  0
LINE
  5
5CBB
  8
0
 10
-277.51592826205331
 20
18.06848803887614
 30
0.0
 11
-277.01658461912552
 21
17.569144313798521
 31
0.0
  0
LINE
  5
5CBC
  8
0
 10
-275.08339730460523
 20
13.49024217103435
 30
0.0
 11
-274.67596496211661
 21
13.89767403933975
 31
0.0
  0
LINE
  5
5CBD
  8
0
 10
-274.67596496211678
 20
15.228525038716739
 30
0.0
 11
-274.67596496211661
 21
13.89767403933975
 31
0.0
  0
LINE
  5
5CBE
  8
0
 10
-275.0949859410066
 20
15.64754585875666
 30
0.0
 11
-274.67596496211678
 21
15.228525038716739
 31
0.0
  0
LINE
  5
5CBF
  8
0
 10
-278.12591616211728
 20
10.44772373922533
 30
0.0
 11
-277.01764065018631
 21
11.555998248638071
 31
0.0
  0
ARC
  5
5CC0
  8
0
 10
-274.89590831199899
 20
11.36850988875848
 30
0.0
 40
2.129999999999999
 50
95.049881965107744
 51
174.95013512119701
  0
ARC
  5
5CC1
  8
0
 10
-274.89590831199899
 20
17.768222188993949
 30
0.0
 40
2.129999999999999
 50
185.362908113374
 51
264.6370985380517
  0
LINE
  5
5CC2
  8
0
 10
-278.1261112036002
 20
10.447974917437611
 30
0.0
 11
-278.1261112036002
 21
8.0188346439375895
 31
0.0
  0
LINE
  5
5CC3
  8
0
 10
-275.09514100600029
 20
15.6477580199376
 30
0.0
 11
-274.67611320340029
 21
15.228730217337599
 31
0.0
  0
ARC
  5
5CC4
  8
0
 10
-274.89591235320029
 20
17.768420167437579
 30
0.0
 40
2.129999999999999
 50
185.36698178750041
 51
264.63301821250087
  0
LINE
  5
5CC5
  8
0
 10
-274.67611320340029
 20
15.228730217337599
 30
0.0
 11
-274.67611320340029
 21
13.89797201773759
 31
0.0
  0
ARC
  5
5CC6
  8
0
 10
-274.89615655320029
 20
11.36870786723758
 30
0.0
 40
2.129999999999999
 50
95.049881965097967
 51
174.95013512120011
  0
LINE
  5
5CC7
  8
0
 10
-274.67611320340029
 20
13.89797201773759
 30
0.0
 11
-275.0836455459002
 21
13.49044014953758
 31
0.0
  0
LINE
  5
5CC8
  8
0
 10
-277.0178888914005
 20
11.556196227137599
 30
0.0
 11
-278.1261112036002
 21
10.447974917437611
 31
0.0
  0
LINE
  5
5CC9
  8
0
 10
-277.4160690034002
 20
17.9686860173376
 30
0.0
 11
-277.0165745008004
 21
17.5691915147376
 31
0.0
  0
LINE
  5
5CCA
  8
0
 10
-275.88611120360008
 20
9.5201359442376106
 30
0.0
 11
-275.07946794926301
 21
10.32677846884137
 31
0.0
  0
LINE
  5
5CCB
  8
0
 10
-276.92611120360021
 20
8.5158909187375897
 30
0.0
 11
-276.92611120360021
 21
9.9509183246376214
 31
0.0
  0
LINE
  5
5CCC
  8
0
 10
-278.1261112036002
 20
10.447974917437611
 30
0.0
 11
-275.88611120360008
 21
9.5201359442376106
 31
0.0
  0
LINE
  5
5CCD
  8
0
 10
-272.1079262188386
 20
5.168488038876089
 30
0.0
 11
-275.88611120360008
 21
8.9466730236375973
 31
0.0
  0
LINE
  5
5CCE
  8
0
 10
-275.88611120360008
 20
8.9466730236375973
 30
0.0
 11
-275.88611120360008
 21
9.5201359442376106
 31
0.0
  0
LINE
  5
5CCF
  8
0
 10
-278.1261112036002
 20
8.0188346439375895
 30
0.0
 11
-275.88611120360008
 21
8.9466730236375973
 31
0.0
  0
LINE
  5
5CD0
  8
0
 10
-273.57870832373879
 20
5.168488038876089
 30
0.0
 11
-276.92611120360021
 21
8.5158909187375897
 31
0.0
  0
LINE
  5
5CD1
  8
0
 10
-278.125555903318
 20
8.0183501173197183
 30
0.0
 11
-274.67611320340029
 21
4.56890701745571
 31
0.0
  0
LINE
  5
5CD2
  8
0
 10
-276.91901272850038
 20
19.168686017337588
 30
0.0
 11
-292.43316947820023
 21
19.168686017337588
 31
0.0
  0
LINE
  5
5CD3
  8
0
 10
-272.43611320340028
 20
12.9701304975376
 30
0.0
 11
-272.43611320340028
 21
16.15656859703758
 31
0.0
  0
LINE
  5
5CD4
  8
0
 10
-273.47611320340019
 20
13.40091533373759
 30
0.0
 11
-273.47611320340019
 21
15.725786492237591
 31
0.0
  0
LINE
  5
5CD5
  8
0
 10
-274.67611320340029
 20
15.228730217337599
 30
0.0
 11
-272.43611320340028
 21
16.15656859703758
 31
0.0
  0
LINE
  5
5CD6
  8
0
 10
-273.85422667962342
 20
11.552018671712251
 30
0.0
 11
-272.43611320340028
 21
12.9701304975376
 31
0.0
  0
LINE
  5
5CD7
  8
0
 10
-274.67611320340029
 20
13.89797201773759
 30
0.0
 11
-272.43611320340028
 21
12.9701304975376
 31
0.0
  0
ARC
  5
5CD8
  8
0
 10
-274.20777986448411
 20
11.90557226803795
 30
0.0
 40
0.5
 50
254.9597677363551
 51
314.9999666596168
  0
ARC
  5
5CD9
  8
0
 10
-275.43302117993397
 20
10.680332019356531
 30
0.0
 40
0.5
 50
314.999974083533
 51
15.04018237847438
  0
LINE
  5
5CDA
  8
0
 10
-277.0178888914005
 20
11.556196227137599
 30
0.0
 11
-275.78427277040038
 21
11.092755724937589
 31
0.0
  0
ARC
  5
5CDB
  8
0
 10
-274.89615655320029
 20
11.36870786723758
 30
0.0
 40
0.9300000000000001
 50
72.739198784101276
 51
197.2608688119
  0
LINE
  5
5CDC
  8
0
 10
-274.67611320340029
 20
13.89797201773759
 30
0.0
 11
-275.0836455459002
 21
13.49044014953758
 31
0.0
  0
LINE
  5
5CDD
  8
0
 10
-275.0836455459002
 20
13.49044014953758
 30
0.0
 11
-274.6202054818001
 21
12.256824471237589
 31
0.0
  0
LINE
  5
5CDE
  8
0
 10
-274.62020553330018
 20
12.256824419737621
 30
0.0
 11
-274.17315380921639
 21
11.406772672712741
 31
0.0
  0
ARC
  5
5CDF
  8
0
 10
-274.46727710480019
 20
10.9398284188376
 30
0.0
 40
0.5
 50
74.959767736355133
 51
195.0401823784741
  0
LINE
  5
5CE0
  8
0
 10
-276.92611120360021
 20
9.9509183246376214
 30
0.0
 11
-275.78427277040038
 21
11.092755724937589
 31
0.0
  0
LINE
  5
5CE1
  8
0
 10
-275.78427277040038
 20
11.092755724937589
 30
0.0
 11
-274.93422163305189
 21
10.6457052662603
 31
0.0
  0
LINE
  5
5CE2
  8
0
 10
-274.6202054818001
 20
12.256824471237589
 30
0.0
 11
-273.47611326300017
 21
13.40091535853761
 31
0.0
  0
LINE
  5
5CE3
  8
0
 10
-272.43611320340028
 20
16.15656859703758
 30
0.0
 11
-273.8596177495665
 21
17.580073143288519
 31
0.0
  0
ARC
  5
5CE4
  8
0
 10
-274.21317114017029
 20
17.226519752705791
 30
0.0
 40
0.5
 50
44.999999998295401
 51
105.0114234594156
  0
ARC
  5
5CE5
  8
0
 10
-275.43805696802877
 20
18.451405580579738
 30
0.0
 40
0.5
 50
344.98857653986789
 51
44.999999999994877
  0
ARC
  5
5CE6
  8
0
 10
-274.47218276350043
 20
18.192393957237599
 30
0.0
 40
0.5
 50
164.98857653986499
 51
285.0114234594156
  0
LINE
  5
5CE7
  8
0
 10
-275.78652672270022
 20
18.036200011537591
 30
0.0
 11
-276.91901272850038
 21
19.168686017337588
 31
0.0
  0
LINE
  5
5CE8
  8
0
 10
-277.4160690034002
 20
17.9686860173376
 30
0.0
 11
-276.48823062359997
 21
20.208686017337609
 31
0.0
  0
LINE
  5
5CE9
  8
0
 10
-275.78652672270022
 20
18.036200011537591
 30
0.0
 11
-274.93923986348881
 21
18.48577848005344
 31
0.0
  0
LINE
  5
5CEA
  8
0
 10
-277.0165745008004
 20
17.5691915147376
 30
0.0
 11
-275.78652672270022
 21
18.036200011537591
 31
0.0
  0
LINE
  5
5CEB
  8
0
 10
-277.4160690034002
 20
17.9686860173376
 30
0.0
 11
-277.0165745008004
 21
17.5691915147376
 31
0.0
  0
LINE
  5
5CEC
  8
0
 10
-274.6281325092001
 20
16.877805798037588
 30
0.0
 11
-274.17875561233291
 21
17.725333917945381
 31
0.0
  0
LINE
  5
5CED
  8
0
 10
-275.0845035774355
 20
18.804958971173011
 30
0.0
 11
-276.48823062359997
 21
20.208686017337602
 31
0.0
  0
LINE
  5
5CEE
  8
0
 10
-273.47611320340019
 20
15.725786492237591
 30
0.0
 11
-274.6281325092001
 21
16.877805798037588
 31
0.0
  0
ARC
  5
5CEF
  8
0
 10
-274.89591235320029
 20
17.768420167437579
 30
0.0
 40
0.9300000000000001
 50
163.26561328090091
 51
286.73438671910122
  0
LINE
  5
5CF0
  8
0
 10
-275.09514100600029
 20
15.6477580199376
 30
0.0
 11
-274.6281325092001
 21
16.877805798037588
 31
0.0
  0
LINE
  5
5CF1
  8
0
 10
-291.22576966211687
 20
10.448336738919309
 30
0.0
 11
-291.22576966211687
 21
8.0180105388863794
 31
0.0
  0
LINE
  5
5CF2
  8
0
 10
-292.33544841951863
 20
17.56804892820595
 30
0.0
 11
-291.83500906189698
 21
18.06848803887614
 31
0.0
  0
LINE
  5
5CF3
  8
0
 10
-292.33437271730821
 20
11.55694015877377
 30
0.0
 11
-291.22576966211687
 21
10.448336738919309
 31
0.0
  0
LINE
  5
5CF4
  8
0
 10
-294.67596496211712
 20
13.89853163896203
 30
0.0
 11
-294.26759226831018
 21
13.49015886593363
 31
0.0
  0
LINE
  5
5CF5
  8
0
 10
-294.67596496211678
 20
15.22753263954699
 30
0.0
 11
-294.67596496211712
 21
13.89853163896203
 31
0.0
  0
LINE
  5
5CF6
  8
0
 10
-294.67596496211678
 20
15.22753263954699
 30
0.0
 11
-294.25584801615861
 21
15.64764902792783
 31
0.0
  0
ARC
  5
5CF7
  8
0
 10
-294.45602161223462
 20
17.768222188993949
 30
0.0
 40
2.129999999999999
 50
275.39251268205282
 51
354.60749637709438
  0
ARC
  5
5CF8
  8
0
 10
-294.45602161223462
 20
11.36850988875848
 30
0.0
 40
2.129999999999999
 50
5.075300950465337
 51
84.924724058901901
  0
LINE
  5
5CF9
  8
0
 10
-291.22611120360023
 20
8.0187815907375999
 30
0.0
 11
-291.22611120360023
 21
10.44862801763761
 31
0.0
  0
LINE
  5
5CFA
  8
0
 10
-294.67611320340029
 20
15.22868601733758
 30
0.0
 11
-294.25704120080019
 21
15.6477580199376
 31
0.0
  0
ARC
  5
5CFB
  8
0
 10
-294.45626985350032
 20
17.768420167437579
 30
0.0
 40
2.129999999999999
 50
275.36698178749913
 51
354.63301821250087
  0
LINE
  5
5CFC
  8
0
 10
-294.67611320340029
 20
13.89862961743758
 30
0.0
 11
-294.67611320340029
 21
15.22868601733758
 31
0.0
  0
LINE
  5
5CFD
  8
0
 10
-294.26784050960038
 20
13.490356844437621
 30
0.0
 11
-294.67611320340029
 21
13.89862961743758
 31
0.0
  0
ARC
  5
5CFE
  8
0
 10
-294.45626985350032
 20
11.36870786723758
 30
0.0
 40
2.129999999999999
 50
5.0753009505001394
 51
84.924724058898633
  0
LINE
  5
5CFF
  8
0
 10
-291.22611120360023
 20
10.44862801763761
 30
0.0
 11
-292.33462095860023
 21
11.55713813723761
 31
0.0
  0
LINE
  5
5D00
  8
0
 10
-292.33560770600019
 20
17.5691915147376
 30
0.0
 11
-291.93611320340023
 21
17.9686860173376
 31
0.0
  0
LINE
  5
5D01
  8
0
 10
-291.22611120360023
 20
10.44862801763761
 30
0.0
 11
-293.46611120360018
 21
9.5207898537376199
 31
0.0
  0
LINE
  5
5D02
  8
0
 10
-292.42611120360021
 20
9.9515718584375996
 30
0.0
 11
-292.42611120360021
 21
8.5158378656376215
 31
0.0
  0
LINE
  5
5D03
  8
0
 10
-294.2727769669259
 20
10.32745588242266
 30
0.0
 11
-293.46611120360018
 21
9.5207898537376199
 31
0.0
  0
LINE
  5
5D04
  8
0
 10
-295.77346103036172
 20
5.168488038876089
 30
0.0
 11
-292.42611120360021
 21
8.5158378656376215
 31
0.0
  0
LINE
  5
5D05
  8
0
 10
-293.46611120360018
 20
8.9466199705376201
 30
0.0
 11
-297.24424313526168
 21
5.168488038876089
 31
0.0
  0
LINE
  5
5D06
  8
0
 10
-291.22611120360023
 20
8.0187815907375999
 30
0.0
 11
-293.46611120360018
 21
8.9466199705376201
 31
0.0
  0
LINE
  5
5D07
  8
0
 10
-293.46611120360018
 20
9.5207898537376199
 30
0.0
 11
-293.46611120360018
 21
8.9466199705376201
 31
0.0
  0
LINE
  5
5D08
  8
0
 10
-294.67611320340029
 20
4.5678692172677211
 30
0.0
 11
-291.22560010331802
 21
8.01838211731976
 31
0.0
  0
ARC
  5
5D09
  8
0
 10
-295.14396808177702
 20
11.905754316193651
 30
0.0
 40
0.5
 50
224.99999444431111
 51
284.99998426762022
  0
ARC
  5
5D0A
  8
0
 10
-295.13906268830289
 20
17.226468130948529
 30
0.0
 40
0.5
 50
74.999999999998792
 51
135.00000000000961
  0
LINE
  5
5D0B
  8
0
 10
-294.67611320340029
 20
13.89862961743758
 30
0.0
 11
-296.91611320340019
 21
12.9707929317376
 31
0.0
  0
LINE
  5
5D0C
  8
0
 10
-295.87611323440018
 20
13.4015733978376
 30
0.0
 11
-294.73156728080028
 21
12.25702722223761
 31
0.0
  0
LINE
  5
5D0D
  8
0
 10
-294.67611320340029
 20
15.22868601733758
 30
0.0
 11
-296.91611320340019
 21
16.15652439703759
 31
0.0
  0
LINE
  5
5D0E
  8
0
 10
-294.72404969760038
 20
16.877805798037588
 30
0.0
 11
-295.8761132034
 21
15.7257422922376
 31
0.0
  0
LINE
  5
5D0F
  8
0
 10
-295.8761132034
 20
15.7257422922376
 30
0.0
 11
-295.8761132034
 21
13.401573410737591
 31
0.0
  0
LINE
  5
5D10
  8
0
 10
-296.91611320340019
 20
16.15652439703759
 30
0.0
 11
-296.91611320340019
 21
12.9707929317376
 31
0.0
  0
LINE
  5
5D11
  8
0
 10
-296.91611320340019
 20
12.9707929317376
 30
0.0
 11
-295.4975215066525
 21
11.552200959882629
 31
0.0
  0
LINE
  5
5D12
  8
0
 10
-295.49261607889611
 20
17.580021521541791
 30
0.0
 11
-296.91611320340019
 21
16.15652439703759
 31
0.0
  0
ARC
  5
5D13
  8
0
 10
-293.91922351818062
 20
10.68100921486381
 30
0.0
 40
0.5
 50
164.99999057623981
 51
224.99999057604359
  0
LINE
  5
5D14
  8
0
 10
-292.33462095860023
 20
11.55713813723761
 30
0.0
 11
-293.56795021930009
 21
11.09341124973761
 31
0.0
  0
LINE
  5
5D15
  8
0
 10
-294.26784050960038
 20
13.490356844437621
 30
0.0
 11
-294.73156728080028
 21
12.25702722223761
 31
0.0
  0
LINE
  5
5D16
  8
0
 10
-294.73156730760007
 20
12.2570272490376
 30
0.0
 11
-295.17892089383048
 21
11.40697751147078
 31
0.0
  0
ARC
  5
5D17
  8
0
 10
-294.45626985350032
 20
11.36870786723758
 30
0.0
 40
0.9300000000000001
 50
342.78141675980129
 51
107.2186346986017
  0
LINE
  5
5D18
  8
0
 10
-293.56795021930009
 20
11.09341124973761
 30
0.0
 11
-292.42611120360021
 21
9.9515718584375996
 31
0.0
  0
ARC
  5
5D19
  8
0
 10
-294.88514930190019
 20
10.9398284188376
 30
0.0
 40
0.5
 50
344.99999057624001
 51
104.99998426762021
  0
LINE
  5
5D1A
  8
0
 10
-293.56795021930009
 20
11.09341124973761
 30
0.0
 11
-294.41800034744529
 21
10.64605675302422
 31
0.0
  0
LINE
  5
5D1B
  8
0
 10
-291.93611320340023
 20
17.9686860173376
 30
0.0
 11
-292.86395158310029
 21
20.208686017337609
 31
0.0
  0
LINE
  5
5D1C
  8
0
 10
-292.43316947820023
 20
19.168686017337588
 30
0.0
 11
-293.56565548400022
 21
18.036200011537591
 31
0.0
  0
LINE
  5
5D1D
  8
0
 10
-292.33560770600019
 20
17.5691915147376
 30
0.0
 11
-293.56565548400022
 21
18.036200011537591
 31
0.0
  0
ARC
  5
5D1E
  8
0
 10
-294.88024364320017
 20
18.192393957237599
 30
0.0
 40
0.5
 50
254.99999999999881
 51
14.99999999999841
  0
LINE
  5
5D1F
  8
0
 10
-294.72404969760038
 20
16.877805798037588
 30
0.0
 11
-295.17356098185718
 21
17.725276578894089
 31
0.0
  0
LINE
  5
5D20
  8
0
 10
-293.56565548400022
 20
18.036200011537591
 30
0.0
 11
-294.4131262648574
 21
18.485711295883089
 31
0.0
  0
ARC
  5
5D21
  8
0
 10
-294.45626985350032
 20
17.768420167437579
 30
0.0
 40
0.9300000000000001
 50
253.2656132808988
 51
16.734386719098978
  0
LINE
  5
5D22
  8
0
 10
-294.25704120080019
 20
15.6477580199376
 30
0.0
 11
-294.72404969760038
 21
16.877805798037588
 31
0.0
  0
LINE
  5
5D23
  8
0
 10
-287.60037701446879
 20
20.208686017337609
 30
0.0
 11
-292.86395158310029
 21
20.208686017337609
 31
0.0
  0
ARC
  5
5D24
  8
0
 10
-293.91431781691119
 20
18.45121300234015
 30
0.0
 40
0.5
 50
135.00000000000031
 51
194.99999999999841
  0
LINE
  5
5D25
  8
0
 10
-292.86395158310029
 20
20.208686017337609
 30
0.0
 11
-294.26787120750441
 21
18.804766392933359
 31
0.0
  0
LINE
  5
5D26
  8
0
 10
-276.48823062359997
 20
20.208686017337602
 30
0.0
 11
-281.75130870976449
 21
20.208686017337609
 31
0.0
  0
LINE
  5
5D27
  8
0
 10
-294.67611320340029
 20
4.5678692172677211
 30
0.0
 11
-294.67611320340029
 21
1.568907448284049
 31
0.0
  0
LINE
  5
5D28
  8
0
 10
-274.67611320340029
 20
4.56890701745571
 30
0.0
 11
-274.67611320340018
 21
1.5673841466441989
 31
0.0
  0
LINE
  5
5D29
  8
0
 10
-264.21028577799888
 20
5.1684880379271769
 30
0.0
 11
-275.27569415435318
 21
5.1684880379271769
 31
0.0
  0
LINE
  5
5D2A
  8
0
 10
-294.07549434792219
 20
5.1684880379271769
 30
0.0
 11
-305.14194062880159
 21
5.1684880379271769
 31
0.0
  0
LINE
  5
5D2B
  8
0
 10
-279.67591522501698
 20
30.56848803792726
 30
0.0
 11
-289.67631118178349
 21
30.568488037927221
 31
0.0
  0
LINE
  5
5D2C
  8
0
 10
-306.17591522501698
 20
30.56848803792726
 30
0.0
 11
-315.1763111817836
 21
30.568488037927221
 31
0.0
  0
LINE
  5
5D2D
  8
0
 10
-254.17591522501701
 20
30.568488037927271
 30
0.0
 11
-263.1763111817836
 21
30.568488037927231
 31
0.0
  0
ENDSEC
  0
EOF
