  0
SECTION
  2
HEADER
  9
$ACADVER
  1
AC1009
  9
$INSBASE
 10
0.0
 20
0.0
 30
0.0
  9
$EXTMIN
 10
-569.36457854641264
 20
-69.646728258608306
 30
0.0
  9
$EXTMAX
 10
366.69224799178511
 20
243.21550874024661
 30
0.0
  9
$LIMMIN
 10
-10.0
 20
-15.0
  9
$LIMMAX
 10
120.0
 20
90.0
  9
$ORTHOMODE
 70
     0
  9
$REGENMODE
 70
     0
  9
$FILLMODE
 70
     1
  9
$QTEXTMODE
 70
     0
  9
$MIRRTEXT
 70
     0
  9
$DRAGMODE
 70
     2
  9
$LTSCALE
 40
3.0
  9
$OSMODE
 70
  3071
  9
$ATTMODE
 70
     1
  9
$TEXTSIZE
 40
3.0
  9
$TRACEWID
 40
1.0
  9
$TEXTSTYLE
  7
STANDARD
  9
$CLAYER
  8
0
  9
$CELTYPE
  6
ByLayer
  9
$CECOLOR
 62
   256
  9
$DIMSCALE
 40
1.0
  9
$DIMASZ
 40
3.0
  9
$DIMEXO
 40
1.0
  9
$DIMDLI
 40
6.0
  9
$DIMRND
 40
0.0
  9
$DIMDLE
 40
0.0
  9
$DIMEXE
 40
1.0
  9
$DIMTP
 40
0.0
  9
$DIMTM
 40
0.0
  9
$DIMTXT
 40
3.0
  9
$DIMCEN
 40
1.5
  9
$DIMTSZ
 40
0.0
  9
$DIMTOL
 70
     0
  9
$DIMLIM
 70
     0
  9
$DIMTIH
 70
     1
  9
$DIMTOH
 70
     1
  9
$DIMSE1
 70
     0
  9
$DIMSE2
 70
     0
  9
$DIMTAD
 70
     0
  9
$DIMZIN
 70
     0
  9
$DIMBLK
  1

  9
$DIMASO
 70
     1
  9
$DIMSHO
 70
     0
  9
$DIMPOST
  1

  9
$DIMAPOST
  1

  9
$DIMALT
 70
     0
  9
$DIMALTD
 70
     2
  9
$DIMALTF
 40
25.399999999999999
  9
$DIMLFAC
 40
1.0
  9
$DIMTOFL
 70
     1
  9
$DIMTVP
 40
0.0
  9
$DIMTIX
 70
     0
  9
$DIMSOXD
 70
     0
  9
$DIMSAH
 70
     0
  9
$DIMBLK1
  1

  9
$DIMBLK2
  1

  9
$DIMSTYLE
  2
STANDARD
  9
$DIMCLRD
 70
     0
  9
$DIMCLRE
 70
     0
  9
$DIMCLRT
 70
     0
  9
$DIMTFAC
 40
1.0
  9
$DIMGAP
 40
0.09
  9
$LUNITS
 70
     2
  9
$LUPREC
 70
     4
  9
$SKETCHINC
 40
0.5
  9
$FILLETRAD
 40
0.0
  9
$AUNITS
 70
     0
  9
$AUPREC
 70
     0
  9
$MENU
  1
ACAD
  9
$ELEVATION
 40
0.0
  9
$PELEVATION
 40
0.0
  9
$THICKNESS
 40
0.0
  9
$LIMCHECK
 70
     0
  9
$BLIPMODE
 70
     0
  9
$CHAMFERA
 40
0.0
  9
$CHAMFERB
 40
0.0
  9
$SKPOLY
 70
     0
  9
$TDCREATE
 40
2444975.333333334
  9
$TDUPDATE
 40
2453706.6661159839
  9
$TDINDWG
 40
0.0442927199
  9
$TDUSRTIMER
 40
0.0
  9
$USRTIMER
 70
     0
  9
$ANGBASE
 50
0.0
  9
$ANGDIR
 70
     0
  9
$PDMODE
 70
   171
  9
$PDSIZE
 40
0.001
  9
$PLINEWID
 40
0.0
  9
$COORDS
 70
     2
  9
$SPLFRAME
 70
     0
  9
$SPLINETYPE
 70
     6
  9
$SPLINESEGS
 70
     8
  9
$ATTDIA
 70
     0
  9
$ATTREQ
 70
     1
  9
$HANDLING
 70
     1
  9
$HANDSEED
  5
6840
  9
$SURFTAB1
 70
     6
  9
$SURFTAB2
 70
     6
  9
$SURFTYPE
 70
     6
  9
$SURFU
 70
     6
  9
$SURFV
 70
     6
  9
$UCSNAME
  2

  9
$UCSORG
 10
0.0
 20
0.0
 30
0.0
  9
$UCSXDIR
 10
1.0
 20
0.0
 30
0.0
  9
$UCSYDIR
 10
0.0
 20
1.0
 30
0.0
  9
$PUCSNAME
  2

  9
$PUCSORG
 10
0.0
 20
0.0
 30
0.0
  9
$PUCSXDIR
 10
1.0
 20
0.0
 30
0.0
  9
$PUCSYDIR
 10
0.0
 20
1.0
 30
0.0
  9
$USERI1
 70
     0
  9
$USERI2
 70
     0
  9
$USERI3
 70
     0
  9
$USERI4
 70
     0
  9
$USERI5
 70
     0
  9
$USERR1
 40
0.0
  9
$USERR2
 40
0.0
  9
$USERR3
 40
0.0
  9
$USERR4
 40
0.0
  9
$USERR5
 40
0.0
  9
$WORLDVIEW
 70
     1
  9
$SHADEDGE
 70
     3
  9
$SHADEDIF
 70
    70
  9
$TILEMODE
 70
     1
  9
$MAXACTVP
 70
    48
  9
$PLIMCHECK
 70
     0
  9
$PEXTMIN
 10
1.0000000000000000E+020
 20
1.0000000000000000E+020
 30
1.0000000000000000E+020
  9
$PEXTMAX
 10
-1.0000000000000000E+020
 20
-1.0000000000000000E+020
 30
-1.0000000000000000E+020
  9
$PLIMMIN
 10
0.0
 20
0.0
  9
$PLIMMAX
 10
12.0
 20
9.0
  9
$UNITMODE
 70
     0
  9
$VISRETAIN
 70
     1
  9
$PLINEGEN
 70
     0
  9
$PSLTSCALE
 70
     0
  0
ENDSEC
  0
SECTION
  2
TABLES
  0
TABLE
  2
VPORT
 70
     3
  0
VPORT
  2
*ACTIVE
 70
     0
 10
0.0
 20
0.0
 11
1.0
 21
1.0
 12
-325.94729526671
 22
91.597627537971107
 13
457.99999999999972
 23
1082.0
 14
10.0
 24
10.0
 15
10.0
 25
10.0
 16
0.0
 26
0.0
 36
1.0
 17
0.0
 27
0.0
 37
0.0
 40
451.39031462685648
 41
1.7038081805359659
 42
1.0
 43
0.0
 44
0.0
 50
0.0
 51
0.0
 71
     0
 72
   100
 73
     1
 74
     1
 75
     0
 76
     0
 77
     0
 78
     0
  0
ENDTAB
  0
TABLE
  2
LTYPE
 70
     5
  0
LTYPE
  2
ByBlock
 70
     0
  3

 72
    65
 73
     0
 40
0.0
  0
LTYPE
  2
ByLayer
 70
     0
  3

 72
    65
 73
     0
 40
0.0
  0
LTYPE
  2
CONTINUOUS
 70
     0
  3
łsÄň˝u ________________________
 72
    65
 73
     2
 40
200000.0
 49
200000.0
 49
0.0
  0
LTYPE
  2
CENTER2
 70
     0
  3
Center (.5x) ___ _ ___ _ ___ _ ___ _ ___ _ ___
 72
    65
 73
     4
 40
28.574999999999999
 49
19.050000000000001
 49
-3.1749999999999989
 49
3.1749999999999989
 49
-3.1749999999999989
  0
LTYPE
  2
DASHED2
 70
     0
  3
Dashed (.5x) _ _ _ _ _ _ _ _ _ _ _ _ _ _ _ _ _
 72
    65
 73
     2
 40
9.5249999999999986
 49
6.3499999999999988
 49
-3.1749999999999989
  0
ENDTAB
  0
TABLE
  2
LAYER
 70
     7
  0
LAYER
  2
0
 70
     0
 62
     7
  6
CONTINUOUS
  0
LAYER
  2
«ü˝u
 70
     0
 62
     3
  6
CONTINUOUS
  0
LAYER
  2
¤¤¤ß˝u
 70
     0
 62
     4
  6
CENTER2
  0
LAYER
  2
µę˝u
 70
     0
 62
     6
  6
DASHED2
  0
LAYER
  2
«Řşc˝u
 70
     0
 62
     1
  6
CONTINUOUS
  0
LAYER
  2
AM5
 70
     0
 62
     3
  6
CONTINUOUS
  0
LAYER
  2
AM7
 70
     0
 62
     4
  6
CENTER2
  0
ENDTAB
  0
TABLE
  2
STYLE
 70
     2
  0
STYLE
  2
STANDARD
 70
     0
 40
0.0
 41
1.0
 50
0.0
 71
     0
 42
3.0
  3
txt
  4

  0
STYLE
  2
«¬¦ˇ2
 70
     0
 40
0.0
 41
1.0
 50
0.0
 71
     0
 42
2.5
  3
txt
  4

  0
ENDTAB
  0
TABLE
  2
VIEW
 70
     0
  0
ENDTAB
  0
TABLE
  2
UCS
 70
     0
  0
ENDTAB
  0
TABLE
  2
APPID
 70
     4
  0
APPID
  2
ACAD
 70
     0
  0
APPID
  2
TCAD
 70
     0
  0
APPID
  2
CONTENTBLOCKICON
 70
     0
  0
APPID
  2
PNTFLAG
 70
     0
  0
ENDTAB
  0
TABLE
  2
DIMSTYLE
 70
     2
  0
DIMSTYLE
  2
STANDARD
 70
     0
  3

  4

  5

  6

  7

 40
1.0
 41
0.18
 42
0.0625
 43
0.38
 44
0.18
 45
0.0
 46
0.0
 47
0.0
 48
0.0
140
0.18
141
0.09
142
0.0
143
25.399999999999999
144
1.0
145
0.0
146
1.0
147
0.09
 71
     0
 72
     0
 73
     1
 74
     1
 75
     0
 76
     0
 77
     0
 78
     0
170
     0
171
     2
172
     0
173
     0
174
     0
175
     0
176
     0
177
     0
178
     0
  0
DIMSTYLE
  2
ISO-25
 70
     0
  3

  4

  5

  6

  7

 40
1.0
 41
2.399999999999999
 42
0.7
 43
3.2000000000000002
 44
0.7
 45
0.0
 46
0.0
 47
0.0
 48
0.0
140
2.5
141
2.5
142
0.0
143
0.03937007874016
144
1.0
145
0.0
146
1.0
147
0.7
 71
     0
 72
     0
 73
     0
 74
     0
 75
     0
 76
     0
 77
     1
 78
     1
170
     0
171
     3
172
     1
173
     0
174
     0
175
     0
176
   256
177
   256
178
   256
  0
ENDTAB
  0
ENDSEC
  0
SECTION
  2
BLOCKS
  0
BLOCK
  8
0
  2
$MODEL_SPACE
 70
     0
 10
0.0
 20
0.0
 30
0.0
  3
$MODEL_SPACE
  1

  0
ENDBLK
  5
255
  8
0
  0
BLOCK
 67
     1
  8
0
  2
$PAPER_SPACE
 70
     0
 10
0.0
 20
0.0
 30
0.0
  3
$PAPER_SPACE
  1

  0
ENDBLK
  5
253
 67
     1
  8
0
  0
BLOCK
  8
0
  2
HGW45HC_F
 70
     0
 10
0.0
 20
0.0
 30
0.0
  3
HGW45HC_F
  1

  0
LINE
  5
5E51
  8
0
 10
-63.99999999999995
 20
48.496635381115652
 30
0.0
 11
64.000000000000057
 21
48.496635381115603
 31
0.0
  0
LINE
  5
5E52
  8
0
 10
-32.304001534114832
 20
28.496767052336232
 30
0.0
 11
32.298735136686112
 21
28.496767052336232
 31
0.0
  0
LINE
  5
5E53
  8
0
 10
-64.000000000000114
 20
0.0
 30
0.0
 11
64.000000000000057
 21
0.0000000000000284
 31
0.0
  0
LINE
  5
5E54
  8
0
 10
-80.000000000000099
 20
2.9999999999998281
 30
0.0
 11
80.0
 21
2.9999999999997731
 31
0.0
  0
LINE
  5
5E55
  8
0
 10
-63.99999999999995
 20
50.496963857721759
 30
0.0
 11
63.99999999999995
 21
50.496963857721589
 31
0.0
  0
LINE
  5
5E56
  8
µę˝u
 10
-34.000115057190442
 20
49.795978356410437
 30
0.0
 11
-34.002316031207783
 21
36.395978537167309
 31
0.0
  0
LINE
  5
5E57
  8
µę˝u
 10
-34.875115045387247
 20
49.796122076728693
 30
0.0
 11
-34.877316019404589
 21
36.396122257485558
 31
0.0
  0
LINE
  5
5E58
  8
µę˝u
 10
-46.000114895318582
 20
49.797949377918478
 30
0.0
 11
-46.002315869335909
 21
36.39794955867535
 31
0.0
  0
LINE
  5
5E59
  8
µę˝u
 10
-45.125114907121649
 20
49.797805657600179
 30
0.0
 11
-45.127315881138998
 21
36.397805838357051
 31
0.0
  0
LINE
  5
5E5A
  8
¤¤¤ß˝u
 10
-39.999671496415203
 20
52.496963830743077
 30
0.0
 11
-40.002900274823332
 21
32.839471399902841
 31
0.0
  0
LINE
  5
5E5B
  8
0
 10
-64.0
 20
50.496963857721759
 30
0.0
 11
-64.000000000000114
 21
0.0000000000000568
 31
0.0
  0
LINE
  5
5E5C
  8
0
 10
-80.000000000000114
 20
0.0000000000000853
 30
0.0
 11
-80.000000000000114
 21
49.00000000000005
 31
0.0
  0
LINE
  5
5E5D
  8
µę˝u
 10
-46.002315869335909
 20
36.39794955867535
 30
0.0
 11
-46.902463683808712
 21
35.498097397428751
 31
0.0
  0
LINE
  5
5E5E
  8
0
 10
-46.801159699972452
 20
20.860206756307321
 30
0.0
 11
-46.703629278908579
 21
20.212009848541701
 31
0.0
  0
LINE
  5
5E5F
  8
0
 10
-47.743903590732309
 20
35.498097397428751
 30
0.0
 11
-32.261023590732073
 21
35.498097397428751
 31
0.0
  0
LINE
  5
5E60
  8
0
 10
-64.000000000000114
 20
0.0000000000000853
 30
0.0
 11
-80.000000000000114
 21
0.0000000000000853
 31
0.0
  0
LINE
  5
5E61
  8
¤¤¤ß˝u
 10
-74.000000000000114
 20
24.389737364747418
 30
0.0
 11
-74.000000000000114
 21
35.610262635252923
 31
0.0
  0
CIRCLE
  5
5E62
  8
0
 10
-74.000000000000114
 20
30.00000000000006
 30
0.0
 40
3.9375
  0
CIRCLE
  5
5E63
  8
0
 10
-74.000000000000114
 20
30.00000000000006
 30
0.0
 40
4.25
  0
CIRCLE
  5
5E64
  8
0
 10
-74.000000000000114
 20
30.00000000000006
 30
0.0
 40
4.5499999999999989
  0
LINE
  5
5E65
  8
¤¤¤ß˝u
 10
-80.113785271176653
 20
30.00000000000006
 30
0.0
 11
-67.886214728823674
 21
30.00000000000006
 31
0.0
  0
CIRCLE
  5
5E66
  8
0
 10
-74.000000000000114
 20
30.00000000000006
 30
0.0
 40
0.75
  0
LINE
  5
5E67
  8
0
 10
-47.743903590732309
 20
35.498097397428751
 30
0.0
 11
-47.743903590732309
 21
28.862577397428652
 31
0.0
  0
LINE
  5
5E68
  8
0
 10
-64.0
 20
28.496767052335031
 30
0.0
 11
-47.701264863313661
 21
28.496767052336232
 31
0.0
  0
LINE
  5
5E69
  8
0
 10
-47.374106000121742
 20
25.855076551553449
 30
0.0
 11
-47.268615175377022
 21
24.710475128336839
 31
0.0
  0
LINE
  5
5E6A
  8
0
 10
-47.268615175377022
 20
24.710475128336839
 30
0.0
 11
-47.060616318570737
 21
22.809140144329032
 31
0.0
  0
LINE
  5
5E6B
  8
0
 10
-47.060616318570737
 20
22.809140144329032
 30
0.0
 11
-46.801159699972452
 21
20.860206756307321
 31
0.0
  0
LINE
  5
5E6C
  8
0
 10
-47.743903590732309
 20
28.80481074910881
 30
0.0
 11
-47.735839025975672
 21
28.706940098945442
 31
0.0
  0
LINE
  5
5E6D
  8
0
 10
-47.735839025975672
 20
28.706940098945442
 30
0.0
 11
-47.712539036532689
 21
28.559261635580238
 31
0.0
  0
LINE
  5
5E6E
  8
0
 10
-47.712539036532689
 20
28.559261635580238
 30
0.0
 11
-47.701863736938662
 21
28.499937434415529
 31
0.0
  0
LINE
  5
5E6F
  8
0
 10
-47.701863736938662
 20
28.499937434415529
 30
0.0
 11
-47.658423183118543
 21
28.26996712414871
 31
0.0
  0
LINE
  5
5E70
  8
0
 10
-47.658423183118543
 20
28.26996712414871
 30
0.0
 11
-47.618733331173637
 21
28.058085425721629
 31
0.0
  0
LINE
  5
5E71
  8
0
 10
-47.618733331173637
 20
28.058085425721629
 30
0.0
 11
-47.550235168608758
 21
27.655203632083381
 31
0.0
  0
LINE
  5
5E72
  8
0
 10
-47.550235168608758
 20
27.655203632083381
 30
0.0
 11
-47.486460357922972
 21
27.182502020379051
 31
0.0
  0
LINE
  5
5E73
  8
0
 10
-47.486460357922972
 20
27.182502020379051
 30
0.0
 11
-47.468864987693223
 21
27.014453788504511
 31
0.0
  0
LINE
  5
5E74
  8
0
 10
-47.468864987693223
 20
27.014453788504511
 30
0.0
 11
-47.444681632116719
 21
26.723011002773891
 31
0.0
  0
LINE
  5
5E75
  8
0
 10
-47.444681632116719
 20
26.723011002773891
 30
0.0
 11
-47.422560196919449
 21
26.440210328982062
 31
0.0
  0
LINE
  5
5E76
  8
0
 10
-47.422560196919449
 20
26.440210328982062
 30
0.0
 11
-47.374106000121742
 21
25.855076551553449
 31
0.0
  0
LINE
  5
5E77
  8
0
 10
-46.703629278908579
 20
20.212009848541701
 30
0.0
 11
-46.384236538495202
 21
18.322202094854561
 31
0.0
  0
LINE
  5
5E78
  8
0
 10
-33.443060408529171
 20
19.332714909876699
 30
0.0
 11
-33.150722591236672
 21
21.230020327461261
 31
0.0
  0
LINE
  5
5E79
  8
0
 10
-37.349311634292803
 20
8.7454439345319752
 30
0.0
 11
-37.014548149559353
 21
8.8991283937652952
 31
0.0
  0
LINE
  5
5E7A
  8
0
 10
-45.261160282648682
 20
13.475353142534569
 30
0.0
 11
-44.888364518588787
 21
12.267268522594581
 31
0.0
  0
LINE
  5
5E7B
  8
0
 10
-42.087014231228522
 20
8.5640429583937703
 30
0.0
 11
-41.449261363020348
 21
8.438365821231514
 31
0.0
  0
LINE
  5
5E7C
  8
0
 10
-43.961728359817357
 20
9.8524952425843821
 30
0.0
 11
-43.876953610080129
 21
9.6965175083788608
 31
0.0
  0
LINE
  5
5E7D
  8
0
 10
-43.876953610080129
 20
9.6965175083788608
 30
0.0
 11
-43.672141008510948
 21
9.4202758234484918
 31
0.0
  0
LINE
  5
5E7E
  8
0
 10
-43.672141008510948
 20
9.4202758234484918
 30
0.0
 11
-43.48398406791614
 21
9.2340776271629466
 31
0.0
  0
LINE
  5
5E7F
  8
0
 10
-43.48398406791614
 20
9.2340776271629466
 30
0.0
 11
-43.208544344006782
 21
9.0268202569076266
 31
0.0
  0
LINE
  5
5E80
  8
0
 10
-43.208544344006782
 20
9.0268202569076266
 30
0.0
 11
-42.839469106610643
 21
8.8244892183515731
 31
0.0
  0
LINE
  5
5E81
  8
0
 10
-42.839469106610643
 20
8.8244892183515731
 30
0.0
 11
-42.533156601266448
 21
8.6994221210380829
 31
0.0
  0
LINE
  5
5E82
  8
0
 10
-42.533156601266448
 20
8.6994221210380829
 30
0.0
 11
-42.087014231228522
 21
8.5640429583937703
 31
0.0
  0
LINE
  5
5E83
  8
0
 10
-44.888364518588787
 20
12.267268522594581
 30
0.0
 11
-44.565160695833242
 21
11.337871171334539
 31
0.0
  0
LINE
  5
5E84
  8
0
 10
-44.565160695833242
 20
11.337871171334539
 30
0.0
 11
-44.13232999268768
 21
10.24103031447191
 31
0.0
  0
LINE
  5
5E85
  8
0
 10
-44.13232999268768
 20
10.24103031447191
 30
0.0
 11
-44.019743732863049
 21
9.9810104351502105
 31
0.0
  0
LINE
  5
5E86
  8
0
 10
-44.019743732863049
 20
9.9810104351502105
 30
0.0
 11
-43.961728359817357
 21
9.8524952425843821
 31
0.0
  0
LINE
  5
5E87
  8
0
 10
-39.00499966532027
 20
8.3839341452661529
 30
0.0
 11
-38.322955912278189
 21
8.476577964253579
 31
0.0
  0
LINE
  5
5E88
  8
0
 10
-38.322955912278189
 20
8.476577964253579
 30
0.0
 11
-37.809146039504753
 21
8.5929527996582902
 31
0.0
  0
LINE
  5
5E89
  8
0
 10
-37.809146039504753
 20
8.5929527996582902
 30
0.0
 11
-37.349311634292803
 21
8.7454439345319752
 31
0.0
  0
LINE
  5
5E8A
  8
0
 10
-41.449261363020348
 20
8.438365821231514
 30
0.0
 11
-40.787432592265638
 21
8.3659495859367325
 31
0.0
  0
LINE
  5
5E8B
  8
0
 10
-40.787432592265638
 20
8.3659495859367325
 30
0.0
 11
-40.265798530318762
 21
8.3411860405825564
 31
0.0
  0
LINE
  5
5E8C
  8
0
 10
-40.265798530318762
 20
8.3411860405825564
 30
0.0
 11
-39.554620073353703
 21
8.3468951138880811
 31
0.0
  0
LINE
  5
5E8D
  8
0
 10
-39.554620073353703
 20
8.3468951138880811
 30
0.0
 11
-39.00499966532027
 21
8.3839341452661529
 31
0.0
  0
LINE
  5
5E8E
  8
0
 10
-46.384236538495202
 20
18.322202094854561
 30
0.0
 11
-46.099128923693222
 21
16.872176432206292
 31
0.0
  0
LINE
  5
5E8F
  8
0
 10
-46.099128923693222
 20
16.872176432206292
 30
0.0
 11
-45.851083424137528
 21
15.749513391202751
 31
0.0
  0
LINE
  5
5E90
  8
0
 10
-45.851083424137528
 20
15.749513391202751
 30
0.0
 11
-45.534355772317888
 21
14.466607310373201
 31
0.0
  0
LINE
  5
5E91
  8
0
 10
-45.534355772317888
 20
14.466607310373201
 30
0.0
 11
-45.261160282648682
 21
13.475353142534569
 31
0.0
  0
LINE
  5
5E92
  8
0
 10
-34.822811871318208
 20
13.20605435387529
 30
0.0
 11
-34.447770242707414
 21
14.55247975999111
 31
0.0
  0
LINE
  5
5E93
  8
0
 10
-37.014548149559353
 20
8.8991283937652952
 30
0.0
 11
-36.77000614244821
 21
9.0443629368692182
 31
0.0
  0
LINE
  5
5E94
  8
0
 10
-36.77000614244821
 20
9.0443629368692182
 30
0.0
 11
-36.485641078645017
 21
9.2656059563175859
 31
0.0
  0
LINE
  5
5E95
  8
0
 10
-36.485641078645017
 20
9.2656059563175859
 30
0.0
 11
-36.290800589787288
 21
9.4689963650420168
 31
0.0
  0
LINE
  5
5E96
  8
0
 10
-36.290800589787288
 20
9.4689963650420168
 30
0.0
 11
-36.104558678695867
 21
9.7361223790350095
 31
0.0
  0
LINE
  5
5E97
  8
0
 10
-36.104558678695867
 20
9.7361223790350095
 30
0.0
 11
-36.036623241220241
 21
9.8662951165709956
 31
0.0
  0
LINE
  5
5E98
  8
0
 10
-36.036623241220241
 20
9.8662951165709956
 30
0.0
 11
-35.978975013892303
 21
9.995091220373979
 31
0.0
  0
LINE
  5
5E99
  8
0
 10
-35.978975013892303
 20
9.995091220373979
 30
0.0
 11
-35.549324956574083
 21
11.044984358211879
 31
0.0
  0
LINE
  5
5E9A
  8
0
 10
-35.549324956574083
 20
11.044984358211879
 30
0.0
 11
-35.120806018564281
 21
12.25434147993235
 31
0.0
  0
LINE
  5
5E9B
  8
0
 10
-35.120806018564281
 20
12.25434147993235
 30
0.0
 11
-34.822811871318208
 21
13.20605435387529
 31
0.0
  0
LINE
  5
5E9C
  8
0
 10
-34.447770242707414
 20
14.55247975999111
 30
0.0
 11
-34.050289587245402
 21
16.203016676839859
 31
0.0
  0
LINE
  5
5E9D
  8
0
 10
-34.050289587245402
 20
16.203016676839859
 30
0.0
 11
-33.779002202914967
 21
17.49485731190418
 31
0.0
  0
LINE
  5
5E9E
  8
0
 10
-33.779002202914967
 20
17.49485731190418
 30
0.0
 11
-33.443060408529171
 21
19.332714909876699
 31
0.0
  0
LINE
  5
5E9F
  8
0
 10
-32.261023590732073
 20
35.498097397428751
 30
0.0
 11
-32.261023590732073
 21
28.862577397428652
 31
0.0
  0
LINE
  5
5EA0
  8
0
 10
-32.847490692591691
 20
23.646436033593659
 30
0.0
 11
-32.663573157155049
 21
25.482474438693199
 31
0.0
  0
LINE
  5
5EA1
  8
0
 10
-33.150722591236672
 20
21.230020327461261
 30
0.0
 11
-33.064085619122473
 21
21.86393758973577
 31
0.0
  0
LINE
  5
5EA2
  8
0
 10
-33.064085619122473
 20
21.86393758973577
 30
0.0
 11
-32.847490692591691
 21
23.646436033593659
 31
0.0
  0
LINE
  5
5EA3
  8
0
 10
-32.663573157155049
 20
25.482474438693199
 30
0.0
 11
-32.610494973546679
 21
26.09521339250318
 31
0.0
  0
LINE
  5
5EA4
  8
0
 10
-32.610494973546679
 20
26.09521339250318
 30
0.0
 11
-32.566921258664252
 21
26.636531472011711
 31
0.0
  0
LINE
  5
5EA5
  8
0
 10
-32.566921258664252
 20
26.636531472011711
 30
0.0
 11
-32.546569754792358
 21
26.898055865913879
 31
0.0
  0
LINE
  5
5EA6
  8
0
 10
-32.546569754792358
 20
26.898055865913879
 30
0.0
 11
-32.522165253185911
 21
27.14960822359695
 31
0.0
  0
LINE
  5
5EA7
  8
0
 10
-32.522165253185911
 20
27.14960822359695
 30
0.0
 11
-32.468769356456512
 21
27.562824253129069
 31
0.0
  0
LINE
  5
5EA8
  8
0
 10
-32.468769356456512
 20
27.562824253129069
 30
0.0
 11
-32.406759036707172
 21
27.94375358379671
 31
0.0
  0
LINE
  5
5EA9
  8
0
 10
-32.406759036707172
 20
27.94375358379671
 30
0.0
 11
-32.386020316881293
 21
28.059032835682729
 31
0.0
  0
LINE
  5
5EAA
  8
0
 10
-32.386020316881293
 20
28.059032835682729
 30
0.0
 11
-32.335535251357904
 21
28.328202140647711
 31
0.0
  0
LINE
  5
5EAB
  8
0
 10
-32.335535251357904
 20
28.328202140647711
 30
0.0
 11
-32.297670674292931
 21
28.530608949838211
 31
0.0
  0
LINE
  5
5EAC
  8
0
 10
-32.297670674292931
 20
28.530608949838211
 30
0.0
 11
-32.271112780189704
 21
28.69160260834974
 31
0.0
  0
LINE
  5
5EAD
  8
0
 10
-32.271112780189704
 20
28.69160260834974
 30
0.0
 11
-32.265771793555473
 21
28.733924461420891
 31
0.0
  0
LINE
  5
5EAE
  8
0
 10
-32.265771793555473
 20
28.733924461420891
 30
0.0
 11
-32.261588399927632
 21
28.822052689608999
 31
0.0
  0
LINE
  5
5EAF
  8
0
 10
-32.261588399927632
 20
28.822052689608999
 30
0.0
 11
-32.270280651514099
 21
28.85644142222986
 31
0.0
  0
LINE
  5
5EB0
  8
0
 10
-32.270280651514099
 20
28.85644142222986
 30
0.0
 11
-32.27931688679849
 21
28.862078995227201
 31
0.0
  0
LINE
  5
5EB1
  8
µę˝u
 10
-46.002315869335909
 20
36.39794955867535
 30
0.0
 11
-34.002316031207783
 21
36.395978537167309
 31
0.0
  0
LINE
  5
5EB2
  8
µę˝u
 10
-34.002316031207783
 20
36.395978537167309
 30
0.0
 11
-33.102463869961177
 21
35.49583072269445
 31
0.0
  0
LINE
  5
5EB3
  8
0
 10
-80.000000000000114
 20
49.00000000000005
 30
0.0
 11
-64.000000000000114
 21
49.00000000000005
 31
0.0
  0
LINE
  5
5EB4
  8
0
 10
-80.000000000000114
 20
46.00000000000005
 30
0.0
 11
-64.000000000000114
 21
46.00000000000005
 31
0.0
  0
LINE
  5
5EB5
  8
µę˝u
 10
-46.000114895318582
 20
49.797949377918478
 30
0.0
 11
-34.000115057190442
 21
49.795978356410437
 31
0.0
  0
LINE
  5
5EB6
  8
µę˝u
 10
-46.000114895318582
 20
49.797949377918478
 30
0.0
 11
-46.69999990962139
 21
50.498064344730381
 31
0.0
  0
LINE
  5
5EB7
  8
µę˝u
 10
-34.000115057190442
 20
49.795978356410437
 30
0.0
 11
-33.300000090378028
 21
50.495863370713032
 31
0.0
  0
LINE
  5
5EB8
  8
0
 10
80.0
 20
46.0
 30
0.0
 11
64.0
 21
46.0
 31
0.0
  0
LINE
  5
5EB9
  8
0
 10
80.0
 20
49.0
 30
0.0
 11
64.0
 21
49.0
 31
0.0
  0
LINE
  5
5EBA
  8
¤¤¤ß˝u
 10
67.886214728823461
 20
30.0
 30
0.0
 11
80.113785271176539
 21
30.0
 31
0.0
  0
CIRCLE
  5
5EBB
  8
0
 10
74.0
 20
30.0
 30
0.0
 40
4.25
  0
CIRCLE
  5
5EBC
  8
0
 10
74.0
 20
30.0
 30
0.0
 40
3.9375
  0
CIRCLE
  5
5EBD
  8
0
 10
74.0
 20
30.0
 30
0.0
 40
4.5499999999999989
  0
LINE
  5
5EBE
  8
0
 10
64.0
 20
0.0000000000000284
 30
0.0
 11
80.0
 21
0.0000000000000284
 31
0.0
  0
LINE
  5
5EBF
  8
0
 10
64.0
 20
50.496963857721653
 30
0.0
 11
64.0
 21
0.0000000000000284
 31
0.0
  0
LINE
  5
5EC0
  8
µę˝u
 10
45.999884942809331
 20
49.795978356410387
 30
0.0
 11
45.997683968791982
 21
36.395978537167252
 31
0.0
  0
LINE
  5
5EC1
  8
µę˝u
 10
45.124884954612519
 20
49.796122076728643
 30
0.0
 11
45.122683980595177
 21
36.396122257485501
 31
0.0
  0
LINE
  5
5EC2
  8
µę˝u
 10
33.999885104681198
 20
49.797949377918428
 30
0.0
 11
33.997684130663863
 21
36.397949558675293
 31
0.0
  0
LINE
  5
5EC3
  8
µę˝u
 10
34.874885092878117
 20
49.797805657600122
 30
0.0
 11
34.872684118860768
 21
36.397805838356987
 31
0.0
  0
LINE
  5
5EC4
  8
¤¤¤ß˝u
 10
40.000328503584569
 20
52.496963830743027
 30
0.0
 11
39.99709972517644
 21
32.839471399902777
 31
0.0
  0
LINE
  5
5EC5
  8
0
 10
33.296370721091193
 20
20.212009848541701
 30
0.0
 11
33.615763461504571
 21
18.322202094854561
 31
0.0
  0
LINE
  5
5EC6
  8
0
 10
46.556939591470602
 20
19.332714909876699
 30
0.0
 11
46.849277408763101
 21
21.230020327461261
 31
0.0
  0
LINE
  5
5EC7
  8
0
 10
40.445379926646069
 20
8.3468951138880811
 30
0.0
 11
40.995000334679503
 21
8.3839341452661529
 31
0.0
  0
LINE
  5
5EC8
  8
0
 10
34.738839717351091
 20
13.475353142534569
 30
0.0
 11
35.111635481410978
 21
12.267268522594581
 31
0.0
  0
LINE
  5
5EC9
  8
0
 10
36.038271640182408
 20
9.8524952425843821
 30
0.0
 11
36.123046389919637
 21
9.6965175083788608
 31
0.0
  0
LINE
  5
5ECA
  8
0
 10
35.111635481410978
 20
12.267268522594581
 30
0.0
 11
35.43483930416653
 21
11.337871171334539
 31
0.0
  0
LINE
  5
5ECB
  8
0
 10
35.43483930416653
 20
11.337871171334539
 30
0.0
 11
35.867670007312093
 21
10.24103031447191
 31
0.0
  0
LINE
  5
5ECC
  8
0
 10
35.867670007312093
 20
10.24103031447191
 30
0.0
 11
35.980256267136731
 21
9.9810104351502105
 31
0.0
  0
LINE
  5
5ECD
  8
0
 10
35.980256267136731
 20
9.9810104351502105
 30
0.0
 11
36.038271640182408
 21
9.8524952425843821
 31
0.0
  0
LINE
  5
5ECE
  8
0
 10
36.327858991488831
 20
9.4202758234484918
 30
0.0
 11
36.51601593208364
 21
9.2340776271629466
 31
0.0
  0
LINE
  5
5ECF
  8
0
 10
36.51601593208364
 20
9.2340776271629466
 30
0.0
 11
36.791455655992991
 21
9.0268202569076266
 31
0.0
  0
LINE
  5
5ED0
  8
0
 10
36.791455655992991
 20
9.0268202569076266
 30
0.0
 11
37.160530893389137
 21
8.8244892183515731
 31
0.0
  0
LINE
  5
5ED1
  8
0
 10
37.160530893389137
 20
8.8244892183515731
 30
0.0
 11
37.466843398733317
 21
8.6994221210380829
 31
0.0
  0
LINE
  5
5ED2
  8
0
 10
37.466843398733317
 20
8.6994221210380829
 30
0.0
 11
37.91298576877125
 21
8.5640429583937703
 31
0.0
  0
LINE
  5
5ED3
  8
0
 10
37.91298576877125
 20
8.5640429583937703
 30
0.0
 11
38.550738636979418
 21
8.438365821231514
 31
0.0
  0
LINE
  5
5ED4
  8
0
 10
38.550738636979418
 20
8.438365821231514
 30
0.0
 11
39.212567407734127
 21
8.3659495859367325
 31
0.0
  0
LINE
  5
5ED5
  8
0
 10
39.212567407734127
 20
8.3659495859367325
 30
0.0
 11
39.734201469681011
 21
8.3411860405825564
 31
0.0
  0
LINE
  5
5ED6
  8
0
 10
39.734201469681011
 20
8.3411860405825564
 30
0.0
 11
40.445379926646069
 21
8.3468951138880811
 31
0.0
  0
LINE
  5
5ED7
  8
0
 10
36.123046389919637
 20
9.6965175083788608
 30
0.0
 11
36.327858991488831
 21
9.4202758234484918
 31
0.0
  0
LINE
  5
5ED8
  8
0
 10
33.615763461504571
 20
18.322202094854561
 30
0.0
 11
33.900871076306537
 21
16.872176432206292
 31
0.0
  0
LINE
  5
5ED9
  8
0
 10
33.900871076306537
 20
16.872176432206292
 30
0.0
 11
34.148916575862238
 21
15.749513391202751
 31
0.0
  0
LINE
  5
5EDA
  8
0
 10
34.148916575862238
 20
15.749513391202751
 30
0.0
 11
34.465644227681878
 21
14.466607310373201
 31
0.0
  0
LINE
  5
5EDB
  8
0
 10
34.465644227681878
 20
14.466607310373201
 30
0.0
 11
34.738839717351091
 21
13.475353142534569
 31
0.0
  0
LINE
  5
5EDC
  8
0
 10
45.177188128681557
 20
13.20605435387529
 30
0.0
 11
45.552229757292359
 21
14.55247975999111
 31
0.0
  0
LINE
  5
5EDD
  8
0
 10
41.677044087721583
 20
8.476577964253579
 30
0.0
 11
42.190853960495019
 21
8.5929527996582902
 31
0.0
  0
LINE
  5
5EDE
  8
0
 10
42.190853960495019
 20
8.5929527996582902
 30
0.0
 11
42.650688365706969
 21
8.7454439345319752
 31
0.0
  0
LINE
  5
5EDF
  8
0
 10
42.650688365706969
 20
8.7454439345319752
 30
0.0
 11
42.985451850440427
 21
8.8991283937652952
 31
0.0
  0
LINE
  5
5EE0
  8
0
 10
42.985451850440427
 20
8.8991283937652952
 30
0.0
 11
43.229993857551563
 21
9.0443629368692182
 31
0.0
  0
LINE
  5
5EE1
  8
0
 10
43.229993857551563
 20
9.0443629368692182
 30
0.0
 11
43.514358921354763
 21
9.2656059563175859
 31
0.0
  0
LINE
  5
5EE2
  8
0
 10
43.514358921354763
 20
9.2656059563175859
 30
0.0
 11
43.709199410212477
 21
9.4689963650420168
 31
0.0
  0
LINE
  5
5EE3
  8
0
 10
43.709199410212477
 20
9.4689963650420168
 30
0.0
 11
43.895441321303899
 21
9.7361223790350095
 31
0.0
  0
LINE
  5
5EE4
  8
0
 10
43.895441321303899
 20
9.7361223790350095
 30
0.0
 11
43.963376758779532
 21
9.8662951165709956
 31
0.0
  0
LINE
  5
5EE5
  8
0
 10
43.963376758779532
 20
9.8662951165709956
 30
0.0
 11
44.02102498610747
 21
9.995091220373979
 31
0.0
  0
LINE
  5
5EE6
  8
0
 10
44.02102498610747
 20
9.995091220373979
 30
0.0
 11
44.45067504342569
 21
11.044984358211879
 31
0.0
  0
LINE
  5
5EE7
  8
0
 10
44.45067504342569
 20
11.044984358211879
 30
0.0
 11
44.879193981435492
 21
12.25434147993235
 31
0.0
  0
LINE
  5
5EE8
  8
0
 10
44.879193981435492
 20
12.25434147993235
 30
0.0
 11
45.177188128681557
 21
13.20605435387529
 31
0.0
  0
LINE
  5
5EE9
  8
0
 10
40.995000334679503
 20
8.3839341452661529
 30
0.0
 11
41.677044087721583
 21
8.476577964253579
 31
0.0
  0
LINE
  5
5EEA
  8
0
 10
45.552229757292359
 20
14.55247975999111
 30
0.0
 11
45.949710412754371
 21
16.203016676839859
 31
0.0
  0
LINE
  5
5EEB
  8
0
 10
45.949710412754371
 20
16.203016676839859
 30
0.0
 11
46.220997797084799
 21
17.49485731190418
 31
0.0
  0
LINE
  5
5EEC
  8
0
 10
46.220997797084799
 20
17.49485731190418
 30
0.0
 11
46.556939591470602
 21
19.332714909876699
 31
0.0
  0
LINE
  5
5EED
  8
0
 10
47.695998465884927
 20
28.496767052336232
 30
0.0
 11
64.0
 21
28.496767052336232
 31
0.0
  0
LINE
  5
5EEE
  8
0
 10
47.738976409267707
 20
35.498097397428751
 30
0.0
 11
47.738976409267707
 21
28.862577397428652
 31
0.0
  0
LINE
  5
5EEF
  8
0
 10
32.256096409267457
 20
35.498097397428751
 30
0.0
 11
32.256096409267457
 21
28.862577397428652
 31
0.0
  0
LINE
  5
5EF0
  8
0
 10
32.625893999878031
 20
25.855076551553449
 30
0.0
 11
32.731384824622751
 21
24.710475128336839
 31
0.0
  0
LINE
  5
5EF1
  8
0
 10
32.731384824622751
 20
24.710475128336839
 30
0.0
 11
32.939383681429028
 21
22.809140144329032
 31
0.0
  0
LINE
  5
5EF2
  8
0
 10
32.939383681429028
 20
22.809140144329032
 30
0.0
 11
33.198840300027307
 21
20.860206756307321
 31
0.0
  0
LINE
  5
5EF3
  8
0
 10
33.198840300027307
 20
20.860206756307321
 30
0.0
 11
33.296370721091193
 21
20.212009848541701
 31
0.0
  0
LINE
  5
5EF4
  8
0
 10
32.256096409267457
 20
28.80481074910881
 30
0.0
 11
32.264160974024101
 21
28.706940098945442
 31
0.0
  0
LINE
  5
5EF5
  8
0
 10
32.264160974024101
 20
28.706940098945442
 30
0.0
 11
32.287460963467083
 21
28.559261635580238
 31
0.0
  0
LINE
  5
5EF6
  8
0
 10
32.287460963467083
 20
28.559261635580238
 30
0.0
 11
32.29813626306111
 21
28.499937434415529
 31
0.0
  0
LINE
  5
5EF7
  8
0
 10
32.29813626306111
 20
28.499937434415529
 30
0.0
 11
32.341576816881229
 21
28.26996712414871
 31
0.0
  0
LINE
  5
5EF8
  8
0
 10
32.341576816881229
 20
28.26996712414871
 30
0.0
 11
32.381266668826129
 21
28.058085425721629
 31
0.0
  0
LINE
  5
5EF9
  8
0
 10
32.381266668826129
 20
28.058085425721629
 30
0.0
 11
32.449764831391008
 21
27.655203632083381
 31
0.0
  0
LINE
  5
5EFA
  8
0
 10
32.449764831391008
 20
27.655203632083381
 30
0.0
 11
32.513539642076807
 21
27.182502020379051
 31
0.0
  0
LINE
  5
5EFB
  8
0
 10
32.513539642076807
 20
27.182502020379051
 30
0.0
 11
32.531135012306549
 21
27.014453788504511
 31
0.0
  0
LINE
  5
5EFC
  8
0
 10
32.531135012306549
 20
27.014453788504511
 30
0.0
 11
32.555318367883046
 21
26.723011002773891
 31
0.0
  0
LINE
  5
5EFD
  8
0
 10
32.555318367883046
 20
26.723011002773891
 30
0.0
 11
32.577439803080331
 21
26.440210328982062
 31
0.0
  0
LINE
  5
5EFE
  8
0
 10
32.577439803080331
 20
26.440210328982062
 30
0.0
 11
32.625893999878031
 21
25.855076551553449
 31
0.0
  0
LINE
  5
5EFF
  8
0
 10
47.152509307408081
 20
23.646436033593659
 30
0.0
 11
47.33642684284473
 21
25.482474438693199
 31
0.0
  0
LINE
  5
5F00
  8
0
 10
46.849277408763101
 20
21.230020327461261
 30
0.0
 11
46.935914380877307
 21
21.86393758973577
 31
0.0
  0
LINE
  5
5F01
  8
0
 10
46.935914380877307
 20
21.86393758973577
 30
0.0
 11
47.152509307408081
 21
23.646436033593659
 31
0.0
  0
LINE
  5
5F02
  8
0
 10
47.33642684284473
 20
25.482474438693199
 30
0.0
 11
47.389505026453087
 21
26.09521339250318
 31
0.0
  0
LINE
  5
5F03
  8
0
 10
47.389505026453087
 20
26.09521339250318
 30
0.0
 11
47.433078741335507
 21
26.636531472011711
 31
0.0
  0
LINE
  5
5F04
  8
0
 10
47.433078741335507
 20
26.636531472011711
 30
0.0
 11
47.453430245207407
 21
26.898055865913879
 31
0.0
  0
LINE
  5
5F05
  8
0
 10
47.453430245207407
 20
26.898055865913879
 30
0.0
 11
47.477834746813862
 21
27.14960822359695
 31
0.0
  0
LINE
  5
5F06
  8
0
 10
47.477834746813862
 20
27.14960822359695
 30
0.0
 11
47.53123064354326
 21
27.562824253129069
 31
0.0
  0
LINE
  5
5F07
  8
0
 10
47.53123064354326
 20
27.562824253129069
 30
0.0
 11
47.593240963292601
 21
27.94375358379671
 31
0.0
  0
LINE
  5
5F08
  8
0
 10
47.593240963292601
 20
27.94375358379671
 30
0.0
 11
47.613979683118487
 21
28.059032835682729
 31
0.0
  0
LINE
  5
5F09
  8
0
 10
47.613979683118487
 20
28.059032835682729
 30
0.0
 11
47.664464748641883
 21
28.328202140647711
 31
0.0
  0
LINE
  5
5F0A
  8
0
 10
47.664464748641883
 20
28.328202140647711
 30
0.0
 11
47.702329325706842
 21
28.530608949838211
 31
0.0
  0
LINE
  5
5F0B
  8
0
 10
47.702329325706842
 20
28.530608949838211
 30
0.0
 11
47.728887219810069
 21
28.69160260834974
 31
0.0
  0
LINE
  5
5F0C
  8
0
 10
47.728887219810069
 20
28.69160260834974
 30
0.0
 11
47.734228206444293
 21
28.733924461420891
 31
0.0
  0
LINE
  5
5F0D
  8
0
 10
47.734228206444293
 20
28.733924461420891
 30
0.0
 11
47.738411600072141
 21
28.822052689608999
 31
0.0
  0
LINE
  5
5F0E
  8
0
 10
47.738411600072141
 20
28.822052689608999
 30
0.0
 11
47.729719348485673
 21
28.85644142222986
 31
0.0
  0
LINE
  5
5F0F
  8
0
 10
47.729719348485673
 20
28.85644142222986
 30
0.0
 11
47.720683113201282
 21
28.862078995227201
 31
0.0
  0
LINE
  5
5F10
  8
0
 10
32.256096409267457
 20
35.498097397428751
 30
0.0
 11
47.738976409267707
 21
35.498097397428751
 31
0.0
  0
LINE
  5
5F11
  8
µę˝u
 10
33.997684130663863
 20
36.397949558675293
 30
0.0
 11
45.997683968791982
 21
36.395978537167252
 31
0.0
  0
LINE
  5
5F12
  8
µę˝u
 10
33.997684130663863
 20
36.397949558675293
 30
0.0
 11
33.097536316191061
 21
35.498097397428687
 31
0.0
  0
LINE
  5
5F13
  8
µę˝u
 10
45.997683968791982
 20
36.395978537167252
 30
0.0
 11
46.897536130038581
 21
35.495830722694393
 31
0.0
  0
LINE
  5
5F14
  8
µę˝u
 10
33.999885104681198
 20
49.797949377918428
 30
0.0
 11
45.999884942809331
 21
49.795978356410387
 31
0.0
  0
LINE
  5
5F15
  8
µę˝u
 10
33.999885104681198
 20
49.797949377918428
 30
0.0
 11
33.300000090378383
 21
50.498064344730317
 31
0.0
  0
LINE
  5
5F16
  8
µę˝u
 10
45.999884942809331
 20
49.795978356410387
 30
0.0
 11
46.699999909621738
 21
50.495863370712982
 31
0.0
  0
LINE
  5
5F17
  8
0
 10
80.0
 20
0.0000000000000284
 30
0.0
 11
80.0
 21
49.0
 31
0.0
  0
LINE
  5
5F18
  8
¤¤¤ß˝u
 10
74.0
 20
24.389737364747251
 30
0.0
 11
74.0
 21
35.610262635252752
 31
0.0
  0
CIRCLE
  5
5F19
  8
0
 10
74.0
 20
30.0
 30
0.0
 40
0.75
  0
ENDBLK
  5
5F1B
  8
0
  0
BLOCK
  8
0
  2
*U2
 70
     1
 10
0.0
 20
0.0
 30
0.0
  3
*U2
  1

  0
TEXT
  5
66AC
  8
0
 10
-556.15139687764974
 20
-39.052888207008458
 30
0.0
 40
7.8000001593418631
  1
HGW45HC
  0
TEXT
  5
66AD
  8
0
 10
-556.37071916042862
 20
-52.151302317414917
 30
0.0
 40
7.8000001593418631
  1
C : 9640 kgf
  0
TEXT
  5
66AE
  8
0
 10
-556.37071916042862
 20
-65.349329796835406
 30
0.0
 40
7.8000001593418631
  1
C
  0
TEXT
  5
66AF
  8
0
 10
-548.68881561489081
 20
-60.539329698574591
 30
0.0
 40
5.4600001115393031
  1

  0
TEXT
  5
66B0
  8
0
 10
-549.51743351799701
 20
-67.811931473158779
 30
0.0
 40
5.4600001115393031
  1
0
  0
TEXT
  5
66B1
  8
0
 10
-545.07840903707086
 20
-65.35049979685931
 30
0.0
 40
7.8023401593896651
  1
: 21120 kgf
  0
ENDBLK
  5
66B3
  8
0
  0
ENDSEC
  0
SECTION
  2
ENTITIES
  0
INSERT
  5
6000
  8
0
  2
*U2
 10
0.0
 20
0.0
 30
0.0
  0
LINE
  5
63D1
  8
0
 10
-204.5959344212354
 20
41.437800484136908
 30
0.0
 11
-187.89193228326889
 21
41.437800484136908
 31
0.0
  0
LINE
  5
63D2
  8
0
 10
-284.59593442123548
 20
41.437800484136908
 30
0.0
 11
-219.99319775043429
 21
41.437800484136908
 31
0.0
  0
LINE
  5
63D3
  8
0
 10
-405.16025315514452
 20
155.7256826720197
 30
0.0
 11
-405.16025315514452
 21
200.72641009299491
 31
0.0
  0
LINE
  5
63D4
  8
0
 10
-166.6919322832689
 20
146.0768630433322
 30
0.0
 11
-166.6919322832689
 21
142.375229725602
 31
0.0
  0
ARC
  5
63D5
  8
0
 10
-168.94965409183391
 20
139.41204408640141
 30
0.0
 40
2.2580177488916551
 50
285.96302216882867
 51
359.07235721200408
  0
ARC
  5
63D6
  8
0
 10
-168.94965409183391
 20
142.41178638628409
 30
0.0
 40
2.2580177488916551
 50
285.96302216882867
 51
359.07235721200408
  0
LINE
  5
63D7
  8
0
 10
-166.6919322832689
 20
143.0771207434498
 30
0.0
 11
-166.6919322832689
 21
139.3754874257196
 31
0.0
  0
ARC
  5
63D8
  8
0
 10
-168.94965409183391
 20
146.0403063826505
 30
0.0
 40
2.2580177488916551
 50
0.9276427879958514
 51
74.036977831171299
  0
LINE
  5
63D9
  8
0
 10
-168.3286610172679
 20
137.22612994467841
 30
0.0
 11
-187.89193228326911
 21
137.22612994467841
 31
0.0
  0
ARC
  5
63DA
  8
0
 10
-168.94965409183391
 20
217.040564078502
 30
0.0
 40
2.2580177488916551
 50
0.9276427879958514
 51
74.036977831171299
  0
LINE
  5
63DB
  8
0
 10
-166.6919322832689
 20
214.07686303941239
 30
0.0
 11
-166.6919322832689
 21
210.3752297216819
 31
0.0
  0
ARC
  5
63DC
  8
0
 10
-168.94965409183391
 20
214.04030637873049
 30
0.0
 40
2.2580177488916551
 50
0.9276427879958514
 51
74.036977831171299
  0
LINE
  5
63DD
  8
0
 10
-166.6919322832689
 20
217.0771207391839
 30
0.0
 11
-166.6919322832689
 21
213.37548742145341
 31
0.0
  0
ARC
  5
63DE
  8
0
 10
-168.94965409183391
 20
210.41178638236411
 30
0.0
 40
2.2580177488916551
 50
285.96302216882867
 51
359.07235721200408
  0
LINE
  5
63DF
  8
0
 10
-170.82866101726771
 20
137.2261186528126
 30
0.0
 11
-170.82866101726771
 21
219.22611864870791
 31
0.0
  0
LINE
  5
63E0
  8
0
 10
-168.3286610172679
 20
137.22612994467841
 30
0.0
 11
-168.3286610172679
 21
219.22612994067109
 31
0.0
  0
LINE
  5
63E1
  8
0
 10
-168.3286610172679
 20
219.22612994067109
 30
0.0
 11
-187.89193228326889
 21
219.22612994067109
 31
0.0
  0
LINE
  5
63E2
  8
0
 10
-336.25520354926959
 20
137.22612994467841
 30
0.0
 11
-316.6919322832685
 21
137.22612994467841
 31
0.0
  0
LINE
  5
63E3
  8
0
 10
-336.25520354926959
 20
219.22612994067109
 30
0.0
 11
-316.69193228326873
 21
219.22612994067109
 31
0.0
  0
LINE
  5
63E4
  8
0
 10
-337.2919322832692
 20
50.1196829973278
 30
0.0
 11
-337.2919322832692
 21
49.941923297132462
 31
0.0
  0
POINT
  5
63E5
  8
0
 10
-349.46381478326879
 20
54.941923297132462
 30
0.0
1001
PNTFLAG
1000
endpoint
  0
LINE
  5
63E6
  8
0
 10
-345.12282978326908
 20
54.941923297132462
 30
0.0
 11
-345.16258728326869
 21
54.505003297132468
 31
0.0
  0
LINE
  5
63E7
  8
0
 10
-345.16258728326869
 20
54.505003297132468
 30
0.0
 11
-345.28033103326879
 21
54.084873297132383
 31
0.0
  0
LINE
  5
63E8
  8
0
 10
-345.16258728326869
 20
55.378843297132448
 30
0.0
 11
-345.12282978326908
 21
54.941923297132462
 31
0.0
  0
LINE
  5
63E9
  8
0
 10
-345.28033103326879
 20
54.084873297132383
 30
0.0
 11
-345.47153603326899
 21
53.697679547132573
 31
0.0
  0
LINE
  5
63EA
  8
0
 10
-345.28033103326879
 20
55.798973297132527
 30
0.0
 11
-345.16258728326869
 21
55.378843297132448
 31
0.0
  0
LINE
  5
63EB
  8
0
 10
-345.47153603326899
 20
53.697679547132573
 30
0.0
 11
-345.7288560332691
 21
53.358300797132642
 31
0.0
  0
LINE
  5
63EC
  8
0
 10
-345.47153603326899
 20
56.186167047132471
 30
0.0
 11
-345.28033103326879
 21
55.798973297132527
 31
0.0
  0
LINE
  5
63ED
  8
0
 10
-346.0423997832691
 20
53.079780797132571
 30
0.0
 11
-345.7288560332691
 21
53.358300797132642
 31
0.0
  0
LINE
  5
63EE
  8
0
 10
-345.7288560332691
 20
56.52554454713254
 30
0.0
 11
-345.47153603326899
 21
56.186167047132471
 31
0.0
  0
LINE
  5
63EF
  8
0
 10
-343.56624978326897
 20
54.941923297132462
 30
0.0
 11
-343.62290978326899
 21
54.319245797132453
 31
0.0
  0
LINE
  5
63F0
  8
0
 10
-343.62290978326899
 20
54.319245797132453
 30
0.0
 11
-343.79071353326879
 21
53.72049704713254
 31
0.0
  0
LINE
  5
63F1
  8
0
 10
-343.62290978326899
 20
55.564600797132471
 30
0.0
 11
-343.56624978326897
 21
54.941923297132462
 31
0.0
  0
LINE
  5
63F2
  8
0
 10
-346.40012103326882
 20
52.87282079713259
 30
0.0
 11
-346.0423997832691
 21
53.079780797132571
 31
0.0
  0
LINE
  5
63F3
  8
0
 10
-346.0423997832691
 20
56.804065797132353
 30
0.0
 11
-345.7288560332691
 21
56.52554454713254
 31
0.0
  0
LINE
  5
63F4
  8
0
 10
-343.79071353326879
 20
53.72049704713254
 30
0.0
 11
-344.06320978326892
 21
53.168688297132462
 31
0.0
  0
LINE
  5
63F5
  8
0
 10
-343.79071353326879
 20
56.163348297132423
 30
0.0
 11
-343.62290978326899
 21
55.564600797132471
 31
0.0
  0
LINE
  5
63F6
  8
0
 10
-344.06320978326892
 20
53.168688297132462
 30
0.0
 11
-344.42992853326882
 21
52.685023297132368
 31
0.0
  0
LINE
  5
63F7
  8
0
 10
-344.06320978326892
 20
56.715158297132461
 30
0.0
 11
-343.79071353326879
 21
56.163348297132423
 31
0.0
  0
LINE
  5
63F8
  8
0
 10
-346.78826978326879
 20
52.74537579713251
 30
0.0
 11
-346.40012103326882
 21
52.87282079713259
 31
0.0
  0
LINE
  5
63F9
  8
0
 10
-346.40012103326882
 20
57.011024547132358
 30
0.0
 11
-346.0423997832691
 21
56.804065797132353
 31
0.0
  0
LINE
  5
63FA
  8
0
 10
-344.87677728326878
 20
52.288089547132472
 30
0.0
 11
-344.42992853326882
 21
52.685023297132368
 31
0.0
  0
LINE
  5
63FB
  8
0
 10
-344.42992853326882
 20
57.198823297132549
 30
0.0
 11
-344.06320978326892
 21
56.715158297132461
 31
0.0
  0
LINE
  5
63FC
  8
0
 10
-343.41162478326902
 20
54.941923297132462
 30
0.0
 11
-343.46766603326881
 21
54.326045797132451
 31
0.0
  0
LINE
  5
63FD
  8
0
 10
-347.19193103326882
 20
52.702343297132529
 30
0.0
 11
-346.78826978326879
 21
52.74537579713251
 31
0.0
  0
LINE
  5
63FE
  8
0
 10
-346.78826978326879
 20
57.138469547132438
 30
0.0
 11
-346.40012103326882
 21
57.011024547132358
 31
0.0
  0
LINE
  5
63FF
  8
0
 10
-343.46766603326881
 20
54.326045797132451
 30
0.0
 11
-343.63363603326923
 21
53.733835797132542
 31
0.0
  0
LINE
  5
6400
  8
0
 10
-343.46766603326881
 20
55.557800797132472
 30
0.0
 11
-343.41162478326902
 21
54.941923297132462
 31
0.0
  0
LINE
  5
6401
  8
0
 10
-345.38658228326921
 20
51.993140797132462
 30
0.0
 11
-344.87677728326878
 21
52.288089547132472
 31
0.0
  0
LINE
  5
6402
  8
0
 10
-344.87677728326878
 20
57.595757047132452
 30
0.0
 11
-344.42992853326882
 21
57.198823297132549
 31
0.0
  0
LINE
  5
6403
  8
0
 10
-343.63363603326923
 20
53.733835797132542
 30
0.0
 11
-343.9031572832688
 21
53.188052047132487
 31
0.0
  0
LINE
  5
6404
  8
0
 10
-343.63363603326923
 20
56.150010797132381
 30
0.0
 11
-343.46766603326881
 21
55.557800797132472
 31
0.0
  0
LINE
  5
6405
  8
0
 10
-343.9031572832688
 20
53.188052047132487
 30
0.0
 11
-344.26587103326881
 21
52.709668297132453
 31
0.0
  0
LINE
  5
6406
  8
0
 10
-343.9031572832688
 20
56.695794547132429
 30
0.0
 11
-343.63363603326923
 21
56.150010797132381
 31
0.0
  0
LINE
  5
6407
  8
0
 10
-345.9397535332688
 20
51.81151204713251
 30
0.0
 11
-345.38658228326921
 21
51.993140797132462
 31
0.0
  0
LINE
  5
6408
  8
0
 10
-345.38658228326921
 20
57.890705797132462
 30
0.0
 11
-344.87677728326878
 21
57.595757047132452
 31
0.0
  0
LINE
  5
6409
  8
0
 10
-347.59559353326893
 20
52.74537579713251
 30
0.0
 11
-347.19193103326882
 21
52.702343297132529
 31
0.0
  0
LINE
  5
640A
  8
0
 10
-347.19193103326882
 20
57.181502047132433
 30
0.0
 11
-346.78826978326879
 21
57.138469547132438
 31
0.0
  0
LINE
  5
640B
  8
0
 10
-344.70783978326881
 20
52.317069547132519
 30
0.0
 11
-344.26587103326881
 21
52.709668297132453
 31
0.0
  0
LINE
  5
640C
  8
0
 10
-344.26587103326881
 20
57.174178297132471
 30
0.0
 11
-343.9031572832688
 21
56.695794547132429
 31
0.0
  0
LINE
  5
640D
  8
0
 10
-346.51503228326902
 20
51.750184547132449
 30
0.0
 11
-345.9397535332688
 21
51.81151204713251
 31
0.0
  0
LINE
  5
640E
  8
0
 10
-345.9397535332688
 20
51.81151204713251
 30
0.0
 11
-345.7592085332688
 21
51.845697047132489
 31
0.0
  0
LINE
  5
640F
  8
0
 10
-345.9397535332688
 20
58.072333297132452
 30
0.0
 11
-345.38658228326921
 21
57.890705797132462
 31
0.0
  0
LINE
  5
6410
  8
0
 10
-347.98374228326901
 20
52.87282079713259
 30
0.0
 11
-347.59559353326893
 21
52.74537579713251
 31
0.0
  0
LINE
  5
6411
  8
0
 10
-347.59559353326893
 20
57.138469547132438
 30
0.0
 11
-347.19193103326882
 21
57.181502047132433
 31
0.0
  0
LINE
  5
6412
  8
0
 10
-345.21207853326888
 20
52.02534204713254
 30
0.0
 11
-344.70783978326881
 21
52.317069547132519
 31
0.0
  0
LINE
  5
6413
  8
0
 10
-344.70783978326881
 20
57.566777047132518
 30
0.0
 11
-344.26587103326881
 21
57.174178297132471
 31
0.0
  0
LINE
  5
6414
  8
0
 10
-345.7592085332688
 20
51.845697047132489
 30
0.0
 11
-345.21207853326888
 21
52.02534204713254
 31
0.0
  0
LINE
  5
6415
  8
0
 10
-345.21207853326888
 20
57.858504547132497
 30
0.0
 11
-344.70783978326881
 21
57.566777047132518
 31
0.0
  0
LINE
  5
6416
  8
0
 10
-347.09031103326907
 20
51.81151204713251
 30
0.0
 11
-346.51503228326902
 21
51.750184547132449
 31
0.0
  0
LINE
  5
6417
  8
0
 10
-346.51503228326902
 20
58.133662047132468
 30
0.0
 11
-345.9397535332688
 21
58.072333297132452
 31
0.0
  0
LINE
  5
6418
  8
0
 10
-345.9397535332688
 20
58.072333297132452
 30
0.0
 11
-345.7592085332688
 21
58.038149547132427
 31
0.0
  0
LINE
  5
6419
  8
0
 10
-348.34146353326912
 20
53.079780797132571
 30
0.0
 11
-347.98374228326901
 21
52.87282079713259
 31
0.0
  0
LINE
  5
641A
  8
0
 10
-347.98374228326901
 20
57.011024547132358
 30
0.0
 11
-347.59559353326893
 21
57.138469547132438
 31
0.0
  0
LINE
  5
641B
  8
0
 10
-345.7592085332688
 20
58.038149547132427
 30
0.0
 11
-345.21207853326888
 21
57.858504547132497
 31
0.0
  0
LINE
  5
641C
  8
0
 10
-348.65500728326907
 20
53.358300797132642
 30
0.0
 11
-348.34146353326912
 21
53.079780797132571
 31
0.0
  0
LINE
  5
641D
  8
0
 10
-348.34146353326912
 20
56.804065797132353
 30
0.0
 11
-347.98374228326901
 21
57.011024547132358
 31
0.0
  0
LINE
  5
641E
  8
0
 10
-347.64348228326878
 20
51.993140797132462
 30
0.0
 11
-347.09031103326907
 21
51.81151204713251
 31
0.0
  0
LINE
  5
641F
  8
0
 10
-347.09031103326907
 20
58.072333297132452
 30
0.0
 11
-346.51503228326902
 21
58.133662047132468
 31
0.0
  0
LINE
  5
6420
  8
0
 10
-348.91232728326889
 20
53.697679547132573
 30
0.0
 11
-348.65500728326907
 21
53.358300797132642
 31
0.0
  0
LINE
  5
6421
  8
0
 10
-348.65500728326907
 20
56.52554454713254
 30
0.0
 11
-348.34146353326912
 21
56.804065797132353
 31
0.0
  0
LINE
  5
6422
  8
0
 10
-348.15328853326878
 20
52.288089547132472
 30
0.0
 11
-347.64348228326878
 21
51.993140797132462
 31
0.0
  0
LINE
  5
6423
  8
0
 10
-347.64348228326878
 20
57.890705797132462
 30
0.0
 11
-347.09031103326907
 21
58.072333297132452
 31
0.0
  0
LINE
  5
6424
  8
0
 10
-349.10353228326909
 20
54.084873297132383
 30
0.0
 11
-348.91232728326889
 21
53.697679547132573
 31
0.0
  0
LINE
  5
6425
  8
0
 10
-348.65500728326907
 20
56.52554454713254
 30
0.0
 11
-348.91232728326889
 21
56.186167047132471
 31
0.0
  0
LINE
  5
6426
  8
0
 10
-348.60013603326883
 20
52.685023297132368
 30
0.0
 11
-348.15328853326878
 21
52.288089547132472
 31
0.0
  0
LINE
  5
6427
  8
0
 10
-348.15328853326878
 20
57.595757047132452
 30
0.0
 11
-347.64348228326878
 21
57.890705797132462
 31
0.0
  0
LINE
  5
6428
  8
0
 10
-349.22127603326902
 20
54.505003297132468
 30
0.0
 11
-349.10353228326909
 21
54.084873297132383
 31
0.0
  0
LINE
  5
6429
  8
0
 10
-348.91232728326889
 20
56.186167047132471
 30
0.0
 11
-349.10353228326909
 21
55.798973297132527
 31
0.0
  0
LINE
  5
642A
  8
0
 10
-349.26103353326909
 20
54.941923297132462
 30
0.0
 11
-349.22127603326902
 21
54.505003297132468
 31
0.0
  0
LINE
  5
642B
  8
0
 10
-349.10353228326909
 20
55.798973297132527
 30
0.0
 11
-349.22127603326902
 21
55.378843297132448
 31
0.0
  0
LINE
  5
642C
  8
0
 10
-349.22127603326902
 20
55.378843297132448
 30
0.0
 11
-349.26103353326909
 21
54.941923297132462
 31
0.0
  0
LINE
  5
642D
  8
0
 10
-348.96685603326881
 20
53.168688297132462
 30
0.0
 11
-348.60013603326883
 21
52.685023297132368
 31
0.0
  0
LINE
  5
642E
  8
0
 10
-348.60013603326883
 20
57.198823297132549
 30
0.0
 11
-348.15328853326878
 21
57.595757047132452
 31
0.0
  0
LINE
  5
642F
  8
0
 10
-349.23935228326877
 20
53.72049704713254
 30
0.0
 11
-348.96685603326881
 21
53.168688297132462
 31
0.0
  0
LINE
  5
6430
  8
0
 10
-348.60013603326883
 20
57.198823297132549
 30
0.0
 11
-348.96685603326881
 21
56.715158297132461
 31
0.0
  0
LINE
  5
6431
  8
0
 10
-349.40715478326882
 20
54.319245797132453
 30
0.0
 11
-349.23935228326877
 21
53.72049704713254
 31
0.0
  0
LINE
  5
6432
  8
0
 10
-348.96685603326881
 20
56.715158297132461
 30
0.0
 11
-349.23935228326877
 21
56.163348297132423
 31
0.0
  0
LINE
  5
6433
  8
0
 10
-349.46381478326879
 20
54.941923297132462
 30
0.0
 11
-349.40715478326882
 21
54.319245797132453
 31
0.0
  0
LINE
  5
6434
  8
0
 10
-349.23935228326877
 20
56.163348297132423
 30
0.0
 11
-349.40715478326882
 21
55.564600797132471
 31
0.0
  0
LINE
  5
6435
  8
0
 10
-349.40715478326882
 20
55.564600797132471
 30
0.0
 11
-349.46381478326879
 21
54.941923297132462
 31
0.0
  0
LINE
  5
6436
  8
0
 10
-348.0162672832688
 20
52.891638297132431
 30
0.0
 11
-348.01255353326889
 21
52.893658297132561
 31
0.0
  0
LINE
  5
6437
  8
0
 10
-348.0162672832688
 20
56.99220704713241
 30
0.0
 11
-348.01255353326889
 21
56.990188297132363
 31
0.0
  0
LINE
  5
6438
  8
0
 10
-340.9218485332691
 20
54.941923297132462
 30
0.0
 11
-340.98841853326923
 21
54.210334547132447
 31
0.0
  0
LINE
  5
6439
  8
0
 10
-340.98841853326923
 20
55.67351204713259
 30
0.0
 11
-340.9218485332691
 21
54.941923297132462
 31
0.0
  0
LINE
  5
643A
  8
0
 10
-340.98841853326923
 20
54.210334547132447
 30
0.0
 11
-341.18557103326901
 21
53.506859547132528
 31
0.0
  0
LINE
  5
643B
  8
0
 10
-341.18557103326901
 20
56.37698579713242
 30
0.0
 11
-340.98841853326923
 21
55.67351204713259
 31
0.0
  0
LINE
  5
643C
  8
0
 10
-341.18557103326901
 20
53.506859547132528
 30
0.0
 11
-341.50572978326898
 21
52.858534547132422
 31
0.0
  0
LINE
  5
643D
  8
0
 10
-341.50572978326898
 20
57.02531079713242
 30
0.0
 11
-341.18557103326901
 21
56.37698579713242
 31
0.0
  0
LINE
  5
643E
  8
0
 10
-341.50572978326898
 20
52.858534547132422
 30
0.0
 11
-341.93659103326883
 21
52.290272047132468
 31
0.0
  0
LINE
  5
643F
  8
0
 10
-341.93659103326883
 20
57.59357329713248
 30
0.0
 11
-341.50572978326898
 21
57.02531079713242
 31
0.0
  0
LINE
  5
6440
  8
0
 10
-340.3858810332689
 20
54.941923297132462
 30
0.0
 11
-342.38613853326899
 21
51.191923297132462
 31
0.0
  0
LINE
  5
6441
  8
0
 10
-342.38613853326899
 20
58.691923297132462
 30
0.0
 11
-340.3858810332689
 21
54.941923297132462
 31
0.0
  0
LINE
  5
6442
  8
0
 10
-342.46159603326868
 20
51.82391204713258
 30
0.0
 11
-341.93659103326883
 21
52.290272047132468
 31
0.0
  0
LINE
  5
6443
  8
0
 10
-342.46159603326868
 20
58.05993454713245
 30
0.0
 11
-341.93659103326883
 21
57.59357329713248
 31
0.0
  0
LINE
  5
6444
  8
0
 10
-343.0605710332689
 20
51.477374547132513
 30
0.0
 11
-342.46159603326868
 21
51.82391204713258
 31
0.0
  0
LINE
  5
6445
  8
0
 10
-343.0605710332689
 20
58.406470797132442
 30
0.0
 11
-342.46159603326868
 21
58.05993454713245
 31
0.0
  0
LINE
  5
6446
  8
0
 10
-343.71049603326878
 20
51.263978297132553
 30
0.0
 11
-343.0605710332689
 21
51.477374547132513
 31
0.0
  0
LINE
  5
6447
  8
0
 10
-343.71049603326878
 20
58.619868297132371
 30
0.0
 11
-343.0605710332689
 21
58.406470797132442
 31
0.0
  0
LINE
  5
6448
  8
0
 10
-344.38639603326902
 20
51.191923297132462
 30
0.0
 11
-343.71049603326878
 21
51.263978297132553
 31
0.0
  0
LINE
  5
6449
  8
0
 10
-344.38639603326902
 20
58.691923297132462
 30
0.0
 11
-343.71049603326878
 21
58.619868297132371
 31
0.0
  0
LINE
  5
644A
  8
0
 10
-345.06229603326881
 20
51.263978297132553
 30
0.0
 11
-344.38639603326902
 21
51.191923297132462
 31
0.0
  0
LINE
  5
644B
  8
0
 10
-345.06229603326881
 20
58.619868297132371
 30
0.0
 11
-344.38639603326902
 21
58.691923297132462
 31
0.0
  0
LINE
  5
644C
  8
0
 10
-345.71222103326897
 20
51.477374547132513
 30
0.0
 11
-345.06229603326881
 21
51.263978297132553
 31
0.0
  0
LINE
  5
644D
  8
0
 10
-345.71222103326897
 20
58.406470797132442
 30
0.0
 11
-345.06229603326881
 21
58.619868297132371
 31
0.0
  0
LINE
  5
644E
  8
0
 10
-346.23530478326882
 20
51.780004547132528
 30
0.0
 11
-345.71222103326897
 21
51.477374547132513
 31
0.0
  0
LINE
  5
644F
  8
0
 10
-346.23530478326882
 20
58.10384079713242
 30
0.0
 11
-345.71222103326897
 21
58.406470797132442
 31
0.0
  0
LINE
  5
6450
  8
0
 10
-339.51167603326923
 20
54.941923297132462
 30
0.0
 11
-341.51193353326892
 21
51.191923297132462
 31
0.0
  0
LINE
  5
6451
  8
0
 10
-341.51193353326892
 20
51.191923297132462
 30
0.0
 11
-346.38665353326923
 21
51.191923297132462
 31
0.0
  0
LINE
  5
6452
  8
0
 10
-341.51193353326892
 20
58.691923297132462
 30
0.0
 11
-339.51167603326923
 21
54.941923297132462
 31
0.0
  0
LINE
  5
6453
  8
0
 10
-340.3858810332689
 20
54.941923297132462
 30
0.0
 11
-339.51167603326923
 21
54.941923297132462
 31
0.0
  0
LINE
  5
6454
  8
0
 10
-346.38665353326923
 20
58.691923297132462
 30
0.0
 11
-346.69464478326881
 21
58.114514547132437
 31
0.0
  0
LINE
  5
6455
  8
0
 10
-346.69464478326881
 20
51.76933204713248
 30
0.0
 11
-346.38665353326923
 21
51.191923297132462
 31
0.0
  0
LINE
  5
6456
  8
0
 10
-346.38665353326923
 20
58.691923297132462
 30
0.0
 11
-341.51193353326892
 21
58.691923297132462
 31
0.0
  0
LINE
  5
6457
  8
0
 10
-337.2919322832692
 20
59.941923297132462
 30
0.0
 11
-337.2919322832692
 21
55.762383866273467
 31
0.0
  0
LINE
  5
6458
  8
0
 10
-341.97735728326921
 20
49.941923297132462
 30
0.0
 11
-337.19311878105879
 21
49.941923297132462
 31
0.0
  0
LINE
  5
6459
  8
0
 10
-335.891932283269
 20
59.941923297132462
 30
0.0
 11
-341.97735728326921
 21
59.941923297132462
 31
0.0
  0
ARC
  5
645A
  8
0
 10
-341.97735728326921
 20
54.941923297132462
 30
0.0
 40
4.99999999999996
 50
228.5903779972968
 51
270.0
  0
ARC
  5
645B
  8
0
 10
-341.97735728326921
 20
54.941923297132462
 30
0.0
 40
4.99999999999996
 50
90.0
 51
131.40962199960231
  0
POLYLINE
  5
645C
  8
0
 66
     1
 10
0.0
 20
0.0
 30
0.0
  0
VERTEX
  5
677A
  8
0
 10
-346.45282853326881
 20
54.941923297132398
 30
0.0
  0
VERTEX
  5
677B
  8
0
 10
-346.49385103326881
 20
55.20474204713247
 30
0.0
  0
VERTEX
  5
677C
  8
0
 10
-346.54903478326878
 20
55.336600797132462
 30
0.0
  0
VERTEX
  5
677D
  8
0
 10
-346.62782603326878
 20
55.458824547132451
 30
0.0
  0
VERTEX
  5
677E
  8
0
 10
-346.72717103326897
 20
55.563965797132433
 30
0.0
  0
VERTEX
  5
677F
  8
0
 10
-346.8415347832688
 20
55.646307047132439
 30
0.0
  0
VERTEX
  5
6780
  8
0
 10
-346.96393478326883
 20
55.702908297132353
 30
0.0
  0
VERTEX
  5
6781
  8
0
 10
-347.12972978326877
 20
55.73908454713245
 30
0.0
  0
VERTEX
  5
6782
  8
0
 10
-347.28349103326877
 20
55.73576079713245
 30
0.0
  0
VERTEX
  5
6783
  8
0
 10
-347.41714603326898
 20
55.703878297132398
 30
0.0
  0
VERTEX
  5
6784
  8
0
 10
-347.5624022832688
 20
55.634168297132419
 30
0.0
  0
VERTEX
  5
6785
  8
0
 10
-347.7006147832688
 20
55.522307047132472
 30
0.0
  0
VERTEX
  5
6786
  8
0
 10
-347.81090228326877
 20
55.379119547132461
 30
0.0
  0
VERTEX
  5
6787
  8
0
 10
-347.88169478326881
 20
55.229320797132509
 30
0.0
  0
VERTEX
  5
6788
  8
0
 10
-347.91650853326888
 20
55.099750797132458
 30
0.0
  0
VERTEX
  5
6789
  8
0
 10
-347.93103478326901
 20
54.941923297132398
 30
0.0
  0
VERTEX
  5
678A
  8
0
 10
-347.89001228326879
 20
54.679104547132511
 30
0.0
  0
VERTEX
  5
678B
  8
0
 10
-347.83482728326879
 20
54.547244547132429
 30
0.0
  0
VERTEX
  5
678C
  8
0
 10
-347.75603728326899
 20
54.425022047132423
 30
0.0
  0
VERTEX
  5
678D
  8
0
 10
-347.65669228326902
 20
54.319880797132441
 30
0.0
  0
VERTEX
  5
678E
  8
0
 10
-347.5423285332688
 20
54.237539547132428
 30
0.0
  0
VERTEX
  5
678F
  8
0
 10
-347.41992853326889
 20
54.1809382971324
 30
0.0
  0
VERTEX
  5
6790
  8
0
 10
-347.25413353326883
 20
54.144760797132392
 30
0.0
  0
VERTEX
  5
6791
  8
0
 10
-347.10037228326883
 20
54.148085797132467
 30
0.0
  0
VERTEX
  5
6792
  8
0
 10
-346.96671728326902
 20
54.1799670471325
 30
0.0
  0
VERTEX
  5
6793
  8
0
 10
-346.82146103326897
 20
54.249677047132479
 30
0.0
  0
VERTEX
  5
6794
  8
0
 10
-346.68324853326902
 20
54.361539547132402
 30
0.0
  0
VERTEX
  5
6795
  8
0
 10
-346.57296103326911
 20
54.504725797132437
 30
0.0
  0
VERTEX
  5
6796
  8
0
 10
-346.5021685332689
 20
54.654524547132432
 30
0.0
  0
VERTEX
  5
6797
  8
0
 10
-346.46735353326909
 20
54.784095797132522
 30
0.0
  0
VERTEX
  5
6798
  8
0
 10
-346.45282853326881
 20
54.941923297132398
 30
0.0
  0
SEQEND
  5
6799
  8
0
  0
ARC
  5
645D
  8
0
 10
-333.59929228326888
 20
57.441923297132462
 30
0.0
 40
3.6926399999999688
 50
137.3885980021995
 51
200.6485887113607
  0
LINE
  5
645E
  8
0
 10
-171.19193228326819
 20
12.941033431800751
 30
0.0
 11
-171.19193228326819
 21
61.941033431800641
 31
0.0
  0
LINE
  5
645F
  8
0
 10
-333.39193228326889
 20
12.94103343180063
 30
0.0
 11
-333.39193228326889
 21
61.941033431800641
 31
0.0
  0
LINE
  5
6460
  8
0
 10
-333.39193228326889
 20
12.94103343180063
 30
0.0
 11
-333.39193228326889
 21
61.941033431800641
 31
0.0
  0
LINE
  5
6461
  8
0
 10
-333.39193228326889
 20
61.941033431800641
 30
0.0
 11
-335.891932283269
 21
61.941033431800641
 31
0.0
  0
LINE
  5
6462
  8
0
 10
-333.39193228326889
 20
58.941033431800633
 30
0.0
 11
-335.891932283269
 21
58.941033431800633
 31
0.0
  0
ARC
  5
6463
  8
0
 10
-335.27093920870288
 20
51.126773433617359
 30
0.0
 40
2.2580177488916551
 50
180.92764278799581
 51
254.03697783117121
  0
LINE
  5
6464
  8
0
 10
-337.52866101726789
 20
54.791850090665768
 30
0.0
 11
-337.52866101726789
 21
51.090216772935491
 31
0.0
  0
ARC
  5
6465
  8
0
 10
-335.27093920870288
 20
54.755293429983908
 30
0.0
 40
2.2580177488916551
 50
105.9630221688287
 51
179.07235721200411
  0
LINE
  5
6466
  8
0
 10
-337.891932283269
 20
42.991033431800588
 30
0.0
 11
-335.891932283269
 21
44.141033431800679
 31
0.0
  0
LINE
  5
6467
  8
0
 10
-337.89193228326877
 20
12.94167366909323
 30
0.0
 11
-337.891932283269
 21
42.991033431800588
 31
0.0
  0
ARC
  5
6468
  8
0
 10
-335.27093920870288
 20
30.755293429983912
 30
0.0
 40
2.2580177488916551
 50
105.9630221688287
 51
179.07235721200411
  0
ARC
  5
6469
  8
0
 10
-335.27093920870288
 20
27.126773433617359
 30
0.0
 40
2.2580177488916551
 50
180.92764278799581
 51
254.03697783117121
  0
LINE
  5
646A
  8
0
 10
-337.52866101726789
 20
30.791850090665768
 30
0.0
 11
-337.52866101726789
 21
27.090216772935491
 31
0.0
  0
LINE
  5
646B
  8
0
 10
-335.891932283269
 20
12.94103343180063
 30
0.0
 11
-335.891932283269
 21
61.941033431800641
 31
0.0
  0
LINE
  5
646C
  8
0
 10
-171.19193228326819
 20
61.941033431800641
 30
0.0
 11
-168.69193228326819
 21
61.941033431800641
 31
0.0
  0
LINE
  5
646D
  8
0
 10
-171.19193228326819
 20
58.94103343180074
 30
0.0
 11
-168.69193228326819
 21
58.94103343180074
 31
0.0
  0
ARC
  5
646E
  8
0
 10
-169.3129253578347
 20
51.126773433617473
 30
0.0
 40
2.2580177488916551
 50
285.96302216882867
 51
359.07235721200408
  0
LINE
  5
646F
  8
0
 10
-167.05520354926961
 20
54.791850090665889
 30
0.0
 11
-167.05520354926961
 21
51.090216772935612
 31
0.0
  0
ARC
  5
6470
  8
0
 10
-169.3129253578347
 20
54.755293429984022
 30
0.0
 40
2.2580177488916551
 50
0.9276427879958514
 51
74.036977831171299
  0
LINE
  5
6471
  8
0
 10
-166.69193228326819
 20
42.991033431800702
 30
0.0
 11
-168.69193228326819
 21
44.141033431800793
 31
0.0
  0
LINE
  5
6472
  8
0
 10
-166.69193228326799
 20
12.94167366909334
 30
0.0
 11
-166.69193228326819
 21
42.991033431800702
 31
0.0
  0
ARC
  5
6473
  8
0
 10
-169.3129253578347
 20
30.755293429984022
 30
0.0
 40
2.2580177488916551
 50
0.9276427879958514
 51
74.036977831171299
  0
ARC
  5
6474
  8
0
 10
-169.3129253578347
 20
27.126773433617469
 30
0.0
 40
2.2580177488916551
 50
285.96302216882867
 51
359.07235721200408
  0
LINE
  5
6475
  8
0
 10
-167.05520354926961
 20
30.791850090665889
 30
0.0
 11
-167.05520354926961
 21
27.090216772935491
 31
0.0
  0
LINE
  5
6476
  8
0
 10
-168.69193228326819
 20
12.941033431800751
 30
0.0
 11
-168.69193228326819
 21
61.941033431800641
 31
0.0
  0
LINE
  5
6477
  8
0
 10
-337.89162180526051
 20
18.941658145998868
 30
0.0
 11
-351.81676340862549
 21
18.941658145998868
 31
0.0
  0
LINE
  5
6478
  8
0
 10
-337.89162180526051
 20
22.941661669093492
 30
0.0
 11
-352.05065771141312
 21
22.941661669093381
 31
0.0
  0
LINE
  5
6479
  8
0
 10
-337.89162180526051
 20
24.041303442878188
 30
0.0
 11
-352.33673013048059
 21
24.041303442878188
 31
0.0
  0
LINE
  5
647A
  8
0
 10
-337.89162180526029
 20
27.409518957474241
 30
0.0
 11
-353.21297326999428
 21
27.409518957474241
 31
0.0
  0
LINE
  5
647B
  8
0
 10
-337.89162180526051
 20
31.24166756950547
 30
0.0
 11
-353.49532623018308
 21
31.24166756950547
 31
0.0
  0
LINE
  5
647C
  8
0
 10
-337.89162180526051
 20
33.041640884971002
 30
0.0
 11
-353.02549590312191
 21
33.041640884971002
 31
0.0
  0
LINE
  5
647D
  8
0
 10
-337.89162180526063
 20
36.874914676783881
 30
0.0
 11
-353.61614906143251
 21
36.874914676783881
 31
0.0
  0
LINE
  5
647E
  8
0
 10
-337.89162180526051
 20
40.241902875419328
 30
0.0
 11
-353.82341326826457
 21
40.241902875419207
 31
0.0
  0
LINE
  5
647F
  8
0
 10
-337.89162180526063
 20
41.441673669093348
 30
0.0
 11
-405.16025315514469
 21
41.441673669093348
 31
0.0
  0
LINE
  5
6480
  8
µę˝u
 10
-130.86056363315311
 20
41.04167366909337
 30
0.0
 11
-130.62962352547669
 21
41.441673669093348
 31
0.0
  0
LINE
  5
6481
  8
µę˝u
 10
-150.86056363315311
 20
41.04167366909337
 30
0.0
 11
-151.09150374082901
 21
41.441673669093348
 31
0.0
  0
LINE
  5
6482
  8
µę˝u
 10
-150.86056363315311
 20
41.04167366909337
 30
0.0
 11
-130.86056363315311
 21
41.04167366909337
 31
0.0
  0
LINE
  5
6483
  8
µę˝u
 10
-133.86056363315311
 20
24.14167366909339
 30
0.0
 11
-133.56056363315341
 21
24.441673669093351
 31
0.0
  0
LINE
  5
6484
  8
µę˝u
 10
-147.86056363315311
 20
24.14167366909339
 30
0.0
 11
-148.16056363315329
 21
24.441673669093351
 31
0.0
  0
LINE
  5
6485
  8
µę˝u
 10
-147.86056363315311
 20
24.14167366909339
 30
0.0
 11
-133.86056363315311
 21
24.14167366909339
 31
0.0
  0
LINE
  5
6486
  8
µę˝u
 10
-150.86056363315311
 20
24.441673669093351
 30
0.0
 11
-130.86056363315311
 21
24.441673669093351
 31
0.0
  0
LINE
  5
6487
  8
µę˝u
 10
-133.86056363315311
 20
4.1416736690933931
 30
0.0
 11
-133.1605636331528
 21
3.4416736690933472
 31
0.0
  0
LINE
  5
6488
  8
µę˝u
 10
-147.86056363315311
 20
4.1416736690933931
 30
0.0
 11
-148.56056363315309
 21
3.4416736690933472
 31
0.0
  0
LINE
  5
6489
  8
µę˝u
 10
-147.86056363315311
 20
4.1416736690933931
 30
0.0
 11
-133.86056363315311
 21
4.1416736690933931
 31
0.0
  0
LINE
  5
648A
  8
µę˝u
 10
-133.86056363315311
 20
24.14167366909339
 30
0.0
 11
-133.86056363315311
 21
4.1416736690933931
 31
0.0
  0
LINE
  5
648B
  8
µę˝u
 10
-147.86056363315311
 20
24.14167366909339
 30
0.0
 11
-147.86056363315311
 21
4.1416736690933931
 31
0.0
  0
LINE
  5
648C
  8
¤¤¤ß˝u
 10
-140.86056363315311
 20
1.4822525088561631
 30
0.0
 11
-140.86056363315311
 21
43.457147831958757
 31
0.0
  0
LINE
  5
648D
  8
0
 10
-118.36056363315311
 20
3.4416736690934608
 30
0.0
 11
-118.36056363315311
 21
41.441673669093348
 31
0.0
  0
LINE
  5
648E
  8
µę˝u
 10
-130.86056363315311
 20
41.04167366909337
 30
0.0
 11
-130.86056363315311
 21
24.441673669093351
 31
0.0
  0
LINE
  5
648F
  8
µę˝u
 10
-150.86056363315311
 20
41.04167366909337
 30
0.0
 11
-150.86056363315311
 21
24.441673669093351
 31
0.0
  0
LINE
  5
6490
  8
µę˝u
 10
-270.66025315514452
 20
4.1416736690933931
 30
0.0
 11
-269.96025315514441
 21
3.4416736690933472
 31
0.0
  0
LINE
  5
6491
  8
µę˝u
 10
-270.66025315514452
 20
12.94103343180063
 30
0.0
 11
-270.66025315514452
 21
4.1416736690933931
 31
0.0
  0
LINE
  5
6492
  8
µę˝u
 10
-284.66025315514452
 20
4.1416736690933931
 30
0.0
 11
-285.36025315514462
 21
3.4416736690933472
 31
0.0
  0
LINE
  5
6493
  8
µę˝u
 10
-284.66025315514452
 20
12.94103343180063
 30
0.0
 11
-284.66025315514452
 21
4.1416736690933931
 31
0.0
  0
LINE
  5
6494
  8
µę˝u
 10
-284.66025315514452
 20
4.1416736690933931
 30
0.0
 11
-270.66025315514452
 21
4.1416736690933931
 31
0.0
  0
LINE
  5
6495
  8
¤¤¤ß˝u
 10
-277.66025315514491
 20
1.4822525088561631
 30
0.0
 11
-277.66025315514491
 21
14.404928409308241
 31
0.0
  0
LINE
  5
6496
  8
«Řşc˝u
 10
-354.23532639264471
 20
38.654016372920523
 30
0.0
 11
-352.70688168353979
 21
34.262288127484453
 31
0.0
  0
LINE
  5
6497
  8
«Řşc˝u
 10
-352.70688168353979
 20
34.262288127484453
 30
0.0
 11
-353.8532140898136
 21
29.870558553845061
 31
0.0
  0
LINE
  5
6498
  8
«Řşc˝u
 10
-353.51218111446508
 20
41.441673669093348
 30
0.0
 11
-354.23532639264471
 21
38.654016372920523
 31
0.0
  0
LINE
  5
6499
  8
«Řşc˝u
 10
-351.36949537695989
 20
20.3233227179478
 30
0.0
 11
-353.47110403809239
 21
13.83120160574367
 31
0.0
  0
LINE
  5
649A
  8
«Řşc˝u
 10
-353.47110403809239
 20
13.83120160574367
 30
0.0
 11
-350.98858387305643
 21
3.4416736690934608
 31
0.0
  0
LINE
  5
649B
  8
«Řşc˝u
 10
-353.8532140898136
 20
29.870558553845061
 30
0.0
 11
-351.36949537695989
 21
20.3233227179478
 31
0.0
  0
LINE
  5
649C
  8
0
 10
-277.66025315514491
 20
5.7416841040763984
 30
0.0
 11
-351.5381576066423
 21
5.7416798236284867
 31
0.0
  0
LINE
  5
649D
  8
0
 10
-277.66025315514491
 20
10.641633373691549
 30
0.0
 11
-352.70897437232611
 21
10.641633373691549
 31
0.0
  0
LINE
  5
649E
  8
0
 10
-372.66025315514452
 20
41.04167366909337
 30
0.0
 11
-372.4293130474685
 21
41.441673669093348
 31
0.0
  0
LINE
  5
649F
  8
0
 10
-392.66025315514469
 20
41.04167366909337
 30
0.0
 11
-392.89119326282042
 21
41.441673669093348
 31
0.0
  0
LINE
  5
64A0
  8
0
 10
-392.66025315514469
 20
41.04167366909337
 30
0.0
 11
-372.66025315514452
 21
41.04167366909337
 31
0.0
  0
LINE
  5
64A1
  8
0
 10
-375.66025315514469
 20
24.14167366909339
 30
0.0
 11
-375.36025315514468
 21
24.441673669093351
 31
0.0
  0
LINE
  5
64A2
  8
0
 10
-389.66025315514469
 20
24.14167366909339
 30
0.0
 11
-389.9602531551447
 21
24.441673669093351
 31
0.0
  0
LINE
  5
64A3
  8
0
 10
-389.66025315514452
 20
24.14167366909339
 30
0.0
 11
-375.66025315514469
 21
24.14167366909339
 31
0.0
  0
LINE
  5
64A4
  8
0
 10
-375.66025315514469
 20
4.1416736690933931
 30
0.0
 11
-374.9602531551443
 21
3.4416736690933472
 31
0.0
  0
LINE
  5
64A5
  8
0
 10
-389.66025315514452
 20
4.1416736690933931
 30
0.0
 11
-390.36025315514468
 21
3.4416736690933472
 31
0.0
  0
LINE
  5
64A6
  8
0
 10
-389.66025315514452
 20
4.1416736690933931
 30
0.0
 11
-375.66025315514469
 21
4.1416736690933931
 31
0.0
  0
LINE
  5
64A7
  8
0
 10
-375.66025315514469
 20
24.14167366909339
 30
0.0
 11
-375.66025315514469
 21
4.1416736690933931
 31
0.0
  0
LINE
  5
64A8
  8
0
 10
-389.66025315514452
 20
24.14167366909339
 30
0.0
 11
-389.66025315514452
 21
4.1416736690933931
 31
0.0
  0
LINE
  5
64A9
  8
0
 10
-392.66025315514469
 20
24.441673669093351
 30
0.0
 11
-372.66025315514452
 21
24.441673669093351
 31
0.0
  0
LINE
  5
64AA
  8
¤¤¤ß˝u
 10
-382.66025315514469
 20
1.4822525088561631
 30
0.0
 11
-382.66025315514469
 21
43.457147831958757
 31
0.0
  0
LINE
  5
64AB
  8
0
 10
-405.16025315514469
 20
3.4416736690934608
 30
0.0
 11
-405.16025315514469
 21
41.441673669093348
 31
0.0
  0
LINE
  5
64AC
  8
0
 10
-372.66025315514452
 20
41.04167366909337
 30
0.0
 11
-372.66025315514452
 21
24.441673669093351
 31
0.0
  0
LINE
  5
64AD
  8
0
 10
-392.66025315514469
 20
41.04167366909337
 30
0.0
 11
-392.66025315514469
 21
24.441673669093351
 31
0.0
  0
LINE
  5
64AE
  8
0
 10
-277.66025315514491
 20
3.4416736690935741
 30
0.0
 11
-405.16025315514469
 21
3.4416736690934608
 31
0.0
  0
LINE
  5
64AF
  8
0
 10
-118.36056363315291
 20
41.441673669093447
 30
0.0
 11
-166.69193228326819
 21
41.441673669093447
 31
0.0
  0
LINE
  5
64B0
  8
0
 10
-118.36056363315291
 20
40.241902875418411
 30
0.0
 11
-166.69193228326819
 21
40.241902875418532
 31
0.0
  0
LINE
  5
64B1
  8
0
 10
-118.36056363315291
 20
36.874914676783881
 30
0.0
 11
-166.69193228326819
 21
36.874914676783987
 31
0.0
  0
LINE
  5
64B2
  8
0
 10
-118.36056363315291
 20
33.04164088497032
 30
0.0
 11
-166.69193228326819
 21
33.041640884970441
 31
0.0
  0
LINE
  5
64B3
  8
0
 10
-118.36056363315291
 20
31.24166756950558
 30
0.0
 11
-166.69193228326819
 21
31.24166756950558
 31
0.0
  0
LINE
  5
64B4
  8
0
 10
-118.36056363315291
 20
27.409518957474351
 30
0.0
 11
-166.69193228326799
 21
27.409518957474351
 31
0.0
  0
LINE
  5
64B5
  8
0
 10
-118.36056363315291
 20
24.041303442878071
 30
0.0
 11
-166.69193228326799
 21
24.041303442878188
 31
0.0
  0
LINE
  5
64B6
  8
0
 10
-118.36056363315291
 20
22.941661669093381
 30
0.0
 11
-166.69193228326799
 21
22.941661669093381
 31
0.0
  0
LINE
  5
64B7
  8
0
 10
-118.36056363315291
 20
18.9416581459983
 30
0.0
 11
-166.69193228326799
 21
18.941658145998641
 31
0.0
  0
LINE
  5
64B8
  8
0
 10
-118.36056363315311
 20
10.64163337369143
 30
0.0
 11
-277.66025315514491
 21
10.64163337369143
 31
0.0
  0
LINE
  5
64B9
  8
0
 10
-118.36056363315311
 20
5.7416695690897077
 30
0.0
 11
-277.66025315514491
 21
5.741669569089594
 31
0.0
  0
LINE
  5
64BA
  8
0
 10
-118.36056363315311
 20
3.4416736690934608
 30
0.0
 11
-277.66025315514491
 21
3.4416736690934608
 31
0.0
  0
LINE
  5
64BB
  8
0
 10
-492.06457854641292
 20
20.10147164373814
 30
0.0
 11
-494.86457854641299
 21
18.941673669093461
 31
0.0
  0
LINE
  5
64BC
  8
0
 10
-492.30174648151058
 20
23.170675356080888
 30
0.0
 11
-490.89693635131073
 21
22.949139889551809
 31
0.0
  0
LINE
  5
64BD
  8
0
 10
-494.03250170810651
 20
23.773372507400161
 30
0.0
 11
-492.30174648151058
 21
23.170675356080888
 31
0.0
  0
LINE
  5
64BE
  8
0
 10
-489.42171845350958
 20
26.050702484356179
 30
0.0
 11
-490.02441636700343
 21
27.781457901872159
 31
0.0
  0
LINE
  5
64BF
  8
0
 10
-489.20018272819061
 20
24.645891613198842
 30
0.0
 11
-489.42171845350958
 21
26.050702484356179
 31
0.0
  0
LINE
  5
64C0
  8
0
 10
-484.06457854641297
 20
29.781504473106569
 30
0.0
 11
-486.86457854641299
 21
30.941301061948138
 31
0.0
  0
LINE
  5
64C1
  8
0
 10
-486.86457854641287
 20
33.342007898355178
 30
0.0
 11
-484.06457854641292
 21
34.501803106123482
 31
0.0
  0
LINE
  5
64C2
  8
0
 10
-489.59216187883698
 20
38.403056747439109
 30
0.0
 11
-490.23938818012232
 21
36.71682891810088
 31
0.0
  0
LINE
  5
64C3
  8
0
 10
-489.31341191925338
 20
39.750654187639043
 30
0.0
 11
-489.59216187883698
 21
38.403056747439109
 31
0.0
  0
LINE
  5
64C4
  8
0
 10
-492.34073773377457
 20
41.151630843840053
 30
0.0
 11
-490.9931420686604
 21
41.430379531606938
 31
0.0
  0
LINE
  5
64C5
  8
0
 10
-494.02696534727659
 20
40.504407288544598
 30
0.0
 11
-492.34073773377457
 21
41.151630843840053
 31
0.0
  0
LINE
  5
64C6
  8
0
 10
-494.96422954637831
 20
41.441673669093348
 30
0.0
 11
-493.80442966298148
 21
44.241673669093409
 31
0.0
  0
LINE
  5
64C7
  8
0
 10
-523.76492754644789
 20
41.441673669093348
 30
0.0
 11
-524.92472742984512
 21
44.241673669093409
 31
0.0
  0
LINE
  5
64C8
  8
0
 10
-526.38457501010771
 20
41.155475201731292
 30
0.0
 11
-524.69746996600134
 21
40.509129079082641
 31
0.0
  0
LINE
  5
64C9
  8
0
 10
-527.73326537035484
 20
41.433129191817208
 30
0.0
 11
-526.38457501010771
 21
41.155475201731292
 31
0.0
  0
LINE
  5
64CA
  8
0
 10
-529.13592357986272
 20
38.404128385180677
 30
0.0
 11
-528.48957470816208
 21
36.717023123297402
 31
0.0
  0
LINE
  5
64CB
  8
0
 10
-529.41357884270224
 20
39.75282052581781
 30
0.0
 11
-529.13592357986272
 21
38.404128385180677
 31
0.0
  0
LINE
  5
64CC
  8
0
 10
-531.86457854641276
 20
33.342007898355753
 30
0.0
 11
-534.66457854641294
 21
34.501803106124271
 31
0.0
  0
LINE
  5
64CD
  8
0
 10
-534.66457854641294
 20
29.781504473106111
 30
0.0
 11
-531.86457854641276
 21
30.941301061947801
 31
0.0
  0
LINE
  5
64CE
  8
0
 10
-529.30688589010151
 20
26.05014973420748
 30
0.0
 11
-529.52715327657825
 21
24.644070522064681
 31
0.0
  0
LINE
  5
64CF
  8
0
 10
-529.30688589010151
 20
26.05014973420748
 30
0.0
 11
-528.70514407210567
 21
27.781861248837121
 31
0.0
  0
LINE
  5
64D0
  8
0
 10
-526.42424116967538
 20
23.167505914440309
 30
0.0
 11
-524.69250989414616
 21
23.781881201693519
 31
0.0
  0
LINE
  5
64D1
  8
0
 10
-526.42424116967538
 20
23.167505914440198
 30
0.0
 11
-527.83031963794338
 21
22.94723878597938
 31
0.0
  0
LINE
  5
64D2
  8
0
 10
-526.66457854641271
 20
21.78149769444849
 30
0.0
 11
-523.86457854641276
 21
22.941295669093169
 31
0.0
  0
LINE
  5
64D3
  8
0
 10
-526.66457854641271
 20
20.101471643738371
 30
0.0
 11
-523.86457854641264
 21
18.941673669093689
 31
0.0
  0
LINE
  5
64D4
  8
0
 10
-484.90478057176807
 20
12.94167366909323
 30
0.0
 11
-492.06457854641292
 21
20.10147164373814
 31
0.0
  0
LINE
  5
64D5
  8
0
 10
-492.06457854641292
 20
21.781497694449168
 30
0.0
 11
-492.06457854641292
 21
20.10147164373814
 31
0.0
  0
LINE
  5
64D6
  8
0
 10
-492.06457854641292
 20
21.781497694449168
 30
0.0
 11
-490.89693635131027
 21
22.949139889552271
 31
0.0
  0
ARC
  5
64D7
  8
0
 10
-490.03250989637479
 20
23.78146609003284
 30
0.0
 40
1.2
 50
46.083764851747539
 51
223.91617100702629
  0
LINE
  5
64D8
  8
0
 10
-489.20018272819061
 20
24.645891613198842
 30
0.0
 11
-484.06457854641297
 21
29.781504473106569
 31
0.0
  0
LINE
  5
64D9
  8
0
 10
-484.06457854641292
 20
34.501803106123482
 30
0.0
 11
-484.06457854641297
 21
29.781504473106569
 31
0.0
  0
LINE
  5
64DA
  8
0
 10
-489.31341191925338
 20
39.750654187639043
 30
0.0
 11
-484.06457854641292
 21
34.501803106123482
 31
0.0
  0
ARC
  5
64DB
  8
0
 10
-490.03232811053891
 20
40.711466089056898
 30
0.0
 40
1.2
 50
143.19492398790089
 51
306.80523992638399
  0
LINE
  5
64DC
  8
0
 10
-493.80442966298148
 20
44.241673669093409
 30
0.0
 11
-490.99314206865989
 21
41.430379531606597
 31
0.0
  0
LINE
  5
64DD
  8
0
 10
-524.92472742984512
 20
44.241673669093409
 30
0.0
 11
-493.80442966298148
 21
44.241673669093409
 31
0.0
  0
LINE
  5
64DE
  8
0
 10
-524.92472742984512
 20
44.241673669093409
 30
0.0
 11
-527.73326537035518
 21
41.433129191816867
 31
0.0
  0
ARC
  5
64DF
  8
0
 10
-528.69232810831033
 20
40.711881200717471
 30
0.0
 40
1.2
 50
233.05541811645389
 51
36.944417995166269
  0
LINE
  5
64E0
  8
0
 10
-529.4135788427019
 20
39.752820525818152
 30
0.0
 11
-534.66457854641294
 21
34.501803106124271
 31
0.0
  0
LINE
  5
64E1
  8
0
 10
-534.66457854641294
 20
34.501803106124271
 30
0.0
 11
-534.66457854641294
 21
29.781504473106111
 31
0.0
  0
LINE
  5
64E2
  8
0
 10
-529.52715327657802
 20
24.644070522064339
 30
0.0
 11
-534.66457854641294
 21
29.781504473106111
 31
0.0
  0
ARC
  5
64E3
  8
0
 10
-528.69250989414616
 20
23.781881201693519
 30
0.0
 40
1.2
 50
315.93010723545302
 51
134.0699570066223
  0
LINE
  5
64E4
  8
0
 10
-526.66457854641271
 20
21.78149769444849
 30
0.0
 11
-527.83031963794394
 21
22.947238785979721
 31
0.0
  0
LINE
  5
64E5
  8
0
 10
-526.66457854641271
 20
21.78149769444849
 30
0.0
 11
-526.66457854641271
 21
20.101471643738371
 31
0.0
  0
LINE
  5
64E6
  8
0
 10
-533.82437652105784
 20
12.94167366909323
 30
0.0
 11
-526.66457854641271
 21
20.101471643738371
 31
0.0
  0
LINE
  5
64E7
  8
0
 10
-486.53112616849711
 20
12.94167366909323
 30
0.0
 11
-493.21457854641301
 21
19.625126047009068
 31
0.0
  0
LINE
  5
64E8
  8
0
 10
-493.21457854641278
 20
22.257843291178229
 30
0.0
 11
-493.21457854641301
 21
19.625126047009068
 31
0.0
  0
LINE
  5
64E9
  8
0
 10
-493.21457854641278
 20
22.257843291178229
 30
0.0
 11
-492.30174648151041
 21
23.170675356081009
 31
0.0
  0
ARC
  5
64EA
  8
0
 10
-490.03250989637479
 20
23.78146609003284
 30
0.0
 40
2.3500000000000001
 50
74.935203763701892
 51
195.06477833699699
  0
LINE
  5
64EB
  8
0
 10
-489.42171845350958
 20
26.050702484356179
 30
0.0
 11
-485.21457854641301
 21
30.25784950066646
 31
0.0
  0
LINE
  5
64EC
  8
0
 10
-485.21457854641289
 20
34.025458645790081
 30
0.0
 11
-485.21457854641301
 21
30.25784950066646
 31
0.0
  0
LINE
  5
64ED
  8
0
 10
-489.59216187883698
 20
38.403056747439109
 30
0.0
 11
-485.21457854641289
 21
34.025458645790081
 31
0.0
  0
ARC
  5
64EE
  8
0
 10
-490.03232811053891
 20
40.711466089056898
 30
0.0
 40
2.3500000000000001
 50
169.20450083853501
 51
280.79553581927559
  0
LINE
  5
64EF
  8
0
 10
-494.2807760436624
 20
43.091673669093439
 30
0.0
 11
-492.3407377337744
 21
41.151630843839818
 31
0.0
  0
LINE
  5
64F0
  8
0
 10
-524.44838104916414
 20
43.091673669093318
 30
0.0
 11
-494.2807760436624
 21
43.091673669093439
 31
0.0
  0
LINE
  5
64F1
  8
0
 10
-524.44838104916414
 20
43.091673669093318
 30
0.0
 11
-526.38457501010771
 21
41.155475201731292
 31
0.0
  0
ARC
  5
64F2
  8
0
 10
-528.69232810831033
 20
40.711881200717471
 30
0.0
 40
2.3500000000000001
 50
259.11933678375948
 51
10.880626706422939
  0
LINE
  5
64F3
  8
0
 10
-529.13592357986238
 20
38.404128385180798
 30
0.0
 11
-533.51457854641285
 21
34.025458645790771
 31
0.0
  0
LINE
  5
64F4
  8
0
 10
-533.51457854641285
 20
34.025458645790771
 30
0.0
 11
-533.51457854641285
 21
30.257849500666001
 31
0.0
  0
LINE
  5
64F5
  8
0
 10
-529.30688589010151
 20
26.05014973420748
 30
0.0
 11
-533.51457854641285
 21
30.257849500666001
 31
0.0
  0
ARC
  5
64F6
  8
0
 10
-528.69250989414616
 20
23.781881201693519
 30
0.0
 40
2.3500000000000001
 50
344.84469626684057
 51
105.1553216347687
  0
LINE
  5
64F7
  8
0
 10
-525.51457854641285
 20
22.257843291177551
 30
0.0
 11
-526.4242411696755
 21
23.167505914440419
 31
0.0
  0
LINE
  5
64F8
  8
0
 10
-525.51457854641285
 20
22.257843291177551
 30
0.0
 11
-525.51457854641274
 21
19.625126047009299
 31
0.0
  0
LINE
  5
64F9
  8
0
 10
-532.19803092432858
 20
12.94167366909323
 30
0.0
 11
-525.51457854641274
 21
19.625126047009299
 31
0.0
  0
POINT
  5
64FA
  8
0
 10
-497.16843097040629
 20
54.943270200403958
 30
0.0
1001
PNTFLAG
1000
endpoint
  0
LINE
  5
64FB
  8
0
 10
-501.50980279579028
 20
57.335522600285003
 30
0.0
 11
-501.44635947507032
 21
57.377351103895421
 31
0.0
  0
LINE
  5
64FC
  8
0
 10
-501.77545646227969
 20
52.523163861496187
 30
0.0
 11
-501.71501413268572
 21
52.520597070567533
 31
0.0
  0
LINE
  5
64FD
  8
0
 10
-501.50980279579028
 20
52.551016130522498
 30
0.0
 11
-501.44635947507032
 21
52.50918762691208
 31
0.0
  0
LINE
  5
64FE
  8
0
 10
-500.88108600079482
 20
54.943270200403958
 30
0.0
 11
-500.85761581312522
 21
55.565946603390898
 31
0.0
  0
LINE
  5
64FF
  8
0
 10
-498.88253121928608
 20
54.943270200403958
 30
0.0
 11
-498.86606334391132
 21
55.380190772869582
 31
0.0
  0
LINE
  5
6500
  8
0
 10
-498.86606334391132
 20
54.5063496279381
 30
0.0
 11
-498.88253121928608
 21
54.943270200403958
 31
0.0
  0
LINE
  5
6501
  8
0
 10
-500.85761581312522
 20
54.320592127416717
 30
0.0
 11
-500.88108600079482
 21
54.943270200403958
 31
0.0
  0
LINE
  5
6502
  8
0
 10
-498.86606334391132
 20
55.380190772869582
 30
0.0
 11
-498.8172909780161
 21
55.800319489781138
 31
0.0
  0
LINE
  5
6503
  8
0
 10
-500.85761581312522
 20
55.565946603390898
 30
0.0
 11
-500.78811039051777
 21
56.164695238631907
 31
0.0
  0
LINE
  5
6504
  8
0
 10
-498.8172909780161
 20
54.086219241026363
 30
0.0
 11
-498.86606334391132
 21
54.5063496279381
 31
0.0
  0
LINE
  5
6505
  8
0
 10
-500.78811039051777
 20
53.721843492175587
 30
0.0
 11
-500.85761581312522
 21
54.320592127416717
 31
0.0
  0
LINE
  5
6506
  8
0
 10
-498.8172909780161
 20
55.800319489781138
 30
0.0
 11
-498.73809120216453
 21
56.18751412606764
 31
0.0
  0
LINE
  5
6507
  8
0
 10
-500.78811039051777
 20
56.164695238631907
 30
0.0
 11
-500.67523839366822
 21
56.716505168409192
 31
0.0
  0
LINE
  5
6508
  8
0
 10
-498.73809120216453
 20
53.699026274740163
 30
0.0
 11
-498.8172909780161
 21
54.086219241026363
 31
0.0
  0
LINE
  5
6509
  8
0
 10
-500.67523839366822
 20
53.170033562273368
 30
0.0
 11
-500.78811039051777
 21
53.721843492175587
 31
0.0
  0
LINE
  5
650A
  8
0
 10
-498.73809120216453
 20
56.18751412606764
 30
0.0
 11
-498.63150675736489
 21
56.52689163661865
 31
0.0
  0
LINE
  5
650B
  8
0
 10
-500.67523839366822
 20
56.716505168409192
 30
0.0
 11
-500.52333848417601
 21
57.200170726181341
 31
0.0
  0
LINE
  5
650C
  8
0
 10
-498.63150675736489
 20
53.359647094188858
 30
0.0
 11
-498.73809120216453
 21
53.699026274740163
 31
0.0
  0
LINE
  5
650D
  8
0
 10
-500.52333848417601
 20
52.686369674626583
 30
0.0
 11
-500.67523839366822
 21
53.170033562273368
 31
0.0
  0
LINE
  5
650E
  8
0
 10
-498.63150675736489
 20
56.52689163661865
 30
0.0
 11
-498.50163248505112
 21
56.805412657506729
 31
0.0
  0
LINE
  5
650F
  8
0
 10
-500.52333848417601
 20
57.200170726181341
 30
0.0
 11
-500.33824731376569
 21
57.597103135594011
 31
0.0
  0
LINE
  5
6510
  8
0
 10
-498.50163248505112
 20
53.081126073300872
 30
0.0
 11
-498.63150675736489
 21
53.359647094188858
 31
0.0
  0
LINE
  5
6511
  8
0
 10
-498.50163248505112
 20
56.805412657506729
 30
0.0
 11
-498.3534600168062
 21
57.012370814943658
 31
0.0
  0
LINE
  5
6512
  8
0
 10
-500.33824731376569
 20
52.28943559521349
 30
0.0
 11
-500.52333848417601
 21
52.686369674626583
 31
0.0
  0
LINE
  5
6513
  8
0
 10
-502.26111433063448
 20
54.943270200403958
 30
0.0
 11
-502.24318019476448
 21
55.419118485495567
 31
0.0
  0
LINE
  5
6514
  8
0
 10
-502.24318019476448
 20
54.467420245312042
 30
0.0
 11
-502.26111433063448
 21
54.943270200403958
 31
0.0
  0
LINE
  5
6515
  8
0
 10
-502.24318019476448
 20
55.419118485495567
 30
0.0
 11
-502.19006248751879
 21
55.876680264658383
 31
0.0
  0
LINE
  5
6516
  8
0
 10
-506.23370661568248
 20
54.943270200403958
 30
0.0
 11
-506.20613156670248
 21
55.674859028829253
 31
0.0
  0
LINE
  5
6517
  8
0
 10
-506.20613156670248
 20
54.211681371853501
 30
0.0
 11
-506.23370661568248
 21
54.943270200403958
 31
0.0
  0
LINE
  5
6518
  8
0
 10
-502.19006248751879
 20
54.009858466149119
 30
0.0
 11
-502.24318019476448
 21
54.467420245312042
 31
0.0
  0
LINE
  5
6519
  8
0
 10
-502.19006248751879
 20
55.876680264658383
 30
0.0
 11
-502.10380695936408
 21
56.298372102205917
 31
0.0
  0
LINE
  5
651A
  8
0
 10
-500.33824731376569
 20
57.597103135594011
 30
0.0
 11
-500.12707908500062
 21
57.892051951725527
 31
0.0
  0
LINE
  5
651B
  8
0
 10
-498.3534600168062
 20
52.874167915863843
 30
0.0
 11
-498.50163248505112
 21
53.081126073300872
 31
0.0
  0
LINE
  5
651C
  8
0
 10
-498.3534600168062
 20
57.012370814943658
 30
0.0
 11
-498.19268238433159
 21
57.139816906477222
 31
0.0
  0
LINE
  5
651D
  8
0
 10
-506.20613156670248
 20
55.674859028829253
 30
0.0
 11
-506.12446854006458
 21
56.378333398184388
 31
0.0
  0
LINE
  5
651E
  8
0
 10
-506.12446854006458
 20
53.508207002623287
 30
0.0
 11
-506.20613156670248
 21
54.211681371853501
 31
0.0
  0
LINE
  5
651F
  8
0
 10
-502.10380695936408
 20
53.588166628601577
 30
0.0
 11
-502.19006248751879
 21
54.009858466149119
 31
0.0
  0
LINE
  5
6520
  8
0
 10
-500.12707908500062
 20
51.994486779082081
 30
0.0
 11
-500.33824731376569
 21
52.28943559521349
 31
0.0
  0
LINE
  5
6521
  8
0
 10
-502.10380695936408
 20
56.298372102205917
 30
0.0
 11
-501.98772522147868
 21
56.667988312681807
 31
0.0
  0
LINE
  5
6522
  8
0
 10
-506.12446854006458
 20
56.378333398184388
 30
0.0
 11
-505.9918554669182
 21
57.02665766957967
 31
0.0
  0
LINE
  5
6523
  8
0
 10
-505.9918554669182
 20
52.859881061227952
 30
0.0
 11
-506.12446854006458
 21
53.508207002623287
 31
0.0
  0
LINE
  5
6524
  8
0
 10
-501.98772522147868
 20
53.21855041812568
 30
0.0
 11
-502.10380695936408
 21
53.588166628601577
 31
0.0
  0
LINE
  5
6525
  8
0
 10
-498.19268238433159
 20
57.139816906477222
 30
0.0
 11
-498.02548025990859
 21
57.1828494805386
 31
0.0
  0
LINE
  5
6526
  8
0
 10
-500.12707908500062
 20
57.892051951725527
 30
0.0
 11
-499.89794833023569
 21
58.073681210932591
 31
0.0
  0
LINE
  5
6527
  8
0
 10
-498.3534600168062
 20
52.874167915863843
 30
0.0
 11
-498.19268238433159
 21
52.74672182433028
 31
0.0
  0
LINE
  5
6528
  8
0
 10
-501.98772522147868
 20
56.667988312681807
 30
0.0
 11
-501.84627951548202
 21
56.971323871588872
 31
0.0
  0
LINE
  5
6529
  8
0
 10
-500.12707908500062
 20
51.994486779082081
 30
0.0
 11
-499.89794833023569
 21
51.812859189875333
 31
0.0
  0
LINE
  5
652A
  8
0
 10
-501.84627951548202
 20
52.915214859218622
 30
0.0
 11
-501.98772522147868
 21
53.21855041812568
 31
0.0
  0
LINE
  5
652B
  8
0
 10
-505.9918554669182
 20
57.02665766957967
 30
0.0
 11
-505.81338584873868
 21
57.594920444854552
 31
0.0
  0
LINE
  5
652C
  8
0
 10
-505.81338584873868
 20
52.291618285953056
 30
0.0
 11
-505.9918554669182
 21
52.859881061227952
 31
0.0
  0
LINE
  5
652D
  8
0
 10
-501.84627951548202
 20
56.971323871588872
 30
0.0
 11
-501.68490402278258
 21
57.19672217498033
 31
0.0
  0
LINE
  5
652E
  8
0
 10
-500.96550452826762
 20
57.666157658001111
 30
0.0
 11
-500.75392547930892
 21
57.833872472759481
 31
0.0
  0
LINE
  5
652F
  8
0
 10
-499.89794833023569
 20
58.073681210932591
 30
0.0
 11
-499.65965929256652
 21
58.135008640924291
 31
0.0
  0
LINE
  5
6530
  8
0
 10
-498.02548025990859
 20
57.1828494805386
 30
0.0
 11
-497.85827813536071
 21
57.139816906477222
 31
0.0
  0
LINE
  5
6531
  8
0
 10
-498.19268238433159
 20
52.74672182433028
 30
0.0
 11
-498.02548025990859
 21
52.703689250268901
 31
0.0
  0
LINE
  5
6532
  8
0
 10
-501.68490402278258
 20
52.689816555827178
 30
0.0
 11
-501.84627951548202
 21
52.915214859218622
 31
0.0
  0
LINE
  5
6533
  8
0
 10
-506.45571147813229
 20
54.943270200403958
 30
0.0
 11
-505.62717744801688
 21
58.693269782903819
 31
0.0
  0
LINE
  5
6534
  8
0
 10
-505.62717744801688
 20
51.193268947903789
 30
0.0
 11
-506.45571147813229
 21
54.943270200403958
 31
0.0
  0
LINE
  5
6535
  8
0
 10
-500.75392547930892
 20
57.833872472759481
 30
0.0
 11
-500.34638522649971
 21
58.039496299723623
 31
0.0
  0
LINE
  5
6536
  8
0
 10
-500.34638522649971
 20
58.039496299723623
 30
0.0
 11
-500.11069971964031
 21
58.100155729478729
 31
0.0
  0
LINE
  5
6537
  8
0
 10
-499.89794833023569
 20
51.812859189875333
 30
0.0
 11
-499.65965929256652
 21
51.75153008988331
 31
0.0
  0
LINE
  5
6538
  8
0
 10
-505.81338584873868
 20
57.594920444854552
 30
0.0
 11
-505.59592171779752
 21
58.061281456861821
 31
0.0
  0
LINE
  5
6539
  8
0
 10
-505.59592171779752
 20
51.825257273945802
 30
0.0
 11
-505.81338584873868
 21
52.291618285953056
 31
0.0
  0
LINE
  5
653A
  8
0
 10
-501.68490402278258
 20
57.19672217498033
 30
0.0
 11
-501.50980279579028
 21
57.335522600285003
 31
0.0
  0
LINE
  5
653B
  8
0
 10
-501.44635947507032
 20
57.377351103895421
 30
0.0
 11
-500.75392547930892
 21
57.833872472759481
 31
0.0
  0
LINE
  5
653C
  8
0
 10
-500.34638522649971
 20
51.847042431083992
 30
0.0
 11
-500.11069971964031
 21
51.786384671204019
 31
0.0
  0
LINE
  5
653D
  8
0
 10
-500.75392547930892
 20
52.052666258048021
 30
0.0
 11
-500.34638522649971
 21
51.847042431083992
 31
0.0
  0
LINE
  5
653E
  8
0
 10
-501.68490402278258
 20
52.689816555827178
 30
0.0
 11
-501.50980279579028
 21
52.551016130522498
 31
0.0
  0
LINE
  5
653F
  8
0
 10
-500.11069971964031
 20
58.100155729478729
 30
0.0
 11
-499.65965929256652
 21
58.135008640924291
 31
0.0
  0
LINE
  5
6540
  8
0
 10
-499.65965929256652
 20
58.135008640924291
 30
0.0
 11
-499.42137192489741
 21
58.073681210932591
 31
0.0
  0
LINE
  5
6541
  8
0
 10
-497.85827813536071
 20
57.139816906477222
 30
0.0
 11
-497.69750217288617
 21
57.012370814943658
 31
0.0
  0
LINE
  5
6542
  8
0
 10
-499.42137192489741
 20
58.073681210932591
 30
0.0
 11
-497.85827813536071
 21
57.139816906477222
 31
0.0
  0
LINE
  5
6543
  8
0
 10
-498.02548025990859
 20
52.703689250268901
 30
0.0
 11
-497.85827813536071
 21
52.74672182433028
 31
0.0
  0
LINE
  5
6544
  8
0
 10
-501.44635947507032
 20
52.50918762691208
 30
0.0
 11
-500.75392547930892
 21
52.052666258048021
 31
0.0
  0
LINE
  5
6545
  8
0
 10
-500.11069971964031
 20
51.786384671204019
 30
0.0
 11
-499.65965929256652
 21
51.75153008988331
 31
0.0
  0
LINE
  5
6546
  8
0
 10
-499.65965929256652
 20
51.75153008988331
 30
0.0
 11
-499.42137192489741
 21
51.812859189875333
 31
0.0
  0
LINE
  5
6547
  8
0
 10
-505.59592171779752
 20
58.061281456861821
 30
0.0
 11
-505.34781808698881
 21
58.407818259858459
 31
0.0
  0
LINE
  5
6548
  8
0
 10
-505.34781808698881
 20
51.478720470949149
 30
0.0
 11
-505.59592171779752
 21
51.825257273945802
 31
0.0
  0
LINE
  5
6549
  8
0
 10
-507.73769574597361
 20
51.193268947903789
 30
0.0
 11
-508.5662297760889
 21
54.943270200403958
 31
0.0
  0
LINE
  5
654A
  8
0
 10
-508.5662297760889
 20
54.943270200403958
 30
0.0
 11
-506.45571147813229
 21
54.943270200403958
 31
0.0
  0
LINE
  5
654B
  8
0
 10
-508.5662297760889
 20
54.943270200403958
 30
0.0
 11
-507.73769574597361
 21
58.693269782903819
 31
0.0
  0
LINE
  5
654C
  8
0
 10
-497.54932970464148
 20
56.805412657506729
 30
0.0
 11
-497.69750217288617
 21
57.012370814943658
 31
0.0
  0
LINE
  5
654D
  8
0
 10
-497.85827813536071
 20
52.74672182433028
 30
0.0
 11
-497.69750217288617
 21
52.874167915863843
 31
0.0
  0
LINE
  5
654E
  8
0
 10
-499.42137192489741
 20
51.812859189875333
 30
0.0
 11
-497.85827813536071
 21
52.74672182433028
 31
0.0
  0
LINE
  5
654F
  8
0
 10
-501.71501413268572
 20
57.36594333024027
 30
0.0
 11
-501.44635947507032
 21
57.377351103895421
 31
0.0
  0
LINE
  5
6550
  8
0
 10
-501.71501413268572
 20
52.520597070567533
 30
0.0
 11
-501.44635947507032
 21
52.50918762691208
 31
0.0
  0
LINE
  5
6551
  8
0
 10
-505.34781808698881
 20
58.407818259858459
 30
0.0
 11
-505.07861065915631
 21
58.621214269370512
 31
0.0
  0
LINE
  5
6552
  8
0
 10
-505.34781808698881
 20
51.478720470949149
 30
0.0
 11
-505.07861065915631
 21
51.265324461436983
 31
0.0
  0
LINE
  5
6553
  8
0
 10
-497.4194554323276
 20
56.52689163661865
 30
0.0
 11
-497.54932970464148
 21
56.805412657506729
 31
0.0
  0
LINE
  5
6554
  8
0
 10
-497.69750217288617
 20
52.874167915863843
 30
0.0
 11
-497.54932970464148
 21
53.081126073300872
 31
0.0
  0
LINE
  5
6555
  8
0
 10
-502.0164175008951
 20
57.488945550281642
 30
0.0
 11
-501.71501413268572
 21
57.36594333024027
 31
0.0
  0
LINE
  5
6556
  8
0
 10
-502.0164175008951
 20
52.39759318052586
 30
0.0
 11
-501.71501413268572
 21
52.520597070567533
 31
0.0
  0
LINE
  5
6557
  8
0
 10
-497.31286931752749
 20
56.18751412606764
 30
0.0
 11
-497.4194554323276
 21
56.52689163661865
 31
0.0
  0
LINE
  5
6558
  8
0
 10
-497.54932970464148
 20
53.081126073300872
 30
0.0
 11
-497.4194554323276
 21
53.359647094188858
 31
0.0
  0
LINE
  5
6559
  8
0
 10
-505.07861065915631
 20
58.621214269370512
 30
0.0
 11
-504.79864341790181
 21
58.693269782903819
 31
0.0
  0
LINE
  5
655A
  8
0
 10
-505.07861065915631
 20
51.265324461436983
 30
0.0
 11
-504.79864341790181
 21
51.193268947903789
 31
0.0
  0
LINE
  5
655B
  8
0
 10
-497.23366954167619
 20
55.800319489781138
 30
0.0
 11
-497.31286931752749
 21
56.18751412606764
 31
0.0
  0
LINE
  5
655C
  8
0
 10
-498.36864867171778
 20
52.895383602781862
 30
0.0
 11
-498.36627560094661
 21
52.896544253100728
 31
0.0
  0
LINE
  5
655D
  8
0
 10
-497.4194554323276
 20
53.359647094188858
 30
0.0
 11
-497.31286931752749
 21
53.699026274740163
 31
0.0
  0
LINE
  5
655E
  8
0
 10
-497.18489884578128
 20
55.380190772869582
 30
0.0
 11
-497.23366954167619
 21
55.800319489781138
 31
0.0
  0
LINE
  5
655F
  8
0
 10
-497.31286931752749
 20
53.699026274740163
 30
0.0
 11
-497.23366954167619
 21
54.086219241026363
 31
0.0
  0
LINE
  5
6560
  8
0
 10
-504.51867617664738
 20
58.621214269370512
 30
0.0
 11
-502.0164175008951
 21
57.488945550281642
 31
0.0
  0
LINE
  5
6561
  8
0
 10
-504.79864341790181
 20
58.693269782903819
 30
0.0
 11
-504.51867617664738
 21
58.621214269370512
 31
0.0
  0
LINE
  5
6562
  8
0
 10
-504.79864341790181
 20
51.193268947903789
 30
0.0
 11
-504.51867617664738
 21
51.265324461436983
 31
0.0
  0
LINE
  5
6563
  8
0
 10
-497.16843097040629
 20
54.943270200403958
 30
0.0
 11
-497.18489884578128
 21
55.380190772869582
 31
0.0
  0
LINE
  5
6564
  8
0
 10
-497.23366954167619
 20
54.086219241026363
 30
0.0
 11
-497.18489884578128
 21
54.5063496279381
 31
0.0
  0
LINE
  5
6565
  8
0
 10
-497.18489884578128
 20
54.5063496279381
 30
0.0
 11
-497.16843097040629
 21
54.943270200403958
 31
0.0
  0
LINE
  5
6566
  8
0
 10
-504.51867617664738
 20
51.265324461436983
 30
0.0
 11
-502.0164175008951
 21
52.39759318052586
 31
0.0
  0
LINE
  5
6567
  8
0
 10
-507.73769574597361
 20
58.693269782903819
 30
0.0
 11
-503.97010938778698
 21
58.693269782903819
 31
0.0
  0
LINE
  5
6568
  8
0
 10
-503.97010938778698
 20
51.193268947903789
 30
0.0
 11
-503.89148576215649
 21
51.549127693957189
 31
0.0
  0
LINE
  5
6569
  8
0
 10
-503.89148576215649
 20
58.337411036850419
 30
0.0
 11
-503.97010938778698
 21
58.693269782903819
 31
0.0
  0
LINE
  5
656A
  8
0
 10
-507.73769574597361
 20
51.193268947903789
 30
0.0
 11
-503.97010938778698
 21
51.193268947903789
 31
0.0
  0
LINE
  5
656B
  8
0
 10
-505.75613823005341
 20
51.193268947903789
 30
0.0
 11
-506.47782562532518
 21
49.943268530403657
 31
0.0
  0
LINE
  5
656C
  8
0
 10
-506.47782562532518
 20
49.943268530403657
 30
0.0
 11
-512.25132979750049
 21
49.943268530403657
 31
0.0
  0
LINE
  5
656D
  8
0
 10
-515.13808104858788
 20
54.943270200403958
 30
0.0
 11
-512.25132979750049
 21
49.943268530403657
 31
0.0
  0
LINE
  5
656E
  8
0
 10
-512.25132979750049
 20
59.943270200403958
 30
0.0
 11
-515.13808104858788
 21
54.943270200403958
 31
0.0
  0
LINE
  5
656F
  8
0
 10
-512.25132979750049
 20
59.943270200403958
 30
0.0
 11
-506.4778272953256
 21
59.943270200403958
 31
0.0
  0
LINE
  5
6570
  8
0
 10
-505.75613823005341
 20
58.693269782903819
 30
0.0
 11
-506.4778272953256
 21
59.943270200403958
 31
0.0
  0
ARC
  5
6571
  8
0
 10
-509.36457854641287
 20
54.943270200403958
 30
0.0
 40
5.0
 50
48.590377998903271
 51
311.40962200319859
  0
POLYLINE
  5
6572
  8
0
 66
     1
 10
0.0
 20
0.0
 30
0.0
  0
VERTEX
  5
679A
  8
0
 10
-498.17496701862291
 20
54.943270200403958
 30
0.0
  0
VERTEX
  5
679B
  8
0
 10
-498.13303163486978
 20
54.671973601972361
 30
0.0
  0
VERTEX
  5
679C
  8
0
 10
-498.09191789150361
 20
54.593343296341118
 30
0.0
  0
VERTEX
  5
679D
  8
0
 10
-498.04620496661948
 20
54.556416244299328
 30
0.0
  0
VERTEX
  5
679E
  8
0
 10
-498.00373351277682
 20
54.556800344363467
 30
0.0
  0
VERTEX
  5
679F
  8
0
 10
-497.95811744790899
 20
54.594555716668587
 30
0.0
  0
VERTEX
  5
67A0
  8
0
 10
-497.91893756511598
 20
54.669268201020593
 30
0.0
  0
VERTEX
  5
67A1
  8
0
 10
-497.88220423310639
 20
54.831859454048299
 30
0.0
  0
VERTEX
  5
67A2
  8
0
 10
-497.87599517106969
 20
54.943270200403958
 30
0.0
  0
VERTEX
  5
67A3
  8
0
 10
-497.9179288848224
 20
55.21456512883514
 30
0.0
  0
VERTEX
  5
67A4
  8
0
 10
-497.95904429818859
 20
55.29319543446644
 30
0.0
  0
VERTEX
  5
67A5
  8
0
 10
-498.00475722307289
 20
55.330122486508287
 30
0.0
  0
VERTEX
  5
67A6
  8
0
 10
-498.04722700691519
 20
55.329738386319093
 30
0.0
  0
VERTEX
  5
67A7
  8
0
 10
-498.09284474178338
 20
55.291983014013972
 30
0.0
  0
VERTEX
  5
67A8
  8
0
 10
-498.13202295457648
 20
55.21727052966196
 30
0.0
  0
VERTEX
  5
67A9
  8
0
 10
-498.16875795658598
 20
55.054679276759202
 30
0.0
  0
VERTEX
  5
67AA
  8
0
 10
-498.17496701862291
 20
54.943270200403958
 30
0.0
  0
SEQEND
  5
67AB
  8
0
  0
ARC
  5
6573
  8
0
 10
-509.36457854641287
 20
54.943270200403958
 30
0.0
 40
6.5625010959376811
 50
30.243297773998421
 51
329.75669075930148
  0
LINE
  5
6574
  8
0
 10
-494.86457854641287
 20
22.94129566909373
 30
0.0
 11
-494.86457854641299
 21
18.941673669093461
 31
0.0
  0
LINE
  5
6575
  8
0
 10
-523.86457854641276
 20
22.941295669093169
 30
0.0
 11
-523.86457854641264
 21
18.941673669093689
 31
0.0
  0
LINE
  5
6576
  8
µę˝u
 10
-502.36457854641299
 20
24.14167366909339
 30
0.0
 11
-502.36457854641299
 21
4.1416736690935059
 31
0.0
  0
LINE
  5
6577
  8
¤¤¤ß˝u
 10
-509.36457854641287
 20
70.619210113013878
 30
0.0
 11
-509.36457854641287
 21
1.1416736690935061
 31
0.0
  0
LINE
  5
6578
  8
µę˝u
 10
-516.36457854641299
 20
24.14167366909339
 30
0.0
 11
-516.36457854641299
 21
4.1416736690935059
 31
0.0
  0
LINE
  5
6579
  8
µę˝u
 10
-516.36457854641299
 20
4.1416736690935059
 30
0.0
 11
-502.36457854641299
 21
4.1416736690935059
 31
0.0
  0
LINE
  5
657A
  8
0
 10
-517.61495217738502
 20
3.4416736690934608
 30
0.0
 11
-501.11495653098399
 21
3.4416736690934608
 31
0.0
  0
LINE
  5
657B
  8
0
 10
-531.86457854641276
 20
10.94167366909346
 30
0.0
 11
-531.86457854641264
 21
4.9416736690934613
 31
0.0
  0
LINE
  5
657C
  8
0
 10
-523.61495254641306
 20
4.4416736690934613
 30
0.0
 11
-518.61495334641302
 21
4.4416736690934613
 31
0.0
  0
LINE
  5
657D
  8
0
 10
-530.36457854641264
 20
3.4416736690934608
 30
0.0
 11
-524.61495286235674
 21
3.4416736690934608
 31
0.0
  0
LINE
  5
657E
  8
0
 10
-531.86457854641264
 20
4.9416736690934613
 30
0.0
 11
-530.36457854641264
 21
3.4416736690934608
 31
0.0
  0
LINE
  5
657F
  8
0
 10
-523.61495354641295
 20
4.441673489093545
 30
0.0
 11
-524.61495286235674
 21
3.4416736690934608
 31
0.0
  0
LINE
  5
6580
  8
0
 10
-518.61495334641302
 20
4.4416736690934613
 30
0.0
 11
-517.61495217738502
 21
3.4416736690934608
 31
0.0
  0
LINE
  5
6581
  8
µę˝u
 10
-516.36457854641299
 20
4.1416736690935059
 30
0.0
 11
-517.06457854641303
 21
3.4416736690934608
 31
0.0
  0
LINE
  5
6582
  8
0
 10
-531.86457854641276
 20
10.94167366909346
 30
0.0
 11
-523.86457854641264
 21
18.941673669093689
 31
0.0
  0
LINE
  5
6583
  8
0
 10
-486.86457854641299
 20
10.94167366909357
 30
0.0
 11
-494.86457854641299
 21
18.941673669093461
 31
0.0
  0
LINE
  5
6584
  8
0
 10
-495.11495654641311
 20
4.441673489093545
 30
0.0
 11
-494.11495690450221
 21
3.4416736690934608
 31
0.0
  0
LINE
  5
6585
  8
0
 10
-500.11495524641299
 20
4.4416736690934613
 30
0.0
 11
-495.11495654641311
 21
4.4416736690934613
 31
0.0
  0
LINE
  5
6586
  8
0
 10
-500.11495524641299
 20
4.4416741690936297
 30
0.0
 11
-501.11495653098399
 21
3.4416736690934608
 31
0.0
  0
LINE
  5
6587
  8
µę˝u
 10
-502.36457854641299
 20
4.1416736690935059
 30
0.0
 11
-501.66457854641271
 21
3.4416736690934608
 31
0.0
  0
LINE
  5
6588
  8
0
 10
-486.86457854641299
 20
10.94167366909357
 30
0.0
 11
-486.86457854641299
 21
4.9416736690934613
 31
0.0
  0
LINE
  5
6589
  8
0
 10
-494.11495690450221
 20
3.4416736690934608
 30
0.0
 11
-488.36457854641287
 21
3.4416736690934608
 31
0.0
  0
LINE
  5
658A
  8
0
 10
-488.36457854641287
 20
3.4416736690934608
 30
0.0
 11
-486.86457854641299
 21
4.9416736690934613
 31
0.0
  0
LINE
  5
658B
  8
µę˝u
 10
-516.36457854641299
 20
24.14167366909339
 30
0.0
 11
-502.36457854641299
 21
24.14167366909339
 31
0.0
  0
LINE
  5
658C
  8
0
 10
-523.76492754644789
 20
41.441673669093348
 30
0.0
 11
-494.96422954637831
 21
41.441673669093348
 31
0.0
  0
LINE
  5
658D
  8
µę˝u
 10
-519.36457854641299
 20
41.04167366909337
 30
0.0
 11
-499.36457854641299
 21
41.04167366909337
 31
0.0
  0
LINE
  5
658E
  8
µę˝u
 10
-519.36457854641299
 20
24.441673669093351
 30
0.0
 11
-499.36457854641299
 21
24.441673669093351
 31
0.0
  0
LINE
  5
658F
  8
µę˝u
 10
-519.36457854641299
 20
41.04167366909337
 30
0.0
 11
-519.36457854641299
 21
24.441673669093351
 31
0.0
  0
LINE
  5
6590
  8
0
 10
-528.70514407210567
 20
27.781861248837121
 30
0.0
 11
-531.86457854641276
 21
30.941301061947801
 31
0.0
  0
LINE
  5
6591
  8
0
 10
-523.86457854641276
 20
22.941295669093169
 30
0.0
 11
-524.69252984717275
 21
23.76924696985316
 31
0.0
  0
LINE
  5
6592
  8
µę˝u
 10
-516.36457854641321
 20
24.14167366909339
 30
0.0
 11
-516.66457854641305
 21
24.441673669093351
 31
0.0
  0
LINE
  5
6593
  8
0
 10
-531.86457854641276
 20
33.342007898355753
 30
0.0
 11
-531.86457854641276
 21
30.941301061947801
 31
0.0
  0
LINE
  5
6594
  8
0
 10
-528.48957470816208
 20
36.717023123297402
 30
0.0
 11
-531.86457854641276
 21
33.342007898355753
 31
0.0
  0
LINE
  5
6595
  8
0
 10
-523.76492754644789
 20
41.441673669093348
 30
0.0
 11
-524.69746996600134
 21
40.509129079082747
 31
0.0
  0
LINE
  5
6596
  8
µę˝u
 10
-519.36457854641321
 20
41.04167366909337
 30
0.0
 11
-519.59551865408889
 21
41.441673669093447
 31
0.0
  0
LINE
  5
6597
  8
µę˝u
 10
-499.36457854641299
 20
41.04167366909337
 30
0.0
 11
-499.36457854641299
 21
24.441673669093351
 31
0.0
  0
LINE
  5
6598
  8
0
 10
-494.86457854641287
 20
22.94129566909373
 30
0.0
 11
-494.03250170810651
 21
23.773372507400381
 31
0.0
  0
LINE
  5
6599
  8
µę˝u
 10
-502.36457854641299
 20
24.14167366909339
 30
0.0
 11
-502.06457854641297
 21
24.441673669093351
 31
0.0
  0
LINE
  5
659A
  8
0
 10
-490.0244163670036
 20
27.781457901872159
 30
0.0
 11
-486.86457854641299
 21
30.941301061948138
 31
0.0
  0
LINE
  5
659B
  8
0
 10
-486.86457854641287
 20
33.342007898355178
 30
0.0
 11
-486.86457854641299
 21
30.941301061948138
 31
0.0
  0
LINE
  5
659C
  8
0
 10
-490.23938818012232
 20
36.71682891810088
 30
0.0
 11
-486.86457854641287
 21
33.342007898355178
 31
0.0
  0
LINE
  5
659D
  8
0
 10
-494.96422954637831
 20
41.441673669093348
 30
0.0
 11
-494.02696534727659
 21
40.504407288544598
 31
0.0
  0
LINE
  5
659E
  8
µę˝u
 10
-499.36457854641299
 20
41.04167366909337
 30
0.0
 11
-499.13363843873708
 21
41.441673669093447
 31
0.0
  0
ARC
  5
659F
  8
0
 10
-528.69232810831033
 20
40.711881200717471
 30
0.0
 40
4.0
 50
272.90547361102659
 51
357.09454472589931
  0
ARC
  5
65A0
  8
0
 10
-528.69250989414616
 20
23.781881201693519
 30
0.0
 40
4.0
 50
359.81902765862702
 51
90.180971569584344
  0
ARC
  5
65A1
  8
0
 10
-490.03232811053891
 20
40.711466089056898
 30
0.0
 40
4.0
 50
182.96722500742791
 51
267.03275679006248
  0
ARC
  5
65A2
  8
0
 10
-490.03250989637479
 20
23.78146609003284
 30
0.0
 40
4.0
 50
89.884068652309324
 51
180.1159321106052
  0
LINE
  5
65A3
  8
0
 10
-547.3645785464131
 20
61.942539393731629
 30
0.0
 11
-471.36457854641299
 21
61.942539393731629
 31
0.0
  0
LINE
  5
65A4
  8
0
 10
-550.36457854641287
 20
15.94253939373163
 30
0.0
 11
-550.36457854641299
 21
58.942539393731643
 31
0.0
  0
LINE
  5
65A5
  8
0
 10
-468.3645785464131
 20
15.94253939373163
 30
0.0
 11
-468.3645785464131
 21
58.942539393731643
 31
0.0
  0
ARC
  5
65A6
  8
0
 10
-547.3645785464131
 20
58.942539393731643
 30
0.0
 40
3.0
 50
90.0
 51
180.0
  0
ARC
  5
65A7
  8
0
 10
-471.36457854641299
 20
58.942539393731643
 30
0.0
 40
3.0
 50
0.0
 51
90.0
  0
LINE
  5
65A8
  8
0
 10
-550.36457854641287
 20
15.94253939373163
 30
0.0
 11
-547.36457854641287
 21
12.94253939373163
 31
0.0
  0
LINE
  5
65A9
  8
0
 10
-468.3645785464131
 20
15.94253939373163
 30
0.0
 11
-471.36457854641299
 21
12.94253939373163
 31
0.0
  0
CIRCLE
  5
65AA
  8
0
 62
     3
 10
-546.36457854641299
 20
28.942539393731639
 30
0.0
 40
4.0
  0
LINE
  5
65AB
  8
0
 62
     3
 10
-548.8645785464131
 20
29.7425393937317
 30
0.0
 11
-548.8645785464131
 21
28.142539393731571
 31
0.0
  0
LINE
  5
65AC
  8
0
 62
     3
 10
-543.8645785464131
 20
29.7425393937317
 30
0.0
 11
-543.86457854641299
 21
28.142539393731571
 31
0.0
  0
LINE
  5
65AD
  8
0
 62
     3
 10
-545.56457854641303
 20
31.442539393731639
 30
0.0
 11
-547.16457854641305
 21
31.442539393731639
 31
0.0
  0
LINE
  5
65AE
  8
0
 62
     3
 10
-545.56457854641303
 20
26.442539393731639
 30
0.0
 11
-547.16457854641305
 21
26.442539393731639
 31
0.0
  0
LINE
  5
65AF
  8
0
 62
     3
 10
-548.8645785464131
 20
29.7425393937317
 30
0.0
 11
-547.16457854641305
 21
29.7425393937317
 31
0.0
  0
LINE
  5
65B0
  8
0
 62
     3
 10
-548.8645785464131
 20
28.142539393731571
 30
0.0
 11
-547.16457854641305
 21
28.142539393731571
 31
0.0
  0
LINE
  5
65B1
  8
0
 62
     3
 10
-545.56457854641303
 20
26.442539393731639
 30
0.0
 11
-545.56457854641303
 21
28.142539393731571
 31
0.0
  0
LINE
  5
65B2
  8
0
 62
     3
 10
-547.16457854641305
 20
26.442539393731639
 30
0.0
 11
-547.16457854641305
 21
28.142539393731571
 31
0.0
  0
LINE
  5
65B3
  8
0
 62
     3
 10
-545.56457854641303
 20
28.142539393731571
 30
0.0
 11
-543.86457854641299
 21
28.142539393731571
 31
0.0
  0
LINE
  5
65B4
  8
0
 62
     3
 10
-545.56457854641303
 20
29.7425393937317
 30
0.0
 11
-545.56457854641303
 21
31.442539393731639
 31
0.0
  0
LINE
  5
65B5
  8
0
 62
     3
 10
-547.16457854641305
 20
29.7425393937317
 30
0.0
 11
-547.16457854641305
 21
31.442539393731639
 31
0.0
  0
LINE
  5
65B6
  8
0
 62
     3
 10
-545.56457854641303
 20
29.7425393937317
 30
0.0
 11
-543.8645785464131
 21
29.7425393937317
 31
0.0
  0
LINE
  5
65B7
  8
0
 62
     3
 10
-545.86457854641299
 20
53.742539393731697
 30
0.0
 11
-545.86457854641299
 21
52.142539393731568
 31
0.0
  0
LINE
  5
65B8
  8
0
 62
     3
 10
-540.86457854641299
 20
53.742539393731697
 30
0.0
 11
-540.86457854641299
 21
52.142539393731568
 31
0.0
  0
LINE
  5
65B9
  8
0
 62
     3
 10
-542.56457854641303
 20
55.442539393731629
 30
0.0
 11
-544.16457854641305
 21
55.442539393731629
 31
0.0
  0
LINE
  5
65BA
  8
0
 62
     3
 10
-542.56457854641303
 20
50.442539393731629
 30
0.0
 11
-544.16457854641305
 21
50.442539393731629
 31
0.0
  0
LINE
  5
65BB
  8
0
 62
     3
 10
-545.86457854641299
 20
53.742539393731697
 30
0.0
 11
-544.16457854641305
 21
53.742539393731697
 31
0.0
  0
LINE
  5
65BC
  8
0
 62
     3
 10
-545.86457854641299
 20
52.142539393731568
 30
0.0
 11
-544.16457854641305
 21
52.142539393731568
 31
0.0
  0
LINE
  5
65BD
  8
0
 62
     3
 10
-542.56457854641303
 20
50.442539393731629
 30
0.0
 11
-542.56457854641303
 21
52.142539393731568
 31
0.0
  0
LINE
  5
65BE
  8
0
 62
     3
 10
-544.16457854641305
 20
50.442539393731629
 30
0.0
 11
-544.16457854641305
 21
52.142539393731568
 31
0.0
  0
LINE
  5
65BF
  8
0
 62
     3
 10
-542.56457854641303
 20
52.142539393731568
 30
0.0
 11
-540.86457854641299
 21
52.142539393731568
 31
0.0
  0
LINE
  5
65C0
  8
0
 62
     3
 10
-542.56457854641303
 20
53.742539393731697
 30
0.0
 11
-542.56457854641303
 21
55.442539393731629
 31
0.0
  0
LINE
  5
65C1
  8
0
 62
     3
 10
-544.16457854641305
 20
53.742539393731697
 30
0.0
 11
-544.16457854641305
 21
55.442539393731629
 31
0.0
  0
LINE
  5
65C2
  8
0
 62
     3
 10
-542.56457854641303
 20
53.742539393731697
 30
0.0
 11
-540.86457854641299
 21
53.742539393731697
 31
0.0
  0
LINE
  5
65C3
  8
0
 62
     3
 10
-476.164578546413
 20
53.742539393731697
 30
0.0
 11
-477.8645785464131
 21
53.742539393731697
 31
0.0
  0
LINE
  5
65C4
  8
0
 62
     3
 10
-474.56457854641297
 20
53.742539393731697
 30
0.0
 11
-474.56457854641297
 21
55.442539393731629
 31
0.0
  0
LINE
  5
65C5
  8
0
 62
     3
 10
-476.164578546413
 20
53.742539393731697
 30
0.0
 11
-476.164578546413
 21
55.442539393731629
 31
0.0
  0
LINE
  5
65C6
  8
0
 62
     3
 10
-476.164578546413
 20
52.142539393731568
 30
0.0
 11
-477.8645785464131
 21
52.142539393731568
 31
0.0
  0
LINE
  5
65C7
  8
0
 62
     3
 10
-474.56457854641297
 20
50.442539393731629
 30
0.0
 11
-474.56457854641297
 21
52.142539393731568
 31
0.0
  0
LINE
  5
65C8
  8
0
 62
     3
 10
-476.164578546413
 20
50.442539393731629
 30
0.0
 11
-476.164578546413
 21
52.142539393731568
 31
0.0
  0
LINE
  5
65C9
  8
0
 62
     3
 10
-472.8645785464131
 20
52.142539393731568
 30
0.0
 11
-474.56457854641297
 21
52.142539393731568
 31
0.0
  0
LINE
  5
65CA
  8
0
 62
     3
 10
-472.8645785464131
 20
53.742539393731697
 30
0.0
 11
-474.56457854641297
 21
53.742539393731697
 31
0.0
  0
LINE
  5
65CB
  8
0
 62
     3
 10
-476.164578546413
 20
50.442539393731629
 30
0.0
 11
-474.56457854641297
 21
50.442539393731629
 31
0.0
  0
LINE
  5
65CC
  8
0
 62
     3
 10
-476.164578546413
 20
55.442539393731629
 30
0.0
 11
-474.56457854641297
 21
55.442539393731629
 31
0.0
  0
LINE
  5
65CD
  8
0
 62
     3
 10
-477.8645785464131
 20
53.742539393731697
 30
0.0
 11
-477.8645785464131
 21
52.142539393731568
 31
0.0
  0
LINE
  5
65CE
  8
0
 62
     3
 10
-472.8645785464131
 20
53.742539393731697
 30
0.0
 11
-472.8645785464131
 21
52.142539393731568
 31
0.0
  0
CIRCLE
  5
65CF
  8
0
 62
     3
 10
-475.36457854641299
 20
52.942539393731629
 30
0.0
 40
4.0
  0
LINE
  5
65D0
  8
0
 62
     3
 10
-473.164578546413
 20
29.7425393937317
 30
0.0
 11
-474.86457854641299
 21
29.7425393937317
 31
0.0
  0
LINE
  5
65D1
  8
0
 62
     3
 10
-471.56457854641297
 20
29.7425393937317
 30
0.0
 11
-471.56457854641297
 21
31.442539393731639
 31
0.0
  0
LINE
  5
65D2
  8
0
 62
     3
 10
-473.164578546413
 20
29.7425393937317
 30
0.0
 11
-473.164578546413
 21
31.442539393731639
 31
0.0
  0
LINE
  5
65D3
  8
0
 62
     3
 10
-473.164578546413
 20
28.142539393731571
 30
0.0
 11
-474.86457854641299
 21
28.142539393731571
 31
0.0
  0
LINE
  5
65D4
  8
0
 62
     3
 10
-471.56457854641297
 20
26.442539393731639
 30
0.0
 11
-471.56457854641297
 21
28.142539393731571
 31
0.0
  0
LINE
  5
65D5
  8
0
 62
     3
 10
-473.164578546413
 20
26.442539393731639
 30
0.0
 11
-473.164578546413
 21
28.142539393731571
 31
0.0
  0
LINE
  5
65D6
  8
0
 62
     3
 10
-469.8645785464131
 20
28.142539393731571
 30
0.0
 11
-471.56457854641297
 21
28.142539393731571
 31
0.0
  0
LINE
  5
65D7
  8
0
 62
     3
 10
-469.8645785464131
 20
29.7425393937317
 30
0.0
 11
-471.56457854641297
 21
29.7425393937317
 31
0.0
  0
LINE
  5
65D8
  8
0
 62
     3
 10
-473.164578546413
 20
26.442539393731639
 30
0.0
 11
-471.56457854641297
 21
26.442539393731639
 31
0.0
  0
LINE
  5
65D9
  8
0
 62
     3
 10
-473.164578546413
 20
31.442539393731639
 30
0.0
 11
-471.56457854641297
 21
31.442539393731639
 31
0.0
  0
LINE
  5
65DA
  8
0
 62
     3
 10
-474.86457854641299
 20
29.7425393937317
 30
0.0
 11
-474.86457854641299
 21
28.142539393731571
 31
0.0
  0
LINE
  5
65DB
  8
0
 62
     3
 10
-469.8645785464131
 20
29.7425393937317
 30
0.0
 11
-469.8645785464131
 21
28.142539393731571
 31
0.0
  0
CIRCLE
  5
65DC
  8
0
 62
     3
 10
-472.3645785464131
 20
28.942539393731639
 30
0.0
 40
4.0
  0
CIRCLE
  5
65DD
  8
0
 62
     3
 10
-543.3645785464131
 20
52.942539393731629
 30
0.0
 40
4.0
  0
LINE
  5
65DE
  8
0
 10
-529.86457854641299
 20
12.94167366909323
 30
0.0
 11
-548.88404311824308
 21
12.94167366909323
 31
0.0
  0
LINE
  5
65DF
  8
0
 10
-469.84511397458277
 20
12.94167366909323
 30
0.0
 11
-488.8645785464127
 21
12.94167366909323
 31
0.0
  0
LINE
  5
65E0
  8
0
 10
-547.94031447770078
 20
62.441673669093582
 30
0.0
 11
-519.78884261512462
 21
62.44167366909334
 31
0.0
  0
LINE
  5
65E1
  8
0
 10
-550.60995389641334
 20
14.27729650009837
 30
0.0
 11
-550.60995389641334
 21
48.441673669093348
 31
0.0
  0
LINE
  5
65E2
  8
0
 10
-552.01125594704865
 20
15.361715831408331
 30
0.0
 11
-558.29027408097977
 21
39.588721281849871
 31
0.0
  0
LINE
  5
65E3
  8
0
 10
-552.01125594704865
 20
15.361715831408331
 30
0.0
 11
-548.88404311824308
 21
12.94167366909323
 31
0.0
  0
LINE
  5
65E4
  8
µę˝u
 10
-553.36457854641299
 20
49.341673669093439
 30
0.0
 11
-565.36457854641299
 21
49.341673669093439
 31
0.0
  0
LINE
  5
65E5
  8
µę˝u
 10
-553.36457854641299
 20
62.741673669093522
 30
0.0
 11
-565.36457854641299
 21
62.741673669093522
 31
0.0
  0
LINE
  5
65E6
  8
0
 10
-567.36457854641276
 20
63.441673669093348
 30
0.0
 11
-548.94031447770089
 21
63.441673669093348
 31
0.0
  0
LINE
  5
65E7
  8
0
 10
-560.70508864670251
 20
41.441673669093568
 30
0.0
 11
-568.5645785464128
 21
41.441673669093568
 31
0.0
  0
LINE
  5
65E8
  8
0
 10
-550.60995389641334
 20
48.441673669093348
 30
0.0
 11
-569.36457854641264
 21
48.441673669093348
 31
0.0
  0
LINE
  5
65E9
  8
µę˝u
 10
-564.48957854641299
 20
62.741673669093522
 30
0.0
 11
-564.48957854641299
 21
49.341673669093439
 31
0.0
  0
LINE
  5
65EA
  8
µę˝u
 10
-565.36457854641299
 20
62.741673669093522
 30
0.0
 11
-565.36457854641299
 21
49.341673669093439
 31
0.0
  0
LINE
  5
65EB
  8
0
 10
-569.36457854641264
 20
42.241673669093529
 30
0.0
 11
-569.36457854641264
 21
61.441673669093348
 31
0.0
  0
LINE
  5
65EC
  8
µę˝u
 10
-565.36457854641299
 20
49.341673669093439
 30
0.0
 11
-566.26457854641296
 21
48.441673669093348
 31
0.0
  0
LINE
  5
65ED
  8
0
 10
-569.36457854641264
 20
42.241673669093529
 30
0.0
 11
-568.5645785464128
 21
41.441673669093568
 31
0.0
  0
LINE
  5
65EE
  8
µę˝u
 10
-565.36457854641299
 20
62.741673669093522
 30
0.0
 11
-566.06457854641314
 21
63.441673669093348
 31
0.0
  0
LINE
  5
65EF
  8
0
 10
-567.36457854641276
 20
63.441673669093348
 30
0.0
 11
-569.36457854641264
 21
61.441673669093348
 31
0.0
  0
LINE
  5
65F0
  8
¤¤¤ß˝u
 10
-559.36457854641287
 20
65.641673669093393
 30
0.0
 11
-559.36457854641287
 21
44.441673669093348
 31
0.0
  0
LINE
  5
65F1
  8
µę˝u
 10
-554.23957854641299
 20
62.741673669093522
 30
0.0
 11
-554.23957854641299
 21
49.341673669093439
 31
0.0
  0
LINE
  5
65F2
  8
µę˝u
 10
-553.36457854641299
 20
62.741673669093522
 30
0.0
 11
-553.36457854641299
 21
49.341673669093439
 31
0.0
  0
ARC
  5
65F3
  8
0
 10
-560.70508864670251
 20
38.941673669093568
 30
0.0
 40
2.5
 50
14.99999999999738
 51
90.0
  0
LINE
  5
65F4
  8
µę˝u
 10
-553.36457854641299
 20
49.341673669093439
 30
0.0
 11
-552.46457854641278
 21
48.441673669093348
 31
0.0
  0
LINE
  5
65F5
  8
µę˝u
 10
-553.36457854641299
 20
62.741673669093522
 30
0.0
 11
-552.66457854641294
 21
63.441673669093348
 31
0.0
  0
LINE
  5
65F6
  8
0
 10
-547.94031447770078
 20
62.441673669093582
 30
0.0
 11
-548.94031447770089
 21
63.441673669093348
 31
0.0
  0
LINE
  5
65F7
  8
0
 10
-468.10995389641329
 20
14.2844542143946
 30
0.0
 11
-468.10995389641329
 21
48.441673669093348
 31
0.0
  0
LINE
  5
65F8
  8
0
 10
-466.7179011457776
 20
15.361715831408331
 30
0.0
 11
-460.4388830118462
 21
39.588721281849871
 31
0.0
  0
LINE
  5
65F9
  8
0
 10
-469.84511397458277
 20
12.94167366909323
 30
0.0
 11
-466.7179011457776
 21
15.361715831408331
 31
0.0
  0
LINE
  5
65FA
  8
0
 10
-451.36457854641287
 20
63.441673669093348
 30
0.0
 11
-449.36457854641299
 21
61.441673669093227
 31
0.0
  0
ARC
  5
65FB
  8
0
 10
-451.3628719159139
 20
42.441673669093582
 30
0.0
 40
1.0
 50
270.0
 51
359.50000000000188
  0
LINE
  5
65FC
  8
0
 10
-468.10995389641329
 20
48.441673669093348
 30
0.0
 11
-449.36457854641299
 21
48.441673669093348
 31
0.0
  0
LINE
  5
65FD
  8
0
 10
-470.78884261512462
 20
62.441673669093582
 30
0.0
 11
-498.94031447770089
 21
62.441673669093582
 31
0.0
  0
LINE
  5
65FE
  8
0
 10
-518.78884261512508
 20
63.441673669093461
 30
0.0
 11
-499.94031447770089
 21
63.441673669093461
 31
0.0
  0
LINE
  5
65FF
  8
0
 10
-519.78884261512462
 20
62.44167366909334
 30
0.0
 11
-518.78884261512508
 21
63.441673669093461
 31
0.0
  0
LINE
  5
6600
  8
0
 10
-498.94031447770089
 20
62.441673669093582
 30
0.0
 11
-499.94031447770089
 21
63.441673669093461
 31
0.0
  0
LINE
  5
6601
  8
¤¤¤ß˝u
 10
-459.36457854641287
 20
65.641673669093393
 30
0.0
 11
-459.36457854641287
 21
44.441673669093348
 31
0.0
  0
LINE
  5
6602
  8
µę˝u
 10
-454.23957854641299
 20
62.741673669093522
 30
0.0
 11
-454.23957854641299
 21
49.341673669093439
 31
0.0
  0
LINE
  5
6603
  8
µę˝u
 10
-453.36457854641299
 20
62.741673669093522
 30
0.0
 11
-453.36457854641299
 21
49.341673669093439
 31
0.0
  0
LINE
  5
6604
  8
µę˝u
 10
-464.48957854641299
 20
62.741673669093522
 30
0.0
 11
-464.48957854641299
 21
49.341673669093439
 31
0.0
  0
LINE
  5
6605
  8
µę˝u
 10
-465.36457854641299
 20
62.741673669093522
 30
0.0
 11
-465.36457854641299
 21
49.341673669093439
 31
0.0
  0
ARC
  5
6606
  8
0
 10
-458.02406844612352
 20
38.941673669093568
 30
0.0
 40
2.5
 50
90.0
 51
165.00000000000259
  0
LINE
  5
6607
  8
µę˝u
 10
-453.36457854641299
 20
49.341673669093439
 30
0.0
 11
-465.36457854641299
 21
49.341673669093439
 31
0.0
  0
LINE
  5
6608
  8
µę˝u
 10
-465.36457854641299
 20
49.341673669093439
 30
0.0
 11
-466.26457854641302
 21
48.441673669093348
 31
0.0
  0
LINE
  5
6609
  8
µę˝u
 10
-453.36457854641299
 20
49.341673669093439
 30
0.0
 11
-452.46457854641278
 21
48.441673669093348
 31
0.0
  0
LINE
  5
660A
  8
0
 10
-458.02406844612352
 20
41.441673669093568
 30
0.0
 11
-451.3628719159139
 21
41.441673669093568
 31
0.0
  0
LINE
  5
660B
  8
0
 10
-469.78884261512508
 20
63.441673669093348
 30
0.0
 11
-451.36457854641287
 21
63.441673669093348
 31
0.0
  0
LINE
  5
660C
  8
0
 10
-470.78884261512462
 20
62.441673669093582
 30
0.0
 11
-469.78884261512508
 21
63.441673669093348
 31
0.0
  0
LINE
  5
660D
  8
µę˝u
 10
-465.36457854641299
 20
62.741673669093522
 30
0.0
 11
-453.36457854641299
 21
62.741673669093522
 31
0.0
  0
LINE
  5
660E
  8
µę˝u
 10
-465.36457854641299
 20
62.741673669093522
 30
0.0
 11
-466.0645785464128
 21
63.441673669093461
 31
0.0
  0
LINE
  5
660F
  8
µę˝u
 10
-453.36457854641299
 20
62.741673669093522
 30
0.0
 11
-452.66457854641322
 21
63.441673669093348
 31
0.0
  0
LINE
  5
6610
  8
0
 10
-449.36457854641299
 20
61.441673669093227
 30
0.0
 11
-449.36457854641299
 21
48.317409600381438
 31
0.0
  0
LINE
  5
6611
  8
0
 10
-449.36457854641299
 20
48.317409600381438
 30
0.0
 11
-450.03060895640942
 21
47.651379190385221
 31
0.0
  0
ARC
  5
6612
  8
0
 10
-449.3235021752227
 20
46.944272409198781
 30
0.0
 40
1.0
 50
134.99999999999099
 51
179.49999999999531
  0
LINE
  5
6613
  8
0
 10
-450.36290999285012
 20
42.432947133595121
 30
0.0
 11
-450.3234640982871
 21
46.952998944697242
 31
0.0
  0
LINE
  5
6614
  8
0
 10
-316.6919322832685
 20
63.441673669093461
 30
0.0
 11
-187.89193228326889
 21
63.441673669093227
 31
0.0
  0
LINE
  5
6615
  8
0
 10
-333.39193228326911
 20
58.941033431800633
 30
0.0
 11
-316.69193228326873
 21
58.94103343180052
 31
0.0
  0
LINE
  5
6616
  8
0
 10
-333.39193228326911
 20
61.941033431800641
 30
0.0
 11
-316.69193228326873
 21
61.941033431800641
 31
0.0
  0
LINE
  5
6617
  8
0
 10
-335.891932283269
 20
15.941033431800291
 30
0.0
 11
-168.69193228326799
 21
15.941033431800401
 31
0.0
  0
LINE
  5
6618
  8
0
 10
-333.39193228326911
 20
12.94103343180063
 30
0.0
 11
-333.39193228326911
 21
61.941033431800641
 31
0.0
  0
LINE
  5
6619
  8
0
 10
-333.39193228326911
 20
12.94103343180063
 30
0.0
 11
-333.39193228326911
 21
61.941033431800641
 31
0.0
  0
CIRCLE
  5
661A
  8
0
 10
-327.391932283269
 20
42.941033431800633
 30
0.0
 40
4.549999999999998
  0
CIRCLE
  5
661B
  8
0
 10
-327.391932283269
 20
42.941033431800633
 30
0.0
 40
4.25
  0
CIRCLE
  5
661C
  8
0
 10
-327.391932283269
 20
42.941033431800633
 30
0.0
 40
3.9375
  0
CIRCLE
  5
661D
  8
0
 10
-327.391932283269
 20
42.941033431800633
 30
0.0
 40
0.75
  0
LINE
  5
661E
  8
0
 10
-316.69193228326873
 20
61.437668812916293
 30
0.0
 11
-187.89193228326889
 21
61.437668812916172
 31
0.0
  0
LINE
  5
661F
  8
µę˝u
 10
-286.29204794431109
 20
62.737011788211021
 30
0.0
 11
-286.29424891832838
 21
49.337011968968
 31
0.0
  0
LINE
  5
6620
  8
µę˝u
 10
-287.16704793250801
 20
62.737155508529327
 30
0.0
 11
-287.1692489065253
 21
49.337155689286192
 31
0.0
  0
LINE
  5
6621
  8
µę˝u
 10
-298.29204778243928
 20
62.738982809719118
 30
0.0
 11
-298.29424875645668
 21
49.338982990475976
 31
0.0
  0
LINE
  5
6622
  8
µę˝u
 10
-297.41704779424231
 20
62.738839089400813
 30
0.0
 11
-297.41924876825959
 21
49.338839270157671
 31
0.0
  0
LINE
  5
6623
  8
¤¤¤ß˝u
 10
-292.29160438353603
 20
65.437997262543718
 30
0.0
 11
-292.2948331619441
 21
45.780504831703411
 31
0.0
  0
LINE
  5
6624
  8
0
 10
-316.6919322832685
 20
63.441673669093461
 30
0.0
 11
-316.69193228326878
 21
12.94103343180063
 31
0.0
  0
POLYLINE
  5
6625
  8
0
 66
     1
 10
0.0
 20
0.0
 30
0.0
  0
VERTEX
  5
67AC
  8
0
 10
-300.03583647785302
 20
41.745844180909437
 30
0.0
  0
VERTEX
  5
67AD
  8
0
 10
-300.02777191309627
 20
41.647973530746057
 30
0.0
  0
VERTEX
  5
67AE
  8
0
 10
-300.00447192365351
 20
41.500295067380868
 30
0.0
  0
VERTEX
  5
67AF
  8
0
 10
-299.99379662405931
 20
41.440970866216162
 30
0.0
  0
VERTEX
  5
67B0
  8
0
 10
-299.95035607023931
 20
41.21100055594934
 30
0.0
  0
VERTEX
  5
67B1
  8
0
 10
-299.91066621829441
 20
40.999118857522262
 30
0.0
  0
VERTEX
  5
67B2
  8
0
 10
-299.84216805572942
 20
40.596237063884018
 30
0.0
  0
VERTEX
  5
67B3
  8
0
 10
-299.77839324504362
 20
40.123535452179681
 30
0.0
  0
VERTEX
  5
67B4
  8
0
 10
-299.76079787481387
 20
39.955487220305152
 30
0.0
  0
VERTEX
  5
67B5
  8
0
 10
-299.73661451923738
 20
39.664044434574521
 30
0.0
  0
VERTEX
  5
67B6
  8
0
 10
-299.7144930840401
 20
39.381243760782702
 30
0.0
  0
VERTEX
  5
67B7
  8
0
 10
-299.66603888724239
 20
38.796109983354079
 30
0.0
  0
VERTEX
  5
67B8
  8
0
 10
-299.56054806249767
 20
37.651508560137472
 30
0.0
  0
VERTEX
  5
67B9
  8
0
 10
-299.3525492056915
 20
35.750173576129669
 30
0.0
  0
VERTEX
  5
67BA
  8
0
 10
-299.09309258709322
 20
33.801240188107947
 30
0.0
  0
VERTEX
  5
67BB
  8
0
 10
-298.99556216602917
 20
33.153043280342331
 30
0.0
  0
VERTEX
  5
67BC
  8
0
 10
-298.67616942561591
 20
31.263235526655201
 30
0.0
  0
VERTEX
  5
67BD
  8
0
 10
-298.39106181081388
 20
29.813209864006922
 30
0.0
  0
VERTEX
  5
67BE
  8
0
 10
-298.14301631125818
 20
28.690546823003391
 30
0.0
  0
VERTEX
  5
67BF
  8
0
 10
-297.82628865943849
 20
27.407640742173839
 30
0.0
  0
VERTEX
  5
67C0
  8
0
 10
-297.55309316976951
 20
26.41638657433521
 30
0.0
  0
VERTEX
  5
67C1
  8
0
 10
-297.18029740570938
 20
25.20830195439521
 30
0.0
  0
VERTEX
  5
67C2
  8
0
 10
-296.85709358295389
 20
24.278904603135182
 30
0.0
  0
VERTEX
  5
67C3
  8
0
 10
-296.42426287980851
 20
23.182063746272551
 30
0.0
  0
VERTEX
  5
67C4
  8
0
 10
-296.3116766199837
 20
22.92204386695084
 30
0.0
  0
VERTEX
  5
67C5
  8
0
 10
-296.25366124693801
 20
22.793528674385019
 30
0.0
  0
VERTEX
  5
67C6
  8
0
 10
-296.1688864972009
 20
22.637550940179501
 30
0.0
  0
VERTEX
  5
67C7
  8
0
 10
-295.9640738956316
 20
22.361309255249122
 30
0.0
  0
VERTEX
  5
67C8
  8
0
 10
-295.77591695503679
 20
22.17511105896358
 30
0.0
  0
VERTEX
  5
67C9
  8
0
 10
-295.50047723112738
 20
21.96785368870826
 30
0.0
  0
VERTEX
  5
67CA
  8
0
 10
-295.13140199373129
 20
21.76552265015221
 30
0.0
  0
VERTEX
  5
67CB
  8
0
 10
-294.82508948838722
 20
21.640455552838709
 30
0.0
  0
VERTEX
  5
67CC
  8
0
 10
-294.37894711834917
 20
21.505076390194411
 30
0.0
  0
VERTEX
  5
67CD
  8
0
 10
-293.74119425014101
 20
21.379399253032151
 30
0.0
  0
VERTEX
  5
67CE
  8
0
 10
-293.0793654793863
 20
21.30698301773737
 30
0.0
  0
VERTEX
  5
67CF
  8
0
 10
-292.55773141743941
 20
21.28221947238319
 30
0.0
  0
VERTEX
  5
67D0
  8
0
 10
-291.8465529604743
 20
21.287928545688711
 30
0.0
  0
VERTEX
  5
67D1
  8
0
 10
-291.29693255244098
 20
21.32496757706679
 30
0.0
  0
VERTEX
  5
67D2
  8
0
 10
-290.6148887993989
 20
21.417611396054209
 30
0.0
  0
VERTEX
  5
67D3
  8
0
 10
-290.10107892662541
 20
21.533986231458929
 30
0.0
  0
VERTEX
  5
67D4
  8
0
 10
-289.64124452141351
 20
21.68647736633261
 30
0.0
  0
VERTEX
  5
67D5
  8
0
 10
-289.30648103668
 20
21.840161825565929
 30
0.0
  0
VERTEX
  5
67D6
  8
0
 10
-289.06193902956892
 20
21.985396368669861
 30
0.0
  0
VERTEX
  5
67D7
  8
0
 10
-288.77757396576573
 20
22.206639388118219
 30
0.0
  0
VERTEX
  5
67D8
  8
0
 10
-288.58273347690812
 20
22.41002979684265
 30
0.0
  0
VERTEX
  5
67D9
  8
0
 10
-288.39649156581658
 20
22.677155810835639
 30
0.0
  0
VERTEX
  5
67DA
  8
0
 10
-288.32855612834089
 20
22.807328548371629
 30
0.0
  0
VERTEX
  5
67DB
  8
0
 10
-288.27090790101312
 20
22.936124652174609
 30
0.0
  0
VERTEX
  5
67DC
  8
0
 10
-287.84125784369479
 20
23.986017790012511
 30
0.0
  0
VERTEX
  5
67DD
  8
0
 10
-287.41273890568499
 20
25.195374911732991
 30
0.0
  0
VERTEX
  5
67DE
  8
0
 10
-287.11474475843897
 20
26.147087785675922
 30
0.0
  0
VERTEX
  5
67DF
  8
0
 10
-286.73970312982811
 20
27.493513191791749
 30
0.0
  0
VERTEX
  5
67E0
  8
0
 10
-286.342222474366
 20
29.144050108640499
 30
0.0
  0
VERTEX
  5
67E1
  8
0
 10
-286.07093509003562
 20
30.435890743704821
 30
0.0
  0
VERTEX
  5
67E2
  8
0
 10
-285.73499329564982
 20
32.273748341677333
 30
0.0
  0
VERTEX
  5
67E3
  8
0
 10
-285.44265547835732
 20
34.171053759261902
 30
0.0
  0
VERTEX
  5
67E4
  8
0
 10
-285.35601850624312
 20
34.804971021536403
 30
0.0
  0
VERTEX
  5
67E5
  8
0
 10
-285.1394235797124
 20
36.587469465394292
 30
0.0
  0
VERTEX
  5
67E6
  8
0
 10
-284.95550604427569
 20
38.423507870493829
 30
0.0
  0
VERTEX
  5
67E7
  8
0
 10
-284.90242786066727
 20
39.036246824303817
 30
0.0
  0
VERTEX
  5
67E8
  8
0
 10
-284.85885414578502
 20
39.577564903812352
 30
0.0
  0
VERTEX
  5
67E9
  8
0
 10
-284.83850264191301
 20
39.839089297714573
 30
0.0
  0
VERTEX
  5
67EA
  8
0
 10
-284.81409814030661
 20
40.090641655397569
 30
0.0
  0
VERTEX
  5
67EB
  8
0
 10
-284.7607022435771
 20
40.503857684929699
 30
0.0
  0
VERTEX
  5
67EC
  8
0
 10
-284.69869192382782
 20
40.88478701559734
 30
0.0
  0
VERTEX
  5
67ED
  8
0
 10
-284.67795320400211
 20
41.000066267483362
 30
0.0
  0
VERTEX
  5
67EE
  8
0
 10
-284.62746813847872
 20
41.269235572448331
 30
0.0
  0
VERTEX
  5
67EF
  8
0
 10
-284.58960356141358
 20
41.471642381638837
 30
0.0
  0
VERTEX
  5
67F0
  8
0
 10
-284.5630456673104
 20
41.632636040150373
 30
0.0
  0
VERTEX
  5
67F1
  8
0
 10
-284.55770468067612
 20
41.674957893221517
 30
0.0
  0
VERTEX
  5
67F2
  8
0
 10
-284.55352128704828
 20
41.763086121409629
 30
0.0
  0
VERTEX
  5
67F3
  8
0
 10
-284.56221353863481
 20
41.797474854030497
 30
0.0
  0
VERTEX
  5
67F4
  8
0
 10
-284.57124977391908
 20
41.80311242702782
 30
0.0
  0
SEQEND
  5
67F5
  8
0
  0
LINE
  5
6626
  8
0
 10
-300.03583647785302
 20
48.439130829229377
 30
0.0
 11
-284.55295647785272
 21
48.439130829229377
 31
0.0
  0
LINE
  5
6627
  8
µę˝u
 10
-298.29424875645668
 20
49.338982990475976
 30
0.0
 11
-286.29424891832838
 21
49.337011968968
 31
0.0
  0
LINE
  5
6628
  8
0
 10
-300.03583647785302
 20
48.439130829229377
 30
0.0
 11
-300.03583647785302
 21
41.803610829229342
 31
0.0
  0
LINE
  5
6629
  8
0
 10
-316.69162180526041
 20
41.437800484136801
 30
0.0
 11
-299.99319775043477
 21
41.437800484139181
 31
0.0
  0
LINE
  5
662A
  8
µę˝u
 10
-298.29424875645668
 20
49.338982990475976
 30
0.0
 11
-299.19439657092948
 21
48.439130829229377
 31
0.0
  0
LINE
  5
662B
  8
0
 10
-284.55295647785272
 20
48.439130829229377
 30
0.0
 11
-284.55295647785272
 21
41.803610829229342
 31
0.0
  0
LINE
  5
662C
  8
µę˝u
 10
-286.29424891832838
 20
49.337011968968
 30
0.0
 11
-285.39439675708178
 21
48.436864154495083
 31
0.0
  0
LINE
  5
662D
  8
µę˝u
 10
-298.29204778243928
 20
62.738982809719118
 30
0.0
 11
-286.29204794431109
 21
62.737011788211021
 31
0.0
  0
LINE
  5
662E
  8
µę˝u
 10
-298.29204778243928
 20
62.738982809719118
 30
0.0
 11
-298.99193279674211
 21
63.439097776531071
 31
0.0
  0
LINE
  5
662F
  8
µę˝u
 10
-286.29204794431109
 20
62.737011788211021
 30
0.0
 11
-285.5919329774988
 21
63.436896802513722
 31
0.0
  0
LINE
  5
6630
  8
0
 10
-187.89193228326889
 20
63.441673669093227
 30
0.0
 11
-187.89193228326869
 21
12.941033431800751
 31
0.0
  0
LINE
  5
6631
  8
0
 10
-171.19193228326861
 20
12.941033431800751
 30
0.0
 11
-171.19193228326861
 21
61.941033431800641
 31
0.0
  0
LINE
  5
6632
  8
µę˝u
 10
-206.29204794431121
 20
62.737011788211021
 30
0.0
 11
-206.29424891832849
 21
49.337011968967879
 31
0.0
  0
LINE
  5
6633
  8
µę˝u
 10
-207.16704793250781
 20
62.737155508529327
 30
0.0
 11
-207.1692489065251
 21
49.337155689286192
 31
0.0
  0
LINE
  5
6634
  8
µę˝u
 10
-218.2920477824392
 20
62.738982809719118
 30
0.0
 11
-218.2942487564564
 21
49.338982990475976
 31
0.0
  0
LINE
  5
6635
  8
µę˝u
 10
-217.41704779424219
 20
62.738839089400813
 30
0.0
 11
-217.41924876825971
 21
49.338839270157671
 31
0.0
  0
LINE
  5
6636
  8
¤¤¤ß˝u
 10
-212.291604383536
 20
65.437997262543718
 30
0.0
 11
-212.2948331619439
 21
45.780504831703411
 31
0.0
  0
POLYLINE
  5
6637
  8
0
 66
     1
 10
0.0
 20
0.0
 30
0.0
  0
VERTEX
  5
67F6
  8
0
 10
-220.03583647785291
 20
41.745844180909437
 30
0.0
  0
VERTEX
  5
67F7
  8
0
 10
-220.02777191309619
 20
41.647973530746057
 30
0.0
  0
VERTEX
  5
67F8
  8
0
 10
-220.00447192365331
 20
41.500295067380868
 30
0.0
  0
VERTEX
  5
67F9
  8
0
 10
-219.99379662405931
 20
41.440970866216162
 30
0.0
  0
VERTEX
  5
67FA
  8
0
 10
-219.9503560702392
 20
41.21100055594934
 30
0.0
  0
VERTEX
  5
67FB
  8
0
 10
-219.9106662182943
 20
40.999118857522262
 30
0.0
  0
VERTEX
  5
67FC
  8
0
 10
-219.84216805572939
 20
40.596237063884018
 30
0.0
  0
VERTEX
  5
67FD
  8
0
 10
-219.77839324504359
 20
40.123535452179681
 30
0.0
  0
VERTEX
  5
67FE
  8
0
 10
-219.7607978748139
 20
39.955487220305152
 30
0.0
  0
VERTEX
  5
67FF
  8
0
 10
-219.73661451923721
 20
39.664044434574521
 30
0.0
  0
VERTEX
  5
6800
  8
0
 10
-219.7144930840401
 20
39.381243760782702
 30
0.0
  0
VERTEX
  5
6801
  8
0
 10
-219.66603888724239
 20
38.796109983354079
 30
0.0
  0
VERTEX
  5
6802
  8
0
 10
-219.56054806249759
 20
37.651508560137472
 30
0.0
  0
VERTEX
  5
6803
  8
0
 10
-219.35254920569139
 20
35.750173576129669
 30
0.0
  0
VERTEX
  5
6804
  8
0
 10
-219.09309258709311
 20
33.801240188107947
 30
0.0
  0
VERTEX
  5
6805
  8
0
 10
-218.99556216602909
 20
33.153043280342331
 30
0.0
  0
VERTEX
  5
6806
  8
0
 10
-218.6761694256158
 20
31.263235526655201
 30
0.0
  0
VERTEX
  5
6807
  8
0
 10
-218.3910618108138
 20
29.813209864006922
 30
0.0
  0
VERTEX
  5
6808
  8
0
 10
-218.14301631125801
 20
28.690546823003391
 30
0.0
  0
VERTEX
  5
6809
  8
0
 10
-217.8262886594386
 20
27.407640742173839
 30
0.0
  0
VERTEX
  5
680A
  8
0
 10
-217.55309316976931
 20
26.41638657433521
 30
0.0
  0
VERTEX
  5
680B
  8
0
 10
-217.18029740570941
 20
25.20830195439521
 30
0.0
  0
VERTEX
  5
680C
  8
0
 10
-216.85709358295389
 20
24.278904603135182
 30
0.0
  0
VERTEX
  5
680D
  8
0
 10
-216.4242628798082
 20
23.182063746272551
 30
0.0
  0
VERTEX
  5
680E
  8
0
 10
-216.31167661998359
 20
22.92204386695084
 30
0.0
  0
VERTEX
  5
680F
  8
0
 10
-216.25366124693801
 20
22.793528674385019
 30
0.0
  0
VERTEX
  5
6810
  8
0
 10
-216.16888649720079
 20
22.637550940179501
 30
0.0
  0
VERTEX
  5
6811
  8
0
 10
-215.96407389563149
 20
22.361309255249122
 30
0.0
  0
VERTEX
  5
6812
  8
0
 10
-215.77591695503679
 20
22.17511105896358
 30
0.0
  0
VERTEX
  5
6813
  8
0
 10
-215.50047723112741
 20
21.96785368870826
 30
0.0
  0
VERTEX
  5
6814
  8
0
 10
-215.13140199373129
 20
21.76552265015221
 30
0.0
  0
VERTEX
  5
6815
  8
0
 10
-214.82508948838711
 20
21.640455552838709
 30
0.0
  0
VERTEX
  5
6816
  8
0
 10
-214.3789471183492
 20
21.505076390194411
 30
0.0
  0
VERTEX
  5
6817
  8
0
 10
-213.74119425014101
 20
21.379399253032151
 30
0.0
  0
VERTEX
  5
6818
  8
0
 10
-213.0793654793863
 20
21.30698301773737
 30
0.0
  0
VERTEX
  5
6819
  8
0
 10
-212.5577314174395
 20
21.28221947238319
 30
0.0
  0
VERTEX
  5
681A
  8
0
 10
-211.84655296047441
 20
21.287928545688711
 30
0.0
  0
VERTEX
  5
681B
  8
0
 10
-211.29693255244069
 20
21.32496757706679
 30
0.0
  0
VERTEX
  5
681C
  8
0
 10
-210.61488879939881
 20
21.417611396054209
 30
0.0
  0
VERTEX
  5
681D
  8
0
 10
-210.10107892662541
 20
21.533986231458929
 30
0.0
  0
VERTEX
  5
681E
  8
0
 10
-209.6412445214134
 20
21.68647736633261
 30
0.0
  0
VERTEX
  5
681F
  8
0
 10
-209.30648103668
 20
21.840161825565929
 30
0.0
  0
VERTEX
  5
6820
  8
0
 10
-209.061939029569
 20
21.985396368669861
 30
0.0
  0
VERTEX
  5
6821
  8
0
 10
-208.7775739657657
 20
22.206639388118219
 30
0.0
  0
VERTEX
  5
6822
  8
0
 10
-208.582733476908
 20
22.41002979684265
 30
0.0
  0
VERTEX
  5
6823
  8
0
 10
-208.3964915658164
 20
22.677155810835639
 30
0.0
  0
VERTEX
  5
6824
  8
0
 10
-208.32855612834081
 20
22.807328548371629
 30
0.0
  0
VERTEX
  5
6825
  8
0
 10
-208.27090790101309
 20
22.936124652174609
 30
0.0
  0
VERTEX
  5
6826
  8
0
 10
-207.8412578436949
 20
23.986017790012511
 30
0.0
  0
VERTEX
  5
6827
  8
0
 10
-207.4127389056851
 20
25.195374911732991
 30
0.0
  0
VERTEX
  5
6828
  8
0
 10
-207.1147447584388
 20
26.147087785675922
 30
0.0
  0
VERTEX
  5
6829
  8
0
 10
-206.73970312982809
 20
27.493513191791749
 30
0.0
  0
VERTEX
  5
682A
  8
0
 10
-206.34222247436611
 20
29.144050108640499
 30
0.0
  0
VERTEX
  5
682B
  8
0
 10
-206.07093509003559
 20
30.435890743704821
 30
0.0
  0
VERTEX
  5
682C
  8
0
 10
-205.7349932956497
 20
32.273748341677333
 30
0.0
  0
VERTEX
  5
682D
  8
0
 10
-205.44265547835741
 20
34.171053759261902
 30
0.0
  0
VERTEX
  5
682E
  8
0
 10
-205.35601850624309
 20
34.804971021536403
 30
0.0
  0
VERTEX
  5
682F
  8
0
 10
-205.1394235797122
 20
36.587469465394292
 30
0.0
  0
VERTEX
  5
6830
  8
0
 10
-204.95550604427561
 20
38.423507870493829
 30
0.0
  0
VERTEX
  5
6831
  8
0
 10
-204.9024278606673
 20
39.036246824303817
 30
0.0
  0
VERTEX
  5
6832
  8
0
 10
-204.85885414578479
 20
39.577564903812352
 30
0.0
  0
VERTEX
  5
6833
  8
0
 10
-204.83850264191301
 20
39.839089297714573
 30
0.0
  0
VERTEX
  5
6834
  8
0
 10
-204.8140981403065
 20
40.090641655397569
 30
0.0
  0
VERTEX
  5
6835
  8
0
 10
-204.76070224357699
 20
40.503857684929699
 30
0.0
  0
VERTEX
  5
6836
  8
0
 10
-204.69869192382771
 20
40.88478701559734
 30
0.0
  0
VERTEX
  5
6837
  8
0
 10
-204.67795320400199
 20
41.000066267483362
 30
0.0
  0
VERTEX
  5
6838
  8
0
 10
-204.62746813847869
 20
41.269235572448331
 30
0.0
  0
VERTEX
  5
6839
  8
0
 10
-204.5896035614135
 20
41.471642381638837
 30
0.0
  0
VERTEX
  5
683A
  8
0
 10
-204.56304566731049
 20
41.632636040150373
 30
0.0
  0
VERTEX
  5
683B
  8
0
 10
-204.5577046806759
 20
41.674957893221517
 30
0.0
  0
VERTEX
  5
683C
  8
0
 10
-204.5535212870484
 20
41.763086121409629
 30
0.0
  0
VERTEX
  5
683D
  8
0
 10
-204.56221353863481
 20
41.797474854030497
 30
0.0
  0
VERTEX
  5
683E
  8
0
 10
-204.57124977391911
 20
41.80311242702782
 30
0.0
  0
SEQEND
  5
683F
  8
0
  0
LINE
  5
6638
  8
µę˝u
 10
-218.2942487564564
 20
49.338982990475976
 30
0.0
 11
-219.1943965709294
 21
48.439130829229377
 31
0.0
  0
LINE
  5
6639
  8
0
 10
-220.03583647785291
 20
48.439130829229377
 30
0.0
 11
-204.5529564778528
 21
48.439130829229377
 31
0.0
  0
LINE
  5
663A
  8
0
 10
-220.03583647785291
 20
48.439130829229377
 30
0.0
 11
-220.03583647785291
 21
41.803610829229342
 31
0.0
  0
LINE
  5
663B
  8
0
 10
-204.5529564778528
 20
48.439130829229377
 30
0.0
 11
-204.5529564778528
 21
41.803610829229342
 31
0.0
  0
LINE
  5
663C
  8
µę˝u
 10
-218.2942487564564
 20
49.338982990475976
 30
0.0
 11
-206.29424891832849
 21
49.337011968967879
 31
0.0
  0
LINE
  5
663D
  8
µę˝u
 10
-206.29424891832849
 20
49.337011968967879
 30
0.0
 11
-205.39439675708169
 21
48.436864154495083
 31
0.0
  0
CIRCLE
  5
663E
  8
0
 10
-177.1919322832687
 20
42.941033431800633
 30
0.0
 40
4.549999999999998
  0
CIRCLE
  5
663F
  8
0
 10
-177.1919322832687
 20
42.941033431800633
 30
0.0
 40
3.9375
  0
CIRCLE
  5
6640
  8
0
 10
-177.1919322832687
 20
42.941033431800633
 30
0.0
 40
4.25
  0
CIRCLE
  5
6641
  8
0
 10
-177.1919322832687
 20
42.941033431800633
 30
0.0
 40
0.75
  0
LINE
  5
6642
  8
0
 10
-171.19193228326861
 20
61.941033431800641
 30
0.0
 11
-187.89193228326869
 21
61.941033431800641
 31
0.0
  0
LINE
  5
6643
  8
0
 10
-171.19193228326861
 20
58.941033431800633
 30
0.0
 11
-187.89193228326869
 21
58.941033431800633
 31
0.0
  0
LINE
  5
6644
  8
µę˝u
 10
-218.2920477824392
 20
62.738982809719118
 30
0.0
 11
-206.29204794431121
 21
62.737011788211021
 31
0.0
  0
LINE
  5
6645
  8
µę˝u
 10
-218.2920477824392
 20
62.738982809719118
 30
0.0
 11
-218.99193279674199
 21
63.43909777653095
 31
0.0
  0
LINE
  5
6646
  8
µę˝u
 10
-206.29204794431121
 20
62.737011788211021
 30
0.0
 11
-205.5919329774986
 21
63.436896802513623
 31
0.0
  0
LINE
  5
6647
  8
0
 10
-337.89193228326877
 20
12.94167366909323
 30
0.0
 11
-166.69193228326799
 21
12.94167366909323
 31
0.0
  0
LINE
  5
6648
  8
0
 10
-336.25520354926959
 20
137.22612994467841
 30
0.0
 11
-336.25520354926959
 21
219.22612994067109
 31
0.0
  0
LINE
  5
6649
  8
0
 10
-333.75520354926988
 20
137.2261186528126
 30
0.0
 11
-333.75520354926988
 21
219.22611864870791
 31
0.0
  0
LINE
  5
664A
  8
¤¤¤ß˝u
 10
-382.66025315514457
 20
164.1323849451133
 30
0.0
 11
-382.66025315514457
 21
192.3197078199014
 31
0.0
  0
CIRCLE
  5
664B
  8
0
 10
-382.66025315514457
 20
178.22604638250729
 30
0.0
 40
9.9999999999997726
  0
CIRCLE
  5
664C
  8
0
 10
-382.66025315514457
 20
178.22604638250749
 30
0.0
 40
6.9999999999998277
  0
LINE
  5
664D
  8
0
 10
-405.16025315514452
 20
155.7256826720197
 30
0.0
 11
-336.25520354926948
 21
155.72568267201979
 31
0.0
  0
ARC
  5
664E
  8
0
 10
-335.63421047470359
 20
146.0403063826505
 30
0.0
 40
2.2580177488916551
 50
105.9630221688287
 51
179.07235721200411
  0
LINE
  5
664F
  8
0
 10
-337.89193228326877
 20
143.0771207434498
 30
0.0
 11
-337.89193228326877
 21
139.3754874257196
 31
0.0
  0
ARC
  5
6650
  8
0
 10
-335.63421047470359
 20
142.41178638628409
 30
0.0
 40
2.2580177488916551
 50
180.92764278799581
 51
254.03697783117121
  0
ARC
  5
6651
  8
0
 10
-335.63421047470359
 20
139.41204408640141
 30
0.0
 40
2.2580177488916551
 50
180.92764278799581
 51
254.03697783117121
  0
LINE
  5
6652
  8
0
 10
-337.89193228326877
 20
146.0768630433322
 30
0.0
 11
-337.89193228326877
 21
142.375229725602
 31
0.0
  0
LINE
  5
6653
  8
¤¤¤ß˝u
 10
-396.75391459253882
 20
178.22604638250729
 30
0.0
 11
-368.5665917177505
 21
178.22604638250729
 31
0.0
  0
ARC
  5
6654
  8
0
  6
CONTINUOUS
 10
-334.82985691320857
 20
173.62604624971701
 30
0.0
 40
2.825346636061326
 50
147.13277999893489
 51
212.86722000106499
  0
ARC
  5
6655
  8
0
  6
CONTINUOUS
 10
-341.31788427912778
 20
170.44930673795031
 30
0.0
 40
2.4721783065536602
 50
34.632779998939561
 51
100.3672200010636
  0
ARC
  5
6656
  8
0
  6
CONTINUOUS
 10
-347.928689159275
 20
175.52507627985381
 30
0.0
 40
2.4721783065536602
 50
214.6327799989395
 51
280.36722000106357
  0
ARC
  5
6657
  8
0
  6
CONTINUOUS
 10
-351.66083838412783
 20
171.88072421318719
 30
0.0
 40
2.7462314797568039
 50
335.84790116506088
 51
45.847901165062247
  0
ARC
  5
6658
  8
0
  6
CONTINUOUS
 10
-341.59896313379357
 20
180.28855452579811
 30
0.0
 40
9.2953396429059598
 50
230.7213499979122
 51
264.27865000208948
  0
LINE
  5
6659
  8
0
  6
CONTINUOUS
 10
-347.8090530507676
 20
175.81390339556179
 30
0.0
 11
-340.3718225993573
 21
172.7333016760937
 31
0.0
  0
LINE
  5
665A
  8
0
  6
CONTINUOUS
 10
-348.87475083904542
 20
173.2410813417103
 30
0.0
 11
-341.43752038763517
 21
170.16047962224209
 31
0.0
  0
LINE
  5
665B
  8
0
  6
CONTINUOUS
 10
-342.5255950340013
 20
171.0395799207343
 30
0.0
 11
-341.76282534264681
 21
172.8810688545687
 31
0.0
  0
ARC
  5
665C
  8
0
  6
CONTINUOUS
 10
-347.33016058094921
 20
167.4081944013266
 30
0.0
 40
3.8137986940490149
 50
118.5864858262626
 51
163.58648582626219
  0
LINE
  5
665D
  8
0
  6
CONTINUOUS
 10
-350.98853688260328
 20
164.4431895171092
 30
0.0
 11
-346.16389691157963
 21
162.444758207544
 31
0.0
  0
LINE
  5
665E
  8
0
  6
CONTINUOUS
 10
-350.98853688260328
 20
168.48585080029051
 30
0.0
 11
-343.30530370420161
 21
165.30335141492171
 31
0.0
  0
LINE
  5
665F
  8
0
  6
CONTINUOUS
 10
-350.98853688260328
 20
164.4431895171092
 30
0.0
 11
-350.98853688260328
 21
168.48585080029051
 31
0.0
  0
ARC
  5
6660
  8
0
  6
CONTINUOUS
 10
-346.65418454272992
 20
167.1281959584571
 30
0.0
 40
3.8137986940490141
 50
331.41351417373647
 51
16.41351417374063
  0
LINE
  5
6661
  8
0
  6
CONTINUOUS
 10
-346.16389691157963
 20
162.444758207544
 30
0.0
 11
-343.30530370420161
 21
165.30335141492171
 31
0.0
  0
ARC
  5
6662
  8
0
  6
CONTINUOUS
 10
-340.42937674194229
 20
167.22850047572089
 30
0.0
 40
2.7462314797568039
 50
89.152098834939196
 51
159.15209883493981
  0
ARC
  5
6663
  8
0
  6
CONTINUOUS
 10
-340.49145870786469
 20
172.4444745603856
 30
0.0
 40
2.4721783065536602
 50
214.6327799989395
 51
280.36722000106357
  0
LINE
  5
6664
  8
0
  6
CONTINUOUS
 10
-348.908637249148
 20
170.6550263245573
 30
0.0
 11
-343.24217611641251
 21
168.3079012727182
 31
0.0
  0
LINE
  5
6665
  8
0
  6
CONTINUOUS
 10
-337.20286682645701
 20
172.09271304917371
 30
0.0
 11
-336.25520354926959
 21
172.09271304917391
 31
0.0
  0
LINE
  5
6666
  8
0
  6
CONTINUOUS
 10
-340.04657440979668
 20
170.01265558259809
 30
0.0
 11
-339.28374788530891
 21
171.85428172375441
 31
0.0
  0
LINE
  5
6667
  8
0
  6
CONTINUOUS
 10
-349.96282505602278
 20
174.12018146234419
 30
0.0
 11
-349.20005536466817
 21
175.96167039617859
 31
0.0
  0
LINE
  5
6668
  8
0
  6
CONTINUOUS
 10
-337.65520354926957
 20
173.62604624971701
 30
0.0
 11
-337.65520354926957
 21
182.82604651529769
 31
0.0
  0
ARC
  5
6669
  8
0
  6
CONTINUOUS
 10
-327.03195824309159
 20
178.22604638250721
 30
0.0
 40
10.62324530617823
 50
163.22134999791081
 51
196.77865000208911
  0
ARC
  5
666A
  8
0
  6
CONTINUOUS
 10
-342.45328197924988
 20
178.22604638250721
 30
0.0
 40
5.3333333333333321
 50
90.0
 51
210.83520489408471
  0
ARC
  5
666B
  8
0
  6
CONTINUOUS
 10
-348.75511473053803
 20
173.5299084574186
 30
0.0
 40
2.4721783065536602
 50
34.632779998939561
 51
100.3672200010636
  0
ARC
  5
666C
  8
0
  6
CONTINUOUS
 10
-347.64761030460909
 20
165.68582849200601
 30
0.0
 40
9.2953396429059598
 50
50.721349997912249
 51
84.278650002089492
  0
LINE
  5
666D
  8
0
  6
CONTINUOUS
 10
-347.48374809575631
 20
173.09331416323499
 30
0.0
 11
-346.7209784044021
 21
174.9348030970697
 31
0.0
  0
LINE
  5
666E
  8
0
  6
CONTINUOUS
 10
-337.20286682645701
 20
175.15937998142169
 30
0.0
 11
-336.25520354926959
 21
175.15937998142169
 31
0.0
  0
LINE
  5
666F
  8
0
  6
CONTINUOUS
 10
-340.94181091172879
 20
172.89271304917389
 30
0.0
 11
-337.55837409858322
 21
172.89271304917389
 31
0.0
  0
LINE
  5
6670
  8
0
  6
CONTINUOUS
 10
-342.45328197924988
 20
183.55937971584061
 30
0.0
 11
-337.55837409858322
 21
183.55937971584061
 31
0.0
  0
ARC
  5
6671
  8
0
  6
CONTINUOUS
 10
-334.82985691320857
 20
182.82604651529769
 30
0.0
 40
2.825346636061326
 50
147.13277999893489
 51
212.86722000106499
  0
LINE
  5
6672
  8
0
  6
CONTINUOUS
 10
-337.20286682645701
 20
181.29271278359269
 30
0.0
 11
-336.25520354926959
 21
181.29271278359269
 31
0.0
  0
LINE
  5
6673
  8
0
  6
CONTINUOUS
 10
-337.20286682645701
 20
184.3593797158409
 30
0.0
 11
-336.25520354926959
 21
184.3593797158409
 31
0.0
  0
LINE
  5
6674
  8
0
 10
-405.16025315514452
 20
200.72641009299491
 30
0.0
 11
-336.25520354926959
 21
200.72641009299491
 31
0.0
  0
ARC
  5
6675
  8
0
 10
-335.63421047470359
 20
210.41178638236411
 30
0.0
 40
2.2580177488916551
 50
180.92764278799581
 51
254.03697783117121
  0
LINE
  5
6676
  8
0
 10
-337.89193228326877
 20
217.0771207391839
 30
0.0
 11
-337.89193228326877
 21
213.37548742145341
 31
0.0
  0
ARC
  5
6677
  8
0
 10
-335.63421047470359
 20
214.04030637873049
 30
0.0
 40
2.2580177488916551
 50
105.9630221688287
 51
179.07235721200411
  0
LINE
  5
6678
  8
0
 10
-337.89193228326877
 20
214.07686303941239
 30
0.0
 11
-337.89193228326877
 21
210.3752297216819
 31
0.0
  0
ARC
  5
6679
  8
0
 10
-335.63421047470359
 20
217.040564078502
 30
0.0
 40
2.2580177488916551
 50
105.9630221688287
 51
179.07235721200411
  0
LINE
  5
667A
  8
0
 10
-316.69193228326873
 20
238.22604638250721
 30
0.0
 11
-316.69193228326873
 21
118.2260463825079
 31
0.0
  0
LINE
  5
667B
  8
AM7
 10
-252.29193228326881
 20
243.21550874024661
 30
0.0
 11
-252.29193228326881
 21
113.1835576405534
 31
0.0
  0
LINE
  5
667C
  8
0
 10
-187.89193228326869
 20
238.22604638250721
 30
0.0
 11
-187.89193228326869
 21
118.22604638250741
 31
0.0
  0
LINE
  5
667D
  8
AM7
 10
-292.29193228326869
 20
235.85311317680609
 30
0.0
 11
-292.29193228326869
 21
220.59897958820849
 31
0.0
  0
ARC
  5
667E
  8
AM5
 10
-292.29193228326869
 20
228.22604638250729
 30
0.0
 40
6.0
 50
180.0
 51
90.0
  0
LINE
  5
667F
  8
AM7
 10
-212.29193228326861
 20
235.85311317680609
 30
0.0
 11
-212.29193228326861
 21
220.59897958820849
 31
0.0
  0
ARC
  5
6680
  8
AM5
 10
-212.29193228326881
 20
228.22604638250729
 30
0.0
 40
6.0
 50
180.0
 51
90.0
  0
LINE
  5
6681
  8
AM7
 10
-292.29193228326869
 20
120.59897958820849
 30
0.0
 11
-292.29193228326869
 21
135.85311317680609
 31
0.0
  0
LINE
  5
6682
  8
AM7
 10
-212.29193228326861
 20
120.59897958820861
 30
0.0
 11
-212.29193228326861
 21
135.85311317680609
 31
0.0
  0
LINE
  5
6683
  8
0
 10
-316.69193228326873
 20
120.22604638250711
 30
0.0
 11
-187.89193228326889
 21
120.22604638250669
 31
0.0
  0
LINE
  5
6684
  8
0
 10
-316.69193228326873
 20
118.2260463825079
 30
0.0
 11
-187.89193228326869
 21
118.22604638250741
 31
0.0
  0
LINE
  5
6685
  8
AM7
 10
-284.8866598483512
 20
128.22604638250729
 30
0.0
 11
-299.69720471818619
 21
128.22604638250729
 31
0.0
  0
ARC
  5
6686
  8
AM5
 10
-292.29193228326869
 20
128.22604638250729
 30
0.0
 40
6.0
 50
180.0
 51
90.0
  0
CIRCLE
  5
6687
  8
0
 10
-292.29193228326869
 20
128.22604638250729
 30
0.0
 40
5.125
  0
CIRCLE
  5
6688
  8
0
 10
-212.29193228326881
 20
128.22604638250729
 30
0.0
 40
5.125
  0
ARC
  5
6689
  8
AM5
 10
-212.29193228326881
 20
128.22604638250729
 30
0.0
 40
6.0
 50
180.0
 51
90.0
  0
LINE
  5
668A
  8
AM7
 10
-219.6972047181863
 20
128.22604638250729
 30
0.0
 11
-204.8866598483514
 21
128.22604638250729
 31
0.0
  0
LINE
  5
668B
  8
0
 10
-316.69193228326873
 20
187.65031045121941
 30
0.0
 11
-187.89193228326869
 21
187.65031045121941
 31
0.0
  0
LINE
  5
668C
  8
0
 10
-316.69193228326873
 20
168.8017823137958
 30
0.0
 11
-187.89193228326869
 21
168.8017823137958
 31
0.0
  0
LINE
  5
668D
  8
0
 10
-316.69193228326873
 20
188.65031045121941
 30
0.0
 11
-187.89193228326869
 21
188.65031045121941
 31
0.0
  0
LINE
  5
668E
  8
0
 10
-316.69193228326873
 20
167.8017823137958
 30
0.0
 11
-187.89193228326869
 21
167.8017823137958
 31
0.0
  0
LINE
  5
668F
  8
0
 10
-316.69193228326873
 20
138.65031045121921
 30
0.0
 11
-187.89193228326869
 21
138.65031045121921
 31
0.0
  0
LINE
  5
6690
  8
0
 10
-316.69193228326873
 20
139.65031045121921
 30
0.0
 11
-187.89193228326869
 21
139.65031045121921
 31
0.0
  0
LINE
  5
6691
  8
AM7
 10
-324.36675084513701
 20
178.22604638250729
 30
0.0
 11
-183.6155025927082
 21
178.22604638250729
 31
0.0
  0
LINE
  5
6692
  8
0
 10
-316.69193228326873
 20
217.80178231379529
 30
0.0
 11
-187.89193228326869
 21
217.8017823137956
 31
0.0
  0
LINE
  5
6693
  8
0
 10
-316.69193228326873
 20
216.8017823137954
 30
0.0
 11
-187.89193228326869
 21
216.8017823137954
 31
0.0
  0
LINE
  5
6694
  8
AM7
 10
-284.88665984835109
 20
228.22604638250729
 30
0.0
 11
-299.69720471818607
 21
228.22604638250729
 31
0.0
  0
CIRCLE
  5
6695
  8
0
 10
-292.29193228326869
 20
228.22604638250729
 30
0.0
 40
5.125
  0
CIRCLE
  5
6696
  8
0
 10
-212.29193228326881
 20
228.22604638250729
 30
0.0
 40
5.125
  0
LINE
  5
6697
  8
AM7
 10
-219.6972047181863
 20
228.22604638250729
 30
0.0
 11
-204.8866598483514
 21
228.22604638250729
 31
0.0
  0
LINE
  5
6698
  8
0
 10
-118.36056363315311
 20
155.72568267201919
 30
0.0
 11
-118.36056363315311
 21
200.7264100929942
 31
0.0
  0
CIRCLE
  5
6699
  8
0
 10
-140.8605636331533
 20
178.22604638250681
 30
0.0
 40
9.9999999999997726
  0
LINE
  5
669A
  8
¤¤¤ß˝u
 10
-140.8605636331533
 20
164.13238494511279
 30
0.0
 11
-140.8605636331533
 21
192.3197078199008
 31
0.0
  0
CIRCLE
  5
669B
  8
0
 10
-140.8605636331533
 20
178.22604638250681
 30
0.0
 40
6.9999999999998277
  0
LINE
  5
669C
  8
0
 10
-118.36056363315311
 20
155.72568267201919
 30
0.0
 11
-169.39193228326849
 21
155.72568267201919
 31
0.0
  0
LINE
  5
669D
  8
¤¤¤ß˝u
 10
-154.95422507054721
 20
178.22604638250681
 30
0.0
 11
-126.766902195759
 21
178.22604638250681
 31
0.0
  0
LINE
  5
669E
  8
0
 10
-118.36056363315311
 20
200.7264100929942
 30
0.0
 11
-169.39193228326849
 21
200.7264100929942
 31
0.0
  0
LINE
  5
669F
  8
0
 10
-316.69193228326873
 20
236.2260463825076
 30
0.0
 11
-187.89193228326869
 21
236.2260463825076
 31
0.0
  0
LINE
  5
66A0
  8
0
 10
-316.69193228326873
 20
238.22604638250721
 30
0.0
 11
-187.89193228326869
 21
238.22604638250721
 31
0.0
  0
ENDSEC
  0
EOF
