  0
SECTION
  2
HEADER
  9
$ACADVER
  1
AC1015
  9
$ACADMAINTVER
 70
    10
  9
$DWGCODEPAGE
  3
ANSI_1252
  9
$INSBASE
 10
0.0
 20
0.0
 30
0.0
  9
$EXTMIN
 10
-5.5
 20
-32.38059611050548
 30
0.0
  9
$EXTMAX
 10
104.3789573110288
 20
49.999997
 30
0.0
  9
$LIMMIN
 10
0.0
 20
0.0
  9
$LIMMAX
 10
0.0
 20
0.0
  9
$ORTHOMODE
 70
     0
  9
$REGENMODE
 70
     1
  9
$FILLMODE
 70
     1
  9
$QTEXTMODE
 70
     0
  9
$MIRRTEXT
 70
     1
  9
$LTSCALE
 40
1.0
  9
$ATTMODE
 70
     1
  9
$TEXTSIZE
 40
0.0
  9
$TRACEWID
 40
0.05
  9
$TEXTSTYLE
  7
STANDARD
  9
$CLAYER
  8
0
  9
$CELTYPE
  6
CONTINUOUS
  9
$CECOLOR
 62
     4
  9
$CELTSCALE
 40
1.0
  9
$DISPSILH
 70
     0
  9
$DIMSCALE
 40
1.0
  9
$DIMASZ
 40
0.18
  9
$DIMEXO
 40
0.0625
  9
$DIMDLI
 40
0.38
  9
$DIMRND
 40
0.0
  9
$DIMDLE
 40
0.0
  9
$DIMEXE
 40
0.25
  9
$DIMTP
 40
0.1
  9
$DIMTM
 40
-0.1
  9
$DIMTXT
 40
2.5
  9
$DIMCEN
 40
0.09
  9
$DIMTSZ
 40
0.0
  9
$DIMTOL
 70
     0
  9
$DIMLIM
 70
     0
  9
$DIMTIH
 70
     1
  9
$DIMTOH
 70
     1
  9
$DIMSE1
 70
     0
  9
$DIMSE2
 70
     0
  9
$DIMTAD
 70
     0
  9
$DIMZIN
 70
     0
  9
$DIMBLK
  1

  9
$DIMASO
 70
     1
  9
$DIMSHO
 70
     1
  9
$DIMPOST
  1

  9
$DIMAPOST
  1

  9
$DIMALT
 70
     0
  9
$DIMALTD
 70
     2
  9
$DIMALTF
 40
25.4
  9
$DIMLFAC
 40
1.0
  9
$DIMTOFL
 70
     0
  9
$DIMTVP
 40
0.0
  9
$DIMTIX
 70
     0
  9
$DIMSOXD
 70
     0
  9
$DIMSAH
 70
     0
  9
$DIMBLK1
  1

  9
$DIMBLK2
  1

  9
$DIMSTYLE
  2
STANDARD
  9
$DIMCLRD
 70
     0
  9
$DIMCLRE
 70
     0
  9
$DIMCLRT
 70
     4
  9
$DIMTFAC
 40
0.7
  9
$DIMGAP
 40
0.09
  9
$DIMJUST
 70
     0
  9
$DIMSD1
 70
     0
  9
$DIMSD2
 70
     0
  9
$DIMTOLJ
 70
     1
  9
$DIMTZIN
 70
     0
  9
$DIMALTZ
 70
     0
  9
$DIMALTTZ
 70
     0
  9
$DIMUPT
 70
     0
  9
$DIMDEC
 70
     4
  9
$DIMTDEC
 70
     4
  9
$DIMALTU
 70
     2
  9
$DIMALTTD
 70
     2
  9
$DIMTXSTY
  7
STANDARD
  9
$DIMAUNIT
 70
     0
  9
$DIMADEC
 70
     0
  9
$DIMALTRND
 40
0.0
  9
$DIMAZIN
 70
     0
  9
$DIMDSEP
 70
    46
  9
$DIMATFIT
 70
     3
  9
$DIMFRAC
 70
     0
  9
$DIMLDRBLK
  1

  9
$DIMLUNIT
 70
     2
  9
$DIMLWD
 70
    -2
  9
$DIMLWE
 70
    -2
  9
$DIMTMOVE
 70
     0
  9
$LUNITS
 70
     2
  9
$LUPREC
 70
    10
  9
$SKETCHINC
 40
0.1
  9
$FILLETRAD
 40
0.0
  9
$AUNITS
 70
     0
  9
$AUPREC
 70
     0
  9
$MENU
  1
acad
  9
$ELEVATION
 40
0.0
  9
$PELEVATION
 40
0.0
  9
$THICKNESS
 40
0.0
  9
$LIMCHECK
 70
     0
  9
$CHAMFERA
 40
0.0
  9
$CHAMFERB
 40
0.0
  9
$CHAMFERC
 40
0.0
  9
$CHAMFERD
 40
0.0
  9
$SKPOLY
 70
     0
  9
$TDCREATE
 40
2444972.041666666
  9
$TDUCREATE
 40
2444972.000000000
  9
$TDUPDATE
 40
2452327.427462534
  9
$TDUUPDATE
 40
2452327.385795868
  9
$TDINDWG
 40
0.0007253472
  9
$TDUSRTIMER
 40
0.0007253472
  9
$USRTIMER
 70
     1
  9
$ANGBASE
 50
0.0
  9
$ANGDIR
 70
     0
  9
$PDMODE
 70
     2
  9
$PDSIZE
 40
0.0
  9
$PLINEWID
 40
0.0
  9
$SPLFRAME
 70
     0
  9
$SPLINETYPE
 70
     6
  9
$SPLINESEGS
 70
     8
  9
$HANDSEED
  5
FB
  9
$SURFTAB1
 70
     6
  9
$SURFTAB2
 70
     6
  9
$SURFTYPE
 70
     6
  9
$SURFU
 70
     6
  9
$SURFV
 70
     6
  9
$UCSBASE
  2

  9
$UCSNAME
  2

  9
$UCSORG
 10
0.0
 20
0.0
 30
0.0
  9
$UCSXDIR
 10
1.0
 20
0.0
 30
0.0
  9
$UCSYDIR
 10
0.0
 20
1.0
 30
0.0
  9
$UCSORTHOREF
  2

  9
$UCSORTHOVIEW
 70
     0
  9
$UCSORGTOP
 10
0.0
 20
0.0
 30
0.0
  9
$UCSORGBOTTOM
 10
0.0
 20
0.0
 30
0.0
  9
$UCSORGLEFT
 10
0.0
 20
0.0
 30
0.0
  9
$UCSORGRIGHT
 10
0.0
 20
0.0
 30
0.0
  9
$UCSORGFRONT
 10
0.0
 20
0.0
 30
0.0
  9
$UCSORGBACK
 10
0.0
 20
0.0
 30
0.0
  9
$PUCSBASE
  2

  9
$PUCSNAME
  2

  9
$PUCSORG
 10
0.0
 20
0.0
 30
0.0
  9
$PUCSXDIR
 10
1.0
 20
0.0
 30
0.0
  9
$PUCSYDIR
 10
0.0
 20
1.0
 30
0.0
  9
$PUCSORTHOREF
  2

  9
$PUCSORTHOVIEW
 70
     0
  9
$PUCSORGTOP
 10
0.0
 20
0.0
 30
0.0
  9
$PUCSORGBOTTOM
 10
0.0
 20
0.0
 30
0.0
  9
$PUCSORGLEFT
 10
0.0
 20
0.0
 30
0.0
  9
$PUCSORGRIGHT
 10
0.0
 20
0.0
 30
0.0
  9
$PUCSORGFRONT
 10
0.0
 20
0.0
 30
0.0
  9
$PUCSORGBACK
 10
0.0
 20
0.0
 30
0.0
  9
$USERI1
 70
     0
  9
$USERI2
 70
     0
  9
$USERI3
 70
     0
  9
$USERI4
 70
     0
  9
$USERI5
 70
     0
  9
$USERR1
 40
0.0
  9
$USERR2
 40
0.0
  9
$USERR3
 40
0.0
  9
$USERR4
 40
0.0
  9
$USERR5
 40
0.0
  9
$WORLDVIEW
 70
     1
  9
$SHADEDGE
 70
     3
  9
$SHADEDIF
 70
    70
  9
$TILEMODE
 70
     1
  9
$MAXACTVP
 70
    16
  9
$PINSBASE
 10
0.0
 20
0.0
 30
0.0
  9
$PLIMCHECK
 70
     0
  9
$PEXTMIN
 10
1.000000000000000E+20
 20
1.000000000000000E+20
 30
1.000000000000000E+20
  9
$PEXTMAX
 10
-1.000000000000000E+20
 20
-1.000000000000000E+20
 30
-1.000000000000000E+20
  9
$PLIMMIN
 10
0.0
 20
0.0
  9
$PLIMMAX
 10
12.0
 20
9.0
  9
$UNITMODE
 70
     0
  9
$VISRETAIN
 70
     0
  9
$PLINEGEN
 70
     1
  9
$PSLTSCALE
 70
     0
  9
$TREEDEPTH
 70
  3020
  9
$CMLSTYLE
  2
STANDARD
  9
$CMLJUST
 70
     0
  9
$CMLSCALE
 40
1.0
  9
$PROXYGRAPHICS
 70
     1
  9
$MEASUREMENT
 70
     0
  9
$CELWEIGHT
370
    -1
  9
$ENDCAPS
280
     0
  9
$JOINSTYLE
280
     0
  9
$LWDISPLAY
290
     0
  9
$INSUNITS
 70
     0
  9
$HYPERLINKBASE
  1

  9
$STYLESHEET
  1

  9
$XEDIT
290
     1
  9
$CEPSNTYPE
380
     0
  9
$PSTYLEMODE
290
     1
  9
$FINGERPRINTGUID
  2
{63FD5C6C-26AB-11D6-8687-00A024540C4A}
  9
$VERSIONGUID
  2
{63FD5C74-26AB-11D6-8687-00A024540C4A}
  9
$EXTNAMES
290
     1
  9
$PSVPSCALE
 40
0.0
  9
$OLESTARTUP
290
     0
  0
ENDSEC
  0
SECTION
  2
CLASSES
  0
CLASS
  1
LWPOLYLINE
  2
AcDbPolyline
  3
AutoCAD 2000
 90
    32768
280
     0
281
     1
  0
CLASS
  1
IMAGE
  2
AcDbRasterImage
  3
ISM
 90
    32895
280
     0
281
     1
  0
CLASS
  1
OLE2FRAME
  2
AcDbOle2Frame
  3
AutoCAD 2000
 90
    32768
280
     0
281
     1
  0
CLASS
  1
HATCH
  2
AcDbHatch
  3
AutoCAD 2000
 90
    32768
280
     0
281
     1
  0
CLASS
  1
DICTIONARYVAR
  2
AcDbDictionaryVar
  3
AutoCAD 2000
 90
    32768
280
     0
281
     0
  0
CLASS
  1
RASTERVARIABLES
  2
AcDbRasterVariables
  3
ISM
 90
    32768
280
     0
281
     0
  0
CLASS
  1
IMAGEDEF
  2
AcDbRasterImageDef
  3
ISM
 90
    32768
280
     0
281
     0
  0
CLASS
  1
IMAGEDEF_REACTOR
  2
AcDbRasterImageDefReactor
  3
ISM
 90
    32769
280
     0
281
     0
  0
CLASS
  1
IDBUFFER
  2
AcDbIdBuffer
  3
AutoCAD 2000
 90
    32768
280
     0
281
     0
  0
CLASS
  1
SPATIAL_FILTER
  2
AcDbSpatialFilter
  3
AutoCAD 2000
 90
    32768
280
     0
281
     0
  0
CLASS
  1
XRECORD
  2
AcDbXrecord
  3
AutoCAD 2000
 90
    32768
280
     0
281
     0
  0
CLASS
  1
SORTENTSTABLE
  2
AcDbSortentsTable
  3
AutoCAD 2000
 90
    32768
280
     0
281
     0
  0
CLASS
  1
LAYER_INDEX
  2
AcDbLayerIndex
  3
AutoCAD 2000
 90
    32768
280
     0
281
     0
  0
CLASS
  1
SPATIAL_INDEX
  2
AcDbSpatialIndex
  3
AutoCAD 2000
 90
    32768
280
     0
281
     0
  0
CLASS
  1
OBJECT_PTR
  2
CAseDLPNTableRecord
  3
"ASE-LPNTableRecord"
 90
    32768
280
     0
281
     0
  0
CLASS
  1
ACDBDICTIONARYWDFLT
  2
AcDbDictionaryWithDefault
  3
AutoCAD 2000
 90
        0
280
     0
281
     0
  0
CLASS
  1
ACDBPLACEHOLDER
  2
AcDbPlaceHolder
  3
AutoCAD 2000
 90
        0
280
     0
281
     0
  0
CLASS
  1
LAYOUT
  2
AcDbLayout
  3
AutoCAD 2000
 90
        0
280
     0
281
     0
  0
ENDSEC
  0
SECTION
  2
TABLES
  0
TABLE
  2
VPORT
  5
7
330
0
100
AcDbSymbolTable
 70
     4
  0
VPORT
  5
FA
330
7
100
AcDbSymbolTableRecord
100
AcDbViewportTableRecord
  2
*Active
 70
     0
 10
0.0
 20
0.0
 11
1.0
 21
1.0
 12
60.84741288624883
 22
9.143033778080592
 13
0.0
 23
0.0
 14
1.0
 24
1.0
 15
0.0
 25
0.0
 16
0.0
 26
0.0
 36
1.0
 17
0.0
 27
0.0
 37
0.0
 40
91.2424657595293
 41
1.672360248447204
 42
50.0
 43
0.0
 44
0.0
 50
0.0
 51
0.0
 71
     0
 72
   100
 73
     1
 74
     1
 75
     0
 76
     0
 77
     0
 78
     0
281
     0
 65
     1
110
0.0
120
0.0
130
0.0
111
1.0
121
0.0
131
0.0
112
0.0
122
1.0
132
0.0
 79
     0
146
0.0
  0
ENDTAB
  0
TABLE
  2
LTYPE
  5
4
330
0
100
AcDbSymbolTable
 70
     4
  0
LTYPE
  5
11
330
4
100
AcDbSymbolTableRecord
100
AcDbLinetypeTableRecord
  2
BYBLOCK
 70
     0
  3

 72
    65
 73
     0
 40
0.0
  0
LTYPE
  5
12
330
4
100
AcDbSymbolTableRecord
100
AcDbLinetypeTableRecord
  2
BYLAYER
 70
     0
  3

 72
    65
 73
     0
 40
0.0
  0
LTYPE
  5
13
330
4
100
AcDbSymbolTableRecord
100
AcDbLinetypeTableRecord
  2
CONTINUOUS
 70
     0
  3
Solid line
 72
    65
 73
     0
 40
0.0
  0
LTYPE
  5
1D
330
4
100
AcDbSymbolTableRecord
100
AcDbLinetypeTableRecord
  2
DASHED
 70
     0
  3
_ _ _ _ _ _ _ _ _ _ _ _ _ _ _ _
 72
    65
 73
     2
 40
0.2
 49
0.1
 74
     0
 49
-0.1
 74
     0
  0
LTYPE
  5
1E
330
4
100
AcDbSymbolTableRecord
100
AcDbLinetypeTableRecord
  2
CENTER
 70
     0
  3
___ _ ___ _ ___ _ ___ _ ___ _ ___ _ ___ _ ___ _
 72
    65
 73
     4
 40
0.95
 49
0.625
 74
     0
 49
-0.125
 74
     0
 49
0.075
 74
     0
 49
-0.125
 74
     0
  0
LTYPE
  5
1F
330
4
100
AcDbSymbolTableRecord
100
AcDbLinetypeTableRecord
  2
PHANTOM
 70
     0
  3
______  __  __  ______  __  __  ______  __  __  
 72
    65
 73
     6
 40
1.024999999999999
 49
0.625
 74
     0
 49
-0.125
 74
     0
 49
0.075
 74
     0
 49
-0.125
 74
     0
 49
0.075
 74
     0
 49
-0.125
 74
     0
  0
ENDTAB
  0
TABLE
  2
LAYER
  5
2
330
0
100
AcDbSymbolTable
 70
     2
  0
LAYER
  5
14
330
2
100
AcDbSymbolTableRecord
100
AcDbLayerTableRecord
  2
0
 70
     0
 62
     7
  6
CONTINUOUS
370
    -3
390
F1
  0
LAYER
  5
21
330
2
100
AcDbSymbolTableRecord
100
AcDbLayerTableRecord
  2
CK_LEVEL_1
 70
     0
 62
     7
  6
CONTINUOUS
370
    -3
390
F1
  0
ENDTAB
  0
TABLE
  2
STYLE
  5
3
330
0
100
AcDbSymbolTable
 70
     1
  0
STYLE
  5
17
330
3
100
AcDbSymbolTableRecord
100
AcDbTextStyleTableRecord
  2
STANDARD
 70
     0
 40
0.0
 41
1.0
 50
0.0
 71
     0
 42
0.0
  3
txt
  4

  0
ENDTAB
  0
TABLE
  2
VIEW
  5
5
330
0
100
AcDbSymbolTable
 70
     0
  0
ENDTAB
  0
TABLE
  2
UCS
  5
6
330
0
100
AcDbSymbolTable
 70
     1
  0
UCS
  5
20
330
6
100
AcDbSymbolTableRecord
100
AcDbUCSTableRecord
  2
CK_VIEW_1
 70
     0
 10
0.0
 20
0.0
 30
1.0
 11
1.0
 21
0.0
 31
0.0
 12
0.0
 22
1.0
 32
0.0
 79
     0
146
0.0
  0
ENDTAB
  0
TABLE
  2
APPID
  5
8
330
0
100
AcDbSymbolTable
 70
     1
  0
APPID
  5
16
330
8
100
AcDbSymbolTableRecord
100
AcDbRegAppTableRecord
  2
ACAD
 70
     0
  0
ENDTAB
  0
TABLE
  2
DIMSTYLE
  5
9
330
0
100
AcDbSymbolTable
 70
     1
100
AcDbDimStyleTable
 71
     0
  0
DIMSTYLE
105
18
330
9
100
AcDbSymbolTableRecord
100
AcDbDimStyleTableRecord
  2
STANDARD
 70
     0
289
     0
340
17
  0
ENDTAB
  0
TABLE
  2
BLOCK_RECORD
  5
1
330
0
100
AcDbSymbolTable
 70
     0
  0
BLOCK_RECORD
  5
A
330
1
100
AcDbSymbolTableRecord
100
AcDbBlockTableRecord
  2
*MODEL_SPACE
340
F4
  0
BLOCK_RECORD
  5
B
330
1
100
AcDbSymbolTableRecord
100
AcDbBlockTableRecord
  2
*PAPER_SPACE
340
F5
  0
ENDTAB
  0
ENDSEC
  0
SECTION
  2
BLOCKS
  0
BLOCK
  5
D
330
A
100
AcDbEntity
  8
0
100
AcDbBlockBegin
  2
*MODEL_SPACE
 70
     0
 10
0.0
 20
0.0
 30
0.0
  3
*MODEL_SPACE
  1

  0
ENDBLK
  5
E
330
A
100
AcDbEntity
  8
0
100
AcDbBlockEnd
  0
BLOCK
  5
F
330
B
100
AcDbEntity
 67
     1
  8
0
100
AcDbBlockBegin
  2
*PAPER_SPACE
 70
     0
 10
0.0
 20
0.0
 30
0.0
  3
*PAPER_SPACE
  1

  0
ENDBLK
  5
10
330
B
100
AcDbEntity
 67
     1
  8
0
100
AcDbBlockEnd
  0
ENDSEC
  0
SECTION
  2
ENTITIES
  0
LINE
  5
28
330
A
100
AcDbEntity
  8
CK_LEVEL_1
  6
Continuous
 62
     4
100
AcDbLine
 10
50.05
 20
3.520201102886707
 30
0.0
 11
27.0
 21
3.520201102886707
 31
0.0
  0
LINE
  5
29
330
A
100
AcDbEntity
  8
CK_LEVEL_1
  6
Continuous
 62
     4
100
AcDbLine
 10
50.05
 20
4.048360126046367
 30
0.0
 11
27.0
 21
4.048360126046367
 31
0.0
  0
LINE
  5
2A
330
A
100
AcDbEntity
  8
CK_LEVEL_1
  6
Continuous
 62
     4
100
AcDbLine
 10
50.05
 20
4.951640120017021
 30
0.0
 11
27.0
 21
4.951640120017021
 31
0.0
  0
LINE
  5
2B
330
A
100
AcDbEntity
  8
CK_LEVEL_1
  6
Continuous
 62
     4
100
AcDbLine
 10
50.05
 20
5.47979289711325
 30
0.0
 11
27.0
 21
5.47979289711325
 31
0.0
  0
LINE
  5
2C
330
A
100
AcDbEntity
  8
CK_LEVEL_1
  6
Continuous
 62
     4
100
AcDbLine
 10
50.05
 20
6.100000000000001
 30
0.0
 11
27.1
 21
6.100000000000001
 31
0.0
  0
LINE
  5
2D
330
A
100
AcDbEntity
  8
CK_LEVEL_1
  6
Continuous
 62
     4
100
AcDbLine
 10
101.9
 20
0.3999999999999986
 30
0.0
 11
27.1
 21
0.3999999999999986
 31
0.0
  0
LINE
  5
2E
330
A
100
AcDbEntity
  8
CK_LEVEL_1
  6
Continuous
 62
     4
100
AcDbLine
 10
101.8999999999999
 20
6.100000000000001
 30
0.0
 11
78.95
 21
6.100000000000001
 31
0.0
  0
LINE
  5
2F
330
A
100
AcDbEntity
  8
CK_LEVEL_1
  6
Continuous
 62
     4
100
AcDbLine
 10
102.0
 20
3.520201102886707
 30
0.0
 11
78.95
 21
3.520201102886707
 31
0.0
  0
LINE
  5
30
330
A
100
AcDbEntity
  8
CK_LEVEL_1
  6
Continuous
 62
     4
100
AcDbLine
 10
102.0
 20
4.048360126046367
 30
0.0
 11
78.95
 21
4.048360126046367
 31
0.0
  0
LINE
  5
31
330
A
100
AcDbEntity
  8
CK_LEVEL_1
  6
Continuous
 62
     4
100
AcDbLine
 10
102.0
 20
4.951640120017021
 30
0.0
 11
78.95
 21
4.951640120017021
 31
0.0
  0
LINE
  5
32
330
A
100
AcDbEntity
  8
CK_LEVEL_1
  6
Continuous
 62
     4
100
AcDbLine
 10
102.0
 20
5.47979289711325
 30
0.0
 11
78.95
 21
5.47979289711325
 31
0.0
  0
LINE
  5
33
330
A
100
AcDbEntity
  8
CK_LEVEL_1
  6
Continuous
 62
     4
100
AcDbLine
 10
27.5
 20
6.5
 30
0.0
 11
27.0
 21
6.0
 31
0.0
  0
LINE
  5
34
330
A
100
AcDbEntity
  8
CK_LEVEL_1
  6
Continuous
 62
     4
100
AcDbLine
 10
27.5
 20
0.0
 30
0.0
 11
27.0
 21
0.5
 31
0.0
  0
LINE
  5
35
330
A
100
AcDbEntity
  8
CK_LEVEL_1
  6
Continuous
 62
     4
100
AcDbLine
 10
102.0
 20
0.5
 30
0.0
 11
101.5
 21
0.0
 31
0.0
  0
LINE
  5
36
330
A
100
AcDbEntity
  8
CK_LEVEL_1
  6
Continuous
 62
     4
100
AcDbLine
 10
101.5
 20
6.5
 30
0.0
 11
102.0
 21
6.0
 31
0.0
  0
LINE
  5
37
330
A
100
AcDbEntity
  8
CK_LEVEL_1
  6
Continuous
 62
     4
100
AcDbLine
 10
102.0
 20
35.999997
 30
0.0
 11
101.5
 21
35.499997
 31
0.0
  0
LINE
  5
38
330
A
100
AcDbEntity
  8
CK_LEVEL_1
  6
Continuous
 62
     4
100
AcDbLine
 10
101.5
 20
44.499997
 30
0.0
 11
102.0
 21
43.999997
 31
0.0
  0
LINE
  5
39
330
A
100
AcDbEntity
  8
CK_LEVEL_1
  6
Continuous
 62
     4
100
AcDbLine
 10
27.0
 20
35.999997
 30
0.0
 11
27.5
 21
35.499997
 31
0.0
  0
LINE
  5
3A
330
A
100
AcDbEntity
  8
CK_LEVEL_1
  6
Continuous
 62
     4
100
AcDbLine
 10
27.5
 20
44.499997
 30
0.0
 11
27.0
 21
43.999997
 31
0.0
  0
LINE
  5
3B
330
A
100
AcDbEntity
  8
CK_LEVEL_1
  6
CENTER
 62
   252
100
AcDbLine
 10
69.5
 20
4.528309163512967
 30
0.0
 11
69.5
 21
10.999997
 31
0.0
  0
LINE
  5
3C
330
A
100
AcDbEntity
  8
CK_LEVEL_1
  6
CENTER
 62
   252
100
AcDbLine
 10
59.5
 20
4.528309163512967
 30
0.0
 11
59.5
 21
10.999997
 31
0.0
  0
LINE
  5
3D
330
A
100
AcDbEntity
  8
CK_LEVEL_1
  6
Continuous
 62
     4
100
AcDbLine
 10
8.323510416731467
 20
4.063537837774382
 30
0.0
 11
7.982568851450467
 21
4.093366359661256
 31
0.0
  0
ARC
  5
3E
330
A
100
AcDbEntity
  8
CK_LEVEL_1
  6
Continuous
 62
     4
100
AcDbCircle
 10
8.0
 20
4.707394700720413
 30
0.0
 40
0.2
100
AcDbArc
 50
94.99999999999948
 51
180.0
  0
ARC
  5
3F
330
A
100
AcDbEntity
  8
CK_LEVEL_1
  6
Continuous
 62
     4
100
AcDbCircle
 10
8.0
 20
4.292605299279607
 30
0.0
 40
0.2
100
AcDbArc
 50
180.0
 51
264.9999999999995
  0
LINE
  5
40
330
A
100
AcDbEntity
  8
CK_LEVEL_1
  6
Continuous
 62
     4
100
AcDbLine
 10
7.8
 20
4.292605299279607
 30
0.0
 11
7.8
 21
4.707394700720413
 31
0.0
  0
LINE
  5
41
330
A
100
AcDbEntity
  8
CK_LEVEL_1
  6
Continuous
 62
     4
100
AcDbLine
 10
8.323514163231475
 20
4.936462490001911
 30
0.0
 11
7.982568851450469
 21
4.906633640338764
 31
0.0
  0
LINE
  5
42
330
A
100
AcDbEntity
  8
CK_LEVEL_1
  6
Continuous
 62
     4
100
AcDbLine
 10
11.2
 20
8.199994000000003
 30
0.0
 11
11.2
 21
9.699999999999995
 31
0.0
  0
LINE
  5
43
330
A
100
AcDbEntity
  8
CK_LEVEL_1
  6
Continuous
 62
     4
100
AcDbLine
 10
7.8
 20
8.199994000000003
 30
0.0
 11
7.8
 21
9.699999999999995
 31
0.0
  0
LINE
  5
44
330
A
100
AcDbEntity
  8
CK_LEVEL_1
  6
Continuous
 62
     4
100
AcDbLine
 10
10.24246212024587
 20
7.457531879754128
 30
0.0
 11
8.757537879754126
 21
8.942456120245878
 31
0.0
  0
LINE
  5
45
330
A
100
AcDbEntity
  8
CK_LEVEL_1
  6
Continuous
 62
     4
100
AcDbLine
 10
8.757537879754126
 20
7.457531879754128
 30
0.0
 11
10.24246212024587
 21
8.942456120245878
 31
0.0
  0
CIRCLE
  5
46
330
A
100
AcDbEntity
  8
CK_LEVEL_1
  6
Continuous
 62
     4
100
AcDbCircle
 10
9.500000000000001
 20
8.199994000000003
 30
0.0
 40
1.5
  0
ARC
  5
47
330
A
100
AcDbEntity
  8
CK_LEVEL_1
  6
Continuous
 62
     4
100
AcDbCircle
 10
8.700000000000018
 20
6.199996999999996
 30
0.0
 40
0.6
100
AcDbArc
 50
0.0
 51
32.91289886565664
  0
ARC
  5
48
330
A
100
AcDbEntity
  8
CK_LEVEL_1
  6
Continuous
 62
     4
100
AcDbCircle
 10
8.800000000000013
 20
6.29999699999999
 30
0.0
 40
1.0
100
AcDbArc
 50
0.0
 51
12.84889144523831
  0
ARC
  5
49
330
A
100
AcDbEntity
  8
CK_LEVEL_1
  6
Continuous
 62
     4
100
AcDbCircle
 10
9.500000000000001
 20
8.199994000000003
 30
0.0
 40
1.7
100
AcDbArc
 50
180.0
 51
360.0
  0
LINE
  5
4A
330
A
100
AcDbEntity
  8
CK_LEVEL_1
  6
Continuous
 62
     4
100
AcDbLine
 10
9.300000000000013
 20
4.999996999999979
 30
0.0
 11
9.300000000000013
 21
6.199996999999996
 31
0.0
  0
LINE
  5
4B
330
A
100
AcDbEntity
  8
CK_LEVEL_1
  6
Continuous
 62
     4
100
AcDbLine
 10
9.300000000000013
 20
1.999993999999986
 30
0.0
 11
9.300000000000013
 21
3.999996999999979
 31
0.0
  0
LINE
  5
4C
330
A
100
AcDbEntity
  8
CK_LEVEL_1
  6
Continuous
 62
     4
100
AcDbLine
 10
9.800000000000013
 20
1.999993999999986
 30
0.0
 11
9.800000000000013
 21
6.29999699999999
 31
0.0
  0
LINE
  5
4D
330
A
100
AcDbEntity
  8
CK_LEVEL_1
  6
Continuous
 62
     4
100
AcDbLine
 10
0.2424621202458749
 20
7.457531879754128
 30
0.0
 11
-1.242462120245875
 21
8.942456120245878
 31
0.0
  0
LINE
  5
4E
330
A
100
AcDbEntity
  8
CK_LEVEL_1
  6
Continuous
 62
     4
100
AcDbLine
 10
-1.242462120245875
 20
7.457531879754128
 30
0.0
 11
0.2424621202458752
 21
8.942456120245878
 31
0.0
  0
LINE
  5
4F
330
A
100
AcDbEntity
  8
CK_LEVEL_1
  6
Continuous
 62
     4
100
AcDbLine
 10
1.200000000000001
 20
8.199994000000003
 30
0.0
 11
1.200000000000001
 21
9.699999999999995
 31
0.0
  0
LINE
  5
50
330
A
100
AcDbEntity
  8
CK_LEVEL_1
  6
Continuous
 62
     4
100
AcDbLine
 10
-2.199999999999999
 20
8.199994000000003
 30
0.0
 11
-2.199999999999999
 21
9.699999999999995
 31
0.0
  0
ARC
  5
51
330
A
100
AcDbEntity
  8
CK_LEVEL_1
  6
Continuous
 62
     4
100
AcDbCircle
 10
-0.5
 20
8.199994000000003
 30
0.0
 40
1.7
100
AcDbArc
 50
180.0
 51
360.0
  0
CIRCLE
  5
52
330
A
100
AcDbEntity
  8
CK_LEVEL_1
  6
Continuous
 62
     4
100
AcDbCircle
 10
-0.5
 20
8.199994000000003
 30
0.0
 40
1.5
  0
LINE
  5
53
330
A
100
AcDbEntity
  8
CK_LEVEL_1
  6
Continuous
 62
     4
100
AcDbLine
 10
0.4643694312818937
 20
6.79999699999999
 30
0.0
 11
8.535630568718108
 21
6.79999699999999
 31
0.0
  0
ARC
  5
54
330
A
100
AcDbEntity
  8
CK_LEVEL_1
  6
Continuous
 62
     4
100
AcDbCircle
 10
0.2999999999999829
 20
6.199996999999996
 30
0.0
 40
0.6
100
AcDbArc
 50
147.0871011343433
 51
180.0
  0
LINE
  5
55
330
A
100
AcDbEntity
  8
CK_LEVEL_1
  6
Continuous
 62
     4
100
AcDbLine
 10
-0.3000000000000114
 20
1.999993999999986
 30
0.0
 11
-0.3000000000000114
 21
3.999996999999979
 31
0.0
  0
LINE
  5
56
330
A
100
AcDbEntity
  8
CK_LEVEL_1
  6
Continuous
 62
     4
100
AcDbLine
 10
-0.3000000000000114
 20
4.999996999999979
 30
0.0
 11
-0.3000000000000114
 21
6.199996999999996
 31
0.0
  0
ARC
  5
57
330
A
100
AcDbEntity
  8
CK_LEVEL_1
  6
Continuous
 62
     4
100
AcDbCircle
 10
0.1999999999999886
 20
6.29999699999999
 30
0.0
 40
1.0
100
AcDbArc
 50
167.1511085547616
 51
180.0
  0
LINE
  5
58
330
A
100
AcDbEntity
  8
CK_LEVEL_1
  6
Continuous
 62
     4
100
AcDbLine
 10
-0.8000000000000113
 20
1.999993999999986
 30
0.0
 11
-0.8000000000000113
 21
6.29999699999999
 31
0.0
  0
LINE
  5
59
330
A
100
AcDbEntity
  8
CK_LEVEL_1
  6
Continuous
 62
     4
100
AcDbLine
 10
0.9422223822944143
 20
7.29999699999999
 30
0.0
 11
8.057777617705587
 21
7.29999699999999
 31
0.0
  0
ARC
  5
5A
330
A
100
AcDbEntity
  8
CK_LEVEL_1
  6
DASHED
 62
   252
100
AcDbCircle
 10
59.5
 20
32.499997
 30
0.0
 40
1.5
100
AcDbArc
 50
260.0000000000002
 51
549.9999999999998
  0
CIRCLE
  5
5B
330
A
100
AcDbEntity
  8
CK_LEVEL_1
  6
Continuous
 62
     4
100
AcDbCircle
 10
59.5
 20
32.499997
 30
0.0
 40
1.25
  0
LINE
  5
5C
330
A
100
AcDbEntity
  8
CK_LEVEL_1
  6
CENTER
 62
   252
100
AcDbLine
 10
59.5
 20
30.50015686654504
 30
0.0
 11
59.5
 21
34.64252083423842
 31
0.0
  0
LINE
  5
5D
330
A
100
AcDbEntity
  8
CK_LEVEL_1
  6
CENTER
 62
   252
100
AcDbLine
 10
55.05
 20
32.499997
 30
0.0
 11
73.95
 21
32.499997
 31
0.0
  0
LINE
  5
5E
330
A
100
AcDbEntity
  8
CK_LEVEL_1
  6
CENTER
 62
   252
100
AcDbLine
 10
69.5
 20
45.45570469795751
 30
0.0
 11
69.5
 21
49.54427173100552
 31
0.0
  0
LINE
  5
5F
330
A
100
AcDbEntity
  8
CK_LEVEL_1
  6
CENTER
 62
   252
100
AcDbLine
 10
59.5
 20
45.45570469795751
 30
0.0
 11
59.5
 21
49.54427173100552
 31
0.0
  0
LINE
  5
60
330
A
100
AcDbEntity
  8
CK_LEVEL_1
  6
CENTER
 62
   252
100
AcDbLine
 10
69.5
 20
30.50015686654504
 30
0.0
 11
69.5
 21
34.64252083423842
 31
0.0
  0
LINE
  5
61
330
A
100
AcDbEntity
  8
CK_LEVEL_1
  6
CENTER
 62
   252
100
AcDbLine
 10
73.95
 20
47.499997
 30
0.0
 11
55.05
 21
47.499997
 31
0.0
  0
LINE
  5
62
330
A
100
AcDbEntity
  8
CK_LEVEL_1
  6
CENTER
 62
   252
100
AcDbLine
 10
74.5
 20
-1.172157788209322
 30
0.0
 11
74.5
 21
3.455046292264476
 31
0.0
  0
LINE
  5
63
330
A
100
AcDbEntity
  8
CK_LEVEL_1
  6
CENTER
 62
   252
100
AcDbLine
 10
54.5
 20
-1.172157788209322
 30
0.0
 11
54.5
 21
3.455046292264476
 31
0.0
  0
LINE
  5
64
330
A
100
AcDbEntity
  8
CK_LEVEL_1
  6
Continuous
 62
     4
100
AcDbLine
 10
102.0
 20
6.0
 30
0.0
 11
102.0
 21
0.5
 31
0.0
  0
LINE
  5
65
330
A
100
AcDbEntity
  8
CK_LEVEL_1
  6
Continuous
 62
     4
100
AcDbLine
 10
102.0
 20
43.999997
 30
0.0
 11
102.0
 21
35.999997
 31
0.0
  0
LINE
  5
66
330
A
100
AcDbEntity
  8
CK_LEVEL_1
  6
Continuous
 62
     4
100
AcDbLine
 10
27.0
 20
6.0
 30
0.0
 11
27.0
 21
0.5
 31
0.0
  0
LINE
  5
67
330
A
100
AcDbEntity
  8
CK_LEVEL_1
  6
Continuous
 62
     4
100
AcDbLine
 10
27.0
 20
43.999997
 30
0.0
 11
27.0
 21
35.999997
 31
0.0
  0
LINE
  5
68
330
A
100
AcDbEntity
  8
CK_LEVEL_1
  6
Continuous
 62
     4
100
AcDbLine
 10
77.95
 20
49.799997
 30
0.0
 11
77.95
 21
30.199997
 31
0.0
  0
LINE
  5
69
330
A
100
AcDbEntity
  8
CK_LEVEL_1
  6
Continuous
 62
     4
100
AcDbLine
 10
51.05
 20
49.799997
 30
0.0
 11
51.05
 21
30.199997
 31
0.0
  0
LINE
  5
6A
330
A
100
AcDbEntity
  8
CK_LEVEL_1
  6
Continuous
 62
     4
100
AcDbLine
 10
55.05
 20
49.799997
 30
0.0
 11
50.05
 21
49.799997
 31
0.0
  0
LINE
  5
6B
330
A
100
AcDbEntity
  8
CK_LEVEL_1
  6
Continuous
 62
     4
100
AcDbLine
 10
78.95
 20
49.799997
 30
0.0
 11
73.95
 21
49.799997
 31
0.0
  0
LINE
  5
6C
330
A
100
AcDbEntity
  8
CK_LEVEL_1
  6
Continuous
 62
     4
100
AcDbLine
 10
55.05
 20
30.199997
 30
0.0
 11
50.05
 21
30.199997
 31
0.0
  0
LINE
  5
6D
330
A
100
AcDbEntity
  8
CK_LEVEL_1
  6
Continuous
 62
     4
100
AcDbLine
 10
78.95
 20
30.199997
 30
0.0
 11
73.95
 21
30.199997
 31
0.0
  0
LINE
  5
6E
330
A
100
AcDbEntity
  8
CK_LEVEL_1
  6
Continuous
 62
     4
100
AcDbLine
 10
73.95
 20
9.699999999999999
 30
0.0
 11
78.95
 21
9.699999999999999
 31
0.0
  0
LINE
  5
6F
330
A
100
AcDbEntity
  8
CK_LEVEL_1
  6
Continuous
 62
     4
100
AcDbLine
 10
51.05
 20
9.699999999999999
 30
0.0
 11
51.05
 21
1.999997
 31
0.0
  0
LINE
  5
70
330
A
100
AcDbEntity
  8
CK_LEVEL_1
  6
Continuous
 62
     4
100
AcDbLine
 10
77.95
 20
9.699999999999999
 30
0.0
 11
77.95
 21
1.999997
 31
0.0
  0
LINE
  5
71
330
A
100
AcDbEntity
  8
CK_LEVEL_1
  6
Continuous
 62
     4
100
AcDbLine
 10
55.05
 20
9.999997
 30
0.0
 11
55.05
 21
1.999997
 31
0.0
  0
LINE
  5
72
330
A
100
AcDbEntity
  8
CK_LEVEL_1
  6
Continuous
 62
     4
100
AcDbLine
 10
73.95
 20
9.999997
 30
0.0
 11
73.95
 21
1.999997
 31
0.0
  0
LINE
  5
73
330
A
100
AcDbEntity
  8
CK_LEVEL_1
  6
CENTER
 62
   252
100
AcDbLine
 10
104.3789573110288
 20
39.999997
 30
0.0
 11
24.36935841343375
 21
39.999997
 31
0.0
  0
LINE
  5
74
330
A
100
AcDbEntity
  8
CK_LEVEL_1
  6
Continuous
 62
     4
100
AcDbLine
 10
101.5
 20
35.499997
 30
0.0
 11
78.95
 21
35.499997
 31
0.0
  0
LINE
  5
75
330
A
100
AcDbEntity
  8
CK_LEVEL_1
  6
Continuous
 62
     4
100
AcDbLine
 10
101.5
 20
44.499997
 30
0.0
 11
78.95
 21
44.499997
 31
0.0
  0
LINE
  5
76
330
A
100
AcDbEntity
  8
CK_LEVEL_1
  6
Continuous
 62
     4
100
AcDbLine
 10
55.05
 20
29.999997
 30
0.0
 11
55.05
 21
49.999997
 31
0.0
  0
LINE
  5
77
330
A
100
AcDbEntity
  8
CK_LEVEL_1
  6
Continuous
 62
     4
100
AcDbLine
 10
73.95
 20
29.999997
 30
0.0
 11
73.95
 21
49.999997
 31
0.0
  0
LINE
  5
78
330
A
100
AcDbEntity
  8
CK_LEVEL_1
  6
Continuous
 62
     4
100
AcDbLine
 10
73.95
 20
49.999997
 30
0.0
 11
55.05
 21
49.999997
 31
0.0
  0
LINE
  5
79
330
A
100
AcDbEntity
  8
CK_LEVEL_1
  6
Continuous
 62
     4
100
AcDbLine
 10
73.95
 20
29.999997
 30
0.0
 11
55.05
 21
29.999997
 31
0.0
  0
LINE
  5
7A
330
A
100
AcDbEntity
  8
CK_LEVEL_1
  6
Continuous
 62
     4
100
AcDbLine
 10
78.95
 20
1.999997
 30
0.0
 11
50.05000000000001
 21
1.999997
 31
0.0
  0
LINE
  5
7B
330
A
100
AcDbEntity
  8
CK_LEVEL_1
  6
Continuous
 62
     4
100
AcDbLine
 10
50.05
 20
9.699999999999999
 30
0.0
 11
55.05
 21
9.699999999999999
 31
0.0
  0
LINE
  5
7C
330
A
100
AcDbEntity
  8
CK_LEVEL_1
  6
Continuous
 62
     4
100
AcDbLine
 10
73.95
 20
9.999997
 30
0.0
 11
55.05
 21
9.999997
 31
0.0
  0
LINE
  5
7D
330
A
100
AcDbEntity
  8
CK_LEVEL_1
  6
Continuous
 62
     4
100
AcDbLine
 10
101.5
 20
6.5
 30
0.0
 11
78.95
 21
6.5
 31
0.0
  0
LINE
  5
7E
330
A
100
AcDbEntity
  8
CK_LEVEL_1
  6
Continuous
 62
     4
100
AcDbLine
 10
101.5
 20
0.0
 30
0.0
 11
27.5
 21
0.0
 31
0.0
  0
ARC
  5
7F
330
A
100
AcDbEntity
  8
CK_LEVEL_1
  6
Continuous
 62
     4
100
AcDbCircle
 10
-5.700000000000001
 20
5.499996999999999
 30
0.0
 40
0.4
100
AcDbArc
 50
300.0000000000001
 51
419.9999999999998
  0
LINE
  5
80
330
A
100
AcDbEntity
  8
CK_LEVEL_1
  6
Continuous
 62
     4
100
AcDbLine
 10
8.600000000000001
 20
0.0
 30
0.0
 11
3.1
 21
0.0
 31
0.0
  0
ARC
  5
81
330
A
100
AcDbEntity
  8
CK_LEVEL_1
  6
Continuous
 62
     4
100
AcDbCircle
 10
2.700000000000001
 20
-0.3000000000000007
 30
0.0
 40
0.5
100
AcDbArc
 50
36.86989764584412
 51
143.1301023541559
  0
ARC
  5
82
330
A
100
AcDbEntity
  8
CK_LEVEL_1
  6
Continuous
 62
     4
100
AcDbCircle
 10
1.000000000000001
 20
4.292605299279607
 30
0.0
 40
0.2
100
AcDbArc
 50
275.0000000000005
 51
360.0
  0
ARC
  5
83
330
A
100
AcDbEntity
  8
CK_LEVEL_1
  6
Continuous
 62
     4
100
AcDbCircle
 10
1.000000000000001
 20
4.707394700720413
 30
0.0
 40
0.2
100
AcDbArc
 50
0.0
 51
85.00000000000051
  0
LINE
  5
84
330
A
100
AcDbEntity
  8
CK_LEVEL_1
  6
CENTER
 62
   252
100
AcDbLine
 10
12.0
 20
4.528309163512967
 30
0.0
 11
12.0
 21
10.999997
 31
0.0
  0
LINE
  5
85
330
A
100
AcDbEntity
  8
CK_LEVEL_1
  6
DASHED
 62
   252
100
AcDbLine
 10
-1.749999999999999
 20
6.249997000000001
 30
0.0
 11
-4.25
 21
6.249997000000001
 31
0.0
  0
LINE
  5
86
330
A
100
AcDbEntity
  8
CK_LEVEL_1
  6
Continuous
 62
     4
100
AcDbLine
 10
0.676485836768527
 20
4.936462490001911
 30
0.0
 11
1.017431148549531
 21
4.906633640338764
 31
0.0
  0
LINE
  5
87
330
A
100
AcDbEntity
  8
CK_LEVEL_1
  6
DASHED
 62
   252
100
AcDbLine
 10
-3.000000000000003
 20
5.528309163512969
 30
0.0
 11
-1.750000000000002
 21
6.249997000000001
 31
0.0
  0
LINE
  5
88
330
A
100
AcDbEntity
  8
CK_LEVEL_1
  6
DASHED
 62
   252
100
AcDbLine
 10
-4.250000000000004
 20
6.249997000000001
 30
0.0
 11
-3.000000000000003
 21
5.528309163512969
 31
0.0
  0
LINE
  5
89
330
A
100
AcDbEntity
  8
CK_LEVEL_1
  6
DASHED
 62
   252
100
AcDbLine
 10
-1.499999999999998
 20
6.999997000000001
 30
0.0
 11
-4.5
 21
6.999997000000001
 31
0.0
  0
LINE
  5
8A
330
A
100
AcDbEntity
  8
CK_LEVEL_1
  6
DASHED
 62
   252
100
AcDbLine
 10
-1.499999999999999
 20
6.999997000000001
 30
0.0
 11
-1.499999999999999
 21
9.799996999999997
 31
0.0
  0
LINE
  5
8B
330
A
100
AcDbEntity
  8
CK_LEVEL_1
  6
DASHED
 62
   252
100
AcDbLine
 10
-1.749999999999999
 20
6.249997000000001
 30
0.0
 11
-1.749999999999999
 21
9.799996999999997
 31
0.0
  0
LINE
  5
8C
330
A
100
AcDbEntity
  8
CK_LEVEL_1
  6
DASHED
 62
   252
100
AcDbLine
 10
-4.25
 20
6.249997000000001
 30
0.0
 11
-4.25
 21
9.799996999999997
 31
0.0
  0
LINE
  5
8D
330
A
100
AcDbEntity
  8
CK_LEVEL_1
  6
DASHED
 62
   252
100
AcDbLine
 10
-4.5
 20
6.999997000000001
 30
0.0
 11
-4.5
 21
9.799996999999997
 31
0.0
  0
LINE
  5
8E
330
A
100
AcDbEntity
  8
CK_LEVEL_1
  6
CENTER
 62
   252
100
AcDbLine
 10
-3.0
 20
4.528309163512967
 30
0.0
 11
-3.0
 21
10.999997
 31
0.0
  0
LINE
  5
8F
330
A
100
AcDbEntity
  8
CK_LEVEL_1
  6
DASHED
 62
   252
100
AcDbLine
 10
6.550000000000006
 20
0.0
 30
0.0
 11
6.25
 21
0.3000000000000007
 31
0.0
  0
LINE
  5
90
330
A
100
AcDbEntity
  8
CK_LEVEL_1
  6
DASHED
 62
   252
100
AcDbLine
 10
2.647204860432889
 20
0.1972048604328888
 30
0.0
 11
2.75
 21
0.3000000000000007
 31
0.0
  0
LINE
  5
91
330
A
100
AcDbEntity
  8
CK_LEVEL_1
  6
DASHED
 62
   252
100
AcDbLine
 10
6.25
 20
0.3000000000000007
 30
0.0
 11
2.75
 21
0.3000000000000007
 31
0.0
  0
LINE
  5
92
330
A
100
AcDbEntity
  8
CK_LEVEL_1
  6
DASHED
 62
   252
100
AcDbLine
 10
6.25
 20
0.3000000000000007
 30
0.0
 11
6.25
 21
3.0
 31
0.0
  0
LINE
  5
93
330
A
100
AcDbEntity
  8
CK_LEVEL_1
  6
DASHED
 62
   252
100
AcDbLine
 10
2.75
 20
0.3000000000000007
 30
0.0
 11
2.75
 21
3.0
 31
0.0
  0
LINE
  5
94
330
A
100
AcDbEntity
  8
CK_LEVEL_1
  6
DASHED
 62
   252
100
AcDbLine
 10
7.5
 20
3.0
 30
0.0
 11
7.5
 21
6.199999999999999
 31
0.0
  0
LINE
  5
95
330
A
100
AcDbEntity
  8
CK_LEVEL_1
  6
DASHED
 62
   252
100
AcDbLine
 10
1.500000000000001
 20
3.0
 30
0.0
 11
1.500000000000001
 21
6.199999999999999
 31
0.0
  0
LINE
  5
96
330
A
100
AcDbEntity
  8
CK_LEVEL_1
  6
DASHED
 62
   252
100
AcDbLine
 10
7.5
 20
3.0
 30
0.0
 11
1.500000000000001
 21
3.0
 31
0.0
  0
LINE
  5
97
330
A
100
AcDbEntity
  8
CK_LEVEL_1
  6
Continuous
 62
     4
100
AcDbLine
 10
9.4
 20
9.999997
 30
0.0
 11
9.100000000000003
 21
9.699997000000003
 31
0.0
  0
LINE
  5
98
330
A
100
AcDbEntity
  8
CK_LEVEL_1
  6
Continuous
 62
     4
100
AcDbLine
 10
-0.3999999999999984
 20
9.999997
 30
0.0
 11
-0.1000000000000006
 21
9.699997000000003
 31
0.0
  0
LINE
  5
99
330
A
100
AcDbEntity
  8
CK_LEVEL_1
  6
Continuous
 62
     4
100
AcDbLine
 10
13.300003
 20
9.699997000000003
 30
0.0
 11
-4.300002999999987
 21
9.699997000000003
 31
0.0
  0
LINE
  5
9A
330
A
100
AcDbEntity
  8
CK_LEVEL_1
  6
Continuous
 62
     4
100
AcDbLine
 10
2.300000000000001
 20
0.0
 30
0.0
 11
0.4000000000000006
 21
0.0
 31
0.0
  0
LINE
  5
9B
330
A
100
AcDbEntity
  8
CK_LEVEL_1
  6
Continuous
 62
     4
100
AcDbLine
 10
14.5
 20
2.499997
 30
0.0
 11
14.5
 21
9.499997
 31
0.0
  0
LINE
  5
9C
330
A
100
AcDbEntity
  8
CK_LEVEL_1
  6
Continuous
 62
     4
100
AcDbLine
 10
-0.3999999999999984
 20
9.999997
 30
0.0
 11
-4.999995999999998
 21
9.999997
 31
0.0
  0
LINE
  5
9D
330
A
100
AcDbEntity
  8
CK_LEVEL_1
  6
Continuous
 62
     4
100
AcDbLine
 10
9.4
 20
9.999997
 30
0.0
 11
14.0
 21
9.999997
 31
0.0
  0
LINE
  5
9E
330
A
100
AcDbEntity
  8
CK_LEVEL_1
  6
Continuous
 62
     4
100
AcDbLine
 10
9.000000000000001
 20
5.55829752442581
 30
0.0
 11
9.000000000000001
 21
6.100000000000001
 31
0.0
  0
LINE
  5
9F
330
A
100
AcDbEntity
  8
CK_LEVEL_1
  6
Continuous
 62
     4
100
AcDbLine
 10
9.000000000000001
 20
0.3999999999999986
 30
0.0
 11
9.000000000000001
 21
3.441696475574147
 31
0.0
  0
LINE
  5
A0
330
A
100
AcDbEntity
  8
CK_LEVEL_1
  6
Continuous
 62
     4
100
AcDbLine
 10
-5.499995999999998
 20
2.499997
 30
0.0
 11
-5.499995999999998
 21
5.153589147918093
 31
0.0
  0
LINE
  5
A1
330
A
100
AcDbEntity
  8
CK_LEVEL_1
  6
CENTER
 62
   252
100
AcDbLine
 10
4.5
 20
-1.25
 30
0.0
 11
4.5
 21
11.249997
 31
0.0
  0
LINE
  5
A2
330
A
100
AcDbEntity
  8
CK_LEVEL_1
  6
Continuous
 62
     4
100
AcDbLine
 10
0.0
 20
5.55829752442581
 30
0.0
 11
0.0
 21
6.100000000000001
 31
0.0
  0
LINE
  5
A3
330
A
100
AcDbEntity
  8
CK_LEVEL_1
  6
Continuous
 62
     4
100
AcDbLine
 10
8.600000000000001
 20
6.5
 30
0.0
 11
0.4000000000000015
 21
6.5
 31
0.0
  0
LINE
  5
A4
330
A
100
AcDbEntity
  8
CK_LEVEL_1
  6
Continuous
 62
     4
100
AcDbLine
 10
0.0
 20
0.3999999999999986
 30
0.0
 11
0.0
 21
3.441696475574147
 31
0.0
  0
LINE
  5
A5
330
A
100
AcDbEntity
  8
CK_LEVEL_1
  6
Continuous
 62
     4
100
AcDbLine
 10
0.4000000000000015
 20
6.5
 30
0.0
 11
0.0
 21
6.100000000000001
 31
0.0
  0
LINE
  5
A6
330
A
100
AcDbEntity
  8
CK_LEVEL_1
  6
Continuous
 62
     4
100
AcDbLine
 10
9.000000000000001
 20
6.100000000000001
 30
0.0
 11
8.600000000000001
 21
6.5
 31
0.0
  0
LINE
  5
A7
330
A
100
AcDbEntity
  8
CK_LEVEL_1
  6
Continuous
 62
     4
100
AcDbLine
 10
9.000000000000001
 20
0.3999999999999986
 30
0.0
 11
8.600000000000001
 21
0.0
 31
0.0
  0
LINE
  5
A8
330
A
100
AcDbEntity
  8
CK_LEVEL_1
  6
Continuous
 62
     4
100
AcDbLine
 10
0.4000000000000006
 20
0.0
 30
0.0
 11
0.0
 21
0.3999999999999986
 31
0.0
  0
LINE
  5
A9
330
A
100
AcDbEntity
  8
CK_LEVEL_1
  6
Continuous
 62
     4
100
AcDbLine
 10
1.200000000000001
 20
4.292605299279607
 30
0.0
 11
1.200000000000001
 21
4.707394700720413
 31
0.0
  0
LINE
  5
AA
330
A
100
AcDbEntity
  8
CK_LEVEL_1
  6
Continuous
 62
     4
100
AcDbLine
 10
0.676489583268535
 20
4.063537837774383
 30
0.0
 11
1.017431148549534
 21
4.093366359661256
 31
0.0
  0
LINE
  5
AB
330
A
100
AcDbEntity
  8
CK_LEVEL_1
  6
Continuous
 62
     4
100
AcDbLine
 10
-5.499995999999998
 20
9.499997
 30
0.0
 11
-4.999995999999998
 21
9.999997
 31
0.0
  0
LINE
  5
AC
330
A
100
AcDbEntity
  8
CK_LEVEL_1
  6
Continuous
 62
     4
100
AcDbLine
 10
14.0
 20
9.999997
 30
0.0
 11
14.5
 21
9.499997
 31
0.0
  0
LINE
  5
AD
330
A
100
AcDbEntity
  8
CK_LEVEL_1
  6
Continuous
 62
     4
100
AcDbLine
 10
14.5
 20
2.499997
 30
0.0
 11
14.0
 21
1.999997
 31
0.0
  0
LINE
  5
AE
330
A
100
AcDbEntity
  8
CK_LEVEL_1
  6
Continuous
 62
     4
100
AcDbLine
 10
-4.999995999999998
 20
1.999997
 30
0.0
 11
-5.499995999999998
 21
2.499997
 31
0.0
  0
LINE
  5
AF
330
A
100
AcDbEntity
  8
CK_LEVEL_1
  6
DASHED
 62
   252
100
AcDbLine
 10
-1.499999999999999
 20
9.799996999999997
 30
0.0
 11
-4.5
 21
9.799996999999997
 31
0.0
  0
LINE
  5
B0
330
A
100
AcDbEntity
  8
CK_LEVEL_1
  6
DASHED
 62
   252
100
AcDbLine
 10
-1.299999999999996
 20
9.999997
 30
0.0
 11
-1.499999999999999
 21
9.799996999999997
 31
0.0
  0
LINE
  5
B1
330
A
100
AcDbEntity
  8
CK_LEVEL_1
  6
DASHED
 62
   252
100
AcDbLine
 10
-4.700000000000002
 20
9.999997
 30
0.0
 11
-4.5
 21
9.799996999999997
 31
0.0
  0
LINE
  5
B2
330
A
100
AcDbEntity
  8
CK_LEVEL_1
  6
DASHED
 62
   252
100
AcDbLine
 10
7.5
 20
6.199999999999999
 30
0.0
 11
1.500000000000001
 21
6.199999999999999
 31
0.0
  0
LINE
  5
B3
330
A
100
AcDbEntity
  8
CK_LEVEL_1
  6
DASHED
 62
   252
100
AcDbLine
 10
1.2
 20
6.5
 30
0.0
 11
1.500000000000001
 21
6.199999999999999
 31
0.0
  0
LINE
  5
B4
330
A
100
AcDbEntity
  8
CK_LEVEL_1
  6
DASHED
 62
   252
100
AcDbLine
 10
7.800000000000001
 20
6.5
 30
0.0
 11
7.5
 21
6.199999999999999
 31
0.0
  0
LINE
  5
B5
330
A
100
AcDbEntity
  8
CK_LEVEL_1
  6
Continuous
 62
     4
100
AcDbLine
 10
-5.299999999999999
 20
2.599999999999998
 30
0.0
 11
-5.299999999999999
 21
8.699999999999995
 31
0.0
  0
LINE
  5
B6
330
A
100
AcDbEntity
  8
CK_LEVEL_1
  6
Continuous
 62
     4
100
AcDbLine
 10
14.3
 20
2.599999999999998
 30
0.0
 11
14.3
 21
8.699999999999999
 31
0.0
  0
LINE
  5
B7
330
A
100
AcDbEntity
  8
CK_LEVEL_1
  6
Continuous
 62
     4
100
AcDbLine
 10
14.000003
 20
1.999999999999998
 30
0.0
 11
9.000000000000001
 21
1.999999999999998
 31
0.0
  0
LINE
  5
B8
330
A
100
AcDbEntity
  8
CK_LEVEL_1
  6
Continuous
 62
     4
100
AcDbLine
 10
0.0
 20
1.999999999999998
 30
0.0
 11
-4.999998999999996
 21
1.999999999999998
 31
0.0
  0
LINE
  5
B9
330
A
100
AcDbEntity
  8
CK_LEVEL_1
  6
Continuous
 62
     4
100
AcDbLine
 10
-5.299999999999999
 20
8.699999999999995
 30
0.0
 11
-4.299999999999998
 21
9.699999999999995
 31
0.0
  0
LINE
  5
BA
330
A
100
AcDbEntity
  8
CK_LEVEL_1
  6
Continuous
 62
     4
100
AcDbLine
 10
13.3
 20
9.699999999999999
 30
0.0
 11
14.3
 21
8.699999999999999
 31
0.0
  0
LINE
  5
BB
330
A
100
AcDbEntity
  8
CK_LEVEL_1
  6
Continuous
 62
     4
100
AcDbLine
 10
14.3
 20
2.599999999999998
 30
0.0
 11
13.7
 21
1.999999999999998
 31
0.0
  0
LINE
  5
BC
330
A
100
AcDbEntity
  8
CK_LEVEL_1
  6
Continuous
 62
     4
100
AcDbLine
 10
-4.7
 20
1.999999999999998
 30
0.0
 11
-5.299999999999999
 21
2.599999999999998
 31
0.0
  0
LINE
  5
BD
330
A
100
AcDbEntity
  8
CK_LEVEL_1
  6
Continuous
 62
     4
100
AcDbLine
 10
73.95
 20
44.89999699999999
 30
0.0
 11
55.05
 21
44.89999699999999
 31
0.0
  0
LINE
  5
BE
330
A
100
AcDbEntity
  8
CK_LEVEL_1
  6
Continuous
 62
     4
100
AcDbLine
 10
73.95
 20
35.09999699999999
 30
0.0
 11
55.05
 21
35.09999699999999
 31
0.0
  0
LINE
  5
BF
330
A
100
AcDbEntity
  8
CK_LEVEL_1
  6
Continuous
 62
     4
100
AcDbLine
 10
50.05
 20
44.499997
 30
0.0
 11
27.5
 21
44.499997
 31
0.0
  0
LINE
  5
C0
330
A
100
AcDbEntity
  8
CK_LEVEL_1
  6
Continuous
 62
     4
100
AcDbLine
 10
50.05
 20
35.499997
 30
0.0
 11
27.5
 21
35.499997
 31
0.0
  0
LINE
  5
C1
330
A
100
AcDbEntity
  8
CK_LEVEL_1
  6
CENTER
 62
   252
100
AcDbLine
 10
6.0
 20
8.199999999999999
 30
0.0
 11
3.0
 21
8.199999999999999
 31
0.0
  0
LINE
  5
C2
330
A
100
AcDbEntity
  8
CK_LEVEL_1
  6
Continuous
 62
     4
100
AcDbLine
 10
50.05
 20
49.799997
 30
0.0
 11
50.05
 21
30.199997
 31
0.0
  0
LINE
  5
C3
330
A
100
AcDbEntity
  8
CK_LEVEL_1
  6
Continuous
 62
     4
100
AcDbLine
 10
78.95
 20
49.799997
 30
0.0
 11
78.95
 21
30.199997
 31
0.0
  0
LINE
  5
C4
330
A
100
AcDbEntity
  8
CK_LEVEL_1
  6
Continuous
 62
     4
100
AcDbLine
 10
50.05
 20
9.699999999999999
 30
0.0
 11
50.05
 21
1.999996999999999
 31
0.0
  0
LINE
  5
C5
330
A
100
AcDbEntity
  8
CK_LEVEL_1
  6
Continuous
 62
     4
100
AcDbLine
 10
78.95
 20
9.699999999999999
 30
0.0
 11
78.95
 21
1.999996999999999
 31
0.0
  0
LINE
  5
C6
330
A
100
AcDbEntity
  8
CK_LEVEL_1
  6
Continuous
 62
     4
100
AcDbLine
 10
50.05
 20
6.5
 30
0.0
 11
27.5
 21
6.5
 31
0.0
  0
LINE
  5
C7
330
A
100
AcDbEntity
  8
CK_LEVEL_1
  6
DASHED
 62
   252
100
AcDbLine
 10
37.5
 20
6.199999999999999
 30
0.0
 11
31.5
 21
6.199999999999999
 31
0.0
  0
LINE
  5
C8
330
A
100
AcDbEntity
  8
CK_LEVEL_1
  6
DASHED
 62
   252
100
AcDbLine
 10
31.5
 20
3.0
 30
0.0
 11
31.5
 21
6.199999999999999
 31
0.0
  0
LINE
  5
C9
330
A
100
AcDbEntity
  8
CK_LEVEL_1
  6
DASHED
 62
   252
100
AcDbLine
 10
37.5
 20
3.0
 30
0.0
 11
37.5
 21
6.199999999999999
 31
0.0
  0
LINE
  5
CA
330
A
100
AcDbEntity
  8
CK_LEVEL_1
  6
DASHED
 62
   252
100
AcDbLine
 10
37.5
 20
3.0
 30
0.0
 11
31.5
 21
3.0
 31
0.0
  0
LINE
  5
CB
330
A
100
AcDbEntity
  8
CK_LEVEL_1
  6
CENTER
 62
   252
100
AcDbLine
 10
34.5
 20
-1.172157788209322
 30
0.0
 11
34.5
 21
7.62987031281596
 31
0.0
  0
LINE
  5
CC
330
A
100
AcDbEntity
  8
CK_LEVEL_1
  6
DASHED
 62
   252
100
AcDbLine
 10
36.25
 20
0.3000000000000007
 30
0.0
 11
36.25
 21
3.0
 31
0.0
  0
LINE
  5
CD
330
A
100
AcDbEntity
  8
CK_LEVEL_1
  6
DASHED
 62
   252
100
AcDbLine
 10
32.75
 20
0.3000000000000007
 30
0.0
 11
32.75
 21
3.0
 31
0.0
  0
LINE
  5
CE
330
A
100
AcDbEntity
  8
CK_LEVEL_1
  6
DASHED
 62
   252
100
AcDbLine
 10
36.25
 20
0.3000000000000007
 30
0.0
 11
32.75
 21
0.3000000000000007
 31
0.0
  0
LINE
  5
CF
330
A
100
AcDbEntity
  8
CK_LEVEL_1
  6
DASHED
 62
   252
100
AcDbLine
 10
32.45
 20
0.0
 30
0.0
 11
32.75
 21
0.3000000000000007
 31
0.0
  0
LINE
  5
D0
330
A
100
AcDbEntity
  8
CK_LEVEL_1
  6
DASHED
 62
   252
100
AcDbLine
 10
37.8
 20
6.5
 30
0.0
 11
37.5
 21
6.199999999999999
 31
0.0
  0
LINE
  5
D1
330
A
100
AcDbEntity
  8
CK_LEVEL_1
  6
DASHED
 62
   252
100
AcDbLine
 10
31.2
 20
6.5
 30
0.0
 11
31.5
 21
6.199999999999999
 31
0.0
  0
LINE
  5
D2
330
A
100
AcDbEntity
  8
CK_LEVEL_1
  6
DASHED
 62
   252
100
AcDbLine
 10
36.55
 20
0.0
 30
0.0
 11
36.25
 21
0.3000000000000007
 31
0.0
  0
LINE
  5
D3
330
A
100
AcDbEntity
  8
CK_LEVEL_1
  6
CENTER
 62
   252
100
AcDbLine
 10
94.50000000000001
 20
-1.172157788209322
 30
0.0
 11
94.50000000000001
 21
7.629870312815961
 31
0.0
  0
LINE
  5
D4
330
A
100
AcDbEntity
  8
CK_LEVEL_1
  6
CENTER
 62
   252
100
AcDbLine
 10
34.5
 20
36.25475932906935
 30
0.0
 11
34.5
 21
43.78967506654917
 31
0.0
  0
CIRCLE
  5
D5
330
A
100
AcDbEntity
  8
CK_LEVEL_1
  6
Continuous
 62
     4
100
AcDbCircle
 10
34.5
 20
39.999997
 30
0.0
 40
1.75
  0
CIRCLE
  5
D6
330
A
100
AcDbEntity
  8
CK_LEVEL_1
  6
Continuous
 62
     4
100
AcDbCircle
 10
34.5
 20
39.999997
 30
0.0
 40
3.0
  0
LINE
  5
D7
330
A
100
AcDbEntity
  8
CK_LEVEL_1
  6
CENTER
 62
   252
100
AcDbLine
 10
94.50000000000001
 20
36.25475932906935
 30
0.0
 11
94.50000000000001
 21
43.78967506654917
 31
0.0
  0
LINE
  5
D8
330
A
100
AcDbEntity
  8
CK_LEVEL_1
  6
Continuous
 62
     4
100
AcDbLine
 10
-5.499995999999998
 20
5.846404852081905
 30
0.0
 11
-5.499995999999998
 21
9.499997
 31
0.0
  0
ARC
  5
D9
330
A
100
AcDbEntity
  8
CK_LEVEL_1
  6
Continuous
 62
     4
100
AcDbCircle
 10
-0.3000000000000114
 20
4.499996999999979
 30
0.0
 40
1.0
100
AcDbArc
 50
293.035684105942
 51
329.3715903487645
  0
ARC
  5
DA
330
A
100
AcDbEntity
  8
CK_LEVEL_1
  6
Continuous
 62
     4
100
AcDbCircle
 10
-0.3000000000000114
 20
4.499996999999979
 30
0.0
 40
1.0
100
AcDbArc
 50
30.62877603072246
 51
66.96431589405799
  0
ARC
  5
DB
330
A
100
AcDbEntity
  8
CK_LEVEL_1
  6
Continuous
 62
     4
100
AcDbCircle
 10
0.1500000000000011
 20
5.55829752442581
 30
0.0
 40
0.15
100
AcDbArc
 50
180.0000000000006
 51
246.9643158940578
  0
ARC
  5
DC
330
A
100
AcDbEntity
  8
CK_LEVEL_1
  6
Continuous
 62
     4
100
AcDbCircle
 10
0.6895591981806748
 20
5.085891694715673
 30
0.0
 40
0.15
100
AcDbArc
 50
210.628776030722
 51
265.0000000000003
  0
ARC
  5
DD
330
A
100
AcDbEntity
  8
CK_LEVEL_1
  6
Continuous
 62
     4
100
AcDbCircle
 10
0.6895629446806848
 20
3.914108633060621
 30
0.0
 40
0.15
100
AcDbArc
 50
95.00000000000049
 51
149.3715903487647
  0
ARC
  5
DE
330
A
100
AcDbEntity
  8
CK_LEVEL_1
  6
Continuous
 62
     4
100
AcDbCircle
 10
0.1500000000000014
 20
3.441696475574147
 30
0.0
 40
0.15
100
AcDbArc
 50
113.035684105942
 51
180.0000000000002
  0
ARC
  5
DF
330
A
100
AcDbEntity
  8
CK_LEVEL_1
  6
Continuous
 62
     4
100
AcDbCircle
 10
9.300000000000013
 20
4.499996999999979
 30
0.0
 40
1.0
100
AcDbArc
 50
113.0356841059419
 51
149.3712239692775
  0
ARC
  5
E0
330
A
100
AcDbEntity
  8
CK_LEVEL_1
  6
Continuous
 62
     4
100
AcDbCircle
 10
8.850000000000001
 20
5.55829752442581
 30
0.0
 40
0.15
100
AcDbArc
 50
293.035684105942
 51
359.9999999999993
  0
ARC
  5
E1
330
A
100
AcDbEntity
  8
CK_LEVEL_1
  6
Continuous
 62
     4
100
AcDbCircle
 10
8.310440801819327
 20
5.085891694715673
 30
0.0
 40
0.15
100
AcDbArc
 50
274.9999999999997
 51
329.3712239692779
  0
ARC
  5
E2
330
A
100
AcDbEntity
  8
CK_LEVEL_1
  6
Continuous
 62
     4
100
AcDbCircle
 10
8.310437055319317
 20
3.914108633060621
 30
0.0
 40
0.15
100
AcDbArc
 50
30.62840965123521
 51
84.9999999999995
  0
ARC
  5
E3
330
A
100
AcDbEntity
  8
CK_LEVEL_1
  6
Continuous
 62
     4
100
AcDbCircle
 10
9.300000000000013
 20
4.499996999999979
 30
0.0
 40
1.0
100
AcDbArc
 50
210.6284096512353
 51
246.9643158940579
  0
ARC
  5
E4
330
A
100
AcDbEntity
  8
CK_LEVEL_1
  6
Continuous
 62
     4
100
AcDbCircle
 10
8.849999999999999
 20
3.441696475574147
 30
0.0
 40
0.15
100
AcDbArc
 50
359.9999999999997
 51
426.964315894058
  0
ARC
  5
E5
330
A
100
AcDbEntity
  8
CK_LEVEL_1
  6
Continuous
 62
     4
100
AcDbCircle
 10
-0.3000000000000114
 20
4.499996999999979
 30
0.0
 40
0.5
100
AcDbArc
 50
270.0
 51
450.0
  0
ARC
  5
E6
330
A
100
AcDbEntity
  8
CK_LEVEL_1
  6
Continuous
 62
     4
100
AcDbCircle
 10
9.300000000000013
 20
4.499996999999979
 30
0.0
 40
0.5
100
AcDbArc
 50
90.0
 51
270.0
  0
CIRCLE
  5
E7
330
A
100
AcDbEntity
  8
CK_LEVEL_1
  6
Continuous
 62
     4
100
AcDbCircle
 10
4.5
 20
8.199999999999999
 30
0.0
 40
0.4
  0
LINE
  5
E8
330
A
100
AcDbEntity
  8
CK_LEVEL_1
  6
DASHED
 62
   252
100
AcDbLine
 10
52.75
 20
0.3000000000000007
 30
0.0
 11
52.75
 21
1.999997
 31
0.0
  0
LINE
  5
E9
330
A
100
AcDbEntity
  8
CK_LEVEL_1
  6
DASHED
 62
   252
100
AcDbLine
 10
56.25
 20
0.3000000000000007
 30
0.0
 11
56.25
 21
1.999997
 31
0.0
  0
LINE
  5
EA
330
A
100
AcDbEntity
  8
CK_LEVEL_1
  6
DASHED
 62
   252
100
AcDbLine
 10
56.25
 20
0.3000000000000007
 30
0.0
 11
52.75
 21
0.3000000000000007
 31
0.0
  0
LINE
  5
EB
330
A
100
AcDbEntity
  8
CK_LEVEL_1
  6
DASHED
 62
   252
100
AcDbLine
 10
52.45
 20
0.0
 30
0.0
 11
52.75
 21
0.3000000000000007
 31
0.0
  0
LINE
  5
EC
330
A
100
AcDbEntity
  8
CK_LEVEL_1
  6
DASHED
 62
   252
100
AcDbLine
 10
56.55000000000001
 20
0.0
 30
0.0
 11
56.25
 21
0.3000000000000007
 31
0.0
  0
ENDSEC
  0
SECTION
  2
OBJECTS
  0
DICTIONARY
  5
19
330
0
100
AcDbDictionary
281
     1
  3
ACAD_GROUP
350
1A
  3
ACAD_LAYOUT
350
F2
  3
ACAD_MLINESTYLE
350
1B
  3
ACAD_PLOTSETTINGS
350
F3
  3
ACAD_PLOTSTYLENAME
350
F0
  0
DICTIONARY
  5
1A
102
{ACAD_REACTORS
330
19
102
}
330
19
100
AcDbDictionary
281
     1
  0
DICTIONARY
  5
F2
102
{ACAD_REACTORS
330
19
102
}
330
19
100
AcDbDictionary
281
     1
  3
Layout1
350
F5
  3
Model
350
F4
  0
DICTIONARY
  5
1B
102
{ACAD_REACTORS
330
19
102
}
330
19
100
AcDbDictionary
281
     1
  3
STANDARD
350
1C
  0
DICTIONARY
  5
F3
102
{ACAD_REACTORS
330
19
102
}
330
19
100
AcDbDictionary
281
     1
  0
ACDBDICTIONARYWDFLT
  5
F0
102
{ACAD_REACTORS
330
19
102
}
330
19
100
AcDbDictionary
281
     1
  3
Normal
350
F1
100
AcDbDictionaryWithDefault
340
F1
  0
LAYOUT
  5
F5
102
{ACAD_REACTORS
330
F2
102
}
330
F2
100
AcDbPlotSettings
  1

  2
HPLJ2100_Technik_S3
  4

  6

 40
0.0
 41
0.0
 42
0.0
 43
0.0
 44
0.0
 45
0.0
 46
0.0
 47
0.0
 48
0.0
 49
0.0
140
0.0
141
0.0
142
1.0
143
1.0
 70
   688
 72
     0
 73
     0
 74
     5
  7

 75
    16
147
1.0
148
0.0
149
0.0
100
AcDbLayout
  1
Layout1
 70
     0
 71
     1
 10
0.0
 20
0.0
 11
12.0
 21
9.0
 12
0.0
 22
0.0
 32
0.0
 14
1.000000000000000E+20
 24
1.000000000000000E+20
 34
1.000000000000000E+20
 15
-1.000000000000000E+20
 25
-1.000000000000000E+20
 35
-1.000000000000000E+20
146
0.0
 13
0.0
 23
0.0
 33
0.0
 16
1.0
 26
0.0
 36
0.0
 17
0.0
 27
1.0
 37
0.0
 76
     0
330
B
  0
LAYOUT
  5
F4
102
{ACAD_REACTORS
330
F2
102
}
330
F2
100
AcDbPlotSettings
  1

  2
HPLJ2100_Technik_S3
  4

  6

 40
0.0
 41
0.0
 42
0.0
 43
0.0
 44
0.0
 45
0.0
 46
0.0
 47
0.0
 48
0.0
 49
0.0
140
0.0
141
0.0
142
1.0
143
1.0
 70
  1712
 72
     0
 73
     0
 74
     0
  7

 75
     0
147
1.0
148
0.0
149
0.0
100
AcDbLayout
  1
Model
 70
     1
 71
     0
 10
0.0
 20
0.0
 11
12.0
 21
9.0
 12
0.0
 22
0.0
 32
0.0
 14
0.0
 24
0.0
 34
0.0
 15
0.0
 25
0.0
 35
0.0
146
0.0
 13
0.0
 23
0.0
 33
0.0
 16
1.0
 26
0.0
 36
0.0
 17
0.0
 27
1.0
 37
0.0
 76
     0
330
A
  0
MLINESTYLE
  5
1C
102
{ACAD_REACTORS
330
1B
102
}
330
1B
100
AcDbMlineStyle
  2
STANDARD
 70
     0
  3

 62
     0
 51
90.00000000000019
 52
90.00000000000019
 71
     2
 49
0.5
 62
   256
  6
BYLAYER
 49
-0.5
 62
   256
  6
BYLAYER
  0
ACDBPLACEHOLDER
  5
F1
102
{ACAD_REACTORS
330
F0
102
}
330
F0
  0
ENDSEC
  0
EOF
