  0
SECTION
  2
HEADER
  9
$ACADVER
  1
AC1015
  9
$ACADMAINTVER
 70
    10
  9
$DWGCODEPAGE
  3
ANSI_1252
  9
$INSBASE
 10
0.0
 20
0.0
 30
0.0
  9
$EXTMIN
 10
-39.9478589184903
 20
100.0772094033084
 30
0.0
  9
$EXTMAX
 10
230.0521410815097
 20
192.5888444033084
 30
0.0
  9
$LIMMIN
 10
0.0
 20
0.0
  9
$LIMMAX
 10
0.0
 20
0.0
  9
$ORTHOMODE
 70
     0
  9
$REGENMODE
 70
     1
  9
$FILLMODE
 70
     1
  9
$QTEXTMODE
 70
     0
  9
$MIRRTEXT
 70
     1
  9
$LTSCALE
 40
1.0
  9
$ATTMODE
 70
     1
  9
$TEXTSIZE
 40
0.0
  9
$TRACEWID
 40
0.05
  9
$TEXTSTYLE
  7
STANDARD
  9
$CLAYER
  8
0
  9
$CELTYPE
  6
CONTINUOUS
  9
$CECOLOR
 62
    15
  9
$CELTSCALE
 40
1.0
  9
$DISPSILH
 70
     0
  9
$DIMSCALE
 40
1.0
  9
$DIMASZ
 40
0.18
  9
$DIMEXO
 40
0.0625
  9
$DIMDLI
 40
0.38
  9
$DIMRND
 40
0.0
  9
$DIMDLE
 40
0.0
  9
$DIMEXE
 40
0.25
  9
$DIMTP
 40
0.05
  9
$DIMTM
 40
-0.05
  9
$DIMTXT
 40
2.5
  9
$DIMCEN
 40
0.09
  9
$DIMTSZ
 40
0.0
  9
$DIMTOL
 70
     0
  9
$DIMLIM
 70
     0
  9
$DIMTIH
 70
     1
  9
$DIMTOH
 70
     1
  9
$DIMSE1
 70
     0
  9
$DIMSE2
 70
     0
  9
$DIMTAD
 70
     0
  9
$DIMZIN
 70
     0
  9
$DIMBLK
  1

  9
$DIMASO
 70
     1
  9
$DIMSHO
 70
     1
  9
$DIMPOST
  1

  9
$DIMAPOST
  1

  9
$DIMALT
 70
     0
  9
$DIMALTD
 70
     2
  9
$DIMALTF
 40
25.4
  9
$DIMLFAC
 40
1.0
  9
$DIMTOFL
 70
     0
  9
$DIMTVP
 40
0.0
  9
$DIMTIX
 70
     0
  9
$DIMSOXD
 70
     0
  9
$DIMSAH
 70
     0
  9
$DIMBLK1
  1

  9
$DIMBLK2
  1

  9
$DIMSTYLE
  2
STANDARD
  9
$DIMCLRD
 70
     0
  9
$DIMCLRE
 70
     0
  9
$DIMCLRT
 70
    15
  9
$DIMTFAC
 40
0.7000000000000001
  9
$DIMGAP
 40
0.09
  9
$DIMJUST
 70
     0
  9
$DIMSD1
 70
     0
  9
$DIMSD2
 70
     0
  9
$DIMTOLJ
 70
     1
  9
$DIMTZIN
 70
     0
  9
$DIMALTZ
 70
     0
  9
$DIMALTTZ
 70
     0
  9
$DIMUPT
 70
     0
  9
$DIMDEC
 70
     4
  9
$DIMTDEC
 70
     4
  9
$DIMALTU
 70
     2
  9
$DIMALTTD
 70
     2
  9
$DIMTXSTY
  7
STANDARD
  9
$DIMAUNIT
 70
     0
  9
$DIMADEC
 70
     0
  9
$DIMALTRND
 40
0.0
  9
$DIMAZIN
 70
     0
  9
$DIMDSEP
 70
    46
  9
$DIMATFIT
 70
     3
  9
$DIMFRAC
 70
     0
  9
$DIMLDRBLK
  1

  9
$DIMLUNIT
 70
     2
  9
$DIMLWD
 70
    -2
  9
$DIMLWE
 70
    -2
  9
$DIMTMOVE
 70
     0
  9
$LUNITS
 70
     2
  9
$LUPREC
 70
    10
  9
$SKETCHINC
 40
0.1
  9
$FILLETRAD
 40
0.0
  9
$AUNITS
 70
     0
  9
$AUPREC
 70
     0
  9
$MENU
  1
acad
  9
$ELEVATION
 40
0.0
  9
$PELEVATION
 40
0.0
  9
$THICKNESS
 40
0.0
  9
$LIMCHECK
 70
     0
  9
$CHAMFERA
 40
0.0
  9
$CHAMFERB
 40
0.0
  9
$CHAMFERC
 40
0.0
  9
$CHAMFERD
 40
0.0
  9
$SKPOLY
 70
     0
  9
$TDCREATE
 40
2444972.041666666
  9
$TDUCREATE
 40
2444972.000000000
  9
$TDUPDATE
 40
2452327.408292835
  9
$TDUUPDATE
 40
2452327.366626169
  9
$TDINDWG
 40
0.0012366204
  9
$TDUSRTIMER
 40
0.0012366204
  9
$USRTIMER
 70
     1
  9
$ANGBASE
 50
0.0
  9
$ANGDIR
 70
     0
  9
$PDMODE
 70
     2
  9
$PDSIZE
 40
0.0
  9
$PLINEWID
 40
0.0
  9
$SPLFRAME
 70
     0
  9
$SPLINETYPE
 70
     6
  9
$SPLINESEGS
 70
     8
  9
$HANDSEED
  5
17E
  9
$SURFTAB1
 70
     6
  9
$SURFTAB2
 70
     6
  9
$SURFTYPE
 70
     6
  9
$SURFU
 70
     6
  9
$SURFV
 70
     6
  9
$UCSBASE
  2

  9
$UCSNAME
  2

  9
$UCSORG
 10
0.0
 20
0.0
 30
0.0
  9
$UCSXDIR
 10
1.0
 20
0.0
 30
0.0
  9
$UCSYDIR
 10
0.0
 20
1.0
 30
0.0
  9
$UCSORTHOREF
  2

  9
$UCSORTHOVIEW
 70
     0
  9
$UCSORGTOP
 10
0.0
 20
0.0
 30
0.0
  9
$UCSORGBOTTOM
 10
0.0
 20
0.0
 30
0.0
  9
$UCSORGLEFT
 10
0.0
 20
0.0
 30
0.0
  9
$UCSORGRIGHT
 10
0.0
 20
0.0
 30
0.0
  9
$UCSORGFRONT
 10
0.0
 20
0.0
 30
0.0
  9
$UCSORGBACK
 10
0.0
 20
0.0
 30
0.0
  9
$PUCSBASE
  2

  9
$PUCSNAME
  2

  9
$PUCSORG
 10
0.0
 20
0.0
 30
0.0
  9
$PUCSXDIR
 10
1.0
 20
0.0
 30
0.0
  9
$PUCSYDIR
 10
0.0
 20
1.0
 30
0.0
  9
$PUCSORTHOREF
  2

  9
$PUCSORTHOVIEW
 70
     0
  9
$PUCSORGTOP
 10
0.0
 20
0.0
 30
0.0
  9
$PUCSORGBOTTOM
 10
0.0
 20
0.0
 30
0.0
  9
$PUCSORGLEFT
 10
0.0
 20
0.0
 30
0.0
  9
$PUCSORGRIGHT
 10
0.0
 20
0.0
 30
0.0
  9
$PUCSORGFRONT
 10
0.0
 20
0.0
 30
0.0
  9
$PUCSORGBACK
 10
0.0
 20
0.0
 30
0.0
  9
$USERI1
 70
     0
  9
$USERI2
 70
     0
  9
$USERI3
 70
     0
  9
$USERI4
 70
     0
  9
$USERI5
 70
     0
  9
$USERR1
 40
0.0
  9
$USERR2
 40
0.0
  9
$USERR3
 40
0.0
  9
$USERR4
 40
0.0
  9
$USERR5
 40
0.0
  9
$WORLDVIEW
 70
     1
  9
$SHADEDGE
 70
     3
  9
$SHADEDIF
 70
    70
  9
$TILEMODE
 70
     1
  9
$MAXACTVP
 70
    16
  9
$PINSBASE
 10
0.0
 20
0.0
 30
0.0
  9
$PLIMCHECK
 70
     0
  9
$PEXTMIN
 10
1.000000000000000E+20
 20
1.000000000000000E+20
 30
1.000000000000000E+20
  9
$PEXTMAX
 10
-1.000000000000000E+20
 20
-1.000000000000000E+20
 30
-1.000000000000000E+20
  9
$PLIMMIN
 10
0.0
 20
0.0
  9
$PLIMMAX
 10
12.0
 20
9.0
  9
$UNITMODE
 70
     0
  9
$VISRETAIN
 70
     0
  9
$PLINEGEN
 70
     1
  9
$PSLTSCALE
 70
     0
  9
$TREEDEPTH
 70
  3020
  9
$CMLSTYLE
  2
STANDARD
  9
$CMLJUST
 70
     0
  9
$CMLSCALE
 40
1.0
  9
$PROXYGRAPHICS
 70
     1
  9
$MEASUREMENT
 70
     0
  9
$CELWEIGHT
370
    -1
  9
$ENDCAPS
280
     0
  9
$JOINSTYLE
280
     0
  9
$LWDISPLAY
290
     0
  9
$INSUNITS
 70
     0
  9
$HYPERLINKBASE
  1

  9
$STYLESHEET
  1

  9
$XEDIT
290
     1
  9
$CEPSNTYPE
380
     0
  9
$PSTYLEMODE
290
     1
  9
$FINGERPRINTGUID
  2
{2F04B088-26A7-11D6-8687-00A024540C4A}
  9
$VERSIONGUID
  2
{2F04B096-26A7-11D6-8687-00A024540C4A}
  9
$EXTNAMES
290
     1
  9
$PSVPSCALE
 40
0.0
  9
$OLESTARTUP
290
     0
  0
ENDSEC
  0
SECTION
  2
CLASSES
  0
CLASS
  1
LWPOLYLINE
  2
AcDbPolyline
  3
AutoCAD 2000
 90
    32768
280
     0
281
     1
  0
CLASS
  1
IMAGE
  2
AcDbRasterImage
  3
ISM
 90
    32895
280
     0
281
     1
  0
CLASS
  1
OLE2FRAME
  2
AcDbOle2Frame
  3
AutoCAD 2000
 90
    32768
280
     0
281
     1
  0
CLASS
  1
HATCH
  2
AcDbHatch
  3
AutoCAD 2000
 90
    32768
280
     0
281
     1
  0
CLASS
  1
DICTIONARYVAR
  2
AcDbDictionaryVar
  3
AutoCAD 2000
 90
    32768
280
     0
281
     0
  0
CLASS
  1
RASTERVARIABLES
  2
AcDbRasterVariables
  3
ISM
 90
    32768
280
     0
281
     0
  0
CLASS
  1
IMAGEDEF
  2
AcDbRasterImageDef
  3
ISM
 90
    32768
280
     0
281
     0
  0
CLASS
  1
IMAGEDEF_REACTOR
  2
AcDbRasterImageDefReactor
  3
ISM
 90
    32769
280
     0
281
     0
  0
CLASS
  1
IDBUFFER
  2
AcDbIdBuffer
  3
AutoCAD 2000
 90
    32768
280
     0
281
     0
  0
CLASS
  1
SPATIAL_FILTER
  2
AcDbSpatialFilter
  3
AutoCAD 2000
 90
    32768
280
     0
281
     0
  0
CLASS
  1
XRECORD
  2
AcDbXrecord
  3
AutoCAD 2000
 90
    32768
280
     0
281
     0
  0
CLASS
  1
SORTENTSTABLE
  2
AcDbSortentsTable
  3
AutoCAD 2000
 90
    32768
280
     0
281
     0
  0
CLASS
  1
LAYER_INDEX
  2
AcDbLayerIndex
  3
AutoCAD 2000
 90
    32768
280
     0
281
     0
  0
CLASS
  1
SPATIAL_INDEX
  2
AcDbSpatialIndex
  3
AutoCAD 2000
 90
    32768
280
     0
281
     0
  0
CLASS
  1
OBJECT_PTR
  2
CAseDLPNTableRecord
  3
"ASE-LPNTableRecord"
 90
    32768
280
     0
281
     0
  0
CLASS
  1
ACDBDICTIONARYWDFLT
  2
AcDbDictionaryWithDefault
  3
AutoCAD 2000
 90
        0
280
     0
281
     0
  0
CLASS
  1
ACDBPLACEHOLDER
  2
AcDbPlaceHolder
  3
AutoCAD 2000
 90
        0
280
     0
281
     0
  0
CLASS
  1
LAYOUT
  2
AcDbLayout
  3
AutoCAD 2000
 90
        0
280
     0
281
     0
  0
ENDSEC
  0
SECTION
  2
TABLES
  0
TABLE
  2
VPORT
  5
7
330
0
100
AcDbSymbolTable
 70
     2
  0
VPORT
  5
17D
330
7
100
AcDbSymbolTableRecord
100
AcDbViewportTableRecord
  2
*Active
 70
     0
 10
0.0
 20
0.0
 11
1.0
 21
1.0
 12
117.2714309560453
 22
124.4114944803328
 13
0.0
 23
0.0
 14
1.0
 24
1.0
 15
0.0
 25
0.0
 16
0.0
 26
0.0
 36
1.0
 17
0.0
 27
0.0
 37
0.0
 40
204.3195012001218
 41
1.672360248447204
 42
50.0
 43
0.0
 44
0.0
 50
0.0
 51
0.0
 71
     0
 72
   100
 73
     1
 74
     1
 75
     0
 76
     0
 77
     0
 78
     0
281
     0
 65
     1
110
0.0
120
0.0
130
0.0
111
1.0
121
0.0
131
0.0
112
0.0
122
1.0
132
0.0
 79
     0
146
0.0
  0
ENDTAB
  0
TABLE
  2
LTYPE
  5
4
330
0
100
AcDbSymbolTable
 70
     4
  0
LTYPE
  5
11
330
4
100
AcDbSymbolTableRecord
100
AcDbLinetypeTableRecord
  2
BYBLOCK
 70
     0
  3

 72
    65
 73
     0
 40
0.0
  0
LTYPE
  5
12
330
4
100
AcDbSymbolTableRecord
100
AcDbLinetypeTableRecord
  2
BYLAYER
 70
     0
  3

 72
    65
 73
     0
 40
0.0
  0
LTYPE
  5
13
330
4
100
AcDbSymbolTableRecord
100
AcDbLinetypeTableRecord
  2
CONTINUOUS
 70
     0
  3
Solid line
 72
    65
 73
     0
 40
0.0
  0
LTYPE
  5
1D
330
4
100
AcDbSymbolTableRecord
100
AcDbLinetypeTableRecord
  2
DASHED
 70
     0
  3
_ _ _ _ _ _ _ _ _ _ _ _ _ _ _ _
 72
    65
 73
     2
 40
0.2
 49
0.1
 74
     0
 49
-0.1
 74
     0
  0
LTYPE
  5
1E
330
4
100
AcDbSymbolTableRecord
100
AcDbLinetypeTableRecord
  2
CENTER
 70
     0
  3
___ _ ___ _ ___ _ ___ _ ___ _ ___ _ ___ _ ___ _
 72
    65
 73
     4
 40
0.95
 49
0.625
 74
     0
 49
-0.125
 74
     0
 49
0.075
 74
     0
 49
-0.125
 74
     0
  0
LTYPE
  5
1F
330
4
100
AcDbSymbolTableRecord
100
AcDbLinetypeTableRecord
  2
PHANTOM
 70
     0
  3
______  __  __  ______  __  __  ______  __  __  
 72
    65
 73
     6
 40
1.024999999999999
 49
0.625
 74
     0
 49
-0.125
 74
     0
 49
0.075
 74
     0
 49
-0.125
 74
     0
 49
0.075
 74
     0
 49
-0.125
 74
     0
  0
ENDTAB
  0
TABLE
  2
LAYER
  5
2
330
0
100
AcDbSymbolTable
 70
    10
  0
LAYER
  5
14
330
2
100
AcDbSymbolTableRecord
100
AcDbLayerTableRecord
  2
0
 70
     0
 62
     7
  6
CONTINUOUS
370
    -3
390
172
  0
LAYER
  5
21
330
2
100
AcDbSymbolTableRecord
100
AcDbLayerTableRecord
  2
CK_LEVEL_1
 70
     0
 62
     7
  6
CONTINUOUS
370
    -3
390
172
  0
LAYER
  5
22
330
2
100
AcDbSymbolTableRecord
100
AcDbLayerTableRecord
  2
CK_LEVEL_2
 70
     0
 62
     7
  6
CONTINUOUS
370
    -3
390
172
  0
LAYER
  5
23
330
2
100
AcDbSymbolTableRecord
100
AcDbLayerTableRecord
  2
CK_LEVEL_3
 70
     0
 62
     7
  6
CONTINUOUS
370
    -3
390
172
  0
LAYER
  5
24
330
2
100
AcDbSymbolTableRecord
100
AcDbLayerTableRecord
  2
CK_LEVEL_4
 70
     0
 62
     7
  6
CONTINUOUS
370
    -3
390
172
  0
LAYER
  5
25
330
2
100
AcDbSymbolTableRecord
100
AcDbLayerTableRecord
  2
CK_LEVEL_5
 70
     0
 62
     7
  6
CONTINUOUS
370
    -3
390
172
  0
LAYER
  5
26
330
2
100
AcDbSymbolTableRecord
100
AcDbLayerTableRecord
  2
CK_LEVEL_6
 70
     0
 62
     7
  6
CONTINUOUS
370
    -3
390
172
  0
LAYER
  5
27
330
2
100
AcDbSymbolTableRecord
100
AcDbLayerTableRecord
  2
CK_LEVEL_7
 70
     0
 62
     7
  6
CONTINUOUS
370
    -3
390
172
  0
LAYER
  5
28
330
2
100
AcDbSymbolTableRecord
100
AcDbLayerTableRecord
  2
CK_LEVEL_8
 70
     0
 62
     7
  6
CONTINUOUS
370
    -3
390
172
  0
LAYER
  5
29
330
2
100
AcDbSymbolTableRecord
100
AcDbLayerTableRecord
  2
MGW15
 70
     0
 62
     7
  6
CONTINUOUS
370
    -3
390
172
  0
ENDTAB
  0
TABLE
  2
STYLE
  5
3
330
0
100
AcDbSymbolTable
 70
     1
  0
STYLE
  5
17
330
3
100
AcDbSymbolTableRecord
100
AcDbTextStyleTableRecord
  2
STANDARD
 70
     0
 40
0.0
 41
1.0
 50
0.0
 71
     0
 42
0.0
  3
txt
  4

  0
ENDTAB
  0
TABLE
  2
VIEW
  5
5
330
0
100
AcDbSymbolTable
 70
     0
  0
ENDTAB
  0
TABLE
  2
UCS
  5
6
330
0
100
AcDbSymbolTable
 70
     1
  0
UCS
  5
20
330
6
100
AcDbSymbolTableRecord
100
AcDbUCSTableRecord
  2
CK_VIEW_1
 70
     0
 10
0.0
 20
0.0
 30
1.0
 11
1.0
 21
0.0
 31
0.0
 12
0.0
 22
1.0
 32
0.0
 79
     0
146
0.0
  0
ENDTAB
  0
TABLE
  2
APPID
  5
8
330
0
100
AcDbSymbolTable
 70
     1
  0
APPID
  5
16
330
8
100
AcDbSymbolTableRecord
100
AcDbRegAppTableRecord
  2
ACAD
 70
     0
  0
ENDTAB
  0
TABLE
  2
DIMSTYLE
  5
9
330
0
100
AcDbSymbolTable
 70
     1
100
AcDbDimStyleTable
 71
     0
  0
DIMSTYLE
105
18
330
9
100
AcDbSymbolTableRecord
100
AcDbDimStyleTableRecord
  2
STANDARD
 70
     0
289
     0
340
17
  0
ENDTAB
  0
TABLE
  2
BLOCK_RECORD
  5
1
330
0
100
AcDbSymbolTable
 70
     0
  0
BLOCK_RECORD
  5
A
330
1
100
AcDbSymbolTableRecord
100
AcDbBlockTableRecord
  2
*MODEL_SPACE
340
175
  0
BLOCK_RECORD
  5
B
330
1
100
AcDbSymbolTableRecord
100
AcDbBlockTableRecord
  2
*PAPER_SPACE
340
176
  0
ENDTAB
  0
ENDSEC
  0
SECTION
  2
BLOCKS
  0
BLOCK
  5
D
330
A
100
AcDbEntity
  8
0
100
AcDbBlockBegin
  2
*MODEL_SPACE
 70
     0
 10
0.0
 20
0.0
 30
0.0
  3
*MODEL_SPACE
  1

  0
ENDBLK
  5
E
330
A
100
AcDbEntity
  8
0
100
AcDbBlockEnd
  0
BLOCK
  5
F
330
B
100
AcDbEntity
 67
     1
  8
0
100
AcDbBlockBegin
  2
*PAPER_SPACE
 70
     0
 10
0.0
 20
0.0
 30
0.0
  3
*PAPER_SPACE
  1

  0
ENDBLK
  5
10
330
B
100
AcDbEntity
 67
     1
  8
0
100
AcDbBlockEnd
  0
ENDSEC
  0
SECTION
  2
ENTITIES
  0
ARC
  5
2A
330
A
100
AcDbEntity
  8
MGW15
  6
Continuous
 62
     4
100
AcDbCircle
 10
99.15214108150966
 20
184.7888444033083
 30
0.0
 40
1.0
100
AcDbArc
 50
180.0
 51
240.0000000000002
  0
ARC
  5
2B
330
A
100
AcDbEntity
  8
MGW15
  6
Continuous
 62
     4
100
AcDbCircle
 10
99.15214108150966
 20
187.2888444033083
 30
0.0
 40
1.0
100
AcDbArc
 50
119.9999999999997
 51
180.0
  0
LINE
  5
2C
330
A
100
AcDbEntity
  8
MGW15
  6
Continuous
 62
     4
100
AcDbLine
 10
98.15214108150966
 20
184.7888444033083
 30
0.0
 11
98.15214108150966
 21
187.2888444033083
 31
0.0
  0
ARC
  5
2D
330
A
100
AcDbEntity
  8
MGW15
  6
Continuous
 62
     4
100
AcDbCircle
 10
99.15214108150966
 20
137.8888444033084
 30
0.0
 40
1.0
100
AcDbArc
 50
180.0
 51
240.0000000000002
  0
ARC
  5
2E
330
A
100
AcDbEntity
  8
MGW15
  6
Continuous
 62
     4
100
AcDbCircle
 10
99.15214108150966
 20
140.3888444033084
 30
0.0
 40
1.0
100
AcDbArc
 50
119.9999999999997
 51
180.0
  0
LINE
  5
2F
330
A
100
AcDbEntity
  8
MGW15
  6
Continuous
 62
     4
100
AcDbLine
 10
98.15214108150966
 20
137.8888444033084
 30
0.0
 11
98.15214108150966
 21
140.3888444033084
 31
0.0
  0
ARC
  5
30
330
A
100
AcDbEntity
  8
MGW15
  6
Continuous
 62
     4
100
AcDbCircle
 10
170.9521410815096
 20
184.7888444033083
 30
0.0
 40
1.0
100
AcDbArc
 50
299.9999999999997
 51
360.0
  0
ARC
  5
31
330
A
100
AcDbEntity
  8
MGW15
  6
Continuous
 62
     4
100
AcDbCircle
 10
170.9521410815096
 20
187.2888444033083
 30
0.0
 40
1.0
100
AcDbArc
 50
0.0
 51
60.00000000000028
  0
LINE
  5
32
330
A
100
AcDbEntity
  8
MGW15
  6
Continuous
 62
     4
100
AcDbLine
 10
171.9521410815096
 20
184.7888444033083
 30
0.0
 11
171.9521410815096
 21
187.2888444033083
 31
0.0
  0
ARC
  5
33
330
A
100
AcDbEntity
  8
MGW15
  6
Continuous
 62
     4
100
AcDbCircle
 10
170.9521410815096
 20
137.8888444033084
 30
0.0
 40
1.0
100
AcDbArc
 50
299.9999999999997
 51
360.0
  0
ARC
  5
34
330
A
100
AcDbEntity
  8
MGW15
  6
Continuous
 62
     4
100
AcDbCircle
 10
170.9521410815096
 20
140.3888444033084
 30
0.0
 40
1.0
100
AcDbArc
 50
0.0
 51
60.00000000000028
  0
LINE
  5
35
330
A
100
AcDbEntity
  8
MGW15
  6
Continuous
 62
     4
100
AcDbLine
 10
171.9521410815096
 20
137.8888444033084
 30
0.0
 11
171.9521410815096
 21
140.3888444033084
 31
0.0
  0
ARC
  5
36
330
A
100
AcDbEntity
  8
MGW15
  6
Continuous
 62
     4
100
AcDbCircle
 10
99.15214108150969
 20
112.4388444033084
 30
0.0
 40
1.0
100
AcDbArc
 50
180.0
 51
239.9999999999998
  0
ARC
  5
37
330
A
100
AcDbEntity
  8
MGW15
  6
Continuous
 62
     4
100
AcDbCircle
 10
99.15214108150969
 20
114.9388444033084
 30
0.0
 40
1.0
100
AcDbArc
 50
120.0000000000001
 51
180.0
  0
LINE
  5
38
330
A
100
AcDbEntity
  8
MGW15
  6
Continuous
 62
     4
100
AcDbLine
 10
98.15214108150968
 20
112.4388444033084
 30
0.0
 11
98.15214108150968
 21
114.9388444033084
 31
0.0
  0
ARC
  5
39
330
A
100
AcDbEntity
  8
MGW15
  6
Continuous
 62
     4
100
AcDbCircle
 10
170.9521410815096
 20
112.4388444033084
 30
0.0
 40
1.0
100
AcDbArc
 50
300.0000000000001
 51
360.0
  0
ARC
  5
3A
330
A
100
AcDbEntity
  8
MGW15
  6
Continuous
 62
     4
100
AcDbCircle
 10
170.9521410815096
 20
114.9388444033084
 30
0.0
 40
1.0
100
AcDbArc
 50
0.0
 51
59.99999999999986
  0
LINE
  5
3B
330
A
100
AcDbEntity
  8
MGW15
  6
Continuous
 62
     4
100
AcDbLine
 10
171.9521410815096
 20
112.4388444033084
 30
0.0
 11
171.9521410815096
 21
114.9388444033084
 31
0.0
  0
ARC
  5
3C
330
A
100
AcDbEntity
  8
MGW15
  6
Continuous
 62
     4
100
AcDbCircle
 10
97.8851826266769
 20
113.2888444033084
 30
0.0
 40
3.5
100
AcDbArc
 50
161.6823015888014
 51
198.3176984111985
  0
ARC
  5
3D
330
A
100
AcDbEntity
  8
MGW15
  6
Continuous
 62
     4
100
AcDbCircle
 10
97.88518262667693
 20
115.4888444033084
 30
0.0
 40
3.5
100
AcDbArc
 50
161.6823015888014
 51
198.3176984111985
  0
LINE
  5
3E
330
A
100
AcDbEntity
  8
MGW15
  6
Continuous
 62
     4
100
AcDbLine
 10
94.56253308150969
 20
114.3888444033084
 30
0.0
 11
98.65214108150968
 21
114.3888444033084
 31
0.0
  0
LINE
  5
3F
330
A
100
AcDbEntity
  8
MGW15
  6
CENTER
 62
   252
100
AcDbLine
 10
93.15175762046063
 20
114.3888444033084
 30
0.0
 11
99.25214108150967
 21
114.3888444033084
 31
0.0
  0
ARC
  5
40
330
A
100
AcDbEntity
  8
MGW15
  6
Continuous
 62
     4
100
AcDbCircle
 10
94.41209808150968
 20
114.3888444033084
 30
0.0
 40
0.9599569999999999
100
AcDbArc
 50
141.3157599999995
 51
218.6842399999993
  0
LINE
  5
41
330
A
100
AcDbEntity
  8
MGW15
  6
Continuous
 62
     4
100
AcDbLine
 10
94.56253308150969
 20
116.5888444033084
 30
0.0
 11
98.65214108150968
 21
116.5888444033084
 31
0.0
  0
LINE
  5
42
330
A
100
AcDbEntity
  8
MGW15
  6
Continuous
 62
     4
100
AcDbLine
 10
94.56253308150969
 20
112.1888444033084
 30
0.0
 11
98.18389524495785
 21
112.1888444033084
 31
0.0
  0
ARC
  5
43
330
A
100
AcDbEntity
  8
MGW15
  6
Continuous
 62
     4
100
AcDbCircle
 10
96.60214108150967
 20
114.3888444033084
 30
0.0
 40
3.0
100
AcDbArc
 50
132.8334279999996
 51
227.1665719999997
  0
LINE
  5
44
330
A
100
AcDbEntity
  8
MGW15
  6
CENTER
 62
   252
100
AcDbLine
 10
93.15175762046063
 20
162.5888444033084
 30
0.0
 11
103.9909912870882
 21
162.5888444033084
 31
0.0
  0
ARC
  5
45
330
A
100
AcDbEntity
  8
MGW15
  6
Continuous
 62
     4
100
AcDbCircle
 10
95.15951508150967
 20
164.2661944033083
 30
0.0
 40
0.793442
100
AcDbArc
 50
138.7982610000002
 51
221.2017389999997
  0
ARC
  5
46
330
A
100
AcDbEntity
  8
MGW15
  6
Continuous
 62
     4
100
AcDbCircle
 10
95.15951508150967
 20
160.9114944033084
 30
0.0
 40
0.793442
100
AcDbArc
 50
138.7982610000002
 51
221.2017389999997
  0
ARC
  5
47
330
A
100
AcDbEntity
  8
MGW15
  6
Continuous
 62
     4
100
AcDbCircle
 10
97.8576970815097
 20
162.5888444033084
 30
0.0
 40
3.491623999999999
100
AcDbArc
 50
160.688373
 51
199.3116269999999
  0
ARC
  5
48
330
A
100
AcDbEntity
  8
MGW15
  6
Continuous
 62
     4
100
AcDbCircle
 10
94.41209808150968
 20
162.5888444033084
 30
0.0
 40
0.9599569999999999
100
AcDbArc
 50
141.3157599999989
 51
218.6842399999993
  0
LINE
  5
49
330
A
100
AcDbEntity
  8
MGW15
  6
Continuous
 62
     4
100
AcDbLine
 10
94.56253308150969
 20
161.4341434033084
 30
0.0
 11
98.65214108150968
 21
161.4341434033084
 31
0.0
  0
LINE
  5
4A
330
A
100
AcDbEntity
  8
MGW15
  6
Continuous
 62
     4
100
AcDbLine
 10
94.56253308150969
 20
163.7435454033083
 30
0.0
 11
98.65214108150968
 21
163.7435454033083
 31
0.0
  0
LINE
  5
4B
330
A
100
AcDbEntity
  8
MGW15
  6
Continuous
 62
     4
100
AcDbLine
 10
94.56253308150969
 20
164.7888444033083
 30
0.0
 11
98.65214108150968
 21
164.7888444033083
 31
0.0
  0
LINE
  5
4C
330
A
100
AcDbEntity
  8
MGW15
  6
Continuous
 62
     4
100
AcDbLine
 10
94.56253308150969
 20
160.3888444033084
 30
0.0
 11
98.65214108150968
 21
160.3888444033084
 31
0.0
  0
ARC
  5
4D
330
A
100
AcDbEntity
  8
MGW15
  6
Continuous
 62
     4
100
AcDbCircle
 10
96.60214108150968
 20
162.5888444033084
 30
0.0
 40
3.0
100
AcDbArc
 50
132.8334279999991
 51
227.1665719999997
  0
LINE
  5
4E
330
A
100
AcDbEntity
  8
MGW15
  6
Continuous
 62
     4
100
AcDbLine
 10
-8.838805267849316
 20
112.4888444033084
 30
0.0
 11
11.42368011242706
 21
112.4888444033084
 31
0.0
  0
LINE
  5
4F
330
A
100
AcDbEntity
  8
MGW15
  6
CENTER
 62
   252
100
AcDbLine
 10
-9.957758918490299
 20
116.5888444033084
 30
0.0
 11
-9.957758918490299
 21
112.1888444033084
 31
0.0
  0
LINE
  5
50
330
A
100
AcDbEntity
  8
MGW15
  6
Continuous
 62
     4
100
AcDbLine
 10
-8.674066468815738
 20
112.5951184501171
 30
0.0
 11
-7.757550918490309
 21
114.1825694033084
 31
0.0
  0
ARC
  5
51
330
A
100
AcDbEntity
  8
MGW15
  6
Continuous
 62
     4
100
AcDbCircle
 10
-9.947858918490297
 20
114.3888444033084
 30
0.0
 40
2.2
100
AcDbArc
 50
294.6199770000002
 51
305.3800230000004
  0
LINE
  5
52
330
A
100
AcDbEntity
  8
MGW15
  6
Continuous
 62
     4
100
AcDbLine
 10
-10.8643739184903
 20
112.3888444033084
 30
0.0
 11
-9.031343779499124
 21
112.3888444033084
 31
0.0
  0
ARC
  5
53
330
A
100
AcDbEntity
  8
MGW15
  6
Continuous
 62
     4
100
AcDbCircle
 10
-9.947858918490297
 20
114.3888444033084
 30
0.0
 40
2.2
100
AcDbArc
 50
234.6199770000003
 51
245.3800230000001
  0
LINE
  5
54
330
A
100
AcDbEntity
  8
MGW15
  6
Continuous
 62
     4
100
AcDbLine
 10
-11.2216519184903
 20
112.5951194033084
 30
0.0
 11
-12.13816691849028
 21
114.1825694033084
 31
0.0
  0
LINE
  5
55
330
A
100
AcDbEntity
  8
MGW15
  6
Continuous
 62
     4
100
AcDbLine
 10
-12.13816691849028
 20
114.5951194033084
 30
0.0
 11
-11.2216519184903
 21
116.1825694033084
 31
0.0
  0
ARC
  5
56
330
A
100
AcDbEntity
  8
MGW15
  6
Continuous
 62
     4
100
AcDbCircle
 10
-9.947858918490297
 20
114.3888444033084
 30
0.0
 40
2.2
100
AcDbArc
 50
174.6199770000012
 51
185.3800230000004
  0
ARC
  5
57
330
A
100
AcDbEntity
  8
MGW15
  6
Continuous
 62
     4
100
AcDbCircle
 10
-9.947858918490297
 20
114.3888444033084
 30
0.0
 40
2.2
100
AcDbArc
 50
114.6199770000005
 51
125.3800230000007
  0
CIRCLE
  5
58
330
A
100
AcDbEntity
  8
MGW15
  6
Continuous
 62
     4
100
AcDbCircle
 10
-9.947858918490297
 20
114.3888444033084
 30
0.0
 40
0.6
  0
LINE
  5
59
330
A
100
AcDbEntity
  8
MGW15
  6
Continuous
 62
     4
100
AcDbLine
 10
-10.8643739184903
 20
116.3888444033084
 30
0.0
 11
-9.031343918490293
 21
116.3888444033084
 31
0.0
  0
ARC
  5
5A
330
A
100
AcDbEntity
  8
MGW15
  6
Continuous
 62
     4
100
AcDbCircle
 10
-9.947858918490297
 20
114.3888444033084
 30
0.0
 40
2.2
100
AcDbArc
 50
54.61997700000059
 51
65.38002300000042
  0
LINE
  5
5B
330
A
100
AcDbEntity
  8
MGW15
  6
Continuous
 62
     4
100
AcDbLine
 10
-7.757550918490309
 20
114.5951194033084
 30
0.0
 11
-8.674065918490285
 21
116.1825694033084
 31
0.0
  0
ARC
  5
5C
330
A
100
AcDbEntity
  8
MGW15
  6
Continuous
 62
     4
100
AcDbCircle
 10
-9.947858918490297
 20
114.3888444033084
 30
0.0
 40
2.2
100
AcDbArc
 50
354.6199770000004
 51
365.3800230000003
  0
LINE
  5
5D
330
A
100
AcDbEntity
  8
MGW15
  6
CENTER
 62
   252
100
AcDbLine
 10
-7.407517823229028
 20
114.3888444033084
 30
0.0
 11
-12.48820001375156
 21
114.3888444033084
 31
0.0
  0
ARC
  5
5E
330
A
100
AcDbEntity
  8
MGW15
  6
Continuous
 62
     4
100
AcDbCircle
 10
13.50214108150971
 20
113.6888444033084
 30
0.0
 40
1.3
100
AcDbArc
 50
36.15011690157114
 51
53.84988309842906
  0
ARC
  5
5F
330
A
100
AcDbEntity
  8
MGW15
  6
Continuous
 62
     4
100
AcDbCircle
 10
13.50214108150971
 20
113.6888444033084
 30
0.0
 40
1.3
100
AcDbArc
 50
306.1501169015709
 51
323.8498830984289
  0
ARC
  5
60
330
A
100
AcDbEntity
  8
MGW15
  6
Continuous
 62
     4
100
AcDbCircle
 10
13.50214108150971
 20
113.6888444033084
 30
0.0
 40
1.3
100
AcDbArc
 50
126.1501169015709
 51
143.8498830984288
  0
LINE
  5
61
330
A
100
AcDbEntity
  8
MGW15
  6
Continuous
 62
     4
100
AcDbLine
 10
13.50214108150971
 20
113.4060016908337
 30
0.0
 11
14.26901483150167
 21
112.6391279408418
 31
0.0
  0
LINE
  5
62
330
A
100
AcDbEntity
  8
MGW15
  6
Continuous
 62
     4
100
AcDbLine
 10
13.78498379398434
 20
113.6888444033084
 30
0.0
 11
14.55185754397627
 21
112.9219706533165
 31
0.0
  0
LINE
  5
63
330
A
100
AcDbEntity
  8
MGW15
  6
Continuous
 62
     4
100
AcDbLine
 10
13.78498379398435
 20
113.6888444033084
 30
0.0
 11
14.55185754397628
 21
114.4557181533003
 31
0.0
  0
LINE
  5
64
330
A
100
AcDbEntity
  8
MGW15
  6
Continuous
 62
     4
100
AcDbLine
 10
13.50214108150971
 20
113.971687115783
 30
0.0
 11
14.26901483150165
 21
114.738560865775
 31
0.0
  0
LINE
  5
65
330
A
100
AcDbEntity
  8
MGW15
  6
Continuous
 62
     4
100
AcDbLine
 10
12.73526733151779
 20
112.6391279408418
 30
0.0
 11
13.50214108150971
 21
113.4060016908337
 31
0.0
  0
LINE
  5
66
330
A
100
AcDbEntity
  8
MGW15
  6
Continuous
 62
     4
100
AcDbLine
 10
12.45242461904317
 20
112.9219706533165
 30
0.0
 11
13.2192983690351
 21
113.6888444033084
 31
0.0
  0
LINE
  5
67
330
A
100
AcDbEntity
  8
MGW15
  6
Continuous
 62
     4
100
AcDbLine
 10
12.73526733151779
 20
114.738560865775
 30
0.0
 11
13.50214108150971
 21
113.971687115783
 31
0.0
  0
LINE
  5
68
330
A
100
AcDbEntity
  8
MGW15
  6
Continuous
 62
     4
100
AcDbLine
 10
12.45242461904318
 20
114.4557181533003
 30
0.0
 11
13.2192983690351
 21
113.6888444033084
 31
0.0
  0
ARC
  5
69
330
A
100
AcDbEntity
  8
MGW15
  6
Continuous
 62
     4
100
AcDbCircle
 10
13.50214108150971
 20
113.6888444033084
 30
0.0
 40
1.3
100
AcDbArc
 50
216.1501169015711
 51
233.849883098429
  0
CIRCLE
  5
6A
330
A
100
AcDbEntity
  8
MGW15
  6
Continuous
 62
     4
100
AcDbCircle
 10
13.50214108150971
 20
113.6888444033084
 30
0.0
 40
2.25
  0
ARC
  5
6B
330
A
100
AcDbEntity
  8
MGW15
  6
Continuous
 62
     4
100
AcDbCircle
 10
-33.39785891849028
 20
113.6888444033084
 30
0.0
 40
1.3
100
AcDbArc
 50
36.15011690157126
 51
53.84988309842906
  0
ARC
  5
6C
330
A
100
AcDbEntity
  8
MGW15
  6
Continuous
 62
     4
100
AcDbCircle
 10
-33.39785891849028
 20
113.6888444033084
 30
0.0
 40
1.3
100
AcDbArc
 50
306.1501169015709
 51
323.8498830984287
  0
ARC
  5
6D
330
A
100
AcDbEntity
  8
MGW15
  6
Continuous
 62
     4
100
AcDbCircle
 10
-33.39785891849028
 20
113.6888444033084
 30
0.0
 40
1.3
100
AcDbArc
 50
126.1501169015709
 51
143.8498830984287
  0
LINE
  5
6E
330
A
100
AcDbEntity
  8
MGW15
  6
Continuous
 62
     4
100
AcDbLine
 10
-33.39785891849028
 20
113.4060016908337
 30
0.0
 11
-32.63098516849832
 21
112.6391279408418
 31
0.0
  0
LINE
  5
6F
330
A
100
AcDbEntity
  8
MGW15
  6
Continuous
 62
     4
100
AcDbLine
 10
-33.11501620601566
 20
113.6888444033084
 30
0.0
 11
-32.34814245602374
 21
112.9219706533165
 31
0.0
  0
LINE
  5
70
330
A
100
AcDbEntity
  8
MGW15
  6
Continuous
 62
     4
100
AcDbLine
 10
-33.11501620601565
 20
113.6888444033084
 30
0.0
 11
-32.34814245602372
 21
114.4557181533003
 31
0.0
  0
LINE
  5
71
330
A
100
AcDbEntity
  8
MGW15
  6
Continuous
 62
     4
100
AcDbLine
 10
-33.39785891849028
 20
113.971687115783
 30
0.0
 11
-32.63098516849835
 21
114.738560865775
 31
0.0
  0
LINE
  5
72
330
A
100
AcDbEntity
  8
MGW15
  6
Continuous
 62
     4
100
AcDbLine
 10
-34.16473266848221
 20
112.6391279408418
 30
0.0
 11
-33.39785891849028
 21
113.4060016908337
 31
0.0
  0
LINE
  5
73
330
A
100
AcDbEntity
  8
MGW15
  6
Continuous
 62
     4
100
AcDbLine
 10
-34.44757538095683
 20
112.9219706533165
 30
0.0
 11
-33.6807016309649
 21
113.6888444033084
 31
0.0
  0
LINE
  5
74
330
A
100
AcDbEntity
  8
MGW15
  6
Continuous
 62
     4
100
AcDbLine
 10
-34.16473266848221
 20
114.738560865775
 30
0.0
 11
-33.39785891849028
 21
113.971687115783
 31
0.0
  0
LINE
  5
75
330
A
100
AcDbEntity
  8
MGW15
  6
Continuous
 62
     4
100
AcDbLine
 10
-34.44757538095682
 20
114.4557181533003
 30
0.0
 11
-33.6807016309649
 21
113.6888444033084
 31
0.0
  0
ARC
  5
76
330
A
100
AcDbEntity
  8
MGW15
  6
Continuous
 62
     4
100
AcDbCircle
 10
-33.39785891849029
 20
113.6888444033084
 30
0.0
 40
1.3
100
AcDbArc
 50
216.1501169015712
 51
233.849883098429
  0
CIRCLE
  5
77
330
A
100
AcDbEntity
  8
MGW15
  6
Continuous
 62
     4
100
AcDbCircle
 10
-33.39785891849028
 20
113.6888444033084
 30
0.0
 40
2.25
  0
LINE
  5
78
330
A
100
AcDbEntity
  8
MGW15
  6
CENTER
 62
   252
100
AcDbLine
 10
175.0521410815096
 20
112.2388464033084
 30
0.0
 11
175.0521410815096
 21
100.0772094033084
 31
0.0
  0
LINE
  5
79
330
A
100
AcDbEntity
  8
MGW15
  6
CENTER
 62
   252
100
AcDbLine
 10
135.0521410815096
 20
112.2388464033084
 30
0.0
 11
135.0521410815096
 21
100.0772094033084
 31
0.0
  0
LINE
  5
7A
330
A
100
AcDbEntity
  8
MGW15
  6
CENTER
 62
   252
100
AcDbLine
 10
152.5521410815096
 20
110.6818346985722
 30
0.0
 11
152.5521410815096
 21
118.1888444033084
 31
0.0
  0
LINE
  5
7B
330
A
100
AcDbEntity
  8
MGW15
  6
DASHED
 62
   252
100
AcDbLine
 10
115.9021410815096
 20
112.3888444033084
 30
0.0
 11
117.5521410815096
 21
111.4362164591455
 31
0.0
  0
LINE
  5
7C
330
A
100
AcDbEntity
  8
MGW15
  6
DASHED
 62
   252
100
AcDbLine
 10
119.2021410815096
 20
112.3888444033084
 30
0.0
 11
117.5521410815096
 21
111.4362164591455
 31
0.0
  0
LINE
  5
7D
330
A
100
AcDbEntity
  8
MGW15
  6
DASHED
 62
   252
100
AcDbLine
 10
115.1521410815096
 20
117.5888444033084
 30
0.0
 11
115.5521410815096
 21
117.1888444033084
 31
0.0
  0
LINE
  5
7E
330
A
100
AcDbEntity
  8
MGW15
  6
DASHED
 62
   252
100
AcDbLine
 10
115.5521410815096
 20
117.1888444033084
 30
0.0
 11
119.5521410815096
 21
117.1888444033084
 31
0.0
  0
LINE
  5
7F
330
A
100
AcDbEntity
  8
MGW15
  6
DASHED
 62
   252
100
AcDbLine
 10
119.9521410815096
 20
117.5888444033084
 30
0.0
 11
119.5521410815096
 21
117.1888444033084
 31
0.0
  0
LINE
  5
80
330
A
100
AcDbEntity
  8
MGW15
  6
DASHED
 62
   252
100
AcDbLine
 10
119.2021410815097
 20
112.3888444033084
 30
0.0
 11
115.9021410815096
 21
112.3888444033084
 31
0.0
  0
LINE
  5
81
330
A
100
AcDbEntity
  8
MGW15
  6
DASHED
 62
   252
100
AcDbLine
 10
119.5521410815096
 20
113.0888444033084
 30
0.0
 11
119.5521410815096
 21
117.1888444033084
 31
0.0
  0
LINE
  5
82
330
A
100
AcDbEntity
  8
MGW15
  6
DASHED
 62
   252
100
AcDbLine
 10
119.2021410815097
 20
112.3888444033084
 30
0.0
 11
119.2021410815097
 21
117.1888444033084
 31
0.0
  0
LINE
  5
83
330
A
100
AcDbEntity
  8
MGW15
  6
DASHED
 62
   252
100
AcDbLine
 10
115.5521410815096
 20
113.0888444033084
 30
0.0
 11
115.5521410815096
 21
117.1888444033084
 31
0.0
  0
LINE
  5
84
330
A
100
AcDbEntity
  8
MGW15
  6
DASHED
 62
   252
100
AcDbLine
 10
115.9021410815096
 20
112.3888444033084
 30
0.0
 11
115.9021410815096
 21
117.1888444033084
 31
0.0
  0
LINE
  5
85
330
A
100
AcDbEntity
  8
MGW15
  6
DASHED
 62
   252
100
AcDbLine
 10
119.5521410815096
 20
113.0888444033084
 30
0.0
 11
115.5521410815096
 21
113.0888444033084
 31
0.0
  0
LINE
  5
86
330
A
100
AcDbEntity
  8
MGW15
  6
CENTER
 62
   252
100
AcDbLine
 10
117.5521410815096
 20
110.6818346985722
 30
0.0
 11
117.5521410815096
 21
118.1888444033084
 31
0.0
  0
LINE
  5
87
330
A
100
AcDbEntity
  8
MGW15
  6
Continuous
 62
     4
100
AcDbLine
 10
98.65214108150968
 20
106.5863464831767
 30
0.0
 11
40.05214108150968
 21
106.5863464831767
 31
0.0
  0
LINE
  5
88
330
A
100
AcDbEntity
  8
MGW15
  6
Continuous
 62
     4
100
AcDbLine
 10
98.65214108150968
 20
110.3888444033084
 30
0.0
 11
40.05214108150968
 21
110.3888444033084
 31
0.0
  0
LINE
  5
89
330
A
100
AcDbEntity
  8
MGW15
  6
Continuous
 62
     4
100
AcDbLine
 10
98.65214108150968
 20
109.59134232344
 30
0.0
 11
40.05214108150968
 21
109.59134232344
 31
0.0
  0
LINE
  5
8A
330
A
100
AcDbEntity
  8
MGW15
  6
Continuous
 62
     4
100
AcDbLine
 10
98.65214108150968
 20
111.0888444033084
 30
0.0
 11
40.05214108150968
 21
111.0888444033084
 31
0.0
  0
LINE
  5
8B
330
A
100
AcDbEntity
  8
MGW15
  6
Continuous
 62
     4
100
AcDbLine
 10
171.4521410815097
 20
117.0888444033084
 30
0.0
 11
169.8521410815096
 21
117.0888444033084
 31
0.0
  0
LINE
  5
8C
330
A
100
AcDbEntity
  8
MGW15
  6
Continuous
 62
     4
100
AcDbLine
 10
106.5521410815096
 20
117.1888444033084
 30
0.0
 11
100.2521410815096
 21
117.1888444033084
 31
0.0
  0
LINE
  5
8D
330
A
100
AcDbEntity
  8
MGW15
  6
Continuous
 62
     4
100
AcDbLine
 10
100.2521410815096
 20
117.0888444033084
 30
0.0
 11
98.65214108150968
 21
117.0888444033084
 31
0.0
  0
LINE
  5
8E
330
A
100
AcDbEntity
  8
MGW15
  6
Continuous
 62
     4
100
AcDbLine
 10
169.8521410815096
 20
117.1888444033084
 30
0.0
 11
163.5521410815096
 21
117.1888444033084
 31
0.0
  0
LINE
  5
8F
330
A
100
AcDbEntity
  8
MGW15
  6
Continuous
 62
     4
100
AcDbLine
 10
171.4521410815097
 20
104.9888444033084
 30
0.0
 11
98.65214108150968
 21
104.9888444033084
 31
0.0
  0
LINE
  5
90
330
A
100
AcDbEntity
  8
MGW15
  6
Continuous
 62
     4
100
AcDbLine
 10
163.5521410815096
 20
117.5888444033084
 30
0.0
 11
106.5521410815096
 21
117.5888444033084
 31
0.0
  0
LINE
  5
91
330
A
100
AcDbEntity
  8
MGW15
  6
Continuous
 62
     4
100
AcDbLine
 10
171.4521410815097
 20
104.9888444033084
 30
0.0
 11
171.4521410815097
 21
117.0888444033084
 31
0.0
  0
LINE
  5
92
330
A
100
AcDbEntity
  8
MGW15
  6
Continuous
 62
     4
100
AcDbLine
 10
169.8521410815096
 20
104.9888444033084
 30
0.0
 11
169.8521410815096
 21
117.1888444033084
 31
0.0
  0
LINE
  5
93
330
A
100
AcDbEntity
  8
MGW15
  6
Continuous
 62
     4
100
AcDbLine
 10
163.5521410815096
 20
104.9888444033084
 30
0.0
 11
163.5521410815096
 21
117.5888444033084
 31
0.0
  0
LINE
  5
94
330
A
100
AcDbEntity
  8
MGW15
  6
Continuous
 62
     4
100
AcDbLine
 10
106.5521410815096
 20
104.9888444033084
 30
0.0
 11
106.5521410815096
 21
117.5888444033084
 31
0.0
  0
LINE
  5
95
330
A
100
AcDbEntity
  8
MGW15
  6
Continuous
 62
     4
100
AcDbLine
 10
100.2521410815096
 20
104.9888444033084
 30
0.0
 11
100.2521410815096
 21
117.1888444033084
 31
0.0
  0
LINE
  5
96
330
A
100
AcDbEntity
  8
MGW15
  6
Continuous
 62
     4
100
AcDbLine
 10
98.65214108150968
 20
104.9888444033084
 30
0.0
 11
98.65214108150968
 21
117.0888444033084
 31
0.0
  0
LINE
  5
97
330
A
100
AcDbEntity
  8
MGW15
  6
CENTER
 62
   252
100
AcDbLine
 10
215.0521410815097
 20
156.0888444033084
 30
0.0
 11
215.0521410815097
 21
146.0888444033083
 31
0.0
  0
LINE
  5
98
330
A
100
AcDbEntity
  8
MGW15
  6
CENTER
 62
   252
100
AcDbLine
 10
215.0521410815097
 20
179.0888444033084
 30
0.0
 11
215.0521410815097
 21
169.0888444033084
 31
0.0
  0
CIRCLE
  5
99
330
A
100
AcDbEntity
  8
MGW15
  6
Continuous
 62
     4
100
AcDbCircle
 10
215.0521410815097
 20
174.0888444033084
 30
0.0
 40
2.25
  0
CIRCLE
  5
9A
330
A
100
AcDbEntity
  8
MGW15
  6
Continuous
 62
     4
100
AcDbCircle
 10
215.0521410815097
 20
151.0888444033084
 30
0.0
 40
2.25
  0
LINE
  5
9B
330
A
100
AcDbEntity
  8
MGW15
  6
Continuous
 62
     4
100
AcDbLine
 10
171.4521410815097
 20
192.0888444033083
 30
0.0
 11
169.8521410815096
 21
192.0888444033083
 31
0.0
  0
LINE
  5
9C
330
A
100
AcDbEntity
  8
MGW15
  6
Continuous
 62
     4
100
AcDbLine
 10
169.8521410815096
 20
192.1888444033083
 30
0.0
 11
163.5521410815097
 21
192.1888444033083
 31
0.0
  0
LINE
  5
9D
330
A
100
AcDbEntity
  8
MGW15
  6
Continuous
 62
     4
100
AcDbLine
 10
171.4521410815097
 20
133.0888444033084
 30
0.0
 11
169.8521410815096
 21
133.0888444033084
 31
0.0
  0
LINE
  5
9E
330
A
100
AcDbEntity
  8
MGW15
  6
Continuous
 62
     4
100
AcDbLine
 10
169.8521410815096
 20
132.9888444033084
 30
0.0
 11
163.5521410815097
 21
132.9888444033084
 31
0.0
  0
LINE
  5
9F
330
A
100
AcDbEntity
  8
MGW15
  6
Continuous
 62
     4
100
AcDbLine
 10
171.4521410815097
 20
192.0888444033083
 30
0.0
 11
171.4521410815097
 21
133.0888444033084
 31
0.0
  0
LINE
  5
A0
330
A
100
AcDbEntity
  8
MGW15
  6
Continuous
 62
     4
100
AcDbLine
 10
169.8521410815096
 20
192.1888444033083
 30
0.0
 11
169.8521410815096
 21
132.9888444033084
 31
0.0
  0
LINE
  5
A1
330
A
100
AcDbEntity
  8
MGW15
  6
Continuous
 62
     4
100
AcDbLine
 10
98.65214108150968
 20
192.0888444033083
 30
0.0
 11
100.2521410815096
 21
192.0888444033083
 31
0.0
  0
LINE
  5
A2
330
A
100
AcDbEntity
  8
MGW15
  6
Continuous
 62
     4
100
AcDbLine
 10
100.2521410815096
 20
192.1888444033083
 30
0.0
 11
106.5521410815096
 21
192.1888444033083
 31
0.0
  0
LINE
  5
A3
330
A
100
AcDbEntity
  8
MGW15
  6
Continuous
 62
     4
100
AcDbLine
 10
98.65214108150968
 20
133.0888444033084
 30
0.0
 11
100.2521410815096
 21
133.0888444033084
 31
0.0
  0
LINE
  5
A4
330
A
100
AcDbEntity
  8
MGW15
  6
Continuous
 62
     4
100
AcDbLine
 10
100.2521410815096
 20
132.9888444033084
 30
0.0
 11
106.5521410815096
 21
132.9888444033084
 31
0.0
  0
ARC
  5
A5
330
A
100
AcDbEntity
  8
MGW15
  6
Continuous
 62
     4
100
AcDbCircle
 10
-29.44785891849029
 20
108.0888444033084
 30
0.0
 40
0.7000000000000001
100
AcDbArc
 50
270.0
 51
450.0
  0
LINE
  5
A6
330
A
100
AcDbEntity
  8
MGW15
  6
Continuous
 62
     4
100
AcDbLine
 10
-29.44785891849029
 20
107.3888444033084
 30
0.0
 11
-29.89781475836048
 21
107.3888444033084
 31
0.0
  0
LINE
  5
A7
330
A
100
AcDbEntity
  8
MGW15
  6
Continuous
 62
     4
100
AcDbLine
 10
-29.44785891849029
 20
108.7888444033084
 30
0.0
 11
-29.89781475836045
 21
108.7888444033084
 31
0.0
  0
ARC
  5
A8
330
A
100
AcDbEntity
  8
MGW15
  6
Continuous
 62
     4
100
AcDbCircle
 10
9.552141081509706
 20
108.0888444033084
 30
0.0
 40
0.7000000000000001
100
AcDbArc
 50
90.0
 51
270.0
  0
LINE
  5
A9
330
A
100
AcDbEntity
  8
MGW15
  6
Continuous
 62
     4
100
AcDbLine
 10
9.552141081509706
 20
107.3888444033084
 30
0.0
 11
9.997620009089647
 21
107.3888444033084
 31
0.0
  0
LINE
  5
AA
330
A
100
AcDbEntity
  8
MGW15
  6
Continuous
 62
     4
100
AcDbLine
 10
9.552141081509706
 20
108.7888444033084
 30
0.0
 11
9.997620009089633
 21
108.7888444033084
 31
0.0
  0
LINE
  5
AB
330
A
100
AcDbEntity
  8
MGW15
  6
Continuous
 62
     4
100
AcDbLine
 10
11.0521410815097
 20
110.6888444033084
 30
0.0
 11
11.0521410815097
 21
109.7452443049024
 31
0.0
  0
LINE
  5
AC
330
A
100
AcDbEntity
  8
MGW15
  6
Continuous
 62
     4
100
AcDbLine
 10
11.0521410815097
 20
106.4324445017144
 30
0.0
 11
11.0521410815097
 21
102.1888444033084
 31
0.0
  0
LINE
  5
AD
330
A
100
AcDbEntity
  8
MGW15
  6
Continuous
 62
     4
100
AcDbLine
 10
-30.94785891849029
 20
110.6888444033084
 30
0.0
 11
-30.94785891849029
 21
109.7452443049024
 31
0.0
  0
LINE
  5
AE
330
A
100
AcDbEntity
  8
MGW15
  6
Continuous
 62
     4
100
AcDbLine
 10
-30.94785891849029
 20
106.4324445017144
 30
0.0
 11
-30.94785891849029
 21
102.1888444033084
 31
0.0
  0
LINE
  5
AF
330
A
100
AcDbEntity
  8
MGW15
  6
Continuous
 62
     4
100
AcDbLine
 10
230.0521410815097
 20
101.5888444033084
 30
0.0
 11
40.05214108150968
 21
101.5888444033084
 31
0.0
  0
LINE
  5
B0
330
A
100
AcDbEntity
  8
MGW15
  6
Continuous
 62
     4
100
AcDbLine
 10
230.0521410815097
 20
102.4888444033084
 30
0.0
 11
40.05214108150968
 21
102.4888444033084
 31
0.0
  0
LINE
  5
B1
330
A
100
AcDbEntity
  8
MGW15
  6
Continuous
 62
     4
100
AcDbLine
 10
230.0521410815097
 20
106.5863464831767
 30
0.0
 11
171.4521410815097
 21
106.5863464831767
 31
0.0
  0
LINE
  5
B2
330
A
100
AcDbEntity
  8
MGW15
  6
Continuous
 62
     4
100
AcDbLine
 10
230.0521410815097
 20
109.59134232344
 30
0.0
 11
171.4521410815097
 21
109.59134232344
 31
0.0
  0
LINE
  5
B3
330
A
100
AcDbEntity
  8
MGW15
  6
Continuous
 62
     4
100
AcDbLine
 10
230.0521410815097
 20
110.3888444033084
 30
0.0
 11
171.4521410815097
 21
110.3888444033084
 31
0.0
  0
LINE
  5
B4
330
A
100
AcDbEntity
  8
MGW15
  6
Continuous
 62
     4
100
AcDbLine
 10
230.0521410815097
 20
111.0888444033084
 30
0.0
 11
171.4521410815097
 21
111.0888444033084
 31
0.0
  0
LINE
  5
B5
330
A
100
AcDbEntity
  8
MGW15
  6
Continuous
 62
     4
100
AcDbLine
 10
230.0521410815097
 20
111.0888444033084
 30
0.0
 11
230.0521410815097
 21
101.5888444033084
 31
0.0
  0
LINE
  5
B6
330
A
100
AcDbEntity
  8
MGW15
  6
Continuous
 62
     4
100
AcDbLine
 10
40.05214108150968
 20
111.0888444033084
 30
0.0
 11
40.05214108150968
 21
101.5888444033084
 31
0.0
  0
LINE
  5
B7
330
A
100
AcDbEntity
  8
MGW15
  6
DASHED
 62
   252
100
AcDbLine
 10
-2.621063999247167
 20
111.0888444033084
 30
0.0
 11
-2.447858918490294
 21
110.7888444033084
 31
0.0
  0
LINE
  5
B8
330
A
100
AcDbEntity
  8
MGW15
  6
DASHED
 62
   252
100
AcDbLine
 10
5.725346162266577
 20
111.0888444033084
 30
0.0
 11
5.552141081509705
 21
110.7888444033084
 31
0.0
  0
LINE
  5
B9
330
A
100
AcDbEntity
  8
MGW15
  6
DASHED
 62
   252
100
AcDbLine
 10
-2.447858918490294
 20
110.7888444033084
 30
0.0
 11
5.552141081509705
 21
110.7888444033084
 31
0.0
  0
LINE
  5
BA
330
A
100
AcDbEntity
  8
MGW15
  6
CENTER
 62
   252
100
AcDbLine
 10
1.552141081509705
 20
112.2388464033084
 30
0.0
 11
1.552141081509705
 21
100.0772094033084
 31
0.0
  0
LINE
  5
BB
330
A
100
AcDbEntity
  8
MGW15
  6
DASHED
 62
   252
100
AcDbLine
 10
-0.6978699184902953
 20
101.9888444033084
 30
0.0
 11
-1.0978699184903
 21
101.5888444033084
 31
0.0
  0
LINE
  5
BC
330
A
100
AcDbEntity
  8
MGW15
  6
DASHED
 62
   252
100
AcDbLine
 10
4.202130081509724
 20
101.5888444033084
 30
0.0
 11
3.802130081509704
 21
101.9888444033084
 31
0.0
  0
LINE
  5
BD
330
A
100
AcDbEntity
  8
MGW15
  6
DASHED
 62
   252
100
AcDbLine
 10
3.802130081509704
 20
101.9888444033084
 30
0.0
 11
-0.6978699184902953
 21
101.9888444033084
 31
0.0
  0
LINE
  5
BE
330
A
100
AcDbEntity
  8
MGW15
  6
DASHED
 62
   252
100
AcDbLine
 10
3.802141081509705
 20
106.5888444033084
 30
0.0
 11
3.802141081509705
 21
101.9888444033084
 31
0.0
  0
LINE
  5
BF
330
A
100
AcDbEntity
  8
MGW15
  6
DASHED
 62
   252
100
AcDbLine
 10
-0.6978589184902946
 20
106.5888444033084
 30
0.0
 11
-0.6978589184902946
 21
101.9888444033084
 31
0.0
  0
LINE
  5
C0
330
A
100
AcDbEntity
  8
MGW15
  6
DASHED
 62
   252
100
AcDbLine
 10
-2.447858918490294
 20
110.7888444033084
 30
0.0
 11
-2.447858918490294
 21
106.5888444033084
 31
0.0
  0
LINE
  5
C1
330
A
100
AcDbEntity
  8
MGW15
  6
DASHED
 62
   252
100
AcDbLine
 10
5.552141081509705
 20
110.7888444033084
 30
0.0
 11
5.552141081509705
 21
106.5888444033084
 31
0.0
  0
LINE
  5
C2
330
A
100
AcDbEntity
  8
MGW15
  6
DASHED
 62
   252
100
AcDbLine
 10
5.552141081509705
 20
106.5888444033084
 30
0.0
 11
-2.447858918490294
 21
106.5888444033084
 31
0.0
  0
LINE
  5
C3
330
A
100
AcDbEntity
  8
MGW15
  6
DASHED
 62
   252
100
AcDbLine
 10
-17.27465383773342
 20
111.0888444033084
 30
0.0
 11
-17.44785891849029
 21
110.7888444033084
 31
0.0
  0
LINE
  5
C4
330
A
100
AcDbEntity
  8
MGW15
  6
DASHED
 62
   252
100
AcDbLine
 10
-25.62106399924716
 20
111.0888444033084
 30
0.0
 11
-25.44785891849029
 21
110.7888444033084
 31
0.0
  0
LINE
  5
C5
330
A
100
AcDbEntity
  8
MGW15
  6
DASHED
 62
   252
100
AcDbLine
 10
-17.44785891849029
 20
110.7888444033084
 30
0.0
 11
-25.44785891849029
 21
110.7888444033084
 31
0.0
  0
LINE
  5
C6
330
A
100
AcDbEntity
  8
MGW15
  6
CENTER
 62
   252
100
AcDbLine
 10
-21.44785891849029
 20
112.2388464033084
 30
0.0
 11
-21.44785891849029
 21
100.0772094033084
 31
0.0
  0
LINE
  5
C7
330
A
100
AcDbEntity
  8
MGW15
  6
DASHED
 62
   252
100
AcDbLine
 10
-19.19784791849029
 20
101.9888444033084
 30
0.0
 11
-18.79784791849028
 21
101.5888444033084
 31
0.0
  0
LINE
  5
C8
330
A
100
AcDbEntity
  8
MGW15
  6
DASHED
 62
   252
100
AcDbLine
 10
-24.09784791849031
 20
101.5888444033084
 30
0.0
 11
-23.69784791849029
 21
101.9888444033084
 31
0.0
  0
LINE
  5
C9
330
A
100
AcDbEntity
  8
MGW15
  6
DASHED
 62
   252
100
AcDbLine
 10
-23.69784791849029
 20
101.9888444033084
 30
0.0
 11
-19.19784791849029
 21
101.9888444033084
 31
0.0
  0
LINE
  5
CA
330
A
100
AcDbEntity
  8
MGW15
  6
DASHED
 62
   252
100
AcDbLine
 10
-23.69785891849029
 20
106.5888444033084
 30
0.0
 11
-23.69785891849029
 21
101.9888444033084
 31
0.0
  0
LINE
  5
CB
330
A
100
AcDbEntity
  8
MGW15
  6
DASHED
 62
   252
100
AcDbLine
 10
-19.19785891849029
 20
106.5888444033084
 30
0.0
 11
-19.19785891849029
 21
101.9888444033084
 31
0.0
  0
LINE
  5
CC
330
A
100
AcDbEntity
  8
MGW15
  6
DASHED
 62
   252
100
AcDbLine
 10
-17.44785891849029
 20
110.7888444033084
 30
0.0
 11
-17.44785891849029
 21
106.5888444033084
 31
0.0
  0
LINE
  5
CD
330
A
100
AcDbEntity
  8
MGW15
  6
DASHED
 62
   252
100
AcDbLine
 10
-25.44785891849029
 20
110.7888444033084
 30
0.0
 11
-25.44785891849029
 21
106.5888444033084
 31
0.0
  0
LINE
  5
CE
330
A
100
AcDbEntity
  8
MGW15
  6
DASHED
 62
   252
100
AcDbLine
 10
-25.44785891849029
 20
106.5888444033084
 30
0.0
 11
-17.44785891849029
 21
106.5888444033084
 31
0.0
  0
LINE
  5
CF
330
A
100
AcDbEntity
  8
MGW15
  6
CENTER
 62
   252
100
AcDbLine
 10
-9.947858918490293
 20
100.8888444033084
 30
0.0
 11
-9.947858918490293
 21
112.2888444033084
 31
0.0
  0
LINE
  5
D0
330
A
100
AcDbEntity
  8
MGW15
  6
Continuous
 62
     4
100
AcDbLine
 10
10.6521410815097
 20
111.0888444033084
 30
0.0
 11
11.0521410815097
 21
110.6888444033084
 31
0.0
  0
LINE
  5
D1
330
A
100
AcDbEntity
  8
MGW15
  6
Continuous
 62
     4
100
AcDbLine
 10
-30.94785891849029
 20
110.6888444033084
 30
0.0
 11
-30.54785891849031
 21
111.0888444033084
 31
0.0
  0
LINE
  5
D2
330
A
100
AcDbEntity
  8
MGW15
  6
Continuous
 62
     4
100
AcDbLine
 10
10.6521410815097
 20
111.0888444033084
 30
0.0
 11
-30.54785891849032
 21
111.0888444033084
 31
0.0
  0
LINE
  5
D3
330
A
100
AcDbEntity
  8
MGW15
  6
Continuous
 62
     4
100
AcDbLine
 10
10.45214108150971
 20
101.5888444033084
 30
0.0
 11
7.748491914199337
 21
101.5888444033084
 31
0.0
  0
LINE
  5
D4
330
A
100
AcDbEntity
  8
MGW15
  6
Continuous
 62
     4
100
AcDbLine
 10
6.948491914199354
 20
101.5888444033084
 30
0.0
 11
-2.947858918490322
 21
101.5888444033084
 31
0.0
  0
LINE
  5
D5
330
A
100
AcDbEntity
  8
MGW15
  6
Continuous
 62
     4
100
AcDbLine
 10
-16.94785891849029
 20
101.5888444033084
 30
0.0
 11
-30.34785891849033
 21
101.5888444033084
 31
0.0
  0
LINE
  5
D6
330
A
100
AcDbEntity
  8
MGW15
  6
Continuous
 62
     4
100
AcDbLine
 10
-30.94785891849029
 20
102.1888444033084
 30
0.0
 11
-30.34785891849033
 21
101.5888444033084
 31
0.0
  0
LINE
  5
D7
330
A
100
AcDbEntity
  8
MGW15
  6
Continuous
 62
     4
100
AcDbLine
 10
-16.4478589184903
 20
102.0888444033084
 30
0.0
 11
-16.94785891849029
 21
101.5888444033084
 31
0.0
  0
LINE
  5
D8
330
A
100
AcDbEntity
  8
MGW15
  6
Continuous
 62
     4
100
AcDbLine
 10
-3.447858918490308
 20
102.0888444033084
 30
0.0
 11
-2.947858918490322
 21
101.5888444033084
 31
0.0
  0
LINE
  5
D9
330
A
100
AcDbEntity
  8
MGW15
  6
Continuous
 62
     4
100
AcDbLine
 10
-3.447858918490308
 20
102.0888444033084
 30
0.0
 11
-16.4478589184903
 21
102.0888444033084
 31
0.0
  0
ARC
  5
DA
330
A
100
AcDbEntity
  8
MGW15
  6
Continuous
 62
     4
100
AcDbCircle
 10
7.348491914199345
 20
101.2888444033084
 30
0.0
 40
0.5
100
AcDbArc
 50
36.86989764584561
 51
143.1301023541543
  0
LINE
  5
DB
330
A
100
AcDbEntity
  8
MGW15
  6
Continuous
 62
     4
100
AcDbLine
 10
11.0521410815097
 20
102.1888444033084
 30
0.0
 11
10.45214108150971
 21
101.5888444033084
 31
0.0
  0
LINE
  5
DC
330
A
100
AcDbEntity
  8
MGW15
  6
DASHED
 62
   252
100
AcDbLine
 10
-34.0978589184903
 20
112.3888444033084
 30
0.0
 11
-32.4478589184903
 21
111.4362164591455
 31
0.0
  0
LINE
  5
DD
330
A
100
AcDbEntity
  8
MGW15
  6
DASHED
 62
   252
100
AcDbLine
 10
-30.79785891849029
 20
112.3888444033084
 30
0.0
 11
-32.4478589184903
 21
111.4362164591455
 31
0.0
  0
LINE
  5
DE
330
A
100
AcDbEntity
  8
MGW15
  6
Continuous
 62
     4
100
AcDbLine
 10
19.8521410815097
 20
109.5888444033084
 30
0.0
 11
20.0521410815097
 21
109.7888444033084
 31
0.0
  0
LINE
  5
DF
330
A
100
AcDbEntity
  8
MGW15
  6
Continuous
 62
     4
100
AcDbLine
 10
-39.74785891849029
 20
109.5888444033084
 30
0.0
 11
-39.9478589184903
 21
109.7888444033084
 31
0.0
  0
LINE
  5
E0
330
A
100
AcDbEntity
  8
MGW15
  6
DASHED
 62
   252
100
AcDbLine
 10
-34.8478589184903
 20
117.5888444033084
 30
0.0
 11
-34.44785891849029
 21
117.1888444033084
 31
0.0
  0
LINE
  5
E1
330
A
100
AcDbEntity
  8
MGW15
  6
DASHED
 62
   252
100
AcDbLine
 10
-34.44785891849029
 20
117.1888444033084
 30
0.0
 11
-30.44785891849029
 21
117.1888444033084
 31
0.0
  0
LINE
  5
E2
330
A
100
AcDbEntity
  8
MGW15
  6
DASHED
 62
   252
100
AcDbLine
 10
-30.04785891849028
 20
117.5888444033084
 30
0.0
 11
-30.44785891849029
 21
117.1888444033084
 31
0.0
  0
LINE
  5
E3
330
A
100
AcDbEntity
  8
MGW15
  6
DASHED
 62
   252
100
AcDbLine
 10
-30.79785891849029
 20
112.3888444033084
 30
0.0
 11
-34.0978589184903
 21
112.3888444033084
 31
0.0
  0
LINE
  5
E4
330
A
100
AcDbEntity
  8
MGW15
  6
DASHED
 62
   252
100
AcDbLine
 10
-30.44785891849029
 20
113.0888444033084
 30
0.0
 11
-30.44785891849029
 21
117.1888444033084
 31
0.0
  0
LINE
  5
E5
330
A
100
AcDbEntity
  8
MGW15
  6
DASHED
 62
   252
100
AcDbLine
 10
-30.79785891849029
 20
112.3888444033084
 30
0.0
 11
-30.79785891849029
 21
117.1888444033084
 31
0.0
  0
LINE
  5
E6
330
A
100
AcDbEntity
  8
MGW15
  6
DASHED
 62
   252
100
AcDbLine
 10
-34.44785891849029
 20
113.0888444033084
 30
0.0
 11
-34.44785891849029
 21
117.1888444033084
 31
0.0
  0
LINE
  5
E7
330
A
100
AcDbEntity
  8
MGW15
  6
DASHED
 62
   252
100
AcDbLine
 10
-34.0978589184903
 20
112.3888444033084
 30
0.0
 11
-34.0978589184903
 21
117.1888444033084
 31
0.0
  0
LINE
  5
E8
330
A
100
AcDbEntity
  8
MGW15
  6
DASHED
 62
   252
100
AcDbLine
 10
-30.44785891849029
 20
113.0888444033084
 30
0.0
 11
-34.44785891849029
 21
113.0888444033084
 31
0.0
  0
LINE
  5
E9
330
A
100
AcDbEntity
  8
MGW15
  6
CENTER
 62
   252
100
AcDbLine
 10
-32.44785891849029
 20
110.6818346985722
 30
0.0
 11
-32.44785891849029
 21
118.1888444033084
 31
0.0
  0
ARC
  5
EA
330
A
100
AcDbEntity
  8
MGW15
  6
Continuous
 62
     4
100
AcDbCircle
 10
20.2521410815097
 20
113.2888444033084
 30
0.0
 40
0.4
100
AcDbArc
 50
120.0000000000005
 51
239.9999999999995
  0
LINE
  5
EB
330
A
100
AcDbEntity
  8
MGW15
  6
Continuous
 62
     4
100
AcDbLine
 10
20.0521410815097
 20
112.9424342417947
 30
0.0
 11
20.0521410815097
 21
109.7888444033084
 31
0.0
  0
LINE
  5
EC
330
A
100
AcDbEntity
  8
MGW15
  6
Continuous
 62
     4
100
AcDbLine
 10
19.8521410815097
 20
105.8888444033084
 30
0.0
 11
18.95214108150971
 21
104.9888444033084
 31
0.0
  0
LINE
  5
ED
330
A
100
AcDbEntity
  8
MGW15
  6
Continuous
 62
     4
100
AcDbLine
 10
19.8521410815097
 20
105.8888444033084
 30
0.0
 11
19.8521410815097
 21
109.5888444033084
 31
0.0
  0
LINE
  5
EE
330
A
100
AcDbEntity
  8
MGW15
  6
Continuous
 62
     4
100
AcDbLine
 10
19.0521410815097
 20
117.5888444033084
 30
0.0
 11
20.0521410815097
 21
116.5888444033084
 31
0.0
  0
LINE
  5
EF
330
A
100
AcDbEntity
  8
MGW15
  6
Continuous
 62
     4
100
AcDbLine
 10
-39.74785891849029
 20
105.8888444033084
 30
0.0
 11
-39.74785891849029
 21
109.5888444033084
 31
0.0
  0
LINE
  5
F0
330
A
100
AcDbEntity
  8
MGW15
  6
Continuous
 62
     4
100
AcDbLine
 10
-38.8478589184903
 20
104.9888444033084
 30
0.0
 11
-39.74785891849029
 21
105.8888444033084
 31
0.0
  0
LINE
  5
F1
330
A
100
AcDbEntity
  8
MGW15
  6
Continuous
 62
     4
100
AcDbLine
 10
-38.94785891849029
 20
117.5888444033084
 30
0.0
 11
-39.9478589184903
 21
116.5888444033084
 31
0.0
  0
LINE
  5
F2
330
A
100
AcDbEntity
  8
MGW15
  6
Continuous
 62
     4
100
AcDbLine
 10
-21.54785891849028
 20
117.1888444033084
 30
0.0
 11
1.652141081509699
 21
117.1888444033084
 31
0.0
  0
LINE
  5
F3
330
A
100
AcDbEntity
  8
MGW15
  6
Continuous
 62
     4
100
AcDbLine
 10
-21.94785891849029
 20
117.5888444033084
 30
0.0
 11
-21.54785891849028
 21
117.1888444033084
 31
0.0
  0
LINE
  5
F4
330
A
100
AcDbEntity
  8
MGW15
  6
CENTER
 62
   252
100
AcDbLine
 10
12.5521410815097
 20
110.5023840091237
 30
0.0
 11
12.5521410815097
 21
118.1888444033084
 31
0.0
  0
LINE
  5
F5
330
A
100
AcDbEntity
  8
MGW15
  6
CENTER
 62
   252
100
AcDbLine
 10
-9.947858918490293
 20
110.5888444033084
 30
0.0
 11
-9.947858918490293
 21
118.9888444033084
 31
0.0
  0
LINE
  5
F6
330
A
100
AcDbEntity
  8
MGW15
  6
Continuous
 62
     4
100
AcDbLine
 10
2.052141081509705
 20
117.5888444033084
 30
0.0
 11
1.652141081509699
 21
117.1888444033084
 31
0.0
  0
LINE
  5
F7
330
A
100
AcDbEntity
  8
MGW15
  6
Continuous
 62
     4
100
AcDbLine
 10
19.0521410815097
 20
117.5888444033084
 30
0.0
 11
2.052141081509705
 21
117.5888444033084
 31
0.0
  0
LINE
  5
F8
330
A
100
AcDbEntity
  8
MGW15
  6
Continuous
 62
     4
100
AcDbLine
 10
20.0521410815097
 20
116.5888444033084
 30
0.0
 11
20.0521410815097
 21
113.6352545648222
 31
0.0
  0
LINE
  5
F9
330
A
100
AcDbEntity
  8
MGW15
  6
Continuous
 62
     4
100
AcDbLine
 10
-38.94785891849029
 20
117.5888444033084
 30
0.0
 11
-21.94785891849029
 21
117.5888444033084
 31
0.0
  0
LINE
  5
FA
330
A
100
AcDbEntity
  8
MGW15
  6
Continuous
 62
     4
100
AcDbLine
 10
-39.9478589184903
 20
109.7888444033084
 30
0.0
 11
-39.9478589184903
 21
116.5888444033084
 31
0.0
  0
LINE
  5
FB
330
A
100
AcDbEntity
  8
MGW15
  6
Continuous
 62
     4
100
AcDbLine
 10
18.95214108150971
 20
104.9888444033084
 30
0.0
 11
11.0521410815097
 21
104.9888444033084
 31
0.0
  0
LINE
  5
FC
330
A
100
AcDbEntity
  8
MGW15
  6
Continuous
 62
     4
100
AcDbLine
 10
-30.94785891849029
 20
104.9888444033084
 30
0.0
 11
-38.8478589184903
 21
104.9888444033084
 31
0.0
  0
LINE
  5
FD
330
A
100
AcDbEntity
  8
MGW15
  6
Continuous
 62
     4
100
AcDbLine
 10
11.05214108150972
 20
106.4371472063688
 30
0.0
 11
11.05214108150972
 21
105.0888444033084
 31
0.0
  0
LINE
  5
FE
330
A
100
AcDbEntity
  8
MGW15
  6
Continuous
 62
     4
100
AcDbLine
 10
9.55214108150972
 20
107.3888444033084
 30
0.0
 11
9.997620009089647
 21
107.3888444033084
 31
0.0
  0
ARC
  5
FF
330
A
100
AcDbEntity
  8
MGW15
  6
Continuous
 62
     4
100
AcDbCircle
 10
9.55214108150972
 20
108.0888444033084
 30
0.0
 40
0.7000000000000029
100
AcDbArc
 50
90.0000000000001
 51
270.0000000000001
  0
LINE
  5
100
330
A
100
AcDbEntity
  8
MGW15
  6
Continuous
 62
     4
100
AcDbLine
 10
9.997620009089647
 20
108.7888444033084
 30
0.0
 11
9.55214108150972
 21
108.7888444033084
 31
0.0
  0
LINE
  5
101
330
A
100
AcDbEntity
  8
MGW15
  6
Continuous
 62
     4
100
AcDbLine
 10
11.05214108150972
 20
110.6888444033084
 30
0.0
 11
11.05214108150972
 21
109.7405416002479
 31
0.0
  0
LINE
  5
102
330
A
100
AcDbEntity
  8
MGW15
  6
Continuous
 62
     4
100
AcDbLine
 10
10.65214108150971
 20
111.0888444033084
 30
0.0
 11
11.05214108150972
 21
110.6888444033084
 31
0.0
  0
LINE
  5
103
330
A
100
AcDbEntity
  8
MGW15
  6
Continuous
 62
     4
100
AcDbLine
 10
-30.54785891849029
 20
111.0888444033084
 30
0.0
 11
10.65214108150971
 21
111.0888444033084
 31
0.0
  0
LINE
  5
104
330
A
100
AcDbEntity
  8
MGW15
  6
Continuous
 62
     4
100
AcDbLine
 10
-30.94785891849029
 20
110.6888444033084
 30
0.0
 11
-30.54785891849029
 21
111.0888444033084
 31
0.0
  0
LINE
  5
105
330
A
100
AcDbEntity
  8
MGW15
  6
Continuous
 62
     4
100
AcDbLine
 10
-30.94785891849029
 20
109.7405416002479
 30
0.0
 11
-30.94785891849029
 21
110.6888444033084
 31
0.0
  0
LINE
  5
106
330
A
100
AcDbEntity
  8
MGW15
  6
Continuous
 62
     4
100
AcDbLine
 10
-29.44785891849029
 20
108.7888444033084
 30
0.0
 11
-29.89333784607022
 21
108.7888444033084
 31
0.0
  0
ARC
  5
107
330
A
100
AcDbEntity
  8
MGW15
  6
Continuous
 62
     4
100
AcDbCircle
 10
-29.44785891849029
 20
108.0888444033084
 30
0.0
 40
0.7000000000000029
100
AcDbArc
 50
270.0
 51
450.0000000000002
  0
LINE
  5
108
330
A
100
AcDbEntity
  8
MGW15
  6
Continuous
 62
     4
100
AcDbLine
 10
-29.89333784607022
 20
107.3888444033084
 30
0.0
 11
-29.44785891849029
 21
107.3888444033084
 31
0.0
  0
LINE
  5
109
330
A
100
AcDbEntity
  8
MGW15
  6
Continuous
 62
     4
100
AcDbLine
 10
-30.94785891849029
 20
105.0888444033084
 30
0.0
 11
-30.94785891849029
 21
106.4371472063688
 31
0.0
  0
LINE
  5
10A
330
A
100
AcDbEntity
  8
MGW15
  6
Continuous
 62
     4
100
AcDbLine
 10
12.45214108150971
 20
111.5307202178177
 30
0.0
 11
12.45214108150971
 21
105.0888444033084
 31
0.0
  0
LINE
  5
10B
330
A
100
AcDbEntity
  8
MGW15
  6
Continuous
 62
     4
100
AcDbLine
 10
-31.31939794940764
 20
112.4888444033084
 30
0.0
 11
-11.05691256913127
 21
112.4888444033084
 31
0.0
  0
LINE
  5
10C
330
A
100
AcDbEntity
  8
MGW15
  6
Continuous
 62
     4
100
AcDbLine
 10
-32.3478589184903
 20
105.0888444033084
 30
0.0
 11
-32.3478589184903
 21
111.5307202178177
 31
0.0
  0
CIRCLE
  5
10D
330
A
100
AcDbEntity
  8
MGW15
  6
Continuous
 62
     4
100
AcDbCircle
 10
13.50214108150972
 20
113.6888444033084
 30
0.0
 40
2.4
  0
CIRCLE
  5
10E
330
A
100
AcDbEntity
  8
MGW15
  6
Continuous
 62
     4
100
AcDbCircle
 10
-33.39785891849028
 20
113.6888444033084
 30
0.0
 40
2.4
  0
LINE
  5
10F
330
A
100
AcDbEntity
  8
MGW15
  6
Continuous
 62
     4
100
AcDbLine
 10
19.55214108150971
 20
106.0888444033084
 30
0.0
 11
18.55214108150971
 21
105.0888444033084
 31
0.0
  0
LINE
  5
110
330
A
100
AcDbEntity
  8
MGW15
  6
Continuous
 62
     4
100
AcDbLine
 10
19.55214108150971
 20
115.8888444033084
 30
0.0
 11
18.35214108150971
 21
117.0888444033084
 31
0.0
  0
LINE
  5
111
330
A
100
AcDbEntity
  8
MGW15
  6
Continuous
 62
     4
100
AcDbLine
 10
19.55214108150971
 20
106.0888444033084
 30
0.0
 11
19.55214108150971
 21
115.8888444033084
 31
0.0
  0
LINE
  5
112
330
A
100
AcDbEntity
  8
MGW15
  6
Continuous
 62
     4
100
AcDbLine
 10
11.05214108150972
 20
105.0888444033084
 30
0.0
 11
18.55214108150971
 21
105.0888444033084
 31
0.0
  0
LINE
  5
113
330
A
100
AcDbEntity
  8
MGW15
  6
Continuous
 62
     4
100
AcDbLine
 10
-39.44785891849029
 20
106.0888444033084
 30
0.0
 11
-38.44785891849029
 21
105.0888444033084
 31
0.0
  0
LINE
  5
114
330
A
100
AcDbEntity
  8
MGW15
  6
Continuous
 62
     4
100
AcDbLine
 10
-39.44785891849029
 20
115.8888444033084
 30
0.0
 11
-38.24785891849028
 21
117.0888444033084
 31
0.0
  0
LINE
  5
115
330
A
100
AcDbEntity
  8
MGW15
  6
Continuous
 62
     4
100
AcDbLine
 10
-39.44785891849029
 20
106.0888444033084
 30
0.0
 11
-39.44785891849029
 21
115.8888444033084
 31
0.0
  0
LINE
  5
116
330
A
100
AcDbEntity
  8
MGW15
  6
Continuous
 62
     4
100
AcDbLine
 10
18.35214108150971
 20
117.0888444033084
 30
0.0
 11
-38.24785891849028
 21
117.0888444033084
 31
0.0
  0
LINE
  5
117
330
A
100
AcDbEntity
  8
MGW15
  6
Continuous
 62
     4
100
AcDbLine
 10
-30.94785891849029
 20
105.0888444033084
 30
0.0
 11
-38.44785891849029
 21
105.0888444033084
 31
0.0
  0
LINE
  5
118
330
A
100
AcDbEntity
  8
MGW15
  6
Continuous
 62
     4
100
AcDbLine
 10
-31.54785891849029
 20
105.0888444033084
 30
0.0
 11
-31.54785891849029
 21
106.4207616715472
 31
0.0
  0
ARC
  5
119
330
A
100
AcDbEntity
  8
MGW15
  6
Continuous
 62
     4
100
AcDbCircle
 10
-30.7678589184903
 20
106.4207616715472
 30
0.0
 40
0.7799999999999941
100
AcDbArc
 50
115.6220277472418
 51
179.9999999999991
  0
ARC
  5
11A
330
A
100
AcDbEntity
  8
MGW15
  6
Continuous
 62
     4
100
AcDbCircle
 10
-31.56785891849029
 20
108.0888444033084
 30
0.0
 40
1.070000000000003
100
AcDbArc
 50
295.6220277472418
 51
424.3779722527581
  0
ARC
  5
11B
330
A
100
AcDbEntity
  8
MGW15
  6
Continuous
 62
     4
100
AcDbCircle
 10
-30.7678589184903
 20
109.7569271350696
 30
0.0
 40
0.7799999999999953
100
AcDbArc
 50
180.0
 51
244.3779722527589
  0
LINE
  5
11C
330
A
100
AcDbEntity
  8
MGW15
  6
Continuous
 62
     4
100
AcDbLine
 10
-31.54785891849029
 20
109.7569271350696
 30
0.0
 11
-31.54785891849029
 21
110.9373725407323
 31
0.0
  0
LINE
  5
11D
330
A
100
AcDbEntity
  8
MGW15
  6
Continuous
 62
     4
100
AcDbLine
 10
-31.54785891849029
 20
110.9373725407323
 30
0.0
 11
-30.79638705591413
 21
111.6888444033084
 31
0.0
  0
LINE
  5
11E
330
A
100
AcDbEntity
  8
MGW15
  6
Continuous
 62
     4
100
AcDbLine
 10
-30.79638705591413
 20
111.6888444033084
 30
0.0
 11
10.90066921893355
 21
111.6888444033084
 31
0.0
  0
LINE
  5
11F
330
A
100
AcDbEntity
  8
MGW15
  6
Continuous
 62
     4
100
AcDbLine
 10
10.90066921893355
 20
111.6888444033084
 30
0.0
 11
11.65214108150971
 21
110.9373725407323
 31
0.0
  0
LINE
  5
120
330
A
100
AcDbEntity
  8
MGW15
  6
Continuous
 62
     4
100
AcDbLine
 10
11.65214108150971
 20
110.9373725407323
 30
0.0
 11
11.65214108150971
 21
109.7569271350696
 31
0.0
  0
ARC
  5
121
330
A
100
AcDbEntity
  8
MGW15
  6
Continuous
 62
     4
100
AcDbCircle
 10
10.87214108150971
 20
109.7569271350696
 30
0.0
 40
0.7799999999999998
100
AcDbArc
 50
295.6220277472411
 51
360.0
  0
ARC
  5
122
330
A
100
AcDbEntity
  8
MGW15
  6
Continuous
 62
     4
100
AcDbCircle
 10
11.67214108150971
 20
108.0888444033084
 30
0.0
 40
1.070000000000005
100
AcDbArc
 50
115.622027747242
 51
244.3779722527584
  0
ARC
  5
123
330
A
100
AcDbEntity
  8
MGW15
  6
Continuous
 62
     4
100
AcDbCircle
 10
10.87214108150971
 20
106.4207616715472
 30
0.0
 40
0.7800000000000025
100
AcDbArc
 50
0.0000000000008142
 51
64.37797225275827
  0
LINE
  5
124
330
A
100
AcDbEntity
  8
MGW15
  6
Continuous
 62
     4
100
AcDbLine
 10
11.65214108150971
 20
106.4207616715472
 30
0.0
 11
11.65214108150971
 21
105.0888444033084
 31
0.0
  0
LINE
  5
125
330
A
100
AcDbEntity
  8
MGW15
  6
Continuous
 62
     4
100
AcDbLine
 10
40.05214108150968
 20
141.5888444033084
 30
0.0
 11
40.05214108150968
 21
183.5888444033083
 31
0.0
  0
LINE
  5
126
330
A
100
AcDbEntity
  8
MGW15
  6
Continuous
 62
     4
100
AcDbLine
 10
230.0521410815097
 20
141.5888444033084
 30
0.0
 11
230.0521410815097
 21
183.5888444033083
 31
0.0
  0
LINE
  5
127
330
A
100
AcDbEntity
  8
MGW15
  6
Continuous
 62
     4
100
AcDbLine
 10
230.0521410815097
 20
183.5888444033083
 30
0.0
 11
171.4521410815097
 21
183.5888444033083
 31
0.0
  0
LINE
  5
128
330
A
100
AcDbEntity
  8
MGW15
  6
Continuous
 62
     4
100
AcDbLine
 10
230.0521410815097
 20
141.5888444033084
 30
0.0
 11
171.4521410815097
 21
141.5888444033084
 31
0.0
  0
CIRCLE
  5
129
330
A
100
AcDbEntity
  8
MGW15
  6
Continuous
 62
     4
100
AcDbCircle
 10
215.0521410815097
 20
151.0888444033084
 30
0.0
 40
4.0
  0
CIRCLE
  5
12A
330
A
100
AcDbEntity
  8
MGW15
  6
Continuous
 62
     4
100
AcDbCircle
 10
215.0521410815097
 20
174.0888444033084
 30
0.0
 40
4.0
  0
LINE
  5
12B
330
A
100
AcDbEntity
  8
MGW15
  6
Continuous
 62
     4
100
AcDbLine
 10
106.5521410815096
 20
192.5888444033084
 30
0.0
 11
106.5521410815096
 21
132.5888444033084
 31
0.0
  0
LINE
  5
12C
330
A
100
AcDbEntity
  8
MGW15
  6
Continuous
 62
     4
100
AcDbLine
 10
106.5521410815096
 20
192.5888444033084
 30
0.0
 11
163.5521410815096
 21
192.5888444033084
 31
0.0
  0
LINE
  5
12D
330
A
100
AcDbEntity
  8
MGW15
  6
Continuous
 62
     4
100
AcDbLine
 10
106.5521410815096
 20
132.5888444033084
 30
0.0
 11
163.5521410815096
 21
132.5888444033084
 31
0.0
  0
LINE
  5
12E
330
A
100
AcDbEntity
  8
MGW15
  6
Continuous
 62
     4
100
AcDbLine
 10
163.5521410815096
 20
192.5888444033084
 30
0.0
 11
163.5521410815096
 21
132.5888444033084
 31
0.0
  0
ARC
  5
12F
330
A
100
AcDbEntity
  8
MGW15
  6
Continuous
 62
   252
100
AcDbCircle
 10
152.5521410815096
 20
185.0888444033083
 30
0.0
 40
2.0
100
AcDbArc
 50
169.9999999999997
 51
460.0000000000001
  0
CIRCLE
  5
130
330
A
100
AcDbEntity
  8
MGW15
  6
Continuous
 62
     4
100
AcDbCircle
 10
152.5521410815096
 20
185.0888444033083
 30
0.0
 40
1.649999999999999
  0
ARC
  5
131
330
A
100
AcDbEntity
  8
MGW15
  6
Continuous
 62
   252
100
AcDbCircle
 10
152.5521410815096
 20
140.0888444033084
 30
0.0
 40
2.0
100
AcDbArc
 50
169.9999999999997
 51
460.0000000000001
  0
CIRCLE
  5
132
330
A
100
AcDbEntity
  8
MGW15
  6
Continuous
 62
     4
100
AcDbCircle
 10
152.5521410815096
 20
140.0888444033084
 30
0.0
 40
1.649999999999999
  0
ARC
  5
133
330
A
100
AcDbEntity
  8
MGW15
  6
Continuous
 62
   252
100
AcDbCircle
 10
117.5521410815096
 20
140.0888444033084
 30
0.0
 40
2.0
100
AcDbArc
 50
169.9999999999997
 51
460.0000000000001
  0
CIRCLE
  5
134
330
A
100
AcDbEntity
  8
MGW15
  6
Continuous
 62
     4
100
AcDbCircle
 10
117.5521410815096
 20
140.0888444033084
 30
0.0
 40
1.649999999999999
  0
ARC
  5
135
330
A
100
AcDbEntity
  8
MGW15
  6
Continuous
 62
   252
100
AcDbCircle
 10
117.5521410815096
 20
185.0888444033083
 30
0.0
 40
2.0
100
AcDbArc
 50
169.9999999999997
 51
460.0000000000001
  0
CIRCLE
  5
136
330
A
100
AcDbEntity
  8
MGW15
  6
Continuous
 62
     4
100
AcDbCircle
 10
117.5521410815096
 20
185.0888444033083
 30
0.0
 40
1.649999999999999
  0
LINE
  5
137
330
A
100
AcDbEntity
  8
MGW15
  6
CENTER
 62
   252
100
AcDbLine
 10
98.37714108150969
 20
162.5888444033084
 30
0.0
 11
175.8129860225781
 21
162.5888444033084
 31
0.0
  0
LINE
  5
138
330
A
100
AcDbEntity
  8
MGW15
  6
CENTER
 62
   252
100
AcDbLine
 10
152.5521410815096
 20
142.4888444033084
 30
0.0
 11
152.5521410815096
 21
137.6888444033083
 31
0.0
  0
LINE
  5
139
330
A
100
AcDbEntity
  8
MGW15
  6
CENTER
 62
   252
100
AcDbLine
 10
150.1521410815097
 20
140.0888444033084
 30
0.0
 11
154.9521410815096
 21
140.0888444033084
 31
0.0
  0
LINE
  5
13A
330
A
100
AcDbEntity
  8
MGW15
  6
CENTER
 62
   252
100
AcDbLine
 10
117.5521410815096
 20
142.4888444033084
 30
0.0
 11
117.5521410815096
 21
137.6888444033083
 31
0.0
  0
LINE
  5
13B
330
A
100
AcDbEntity
  8
MGW15
  6
CENTER
 62
   252
100
AcDbLine
 10
115.1521410815096
 20
140.0888444033084
 30
0.0
 11
119.9521410815097
 21
140.0888444033084
 31
0.0
  0
LINE
  5
13C
330
A
100
AcDbEntity
  8
MGW15
  6
CENTER
 62
   252
100
AcDbLine
 10
117.5521410815096
 20
187.4888444033084
 30
0.0
 11
117.5521410815096
 21
182.6888444033084
 31
0.0
  0
LINE
  5
13D
330
A
100
AcDbEntity
  8
MGW15
  6
CENTER
 62
   252
100
AcDbLine
 10
115.1521410815096
 20
185.0888444033083
 30
0.0
 11
119.9521410815097
 21
185.0888444033083
 31
0.0
  0
LINE
  5
13E
330
A
100
AcDbEntity
  8
MGW15
  6
CENTER
 62
   252
100
AcDbLine
 10
152.5521410815096
 20
187.4888444033084
 30
0.0
 11
152.5521410815096
 21
182.6888444033084
 31
0.0
  0
LINE
  5
13F
330
A
100
AcDbEntity
  8
MGW15
  6
CENTER
 62
   252
100
AcDbLine
 10
150.1521410815097
 20
185.0888444033083
 30
0.0
 11
154.9521410815096
 21
185.0888444033083
 31
0.0
  0
LINE
  5
140
330
A
100
AcDbEntity
  8
MGW15
  6
Continuous
 62
     4
100
AcDbLine
 10
98.65214108150968
 20
183.5888444033083
 30
0.0
 11
40.05214108150968
 21
183.5888444033083
 31
0.0
  0
LINE
  5
141
330
A
100
AcDbEntity
  8
MGW15
  6
Continuous
 62
     4
100
AcDbLine
 10
98.65214108150968
 20
141.5888444033084
 30
0.0
 11
40.05214108150968
 21
141.5888444033084
 31
0.0
  0
LINE
  5
142
330
A
100
AcDbEntity
  8
MGW15
  6
Continuous
 62
     4
100
AcDbLine
 10
100.2521410815096
 20
192.1888444033083
 30
0.0
 11
100.2521410815096
 21
132.9888444033084
 31
0.0
  0
LINE
  5
143
330
A
100
AcDbEntity
  8
MGW15
  6
Continuous
 62
     4
100
AcDbLine
 10
98.65214108150968
 20
192.0888444033083
 30
0.0
 11
98.65214108150968
 21
133.0888444033084
 31
0.0
  0
LINE
  5
144
330
A
100
AcDbEntity
  8
MGW15
  6
CENTER
 62
   252
100
AcDbLine
 10
215.0521410815096
 20
112.2388464033084
 30
0.0
 11
215.0521410815096
 21
100.0772094033084
 31
0.0
  0
LINE
  5
145
330
A
100
AcDbEntity
  8
MGW15
  6
CENTER
 62
   252
100
AcDbLine
 10
210.0521410815097
 20
174.0888444033084
 30
0.0
 11
220.0521410815096
 21
174.0888444033084
 31
0.0
  0
LINE
  5
146
330
A
100
AcDbEntity
  8
MGW15
  6
CENTER
 62
   252
100
AcDbLine
 10
210.0521410815097
 20
151.0888444033084
 30
0.0
 11
220.0521410815096
 21
151.0888444033084
 31
0.0
  0
CIRCLE
  5
147
330
A
100
AcDbEntity
  8
MGW15
  6
Continuous
 62
     4
100
AcDbCircle
 10
55.0521410815096
 20
151.0888444033084
 30
0.0
 40
4.0
  0
CIRCLE
  5
148
330
A
100
AcDbEntity
  8
MGW15
  6
Continuous
 62
     4
100
AcDbCircle
 10
55.0521410815096
 20
174.0888444033084
 30
0.0
 40
4.0
  0
CIRCLE
  5
149
330
A
100
AcDbEntity
  8
MGW15
  6
Continuous
 62
     4
100
AcDbCircle
 10
55.0521410815096
 20
151.0888444033084
 30
0.0
 40
2.25
  0
CIRCLE
  5
14A
330
A
100
AcDbEntity
  8
MGW15
  6
Continuous
 62
     4
100
AcDbCircle
 10
55.0521410815096
 20
174.0888444033084
 30
0.0
 40
2.25
  0
LINE
  5
14B
330
A
100
AcDbEntity
  8
MGW15
  6
CENTER
 62
   252
100
AcDbLine
 10
55.0521410815096
 20
179.0888444033084
 30
0.0
 11
55.0521410815096
 21
169.0888444033084
 31
0.0
  0
LINE
  5
14C
330
A
100
AcDbEntity
  8
MGW15
  6
CENTER
 62
   252
100
AcDbLine
 10
55.0521410815096
 20
156.0888444033084
 30
0.0
 11
55.0521410815096
 21
146.0888444033083
 31
0.0
  0
LINE
  5
14D
330
A
100
AcDbEntity
  8
MGW15
  6
CENTER
 62
   252
100
AcDbLine
 10
55.05214108150963
 20
112.2388464033084
 30
0.0
 11
55.05214108150963
 21
100.0772094033084
 31
0.0
  0
LINE
  5
14E
330
A
100
AcDbEntity
  8
MGW15
  6
CENTER
 62
   252
100
AcDbLine
 10
60.05214108150963
 20
174.0888444033084
 30
0.0
 11
50.05214108150963
 21
174.0888444033084
 31
0.0
  0
LINE
  5
14F
330
A
100
AcDbEntity
  8
MGW15
  6
CENTER
 62
   252
100
AcDbLine
 10
60.05214108150963
 20
151.0888444033084
 30
0.0
 11
50.05214108150963
 21
151.0888444033084
 31
0.0
  0
LINE
  5
150
330
A
100
AcDbEntity
  8
MGW15
  6
CENTER
 62
   252
100
AcDbLine
 10
95.05214108150964
 20
112.2388464033084
 30
0.0
 11
95.05214108150964
 21
100.0772094033084
 31
0.0
  0
LINE
  5
151
330
A
100
AcDbEntity
  8
MGW15
  6
DASHED
 62
   252
100
AcDbLine
 10
59.0521410815097
 20
106.5888444033084
 30
0.0
 11
51.0521410815097
 21
106.5888444033084
 31
0.0
  0
LINE
  5
152
330
A
100
AcDbEntity
  8
MGW15
  6
DASHED
 62
   252
100
AcDbLine
 10
59.0521410815097
 20
110.7888444033084
 30
0.0
 11
59.0521410815097
 21
106.5888444033084
 31
0.0
  0
LINE
  5
153
330
A
100
AcDbEntity
  8
MGW15
  6
DASHED
 62
   252
100
AcDbLine
 10
51.0521410815097
 20
110.7888444033084
 30
0.0
 11
51.0521410815097
 21
106.5888444033084
 31
0.0
  0
LINE
  5
154
330
A
100
AcDbEntity
  8
MGW15
  6
DASHED
 62
   252
100
AcDbLine
 10
52.8021410815097
 20
106.5888444033084
 30
0.0
 11
52.8021410815097
 21
101.9888444033084
 31
0.0
  0
LINE
  5
155
330
A
100
AcDbEntity
  8
MGW15
  6
DASHED
 62
   252
100
AcDbLine
 10
57.3021410815097
 20
106.5888444033084
 30
0.0
 11
57.3021410815097
 21
101.9888444033084
 31
0.0
  0
LINE
  5
156
330
A
100
AcDbEntity
  8
MGW15
  6
DASHED
 62
   252
100
AcDbLine
 10
57.3021300815097
 20
101.9888444033084
 30
0.0
 11
52.8021300815097
 21
101.9888444033084
 31
0.0
  0
LINE
  5
157
330
A
100
AcDbEntity
  8
MGW15
  6
DASHED
 62
   252
100
AcDbLine
 10
57.70213008150972
 20
101.5888444033084
 30
0.0
 11
57.3021300815097
 21
101.9888444033084
 31
0.0
  0
LINE
  5
158
330
A
100
AcDbEntity
  8
MGW15
  6
DASHED
 62
   252
100
AcDbLine
 10
52.8021300815097
 20
101.9888444033084
 30
0.0
 11
52.4021300815097
 21
101.5888444033084
 31
0.0
  0
LINE
  5
159
330
A
100
AcDbEntity
  8
MGW15
  6
DASHED
 62
   252
100
AcDbLine
 10
51.0521410815097
 20
110.7888444033084
 30
0.0
 11
59.0521410815097
 21
110.7888444033084
 31
0.0
  0
LINE
  5
15A
330
A
100
AcDbEntity
  8
MGW15
  6
DASHED
 62
   252
100
AcDbLine
 10
59.22534616226657
 20
111.0888444033084
 30
0.0
 11
59.0521410815097
 21
110.7888444033084
 31
0.0
  0
LINE
  5
15B
330
A
100
AcDbEntity
  8
MGW15
  6
DASHED
 62
   252
100
AcDbLine
 10
50.87893600075283
 20
111.0888444033084
 30
0.0
 11
51.0521410815097
 21
110.7888444033084
 31
0.0
  0
ARC
  5
15C
330
A
100
AcDbEntity
  8
MGW15
  6
Continuous
 62
     4
100
AcDbCircle
 10
-31.56011212000367
 20
108.0888444033084
 30
0.0
 40
1.7
100
AcDbArc
 50
295.3091149660024
 51
331.7262863686369
  0
ARC
  5
15D
330
A
100
AcDbEntity
  8
MGW15
  6
Continuous
 62
     4
100
AcDbCircle
 10
-31.56011212000367
 20
108.0888444033084
 30
0.0
 40
1.7
100
AcDbArc
 50
28.27371363136495
 51
64.69088503399759
  0
ARC
  5
15E
330
A
100
AcDbEntity
  8
MGW15
  6
Continuous
 62
     4
100
AcDbCircle
 10
-30.74785891849028
 20
109.8064720511504
 30
0.0
 40
0.2
100
AcDbArc
 50
180.0
 51
244.6908850339981
  0
ARC
  5
15F
330
A
100
AcDbEntity
  8
MGW15
  6
Continuous
 62
     4
100
AcDbCircle
 10
-29.88679206693552
 20
108.9888444033084
 30
0.0
 40
0.2
100
AcDbArc
 50
208.2737136313648
 51
270.0
  0
ARC
  5
160
330
A
100
AcDbEntity
  8
MGW15
  6
Continuous
 62
     4
100
AcDbCircle
 10
-29.8867920669355
 20
107.1888444033084
 30
0.0
 40
0.2
100
AcDbArc
 50
89.99999999999797
 51
151.7262863686285
  0
ARC
  5
161
330
A
100
AcDbEntity
  8
MGW15
  6
Continuous
 62
     4
100
AcDbCircle
 10
-30.74785891849028
 20
106.3712167554664
 30
0.0
 40
0.2
100
AcDbArc
 50
115.3091149660034
 51
180.0
  0
ARC
  5
162
330
A
100
AcDbEntity
  8
MGW15
  6
Continuous
 62
     4
100
AcDbCircle
 10
11.66439428302308
 20
108.0888444033084
 30
0.0
 40
1.7
100
AcDbArc
 50
208.273713631363
 51
244.6908850339976
  0
ARC
  5
163
330
A
100
AcDbEntity
  8
MGW15
  6
Continuous
 62
     4
100
AcDbCircle
 10
11.66439428302308
 20
108.0888444033084
 30
0.0
 40
1.7
100
AcDbArc
 50
115.3091149660023
 51
151.726286368635
  0
ARC
  5
164
330
A
100
AcDbEntity
  8
MGW15
  6
Continuous
 62
     4
100
AcDbCircle
 10
10.8521410815097
 20
109.8064720511504
 30
0.0
 40
0.2
100
AcDbArc
 50
295.3091149660018
 51
360.0
  0
ARC
  5
165
330
A
100
AcDbEntity
  8
MGW15
  6
Continuous
 62
     4
100
AcDbCircle
 10
9.991074229954932
 20
108.9888444033084
 30
0.0
 40
0.2
100
AcDbArc
 50
270.0
 51
331.7262863686351
  0
ARC
  5
166
330
A
100
AcDbEntity
  8
MGW15
  6
Continuous
 62
     4
100
AcDbCircle
 10
9.991074229954911
 20
107.1888444033084
 30
0.0
 40
0.2
100
AcDbArc
 50
28.27371363137142
 51
90.00000000000204
  0
ARC
  5
167
330
A
100
AcDbEntity
  8
MGW15
  6
Continuous
 62
     4
100
AcDbCircle
 10
10.8521410815097
 20
106.3712167554664
 30
0.0
 40
0.2
100
AcDbArc
 50
0.0
 51
64.69088503399641
  0
ENDSEC
  0
SECTION
  2
OBJECTS
  0
DICTIONARY
  5
19
330
0
100
AcDbDictionary
281
     1
  3
ACAD_GROUP
350
1A
  3
ACAD_LAYOUT
350
173
  3
ACAD_MLINESTYLE
350
1B
  3
ACAD_PLOTSETTINGS
350
174
  3
ACAD_PLOTSTYLENAME
350
171
  0
DICTIONARY
  5
1A
102
{ACAD_REACTORS
330
19
102
}
330
19
100
AcDbDictionary
281
     1
  0
DICTIONARY
  5
173
102
{ACAD_REACTORS
330
19
102
}
330
19
100
AcDbDictionary
281
     1
  3
Layout1
350
176
  3
Model
350
175
  0
DICTIONARY
  5
1B
102
{ACAD_REACTORS
330
19
102
}
330
19
100
AcDbDictionary
281
     1
  3
STANDARD
350
1C
  0
DICTIONARY
  5
174
102
{ACAD_REACTORS
330
19
102
}
330
19
100
AcDbDictionary
281
     1
  0
ACDBDICTIONARYWDFLT
  5
171
102
{ACAD_REACTORS
330
19
102
}
330
19
100
AcDbDictionary
281
     1
  3
Normal
350
172
100
AcDbDictionaryWithDefault
340
172
  0
LAYOUT
  5
176
102
{ACAD_REACTORS
330
173
102
}
330
173
100
AcDbPlotSettings
  1

  2
HPLJ2100_Technik_S3
  4

  6

 40
0.0
 41
0.0
 42
0.0
 43
0.0
 44
0.0
 45
0.0
 46
0.0
 47
0.0
 48
0.0
 49
0.0
140
0.0
141
0.0
142
1.0
143
1.0
 70
   688
 72
     0
 73
     0
 74
     5
  7

 75
    16
147
1.0
148
0.0
149
0.0
100
AcDbLayout
  1
Layout1
 70
     0
 71
     1
 10
0.0
 20
0.0
 11
12.0
 21
9.0
 12
0.0
 22
0.0
 32
0.0
 14
1.000000000000000E+20
 24
1.000000000000000E+20
 34
1.000000000000000E+20
 15
-1.000000000000000E+20
 25
-1.000000000000000E+20
 35
-1.000000000000000E+20
146
0.0
 13
0.0
 23
0.0
 33
0.0
 16
1.0
 26
0.0
 36
0.0
 17
0.0
 27
1.0
 37
0.0
 76
     0
330
B
  0
LAYOUT
  5
175
102
{ACAD_REACTORS
330
173
102
}
330
173
100
AcDbPlotSettings
  1

  2
HPLJ2100_Technik_S3
  4

  6

 40
0.0
 41
0.0
 42
0.0
 43
0.0
 44
0.0
 45
0.0
 46
0.0
 47
0.0
 48
0.0
 49
0.0
140
0.0
141
0.0
142
1.0
143
1.0
 70
  1712
 72
     0
 73
     0
 74
     0
  7

 75
     0
147
1.0
148
0.0
149
0.0
100
AcDbLayout
  1
Model
 70
     1
 71
     0
 10
0.0
 20
0.0
 11
12.0
 21
9.0
 12
0.0
 22
0.0
 32
0.0
 14
0.0
 24
0.0
 34
0.0
 15
0.0
 25
0.0
 35
0.0
146
0.0
 13
0.0
 23
0.0
 33
0.0
 16
1.0
 26
0.0
 36
0.0
 17
0.0
 27
1.0
 37
0.0
 76
     0
330
A
  0
MLINESTYLE
  5
1C
102
{ACAD_REACTORS
330
1B
102
}
330
1B
100
AcDbMlineStyle
  2
STANDARD
 70
     0
  3

 62
     0
 51
90.00000000000019
 52
90.00000000000019
 71
     2
 49
0.5
 62
   256
  6
BYLAYER
 49
-0.5
 62
   256
  6
BYLAYER
  0
ACDBPLACEHOLDER
  5
172
102
{ACAD_REACTORS
330
171
102
}
330
171
  0
ENDSEC
  0
EOF
