  0
SECTION
  2
HEADER
  9
$ACADVER
  1
AC1015
  9
$ACADMAINTVER
 70
    20
  9
$DWGCODEPAGE
  3
ANSI_950
  9
$INSBASE
 10
0.0
 20
0.0
 30
0.0
  9
$EXTMIN
 10
2758.618653094506
 20
1079.482877205168
 30
-0.0000000000000009
  9
$EXTMAX
 10
3087.231381074774
 20
1275.87789276026
 30
0.0
  9
$LIMMIN
 10
-10.0
 20
-15.0
  9
$LIMMAX
 10
120.0
 20
90.0
  9
$ORTHOMODE
 70
     1
  9
$REGENMODE
 70
     0
  9
$FILLMODE
 70
     1
  9
$QTEXTMODE
 70
     0
  9
$MIRRTEXT
 70
     0
  9
$LTSCALE
 40
3.0
  9
$ATTMODE
 70
     1
  9
$TEXTSIZE
 40
3.0
  9
$TRACEWID
 40
1.0
  9
$TEXTSTYLE
  7
STANDARD
  9
$CLAYER
  8
0
  9
$CELTYPE
  6
ByLayer
  9
$CECOLOR
 62
   256
  9
$CELTSCALE
 40
1.0
  9
$DISPSILH
 70
     0
  9
$DIMSCALE
 40
1.0
  9
$DIMASZ
 40
3.0
  9
$DIMEXO
 40
1.0
  9
$DIMDLI
 40
6.0
  9
$DIMRND
 40
0.0
  9
$DIMDLE
 40
0.0
  9
$DIMEXE
 40
1.0
  9
$DIMTP
 40
0.0
  9
$DIMTM
 40
0.0
  9
$DIMTXT
 40
3.0
  9
$DIMCEN
 40
1.5
  9
$DIMTSZ
 40
0.0
  9
$DIMTOL
 70
     0
  9
$DIMLIM
 70
     0
  9
$DIMTIH
 70
     1
  9
$DIMTOH
 70
     1
  9
$DIMSE1
 70
     0
  9
$DIMSE2
 70
     0
  9
$DIMTAD
 70
     0
  9
$DIMZIN
 70
     0
  9
$DIMBLK
  1

  9
$DIMASO
 70
     1
  9
$DIMSHO
 70
     0
  9
$DIMPOST
  1

  9
$DIMAPOST
  1

  9
$DIMALT
 70
     0
  9
$DIMALTD
 70
     2
  9
$DIMALTF
 40
25.4
  9
$DIMLFAC
 40
1.0
  9
$DIMTOFL
 70
     1
  9
$DIMTVP
 40
0.0
  9
$DIMTIX
 70
     0
  9
$DIMSOXD
 70
     0
  9
$DIMSAH
 70
     0
  9
$DIMBLK1
  1

  9
$DIMBLK2
  1

  9
$DIMSTYLE
  2
Standard
  9
$DIMCLRD
 70
     0
  9
$DIMCLRE
 70
     0
  9
$DIMCLRT
 70
     0
  9
$DIMTFAC
 40
1.0
  9
$DIMGAP
 40
0.09
  9
$DIMJUST
 70
     0
  9
$DIMSD1
 70
     0
  9
$DIMSD2
 70
     0
  9
$DIMTOLJ
 70
     1
  9
$DIMTZIN
 70
     0
  9
$DIMALTZ
 70
     0
  9
$DIMALTTZ
 70
     0
  9
$DIMUPT
 70
     0
  9
$DIMDEC
 70
     4
  9
$DIMTDEC
 70
     8
  9
$DIMALTU
 70
     2
  9
$DIMALTTD
 70
     2
  9
$DIMTXSTY
  7
STANDARD
  9
$DIMAUNIT
 70
     0
  9
$DIMADEC
 70
     0
  9
$DIMALTRND
 40
0.0
  9
$DIMAZIN
 70
     0
  9
$DIMDSEP
 70
    46
  9
$DIMATFIT
 70
     3
  9
$DIMFRAC
 70
     0
  9
$DIMLDRBLK
  1

  9
$DIMLUNIT
 70
     2
  9
$DIMLWD
 70
    -2
  9
$DIMLWE
 70
    -2
  9
$DIMTMOVE
 70
     2
  9
$LUNITS
 70
     2
  9
$LUPREC
 70
     4
  9
$SKETCHINC
 40
0.5
  9
$FILLETRAD
 40
0.0
  9
$AUNITS
 70
     0
  9
$AUPREC
 70
     0
  9
$MENU
  1
ACAD
  9
$ELEVATION
 40
0.0
  9
$PELEVATION
 40
0.0
  9
$THICKNESS
 40
0.0
  9
$LIMCHECK
 70
     0
  9
$CHAMFERA
 40
0.0
  9
$CHAMFERB
 40
0.0
  9
$CHAMFERC
 40
0.0
  9
$CHAMFERD
 40
0.0
  9
$SKPOLY
 70
     0
  9
$TDCREATE
 40
2444975.333333334
  9
$TDUCREATE
 40
2444975.000000000
  9
$TDUPDATE
 40
2454042.424055150
  9
$TDUUPDATE
 40
2454042.090721817
  9
$TDINDWG
 40
0.3166425463
  9
$TDUSRTIMER
 40
0.0000000000
  9
$USRTIMER
 70
     0
  9
$ANGBASE
 50
0.0
  9
$ANGDIR
 70
     0
  9
$PDMODE
 70
     0
  9
$PDSIZE
 40
0.001
  9
$PLINEWID
 40
0.0
  9
$SPLFRAME
 70
     0
  9
$SPLINETYPE
 70
     6
  9
$SPLINESEGS
 70
  8000
  9
$HANDSEED
  5
EB25
  9
$SURFTAB1
 70
     6
  9
$SURFTAB2
 70
     6
  9
$SURFTYPE
 70
     6
  9
$SURFU
 70
     6
  9
$SURFV
 70
     6
  9
$UCSBASE
  2

  9
$UCSNAME
  2

  9
$UCSORG
 10
0.0
 20
0.0
 30
0.0
  9
$UCSXDIR
 10
1.0
 20
0.0
 30
0.0
  9
$UCSYDIR
 10
0.0
 20
1.0
 30
0.0
  9
$UCSORTHOREF
  2

  9
$UCSORTHOVIEW
 70
     0
  9
$UCSORGTOP
 10
0.0
 20
0.0
 30
0.0
  9
$UCSORGBOTTOM
 10
0.0
 20
0.0
 30
0.0
  9
$UCSORGLEFT
 10
0.0
 20
0.0
 30
0.0
  9
$UCSORGRIGHT
 10
0.0
 20
0.0
 30
0.0
  9
$UCSORGFRONT
 10
0.0
 20
0.0
 30
0.0
  9
$UCSORGBACK
 10
0.0
 20
0.0
 30
0.0
  9
$PUCSBASE
  2

  9
$PUCSNAME
  2

  9
$PUCSORG
 10
0.0
 20
0.0
 30
0.0
  9
$PUCSXDIR
 10
1.0
 20
0.0
 30
0.0
  9
$PUCSYDIR
 10
0.0
 20
1.0
 30
0.0
  9
$PUCSORTHOREF
  2

  9
$PUCSORTHOVIEW
 70
     0
  9
$PUCSORGTOP
 10
0.0
 20
0.0
 30
0.0
  9
$PUCSORGBOTTOM
 10
0.0
 20
0.0
 30
0.0
  9
$PUCSORGLEFT
 10
0.0
 20
0.0
 30
0.0
  9
$PUCSORGRIGHT
 10
0.0
 20
0.0
 30
0.0
  9
$PUCSORGFRONT
 10
0.0
 20
0.0
 30
0.0
  9
$PUCSORGBACK
 10
0.0
 20
0.0
 30
0.0
  9
$USERI1
 70
     0
  9
$USERI2
 70
     0
  9
$USERI3
 70
     0
  9
$USERI4
 70
     0
  9
$USERI5
 70
     0
  9
$USERR1
 40
0.0
  9
$USERR2
 40
0.0
  9
$USERR3
 40
0.0
  9
$USERR4
 40
0.0
  9
$USERR5
 40
0.0
  9
$WORLDVIEW
 70
     1
  9
$SHADEDGE
 70
     3
  9
$SHADEDIF
 70
    70
  9
$TILEMODE
 70
     1
  9
$MAXACTVP
 70
    48
  9
$PINSBASE
 10
0.0
 20
0.0
 30
0.0
  9
$PLIMCHECK
 70
     0
  9
$PEXTMIN
 10
1.000000000000000E+20
 20
1.000000000000000E+20
 30
1.000000000000000E+20
  9
$PEXTMAX
 10
-1.000000000000000E+20
 20
-1.000000000000000E+20
 30
-1.000000000000000E+20
  9
$PLIMMIN
 10
0.0
 20
0.0
  9
$PLIMMAX
 10
12.0
 20
9.0
  9
$UNITMODE
 70
     0
  9
$VISRETAIN
 70
     1
  9
$PLINEGEN
 70
     0
  9
$PSLTSCALE
 70
     0
  9
$TREEDEPTH
 70
  3020
  9
$CMLSTYLE
  2
Standard
  9
$CMLJUST
 70
     0
  9
$CMLSCALE
 40
1.0
  9
$PROXYGRAPHICS
 70
     1
  9
$MEASUREMENT
 70
     0
  9
$CELWEIGHT
370
    -1
  9
$ENDCAPS
280
     0
  9
$JOINSTYLE
280
     0
  9
$LWDISPLAY
290
     0
  9
$INSUNITS
 70
     0
  9
$HYPERLINKBASE
  1

  9
$STYLESHEET
  1
AAA.ctb
  9
$XEDIT
290
     1
  9
$CEPSNTYPE
380
     0
  9
$PSTYLEMODE
290
     1
  9
$FINGERPRINTGUID
  2
{77095E5F-9CE7-11D7-970D-0040F4541FA8}
  9
$VERSIONGUID
  2
{20AB08B4-093C-411B-81FB-9B034F2F5AC8}
  9
$EXTNAMES
290
     1
  9
$PSVPSCALE
 40
0.0
  9
$OLESTARTUP
290
     0
  0
ENDSEC
  0
SECTION
  2
CLASSES
  0
CLASS
  1
ACDBDICTIONARYWDFLT
  2
AcDbDictionaryWithDefault
  3
ObjectDBX Classes
 90
        0
280
     0
281
     0
  0
CLASS
  1
ACDBPLACEHOLDER
  2
AcDbPlaceHolder
  3
ObjectDBX Classes
 90
        0
280
     0
281
     0
  0
CLASS
  1
LAYOUT
  2
AcDbLayout
  3
ObjectDBX Classes
 90
        0
280
     0
281
     0
  0
CLASS
  1
LONG_TRANSACTION
  2
AcDbLongTransaction
  3
ObjectDBX Classes
 90
    32768
280
     0
281
     0
  0
CLASS
  1
LWPOLYLINE
  2
AcDbPolyline
  3
ObjectDBX Classes
 90
        0
280
     0
281
     1
  0
CLASS
  1
HATCH
  2
AcDbHatch
  3
ObjectDBX Classes
 90
    32768
280
     0
281
     1
  0
CLASS
  1
XRECORD
  2
AcDbXrecord
  3
ObjectDBX Classes
 90
        0
280
     0
281
     0
  0
CLASS
  1
LONG_TRANSACTION
  2
AcDbLongTransaction
  3
ObjectDBX Classes
 90
    32768
280
     0
281
     0
  0
CLASS
  1
LWPOLYLINE
  2
AcDbPolyline
  3
ObjectDBX Classes
 90
        0
280
     0
281
     1
  0
CLASS
  1
HATCH
  2
AcDbHatch
  3
ObjectDBX Classes
 90
    32768
280
     0
281
     1
  0
CLASS
  1
XRECORD
  2
AcDbXrecord
  3
ObjectDBX Classes
 90
        0
280
     0
281
     0
  0
CLASS
  1
DICTIONARYVAR
  2
AcDbDictionaryVar
  3
ObjectDBX Classes
 90
        0
280
     0
281
     0
  0
CLASS
  1
PLOTSETTINGS
  2
AcDbPlotSettings
  3
ObjectDBX Classes
 90
        0
280
     0
281
     0
  0
CLASS
  1
SORTENTSTABLE
  2
AcDbSortentsTable
  3
ObjectDBX Classes
 90
        0
280
     0
281
     0
  0
CLASS
  1
TABLESTYLE
  2
AcDbTableStyle
  3
ObjectDBX Classes
 90
     2047
280
     0
281
     0
  0
ENDSEC
  0
SECTION
  2
TABLES
  0
TABLE
  2
VPORT
  5
8
330
0
100
AcDbSymbolTable
 70
     3
  0
VPORT
  5
EB1B
330
8
100
AcDbSymbolTableRecord
100
AcDbViewportTableRecord
  2
*Active
 70
     0
 10
0.0
 20
0.0
 11
1.0
 21
1.0
 12
2920.860579322683
 22
1179.029080955298
 13
457.9999999999997
 23
1082.0
 14
10.0
 24
10.0
 15
10.0
 25
10.0
 16
0.0
 26
0.0
 36
1.0
 17
0.0
 27
0.0
 37
0.0
 40
226.0841965356988
 41
1.530456852791878
 42
1.0
 43
0.0
 44
0.0
 50
0.0
 51
0.0
 71
     0
 72
  2000
 73
     1
 74
     1
 75
     0
 76
     0
 77
     0
 78
     0
281
     0
 65
     1
110
0.0
120
0.0
130
0.0
111
1.0
121
0.0
131
0.0
112
0.0
122
1.0
132
0.0
 79
     0
146
0.0
  0
ENDTAB
  0
TABLE
  2
LTYPE
  5
5
330
0
100
AcDbSymbolTable
 70
     6
  0
LTYPE
  5
13
330
5
100
AcDbSymbolTableRecord
100
AcDbLinetypeTableRecord
  2
ByBlock
 70
     0
  3

 72
    65
 73
     0
 40
0.0
  0
LTYPE
  5
14
330
5
100
AcDbSymbolTableRecord
100
AcDbLinetypeTableRecord
  2
ByLayer
 70
     0
  3

 72
    65
 73
     0
 40
0.0
  0
LTYPE
  5
15
330
5
100
AcDbSymbolTableRecord
100
AcDbLinetypeTableRecord
  2
CONTINUOUS
 70
     0
  3
連續線 ________________________
 72
    65
 73
     0
 40
0.0
  0
LTYPE
  5
225
330
5
100
AcDbSymbolTableRecord
100
AcDbLinetypeTableRecord
  2
BYBLOCK
 70
     0
  3
Solid line
 72
    65
 73
     0
 40
0.0
  0
LTYPE
  5
226
330
5
100
AcDbSymbolTableRecord
100
AcDbLinetypeTableRecord
  2
BYLAYER
 70
     0
  3
Solid line
 72
    65
 73
     0
 40
0.0
  0
LTYPE
  5
413C
330
5
100
AcDbSymbolTableRecord
100
AcDbLinetypeTableRecord
  2
CENTER2
 70
     0
  3
Center (.5x) ___ _ ___ _ ___ _ ___ _ ___ _ ___
 72
    65
 73
     4
 40
28.575
 49
19.05
 74
     0
 49
-3.174999999999999
 74
     0
 49
3.174999999999999
 74
     0
 49
-3.174999999999999
 74
     0
  0
LTYPE
  5
413D
330
5
100
AcDbSymbolTableRecord
100
AcDbLinetypeTableRecord
  2
DASHED2
 70
     0
  3
Dashed (.5x) _ _ _ _ _ _ _ _ _ _ _ _ _ _ _ _ _
 72
    65
 73
     2
 40
9.524999999999998
 49
6.349999999999999
 74
     0
 49
-3.174999999999999
 74
     0
  0
LTYPE
  5
69DC
330
5
100
AcDbSymbolTableRecord
100
AcDbLinetypeTableRecord
  2
DASHED
 70
     0
  3
__ __ __ __ __ __ __ __ __ __ __ __ __ __ __
 72
    65
 73
     2
 40
4.0
 49
3.0
 74
     0
 49
-1.0
 74
     0
  0
ENDTAB
  0
TABLE
  2
LAYER
  5
2
102
{ACAD_XDICTIONARY
360
43C2
102
}
330
0
100
AcDbSymbolTable
 70
     7
  0
LAYER
  5
10
330
2
100
AcDbSymbolTableRecord
100
AcDbLayerTableRecord
  2
0
 70
     0
 62
     7
  6
CONTINUOUS
370
    -3
390
F
  0
LAYER
  5
413E
330
2
100
AcDbSymbolTableRecord
100
AcDbLayerTableRecord
  2
指線
 70
     0
 62
     3
  6
CONTINUOUS
370
    15
390
F
  0
LAYER
  5
413F
330
2
100
AcDbSymbolTableRecord
100
AcDbLayerTableRecord
  2
中心線
 70
     0
 62
     4
  6
CENTER2
370
    20
390
F
  0
LAYER
  5
4140
330
2
100
AcDbSymbolTableRecord
100
AcDbLayerTableRecord
  2
虛線
 70
     0
 62
     6
  6
DASHED2
290
     0
370
    -3
390
F
  0
LAYER
  5
43B4
330
2
100
AcDbSymbolTableRecord
100
AcDbLayerTableRecord
  2
建構線
 70
     0
 62
     1
  6
CONTINUOUS
370
    -3
390
F
  0
LAYER
  5
69DF
330
2
100
AcDbSymbolTableRecord
100
AcDbLayerTableRecord
  2
標註線
 70
     0
 62
     3
  6
CONTINUOUS
370
    13
390
F
  0
LAYER
  5
C701
330
2
100
AcDbSymbolTableRecord
100
AcDbLayerTableRecord
  2
Defpoints
 70
     0
 62
     7
  6
CONTINUOUS
290
     0
370
    -3
390
F
  0
ENDTAB
  0
TABLE
  2
STYLE
  5
3
330
0
100
AcDbSymbolTable
 70
     1
  0
STYLE
  5
11
330
3
100
AcDbSymbolTableRecord
100
AcDbTextStyleTableRecord
  2
STANDARD
 70
     0
 40
0.0
 41
1.0
 50
0.0
 71
     0
 42
3.0
  3

  4

  0
ENDTAB
  0
TABLE
  2
VIEW
  5
6
330
0
100
AcDbSymbolTable
 70
     0
  0
ENDTAB
  0
TABLE
  2
UCS
  5
7
330
0
100
AcDbSymbolTable
 70
     0
  0
ENDTAB
  0
TABLE
  2
APPID
  5
9
330
0
100
AcDbSymbolTable
 70
     5
  0
APPID
  5
12
330
9
100
AcDbSymbolTableRecord
100
AcDbRegAppTableRecord
  2
ACAD
 70
     0
  0
APPID
  5
230
330
9
100
AcDbSymbolTableRecord
100
AcDbRegAppTableRecord
  2
TCAD
 70
     0
  0
APPID
  5
4142
330
9
100
AcDbSymbolTableRecord
100
AcDbRegAppTableRecord
  2
CONTENTBLOCKICON
 70
     0
  0
APPID
  5
5D91
330
9
100
AcDbSymbolTableRecord
100
AcDbRegAppTableRecord
  2
pntflag
 70
     0
  0
APPID
  5
EAC9
330
9
100
AcDbSymbolTableRecord
100
AcDbRegAppTableRecord
  2
ACAD_PSEXT
 70
     0
  0
ENDTAB
  0
TABLE
  2
DIMSTYLE
  5
A
330
0
100
AcDbSymbolTable
 70
     1
100
AcDbDimStyleTable
 71
     1
340
3C9D
  0
DIMSTYLE
105
3C9D
330
A
100
AcDbSymbolTableRecord
100
AcDbDimStyleTableRecord
  2
Standard
 70
     0
340
11
  0
ENDTAB
  0
TABLE
  2
BLOCK_RECORD
  5
1
330
0
100
AcDbSymbolTable
 70
     2
  0
BLOCK_RECORD
  5
1E
102
{ACAD_XDICTIONARY
360
3D1E
102
}
330
1
100
AcDbSymbolTableRecord
100
AcDbBlockTableRecord
  2
*Model_Space
340
21
  0
BLOCK_RECORD
  5
1A
102
{ACAD_XDICTIONARY
360
3D20
102
}
330
1
100
AcDbSymbolTableRecord
100
AcDbBlockTableRecord
  2
*Paper_Space
340
1D
  0
BLOCK_RECORD
  5
69B7
102
{ACAD_XDICTIONARY
360
69B8
102
}
330
1
100
AcDbSymbolTableRecord
100
AcDbBlockTableRecord
  2
A$C51E2538E
340
0
102
{BLKREFS
331
9A4A
102
}
  0
BLOCK_RECORD
  5
69CB
102
{ACAD_XDICTIONARY
360
69CC
102
}
330
1
100
AcDbSymbolTableRecord
100
AcDbBlockTableRecord
  2
A$C3310154B
340
0
102
{BLKREFS
331
9A73
331
9A74
102
}
  0
ENDTAB
  0
ENDSEC
  0
SECTION
  2
BLOCKS
  0
BLOCK
  5
254
330
1E
100
AcDbEntity
  8
0
100
AcDbBlockBegin
  2
*Model_Space
 70
     0
 10
0.0
 20
0.0
 30
0.0
  3
*Model_Space
  1

  0
ENDBLK
  5
255
330
1E
100
AcDbEntity
  8
0
100
AcDbBlockEnd
  0
BLOCK
  5
252
330
1A
100
AcDbEntity
 67
     1
  8
0
100
AcDbBlockBegin
  2
*Paper_Space
 70
     0
 10
0.0
 20
0.0
 30
0.0
  3
*Paper_Space
  1

  0
ENDBLK
  5
253
330
1A
100
AcDbEntity
 67
     1
  8
0
100
AcDbBlockEnd
  0
BLOCK
  5
69BA
330
69B7
100
AcDbEntity
  8
0
 62
     1
 48
0.27
100
AcDbBlockBegin
  2
A$C51E2538E
 70
     0
 10
0.0
 20
0.0
 30
0.0
  3
A$C51E2538E
  1

  0
LINE
  5
69BB
330
69B7
100
AcDbEntity
  8
虛線
 48
0.25
100
AcDbLine
 10
9.230939415452212
 20
1.99838789798423
 30
0.0
 11
2.230939415459943
 21
1.998387897983548
 31
0.0
  0
LINE
  5
69BC
330
69B7
100
AcDbEntity
  8
虛線
 48
0.25
100
AcDbLine
 10
9.230939415453576
 20
15.79841841556197
 30
0.0
 11
9.230939415452212
 21
1.99838789798423
 31
0.0
  0
LINE
  5
69BD
330
69B7
100
AcDbEntity
  8
虛線
 48
0.25
100
AcDbLine
 10
0.2309394154581241
 20
24.698418415562
 30
0.0
 11
0.2309394154590336
 21
16.09842604495623
 31
0.0
  0
LINE
  5
69BE
330
69B7
100
AcDbEntity
  8
虛線
 48
0.25
100
AcDbLine
 10
2.230939415453576
 20
15.79841841556191
 30
0.0
 11
2.230939415459943
 21
1.998387897983576
 31
0.0
  0
LINE
  5
69BF
330
69B7
100
AcDbEntity
  8
虛線
 48
0.25
100
AcDbLine
 10
0.2309394154590336
 20
16.09835738040544
 30
0.0
 11
11.23093941545221
 21
16.09835738040573
 31
0.0
  0
LINE
  5
69C0
330
69B7
100
AcDbEntity
  8
中心線
 48
0.25
100
AcDbLine
 10
5.730939415455679
 20
27.09841841556201
 30
0.0
 11
5.730939415449938
 21
0.0
 31
0.0
  0
LINE
  5
69C1
330
69B7
100
AcDbEntity
  8
虛線
 48
0.25
100
AcDbLine
 10
2.230939415459943
 20
1.998387897983548
 30
0.0
 11
1.730939415460852
 21
1.498387897984002
 31
0.0
  0
LINE
  5
69C2
330
69B7
100
AcDbEntity
  8
虛線
 48
0.25
100
AcDbLine
 10
9.230939415452212
 20
1.99838789798423
 30
0.0
 11
9.730939415451302
 21
1.498387897984287
 31
0.0
  0
LINE
  5
69C3
330
69B7
100
AcDbEntity
  8
虛線
 48
0.25
100
AcDbLine
 10
11.23093941545358
 20
24.698418415562
 30
0.0
 11
11.23093941545221
 21
16.09835738040573
 31
0.0
  0
LINE
  5
69C4
330
69B7
100
AcDbEntity
  8
虛線
 48
0.25
100
AcDbLine
 10
0.2309394154535767
 20
24.698418415562
 30
0.0
 11
11.23093941545358
 21
24.698418415562
 31
0.0
  0
LINE
  5
69C5
330
69B7
100
AcDbEntity
  8
虛線
 48
0.25
100
AcDbLine
 10
2.230939415453576
 20
15.79841841556197
 30
0.0
 11
9.230939415453576
 21
15.79841841556197
 31
0.0
  0
LINE
  5
69C6
330
69B7
100
AcDbEntity
  8
虛線
 48
0.25
100
AcDbLine
 10
1.930939415453394
 20
16.09841841556192
 30
0.0
 11
2.230939415453576
 21
15.79841841556191
 31
0.0
  0
LINE
  5
69C7
330
69B7
100
AcDbEntity
  8
虛線
 48
0.25
100
AcDbLine
 10
0.2309394154535767
 20
24.698418415562
 30
0.0
 11
-0.0000006922223292
 21
25.09841841556204
 31
0.0
  0
LINE
  5
69C8
330
69B7
100
AcDbEntity
  8
虛線
 48
0.25
100
AcDbLine
 10
9.230939415453576
 20
15.79841841556197
 30
0.0
 11
9.530939415453758
 21
16.09841841556198
 31
0.0
  0
LINE
  5
69C9
330
69B7
100
AcDbEntity
  8
虛線
 48
0.25
100
AcDbLine
 10
11.23093941545358
 20
24.698418415562
 30
0.0
 11
11.46187952312948
 21
25.09841841556204
 31
0.0
  0
ENDBLK
  5
69CA
330
69B7
100
AcDbEntity
  8
0
 62
     1
 48
0.27
100
AcDbBlockEnd
  0
BLOCK
  5
69CE
330
69CB
100
AcDbEntity
  8
0
 62
     1
 48
0.27
100
AcDbBlockBegin
  2
A$C3310154B
 70
     0
 10
0.0
 20
0.0
 30
0.0
  3
A$C3310154B
  1

  0
LINE
  5
69CF
330
69CB
100
AcDbEntity
  8
虛線
 48
0.2
100
AcDbLine
 10
0.4999707651827521
 20
12.80115016654724
 30
0.0
 11
0.4999707651836616
 21
5.30113016654775
 31
0.0
  0
LINE
  5
69D0
330
69CB
100
AcDbEntity
  8
虛線
 48
0.2
100
AcDbLine
 10
6.499970765181842
 20
12.80111016654831
 30
0.0
 11
6.499970765183661
 21
5.301130166548432
 31
0.0
  0
LINE
  5
69D1
330
69CB
100
AcDbEntity
  8
虛線
 48
0.2
100
AcDbLine
 10
6.499970765183661
 20
5.301130166548432
 30
0.0
 11
0.4999707651836616
 21
5.30113016654775
 31
0.0
  0
LINE
  5
69D2
330
69CB
100
AcDbEntity
  8
中心線
 48
0.25
100
AcDbLine
 10
3.49999076518344
 20
15.30112016654811
 30
0.0
 11
3.499990765177699
 21
0.000000166540076
 31
0.0
  0
LINE
  5
69D3
330
69CB
100
AcDbEntity
  8
虛線
 48
0.2
100
AcDbLine
 10
5.999980765182044
 20
12.30112016654846
 30
0.0
 11
5.999980765187501
 21
2.30113016655747
 31
0.0
  0
LINE
  5
69D4
330
69CB
100
AcDbEntity
  8
虛線
 48
0.2
100
AcDbLine
 10
1.000000765181994
 20
12.30112016654812
 30
0.0
 11
1.000000765187905
 21
2.301130166554685
 31
0.0
  0
LINE
  5
69D5
330
69CB
100
AcDbEntity
  8
虛線
 48
0.2
100
AcDbLine
 10
5.999980765187501
 20
2.30113016655747
 30
0.0
 11
1.000000765187905
 21
2.301130166554685
 31
0.0
  0
LINE
  5
69D6
330
69CB
100
AcDbEntity
  8
虛線
 48
0.2
100
AcDbLine
 10
5.999980765182499
 20
12.3011201665484
 30
0.0
 11
1.000000765181994
 21
12.30112016654817
 31
0.0
  0
LINE
  5
69D7
330
69CB
100
AcDbEntity
  8
虛線
 48
0.2
100
AcDbLine
 10
5.999980765182044
 20
12.3011201665484
 30
0.0
 11
6.999980765182499
 21
13.30112016654863
 31
0.0
  0
LINE
  5
69D8
330
69CB
100
AcDbEntity
  8
虛線
 48
0.2
100
AcDbLine
 10
5.999980765187956
 20
2.301130166557413
 30
0.0
 11
3.499990765183611
 21
0.801130166544965
 31
0.0
  0
LINE
  5
69D9
330
69CB
100
AcDbEntity
  8
虛線
 48
0.2
100
AcDbLine
 10
1.000000765187905
 20
2.30113016657259
 30
0.0
 11
3.499990765178154
 21
0.801130166544965
 31
0.0
  0
LINE
  5
69DA
330
69CB
100
AcDbEntity
  8
虛線
 48
0.2
100
AcDbLine
 10
1.00000076518495
 20
12.30112016654834
 30
0.0
 11
0.0000007651844385
 21
13.30112016654854
 31
0.0
  0
ENDBLK
  5
69DB
330
69CB
100
AcDbEntity
  8
0
 62
     1
 48
0.27
100
AcDbBlockEnd
  0
ENDSEC
  0
SECTION
  2
ENTITIES
  0
LINE
  5
9873
330
1E
100
AcDbEntity
  8
中心線
  6
CENTER2
 62
     4
 48
0.27
100
AcDbLine
 10
2783.909668100173
 20
1171.210836203117
 30
0.0
 11
2783.909668100149
 21
1128.210836203124
 31
0.0
  0
LINE
  5
9874
330
1E
100
AcDbEntity
  8
0
  6
Continuous
100
AcDbLine
 10
2790.909714010409
 20
1130.210806203117
 30
0.0
 11
2790.409714383191
 21
1130.710806203118
 31
0.0
  0
LINE
  5
9875
330
1E
100
AcDbEntity
  8
0
  6
Continuous
100
AcDbLine
 10
2788.909716737571
 20
1130.710806203117
 30
0.0
 11
2788.409716889213
 21
1130.210806203117
 31
0.0
  0
LINE
  5
9876
330
1E
100
AcDbEntity
  8
0
  6
Continuous
100
AcDbLine
 10
2788.409716889213
 20
1130.210806203117
 30
0.0
 11
2783.909668100177
 21
1130.210806203117
 31
0.0
  0
LINE
  5
9877
330
1E
100
AcDbEntity
  8
虛線
 48
0.25
100
AcDbLine
 10
2787.40966810017
 20
1130.710806203117
 30
0.0
 11
2780.409668100177
 21
1130.710806203117
 31
0.0
  0
LINE
  5
9878
330
1E
100
AcDbEntity
  8
0
  6
Continuous
100
AcDbLine
 10
2793.909660470783
 20
1130.210806203118
 30
0.0
 11
2790.909714010409
 21
1130.210806203117
 31
0.0
  0
LINE
  5
9879
330
1E
100
AcDbEntity
  8
0
  6
Continuous
100
AcDbLine
 10
2790.409714383191
 20
1130.710806203118
 30
0.0
 11
2788.909716737571
 21
1130.710806203117
 31
0.0
  0
LINE
  5
987A
330
1E
100
AcDbEntity
  8
0
  6
Continuous
100
AcDbLine
 10
2795.00966047078
 20
1153.810836720699
 30
0.0
 11
2783.909668100175
 21
1153.810836720695
 31
0.0
  0
LINE
  5
987B
330
1E
100
AcDbEntity
  8
0
100
AcDbLine
 10
2795.40966047078
 20
1153.410836720699
 30
0.0
 11
2795.00966047078
 21
1153.810836720699
 31
0.0
  0
LINE
  5
987C
330
1E
100
AcDbEntity
  8
0
100
AcDbLine
 10
2795.80966047078
 20
1153.576522145649
 30
0.0
 11
2794.825345895735
 21
1154.560836720691
 31
0.0
  0
LINE
  5
987D
330
1E
100
AcDbEntity
  8
0
100
AcDbLine
 10
2797.00966047078
 20
1154.073578420498
 30
0.0
 11
2795.322402170583
 21
1155.760836720691
 31
0.0
  0
LINE
  5
987E
330
1E
100
AcDbEntity
  8
0
  6
Continuous
100
AcDbLine
 10
2790.159668100173
 20
1169.710846203117
 30
0.0
 11
2789.659698100174
 21
1170.210836203117
 31
0.0
  0
LINE
  5
987F
330
1E
100
AcDbEntity
  8
0
  6
Continuous
100
AcDbLine
 10
2807.409638100174
 20
1164.210806203118
 30
0.0
 11
2807.409638100177
 21
1136.710836203119
 31
0.0
  0
LINE
  5
9880
330
1E
100
AcDbEntity
  8
0
100
AcDbLine
 10
2806.309638100174
 20
1165.310806203118
 30
0.0
 11
2807.409638100174
 21
1164.210806203118
 31
0.0
  0
LINE
  5
9881
330
1E
100
AcDbEntity
  8
0
  6
Continuous
100
AcDbLine
 10
2795.159608100173
 20
1169.710846203118
 30
0.0
 11
2790.159668100173
 21
1169.710846203117
 31
0.0
  0
LINE
  5
9882
330
1E
100
AcDbEntity
  8
0
  6
Continuous
100
AcDbLine
 10
2806.409638100177
 20
1135.710836203119
 30
0.0
 11
2795.409660470782
 21
1135.710821134609
 31
0.0
  0
LINE
  5
9883
330
1E
100
AcDbEntity
  8
0
  6
Continuous
100
AcDbLine
 10
2797.009660470782
 20
1136.210823326398
 30
0.0
 11
2795.809660470782
 21
1136.210821682557
 31
0.0
  0
LINE
  5
9884
330
1E
100
AcDbEntity
  8
0
  6
Continuous
100
AcDbLine
 10
2795.659638100173
 20
1170.210846203118
 30
0.0
 11
2795.159638100173
 21
1169.710836203118
 31
0.0
  0
LINE
  5
9885
330
1E
100
AcDbEntity
  8
0
  6
Continuous
100
AcDbLine
 10
2807.909638100178
 20
1137.210836203121
 30
0.0
 11
2806.409638100177
 21
1135.710836203119
 31
0.0
  0
LINE
  5
9886
330
1E
100
AcDbEntity
  8
0
  6
Continuous
100
AcDbLine
 10
2806.409638100173
 20
1170.21083620312
 30
0.0
 11
2795.659638100173
 21
1170.210836203118
 31
0.0
  0
LINE
  5
9887
330
1E
100
AcDbEntity
  8
0
  6
Continuous
100
AcDbLine
 10
2807.909638100173
 20
1168.710836203119
 30
0.0
 11
2807.909638100178
 21
1137.210836203121
 31
0.0
  0
LINE
  5
9888
330
1E
100
AcDbEntity
  8
0
  6
Continuous
100
AcDbLine
 10
2806.409638100173
 20
1170.21083620312
 30
0.0
 11
2807.909638100173
 21
1168.710836203119
 31
0.0
  0
LINE
  5
9889
330
1E
100
AcDbEntity
  8
0
  6
Continuous
100
AcDbLine
 10
2789.659668100173
 20
1170.210836203117
 30
0.0
 11
2783.909668100173
 21
1170.210836203117
 31
0.0
  0
LINE
  5
988A
330
1E
100
AcDbEntity
  8
虛線
 48
0.2
100
AcDbLine
 10
2798.409638100174
 20
1169.710866203118
 30
0.0
 11
2798.409638100175
 21
1162.210846203118
 31
0.0
  0
LINE
  5
988B
330
1E
100
AcDbEntity
  8
虛線
 48
0.2
100
AcDbLine
 10
2804.409638100173
 20
1169.710826203119
 30
0.0
 11
2804.409638100175
 21
1162.210846203119
 31
0.0
  0
LINE
  5
988C
330
1E
100
AcDbEntity
  8
虛線
 48
0.2
100
AcDbLine
 10
2804.409638100175
 20
1162.210846203119
 30
0.0
 11
2798.409638100175
 21
1162.210846203118
 31
0.0
  0
LINE
  5
988D
330
1E
100
AcDbEntity
  8
中心線
 48
0.27
100
AcDbLine
 10
2801.409658100174
 20
1172.210836203118
 30
0.0
 11
2801.409658100169
 21
1156.909716203111
 31
0.0
  0
LINE
  5
988E
330
1E
100
AcDbEntity
  8
虛線
 48
0.2
100
AcDbLine
 10
2803.909648100173
 20
1169.210836203119
 30
0.0
 11
2803.909648100178
 21
1159.210846203128
 31
0.0
  0
LINE
  5
988F
330
1E
100
AcDbEntity
  8
虛線
 48
0.2
100
AcDbLine
 10
2798.909668100173
 20
1169.210836203119
 30
0.0
 11
2798.909668100178
 21
1159.210846203125
 31
0.0
  0
LINE
  5
9890
330
1E
100
AcDbEntity
  8
虛線
 48
0.2
100
AcDbLine
 10
2803.909648100178
 20
1159.210846203128
 30
0.0
 11
2798.909668100178
 21
1159.210846203125
 31
0.0
  0
LINE
  5
9891
330
1E
100
AcDbEntity
  8
虛線
 48
0.2
100
AcDbLine
 10
2803.909648100173
 20
1169.210836203119
 30
0.0
 11
2798.909668100173
 21
1169.210836203119
 31
0.0
  0
LINE
  5
9892
330
1E
100
AcDbEntity
  8
虛線
 48
0.2
100
AcDbLine
 10
2798.909668100172
 20
1169.210836203119
 30
0.0
 11
2797.909668100173
 21
1170.210836203119
 31
0.0
  0
LINE
  5
9893
330
1E
100
AcDbEntity
  8
虛線
 48
0.2
100
AcDbLine
 10
2803.909648100173
 20
1169.210836203119
 30
0.0
 11
2804.909648100173
 21
1170.210836203119
 31
0.0
  0
LINE
  5
9894
330
1E
100
AcDbEntity
  8
0
100
AcDbLine
 10
2795.409660470781
 20
1137.254210692293
 30
0.0
 11
2795.409660470783
 21
1131.710806203118
 31
0.0
  0
LINE
  5
9895
330
1E
100
AcDbEntity
  8
0
100
AcDbLine
 10
2795.809660470782
 20
1137.419896117411
 30
0.0
 11
2795.809660470782
 21
1136.210821682557
 31
0.0
  0
LINE
  5
9896
330
1E
100
AcDbEntity
  8
0
100
AcDbLine
 10
2797.009660470782
 20
1137.916952392768
 30
0.0
 11
2797.009660470782
 21
1136.210823326398
 31
0.0
  0
LINE
  5
9897
330
1E
100
AcDbEntity
  8
0
  6
Continuous
100
AcDbLine
 10
2793.909660470783
 20
1130.210806203118
 30
0.0
 11
2795.409660470783
 21
1131.710806203118
 31
0.0
  0
LINE
  5
9898
330
1E
100
AcDbEntity
  8
0
100
AcDbLine
 10
2795.409660470782
 20
1151.936362328671
 30
0.0
 11
2791.25966810017
 21
1147.786369964072
 31
0.0
  0
LINE
  5
9899
330
1E
100
AcDbEntity
  8
0
100
AcDbLine
 10
2795.809660470782
 20
1151.770676903552
 30
0.0
 11
2791.65966810017
 21
1147.620684538954
 31
0.0
  0
LINE
  5
989A
330
1E
100
AcDbEntity
  8
0
100
AcDbLine
 10
2797.009660470783
 20
1151.273620628196
 30
0.0
 11
2792.85966810017
 21
1147.123628263597
 31
0.0
  0
LINE
  5
989B
330
1E
100
AcDbEntity
  8
虛線
 48
0.2
100
AcDbLine
 10
2803.909648100179
 20
1159.210846203128
 30
0.0
 11
2801.409658100174
 21
1157.710846203116
 31
0.0
  0
LINE
  5
989C
330
1E
100
AcDbEntity
  8
虛線
 48
0.2
100
AcDbLine
 10
2798.909668100178
 20
1159.210846203143
 30
0.0
 11
2801.409658100169
 21
1157.710846203116
 31
0.0
  0
LINE
  5
989D
330
1E
100
AcDbEntity
  8
0
100
AcDbLine
 10
2795.409660470782
 20
1151.936362328671
 30
0.0
 11
2795.40966047078
 21
1153.410836720699
 31
0.0
  0
LINE
  5
989E
330
1E
100
AcDbEntity
  8
0
100
AcDbLine
 10
2795.809660470782
 20
1151.770676903552
 30
0.0
 11
2795.80966047078
 21
1153.576522145649
 31
0.0
  0
LINE
  5
989F
330
1E
100
AcDbEntity
  8
0
100
AcDbLine
 10
2797.009660470783
 20
1151.273620628196
 30
0.0
 11
2797.00966047078
 21
1154.073578420498
 31
0.0
  0
LINE
  5
98A1
330
1E
100
AcDbEntity
  8
虛線
 48
0.25
100
AcDbLine
 10
2787.409668100171
 20
1144.510836720695
 30
0.0
 11
2787.40966810017
 21
1130.710806203117
 31
0.0
  0
LINE
  5
98A2
330
1E
100
AcDbEntity
  8
0
100
AcDbLine
 10
2791.25966810017
 20
1147.786369964072
 30
0.0
 11
2791.25966810017
 21
1141.404203056883
 31
0.0
  0
LINE
  5
98A3
330
1E
100
AcDbEntity
  8
0
100
AcDbLine
 10
2791.65966810017
 20
1147.620684538954
 30
0.0
 11
2791.659668100169
 21
1141.569888482003
 31
0.0
  0
LINE
  5
98A4
330
1E
100
AcDbEntity
  8
0
100
AcDbLine
 10
2792.85966810017
 20
1147.123628263597
 30
0.0
 11
2792.859668100169
 21
1142.066944757361
 31
0.0
  0
LINE
  5
98A8
330
1E
100
AcDbEntity
  8
0
  6
Continuous
100
AcDbLine
 10
2779.409619311082
 20
1130.210806203117
 30
0.0
 11
2783.90966810017
 21
1130.210806203117
 31
0.0
  0
LINE
  5
98A9
330
1E
100
AcDbEntity
  8
0
  6
Continuous
100
AcDbLine
 10
2773.909675729565
 20
1130.210806203117
 30
0.0
 11
2776.909622190059
 21
1130.210806203117
 31
0.0
  0
LINE
  5
98AA
330
1E
100
AcDbEntity
  8
0
  6
Continuous
100
AcDbLine
 10
2772.409675729566
 20
1131.710806203118
 30
0.0
 11
2773.909675729565
 21
1130.210806203117
 31
0.0
  0
LINE
  5
98AB
330
1E
100
AcDbEntity
  8
0
  6
Continuous
100
AcDbLine
 10
2772.809675729571
 20
1153.810836720698
 30
0.0
 11
2783.909668100171
 21
1153.810836720695
 31
0.0
  0
LINE
  5
98AC
330
1E
100
AcDbEntity
  8
0
  6
Continuous
100
AcDbLine
 10
2772.993990304623
 20
1154.560836720698
 30
0.0
 11
2794.825345895735
 21
1154.560836720691
 31
0.0
  0
LINE
  5
98AD
330
1E
100
AcDbEntity
  8
0
  6
Continuous
100
AcDbLine
 10
2772.496934029775
 20
1155.760836720699
 30
0.0
 11
2795.322402170583
 21
1155.760836720691
 31
0.0
  0
LINE
  5
98AE
330
1E
100
AcDbEntity
  8
0
100
AcDbLine
 10
2772.40967572957
 20
1153.410836720698
 30
0.0
 11
2772.809675729571
 21
1153.810836720698
 31
0.0
  0
LINE
  5
98AF
330
1E
100
AcDbEntity
  8
0
100
AcDbLine
 10
2772.009675729571
 20
1153.576522145648
 30
0.0
 11
2772.993990304623
 21
1154.560836720698
 31
0.0
  0
LINE
  5
98B0
330
1E
100
AcDbEntity
  8
0
100
AcDbLine
 10
2770.809675729571
 20
1154.073578420497
 30
0.0
 11
2772.496934029775
 21
1155.760836720699
 31
0.0
  0
LINE
  5
98B1
330
1E
100
AcDbEntity
  8
0
  6
Continuous
100
AcDbLine
 10
2777.659668100173
 20
1169.710846203117
 30
0.0
 11
2778.159638100173
 21
1170.210836203117
 31
0.0
  0
LINE
  5
98B2
330
1E
100
AcDbEntity
  8
0
  6
Continuous
100
AcDbLine
 10
2772.659728100173
 20
1169.710846203117
 30
0.0
 11
2777.659668100173
 21
1169.710846203117
 31
0.0
  0
LINE
  5
98B3
330
1E
100
AcDbEntity
  8
0
  6
Continuous
100
AcDbLine
 10
2772.159698100173
 20
1170.210846203117
 30
0.0
 11
2772.659698100173
 21
1169.710836203118
 31
0.0
  0
LINE
  5
98B4
330
1E
100
AcDbEntity
  8
0
  6
Continuous
100
AcDbLine
 10
2761.409698100173
 20
1170.210836203118
 30
0.0
 11
2772.159698100173
 21
1170.210836203118
 31
0.0
  0
LINE
  5
98B5
330
1E
100
AcDbEntity
  8
0
  6
Continuous
100
AcDbLine
 10
2759.909698100174
 20
1168.710836203119
 30
0.0
 11
2761.409698100173
 21
1170.210836203118
 31
0.0
  0
LINE
  5
98B6
330
1E
100
AcDbEntity
  8
0
  6
Continuous
100
AcDbLine
 10
2778.159668100173
 20
1170.210836203117
 30
0.0
 11
2783.909668100173
 21
1170.210836203117
 31
0.0
  0
LINE
  5
98B7
330
1E
100
AcDbEntity
  8
中心線
 48
0.27
100
AcDbLine
 10
2766.409678100172
 20
1172.210836203115
 30
0.0
 11
2766.409678100178
 21
1156.90971620311
 31
0.0
  0
LINE
  5
98B8
330
1E
100
AcDbEntity
  8
0
  6
Continuous
100
AcDbLine
 10
2760.409698100172
 20
1164.210806203118
 30
0.0
 11
2761.509698100172
 21
1165.310806203118
 31
0.0
  0
LINE
  5
98B9
330
1E
100
AcDbEntity
  8
0
  6
Continuous
100
AcDbLine
 10
2760.409698100173
 20
1136.710829536436
 30
0.0
 11
2761.40970810017
 21
1135.710826203118
 31
0.0
  0
LINE
  5
98BA
330
1E
100
AcDbEntity
  8
0
  6
Continuous
100
AcDbLine
 10
2760.409698100172
 20
1164.210806203118
 30
0.0
 11
2760.409698100173
 21
1136.710829536436
 31
0.0
  0
LINE
  5
98BB
330
1E
100
AcDbEntity
  8
虛線
 48
0.25
100
AcDbLine
 10
2778.409668100176
 20
1153.410836720695
 30
0.0
 11
2778.409668100177
 21
1144.810844350089
 31
0.0
  0
LINE
  5
98BC
330
1E
100
AcDbEntity
  8
虛線
 48
0.25
100
AcDbLine
 10
2780.409668100171
 20
1144.510836720695
 30
0.0
 11
2780.409668100177
 21
1130.710806203117
 31
0.0
  0
LINE
  5
98BD
330
1E
100
AcDbEntity
  8
虛線
 48
0.25
100
AcDbLine
 10
2778.409668100177
 20
1144.810775685538
 30
0.0
 11
2789.40966810017
 21
1144.810775685538
 31
0.0
  0
LINE
  5
98C5
330
1E
100
AcDbEntity
  8
0
100
AcDbLine
 10
2795.409660470781
 20
1137.254210692293
 30
0.0
 11
2791.25966810017
 21
1141.404203056883
 31
0.0
  0
LINE
  5
98C6
330
1E
100
AcDbEntity
  8
0
100
AcDbLine
 10
2795.809660470782
 20
1137.419896117411
 30
0.0
 11
2791.659668100169
 21
1141.569888482003
 31
0.0
  0
LINE
  5
98C7
330
1E
100
AcDbEntity
  8
0
100
AcDbLine
 10
2797.009660470782
 20
1137.916952392768
 30
0.0
 11
2792.859668100169
 21
1142.066944757361
 31
0.0
  0
LINE
  5
98CD
330
1E
100
AcDbEntity
  8
0
100
AcDbLine
 10
2772.409675729568
 20
1137.254210692292
 30
0.0
 11
2772.409675729566
 21
1131.710806203118
 31
0.0
  0
LINE
  5
98CE
330
1E
100
AcDbEntity
  8
0
100
AcDbLine
 10
2772.009675729568
 20
1137.41989611741
 30
0.0
 11
2772.009675729568
 21
1136.210821682554
 31
0.0
  0
LINE
  5
98CF
330
1E
100
AcDbEntity
  8
0
100
AcDbLine
 10
2770.809675729568
 20
1137.91695239277
 30
0.0
 11
2770.809675729568
 21
1136.210823326395
 31
0.0
  0
LINE
  5
98D1
330
1E
100
AcDbEntity
  8
0
100
AcDbLine
 10
2772.409675729568
 20
1151.93636232867
 30
0.0
 11
2776.55966810018
 21
1147.786369964073
 31
0.0
  0
LINE
  5
98D2
330
1E
100
AcDbEntity
  8
0
100
AcDbLine
 10
2772.009675729568
 20
1151.770676903551
 30
0.0
 11
2776.159668100179
 21
1147.620684538953
 31
0.0
  0
LINE
  5
98D3
330
1E
100
AcDbEntity
  8
0
100
AcDbLine
 10
2770.809675729567
 20
1151.273620628194
 30
0.0
 11
2774.95966810018
 21
1147.123628263597
 31
0.0
  0
LINE
  5
98D4
330
1E
100
AcDbEntity
  8
0
100
AcDbLine
 10
2772.409675729568
 20
1151.93636232867
 30
0.0
 11
2772.40967572957
 21
1153.410836720698
 31
0.0
  0
LINE
  5
98D5
330
1E
100
AcDbEntity
  8
0
100
AcDbLine
 10
2772.009675729568
 20
1151.770676903551
 30
0.0
 11
2772.009675729571
 21
1153.576522145648
 31
0.0
  0
LINE
  5
98D6
330
1E
100
AcDbEntity
  8
0
100
AcDbLine
 10
2770.809675729567
 20
1151.273620628194
 30
0.0
 11
2770.809675729571
 21
1154.073578420497
 31
0.0
  0
LINE
  5
98D7
330
1E
100
AcDbEntity
  8
0
100
AcDbLine
 10
2776.55966810018
 20
1147.786369964073
 30
0.0
 11
2776.55966810018
 21
1141.404203056884
 31
0.0
  0
LINE
  5
98D8
330
1E
100
AcDbEntity
  8
0
100
AcDbLine
 10
2776.159668100179
 20
1147.620684538953
 30
0.0
 11
2776.159668100179
 21
1141.569888482003
 31
0.0
  0
LINE
  5
98D9
330
1E
100
AcDbEntity
  8
0
100
AcDbLine
 10
2774.95966810018
 20
1147.123628263597
 30
0.0
 11
2774.95966810018
 21
1142.066944757361
 31
0.0
  0
LINE
  5
98DD
330
1E
100
AcDbEntity
  8
0
100
AcDbLine
 10
2772.409675729568
 20
1137.254210692292
 30
0.0
 11
2776.55966810018
 21
1141.404203056884
 31
0.0
  0
LINE
  5
98DE
330
1E
100
AcDbEntity
  8
0
100
AcDbLine
 10
2772.009675729568
 20
1137.41989611741
 30
0.0
 11
2776.159668100179
 21
1141.569888482003
 31
0.0
  0
LINE
  5
98DF
330
1E
100
AcDbEntity
  8
0
100
AcDbLine
 10
2770.809675729568
 20
1137.91695239277
 30
0.0
 11
2774.95966810018
 21
1142.066944757361
 31
0.0
  0
LINE
  5
98E1
330
1E
100
AcDbEntity
  8
虛線
 48
0.2
100
AcDbLine
 10
2763.409658100173
 20
1169.710866203105
 30
0.0
 11
2763.409658100173
 21
1162.210846203106
 31
0.0
  0
LINE
  5
98E2
330
1E
100
AcDbEntity
  8
虛線
 48
0.2
100
AcDbLine
 10
2769.409658100173
 20
1169.710826203107
 30
0.0
 11
2769.409658100173
 21
1162.210846203106
 31
0.0
  0
LINE
  5
98E3
330
1E
100
AcDbEntity
  8
虛線
 48
0.2
100
AcDbLine
 10
2769.409658100173
 20
1162.210846203106
 30
0.0
 11
2763.409658100173
 21
1162.210846203106
 31
0.0
  0
LINE
  5
98E4
330
1E
100
AcDbEntity
  8
虛線
 48
0.2
100
AcDbLine
 10
2768.909668100172
 20
1169.210836203107
 30
0.0
 11
2768.909668100178
 21
1159.210846203116
 31
0.0
  0
LINE
  5
98E5
330
1E
100
AcDbEntity
  8
虛線
 48
0.2
100
AcDbLine
 10
2763.909688100172
 20
1169.210836203106
 30
0.0
 11
2763.909688100178
 21
1159.210846203113
 31
0.0
  0
LINE
  5
98E6
330
1E
100
AcDbEntity
  8
虛線
 48
0.2
100
AcDbLine
 10
2768.909668100178
 20
1159.210846203116
 30
0.0
 11
2763.909688100178
 21
1159.210846203113
 31
0.0
  0
LINE
  5
98E7
330
1E
100
AcDbEntity
  8
虛線
 48
0.2
100
AcDbLine
 10
2768.909668100173
 20
1169.210836203107
 30
0.0
 11
2763.909688100172
 21
1169.210836203106
 31
0.0
  0
LINE
  5
98E8
330
1E
100
AcDbEntity
  8
虛線
 48
0.2
100
AcDbLine
 10
2763.909688100172
 20
1169.210836203106
 30
0.0
 11
2762.909688100173
 21
1170.210836203106
 31
0.0
  0
LINE
  5
98E9
330
1E
100
AcDbEntity
  8
虛線
 48
0.2
100
AcDbLine
 10
2768.909668100172
 20
1169.210836203107
 30
0.0
 11
2769.909668100173
 21
1170.210836203107
 31
0.0
  0
LINE
  5
98EA
330
1E
100
AcDbEntity
  8
虛線
 48
0.2
100
AcDbLine
 10
2768.909668100179
 20
1159.210846203116
 30
0.0
 11
2766.409678100178
 21
1157.710846203116
 31
0.0
  0
LINE
  5
98EB
330
1E
100
AcDbEntity
  8
虛線
 48
0.2
100
AcDbLine
 10
2763.909688100178
 20
1159.210846203131
 30
0.0
 11
2766.409678100178
 21
1157.710846203116
 31
0.0
  0
LINE
  5
98EC
330
1E
100
AcDbEntity
  8
虛線
 48
0.2
100
AcDbLine
 10
2780.909648100172
 20
1169.710866203116
 30
0.0
 11
2780.909648100175
 21
1162.210846203117
 31
0.0
  0
LINE
  5
98ED
330
1E
100
AcDbEntity
  8
虛線
 48
0.2
100
AcDbLine
 10
2786.909648100172
 20
1169.710826203117
 30
0.0
 11
2786.909648100174
 21
1162.210846203117
 31
0.0
  0
LINE
  5
98EE
330
1E
100
AcDbEntity
  8
虛線
 48
0.2
100
AcDbLine
 10
2786.909648100174
 20
1162.210846203117
 30
0.0
 11
2780.909648100175
 21
1162.210846203117
 31
0.0
  0
LINE
  5
98EF
330
1E
100
AcDbEntity
  8
中心線
 48
0.27
100
AcDbLine
 10
2783.909668100174
 20
1172.210836203117
 30
0.0
 11
2783.909668100168
 21
1128.712418305133
 31
0.0
  0
LINE
  5
98F0
330
1E
100
AcDbEntity
  8
虛線
 48
0.2
100
AcDbLine
 10
2786.409658100172
 20
1169.210836203117
 30
0.0
 11
2786.409658100177
 21
1159.210846203126
 31
0.0
  0
LINE
  5
98F1
330
1E
100
AcDbEntity
  8
虛線
 48
0.2
100
AcDbLine
 10
2781.409678100172
 20
1169.210836203117
 30
0.0
 11
2781.409678100178
 21
1159.210846203123
 31
0.0
  0
LINE
  5
98F2
330
1E
100
AcDbEntity
  8
虛線
 48
0.2
100
AcDbLine
 10
2786.409658100177
 20
1159.210846203126
 30
0.0
 11
2781.409678100178
 21
1159.210846203123
 31
0.0
  0
LINE
  5
98F3
330
1E
100
AcDbEntity
  8
虛線
 48
0.2
100
AcDbLine
 10
2786.409658100172
 20
1169.210836203117
 30
0.0
 11
2781.409678100172
 21
1169.210836203117
 31
0.0
  0
LINE
  5
98F4
330
1E
100
AcDbEntity
  8
虛線
 48
0.2
100
AcDbLine
 10
2781.409678100172
 20
1169.210836203117
 30
0.0
 11
2780.409678100172
 21
1170.210836203116
 31
0.0
  0
LINE
  5
98F5
330
1E
100
AcDbEntity
  8
虛線
 48
0.2
100
AcDbLine
 10
2786.409658100172
 20
1169.210836203117
 30
0.0
 11
2787.409658100172
 21
1170.210836203117
 31
0.0
  0
LINE
  5
98F6
330
1E
100
AcDbEntity
  8
虛線
 48
0.2
100
AcDbLine
 10
2786.409658100178
 20
1159.210846203126
 30
0.0
 11
2783.909668100168
 21
1157.710846203118
 31
0.0
  0
LINE
  5
98F7
330
1E
100
AcDbEntity
  8
虛線
 48
0.2
100
AcDbLine
 10
2781.409678100178
 20
1159.210846203141
 30
0.0
 11
2783.909668100173
 21
1157.710846203116
 31
0.0
  0
LINE
  5
9903
330
1E
100
AcDbEntity
  8
0
  6
Continuous
100
AcDbLine
 10
2761.409708100173
 20
1135.710826203116
 30
0.0
 11
2772.409675729568
 21
1135.710826203131
 31
0.0
  0
LINE
  5
9904
330
1E
100
AcDbEntity
  8
虛線
 48
0.25
100
AcDbLine
 10
2780.409668100177
 20
1130.710806203117
 30
0.0
 11
2779.909668100179
 21
1130.210806203117
 31
0.0
  0
LINE
  5
9905
330
1E
100
AcDbEntity
  8
虛線
 48
0.25
100
AcDbLine
 10
2787.40966810017
 20
1130.710806203117
 30
0.0
 11
2787.90966810017
 21
1130.210806203117
 31
0.0
  0
LINE
  5
9906
330
1E
100
AcDbEntity
  8
0
  6
Continuous
100
AcDbLine
 10
2776.909622190059
 20
1130.210806203117
 30
0.0
 11
2777.40962181717
 21
1130.710806203023
 31
0.0
  0
LINE
  5
9907
330
1E
100
AcDbEntity
  8
0
  6
Continuous
100
AcDbLine
 10
2778.909619462781
 20
1130.710806203044
 30
0.0
 11
2779.409619311082
 21
1130.210806203117
 31
0.0
  0
LINE
  5
9908
330
1E
100
AcDbEntity
  8
0
  6
Continuous
100
AcDbLine
 10
2777.40962181717
 20
1130.710806203023
 30
0.0
 11
2778.909619462781
 21
1130.710806203044
 31
0.0
  0
LINE
  5
9909
330
1E
100
AcDbEntity
  8
虛線
 48
0.25
100
AcDbLine
 10
2789.409668100172
 20
1153.410836720695
 30
0.0
 11
2789.40966810017
 21
1144.810775685538
 31
0.0
  0
LINE
  5
990A
330
1E
100
AcDbEntity
  8
虛線
 48
0.25
100
AcDbLine
 10
2778.409668100171
 20
1153.410836720695
 30
0.0
 11
2789.409668100172
 21
1153.410836720695
 31
0.0
  0
LINE
  5
990B
330
1E
100
AcDbEntity
  8
虛線
 48
0.25
100
AcDbLine
 10
2780.409668100171
 20
1144.510836720695
 30
0.0
 11
2787.409668100171
 21
1144.510836720695
 31
0.0
  0
LINE
  5
990C
330
1E
100
AcDbEntity
  8
虛線
 48
0.25
100
AcDbLine
 10
2780.109668100171
 20
1144.810836720695
 30
0.0
 11
2780.409668100171
 21
1144.510836720695
 31
0.0
  0
LINE
  5
990D
330
1E
100
AcDbEntity
  8
虛線
 48
0.25
100
AcDbLine
 10
2778.409668100171
 20
1153.410836720695
 30
0.0
 11
2778.178727992496
 21
1153.810836720695
 31
0.0
  0
LINE
  5
990E
330
1E
100
AcDbEntity
  8
虛線
 48
0.25
100
AcDbLine
 10
2787.409668100171
 20
1144.510836720695
 30
0.0
 11
2787.709668100172
 21
1144.810836720695
 31
0.0
  0
LINE
  5
990F
330
1E
100
AcDbEntity
  8
虛線
 48
0.25
100
AcDbLine
 10
2789.409668100172
 20
1153.410836720695
 30
0.0
 11
2789.640608207847
 21
1153.810836720695
 31
0.0
  0
LINE
  5
9916
330
1E
100
AcDbEntity
  8
0
 48
0.27
100
AcDbLine
 10
2781.600233784785
 20
1164.010863905599
 30
0.0
 11
2786.219102415568
 21
1164.010863905599
 31
0.0
  0
LINE
  5
9917
330
1E
100
AcDbEntity
  8
0
 48
0.27
100
AcDbLine
 10
2786.219103751587
 20
1156.010747164688
 30
0.0
 11
2781.600233784785
 21
1156.010747164688
 31
0.0
  0
ARC
  5
9918
330
1E
100
AcDbEntity
  8
0
 48
0.27
100
AcDbCircle
 10
2783.909668100176
 20
1160.010806203153
 30
0.0
 40
4.000057702445608
100
AcDbArc
 50
48.59037799889628
 51
311.4096220031896
  0
LINE
  5
9919
330
1E
100
AcDbEntity
  8
0
 48
0.27
100
AcDbLine
 10
2781.600233784785
 20
1164.010863905599
 30
0.0
 11
2779.290799469393
 21
1160.010806203153
 31
0.0
  0
LINE
  5
991A
330
1E
100
AcDbEntity
  8
0
 48
0.27
100
AcDbLine
 10
2779.290799469393
 20
1160.010806203153
 30
0.0
 11
2781.600233784785
 21
1156.010747164688
 31
0.0
  0
LWPOLYLINE
  5
991B
330
1E
100
AcDbEntity
  8
0
 48
0.27
100
AcDbPolyline
 90
       17
 70
     0
 43
0.0
 10
2792.861486455999
 20
1160.010806203153
 10
2792.895035246956
 20
1159.793765793513
 10
2792.927926716121
 20
1159.730860641575
 10
2792.964497583578
 20
1159.701318573786
 10
2792.998475236794
 20
1159.70162585827
 10
2793.03496861512
 20
1159.73183059183
 10
2793.06631297351
 20
1159.79160144153
 10
2793.095700063037
 20
1159.921676320334
 10
2793.100667384322
 20
1160.010806203153
 10
2793.067119929385
 20
1160.227845276775
 10
2793.0342271242
 20
1160.290750428712
 10
2792.997656256743
 20
1160.320292496502
 10
2792.963679939547
 20
1160.319985211917
 10
2792.927185225202
 20
1160.289780478358
 10
2792.895842202831
 20
1160.230009628658
 10
2792.866453777284
 20
1160.099934749953
 10
2792.861486455999
 20
1160.010806203153
  0
LINE
  5
991C
330
1E
100
AcDbEntity
  8
0
 48
0.27
100
AcDbLine
 10
2793.653552420143
 20
1159.661264702904
 30
0.0
 11
2793.66672691049
 21
1160.010806203153
 31
0.0
  0
LINE
  5
991D
330
1E
100
AcDbEntity
  8
0
 48
0.27
100
AcDbLine
 10
2793.614535300589
 20
1159.325155544864
 30
0.0
 11
2793.653552420143
 21
1159.661264702904
 31
0.0
  0
LINE
  5
991E
330
1E
100
AcDbEntity
  8
0
 48
0.27
100
AcDbLine
 10
2793.66672691049
 20
1160.010806203153
 30
0.0
 11
2793.653552420143
 21
1160.360347703403
 31
0.0
  0
LINE
  5
991F
330
1E
100
AcDbEntity
  8
0
 48
0.27
100
AcDbLine
 10
2793.551174565904
 20
1159.015396703439
 30
0.0
 11
2793.614535300589
 21
1159.325155544864
 31
0.0
  0
LINE
  5
9920
330
1E
100
AcDbEntity
  8
0
 48
0.27
100
AcDbLine
 10
2793.653552420143
 20
1160.360347703403
 30
0.0
 11
2793.614535300589
 21
1160.696455525423
 31
0.0
  0
LINE
  5
9921
330
1E
100
AcDbEntity
  8
0
 48
0.27
100
AcDbLine
 10
2793.465904444008
 20
1158.743889442396
 30
0.0
 11
2793.551174565904
 21
1159.015396703439
 31
0.0
  0
LINE
  5
9922
330
1E
100
AcDbEntity
  8
0
 48
0.27
100
AcDbLine
 10
2792.706538898341
 20
1158.372473291443
 30
0.0
 11
2792.708437382345
 21
1158.373401825093
 31
0.0
  0
LINE
  5
9923
330
1E
100
AcDbEntity
  8
0
 48
0.27
100
AcDbLine
 10
2793.614535300589
 20
1160.696455525423
 30
0.0
 11
2793.551174565904
 21
1161.006215702868
 31
0.0
  0
LINE
  5
9924
330
1E
100
AcDbEntity
  8
0
 48
0.27
100
AcDbLine
 10
2793.362003527344
 20
1158.521069411417
 30
0.0
 11
2793.465904444008
 21
1158.743889442396
 31
0.0
  0
LINE
  5
9925
330
1E
100
AcDbEntity
  8
0
 48
0.27
100
AcDbLine
 10
2793.551174565904
 20
1161.006215702868
 30
0.0
 11
2793.465904444008
 21
1161.277721627891
 31
0.0
  0
LINE
  5
9926
330
1E
100
AcDbEntity
  8
0
 48
0.27
100
AcDbLine
 10
2789.788281737963
 20
1157.974235208893
 30
0.0
 11
2790.029407910873
 21
1158.072639740451
 31
0.0
  0
LINE
  5
9927
330
1E
100
AcDbEntity
  8
0
 48
0.27
100
AcDbLine
 10
2789.788281737963
 20
1162.047375861394
 30
0.0
 11
2790.029407910873
 21
1161.948972665856
 31
0.0
  0
LINE
  5
9928
330
1E
100
AcDbEntity
  8
0
 48
0.27
100
AcDbLine
 10
2793.243463842766
 20
1158.355500497068
 30
0.0
 11
2793.362003527344
 21
1158.521069411417
 31
0.0
  0
LINE
  5
9929
330
1E
100
AcDbEntity
  8
0
 48
0.27
100
AcDbLine
 10
2793.465904444008
 20
1161.277721627891
 30
0.0
 11
2793.362003527344
 21
1161.50054165887
 31
0.0
  0
LINE
  5
992A
330
1E
100
AcDbEntity
  8
0
 48
0.27
100
AcDbLine
 10
2790.029407910873
 20
1158.072639740451
 30
0.0
 11
2790.244334737371
 21
1158.063512053856
 31
0.0
  0
LINE
  5
992B
330
1E
100
AcDbEntity
  8
0
 48
0.27
100
AcDbLine
 10
2790.029407910873
 20
1161.948972665856
 30
0.0
 11
2790.244334737371
 21
1161.95809901643
 31
0.0
  0
LINE
  5
992C
330
1E
100
AcDbEntity
  8
0
 48
0.27
100
AcDbLine
 10
2791.864348146857
 20
1157.506441268256
 30
0.0
 11
2793.114841217353
 21
1158.253542153052
 31
0.0
  0
LINE
  5
992D
330
1E
100
AcDbEntity
  8
0
 48
0.27
100
AcDbLine
 10
2793.114841217353
 20
1158.253542153052
 30
0.0
 11
2793.243463842766
 21
1158.355500497068
 31
0.0
  0
LINE
  5
992E
330
1E
100
AcDbEntity
  8
0
 48
0.27
100
AcDbLine
 10
2793.362003527344
 20
1161.50054165887
 30
0.0
 11
2793.243463842766
 21
1161.666110573218
 31
0.0
  0
LINE
  5
992F
330
1E
100
AcDbEntity
  8
0
 48
0.27
100
AcDbLine
 10
2791.673715502769
 20
1157.457377280495
 30
0.0
 11
2791.864348146857
 21
1157.506441268256
 31
0.0
  0
LINE
  5
9930
330
1E
100
AcDbEntity
  8
0
 48
0.27
100
AcDbLine
 10
2791.312877955882
 20
1157.485261347791
 30
0.0
 11
2791.673715502769
 21
1157.457377280495
 31
0.0
  0
LINE
  5
9931
330
1E
100
AcDbEntity
  8
0
 48
0.27
100
AcDbLine
 10
2790.244334737371
 20
1158.063512053856
 30
0.0
 11
2790.798289925007
 21
1157.698289690285
 31
0.0
  0
LINE
  5
9932
330
1E
100
AcDbEntity
  8
0
 48
0.27
100
AcDbLine
 10
2792.98107758812
 20
1158.219115597186
 30
0.0
 11
2793.114841217353
 21
1158.253542153052
 31
0.0
  0
LINE
  5
9933
330
1E
100
AcDbEntity
  8
0
 48
0.27
100
AcDbLine
 10
2791.864348146857
 20
1162.515171138051
 30
0.0
 11
2793.114841217353
 21
1161.768068917236
 31
0.0
  0
LINE
  5
9934
330
1E
100
AcDbEntity
  8
0
 48
0.27
100
AcDbLine
 10
2793.114841217353
 20
1161.768068917236
 30
0.0
 11
2793.243463842766
 21
1161.666110573218
 31
0.0
  0
LINE
  5
9935
330
1E
100
AcDbEntity
  8
0
 48
0.27
100
AcDbLine
 10
2791.673715502769
 20
1162.564233789793
 30
0.0
 11
2791.864348146857
 21
1162.515171138051
 31
0.0
  0
LINE
  5
9936
330
1E
100
AcDbEntity
  8
0
 48
0.27
100
AcDbLine
 10
2791.312877955882
 20
1162.536351058417
 30
0.0
 11
2791.673715502769
 21
1162.564233789793
 31
0.0
  0
LINE
  5
9937
330
1E
100
AcDbEntity
  8
0
 48
0.27
100
AcDbLine
 10
2790.053496346281
 20
1158.208017281535
 30
0.0
 11
2790.193579348628
 21
1158.096975339466
 31
0.0
  0
LINE
  5
9938
330
1E
100
AcDbEntity
  8
0
 48
0.27
100
AcDbLine
 10
2790.798289925007
 20
1157.698289690285
 30
0.0
 11
2791.124326830469
 21
1157.533788255714
 31
0.0
  0
LINE
  5
9939
330
1E
100
AcDbEntity
  8
0
 48
0.27
100
AcDbLine
 10
2791.124326830469
 20
1157.533788255714
 30
0.0
 11
2791.312877955882
 21
1157.485261347791
 31
0.0
  0
LINE
  5
993A
330
1E
100
AcDbEntity
  8
0
 48
0.27
100
AcDbLine
 10
2790.244334737371
 20
1161.95809901643
 30
0.0
 11
2790.798289925007
 21
1162.323321380002
 31
0.0
  0
LINE
  5
993B
330
1E
100
AcDbEntity
  8
0
 48
0.27
100
AcDbLine
 10
2790.053496346281
 20
1161.813593788753
 30
0.0
 11
2790.193579348628
 21
1161.924635730821
 31
0.0
  0
LINE
  5
993C
330
1E
100
AcDbEntity
  8
0
 48
0.27
100
AcDbLine
 10
2791.483081522661
 20
1157.506441268256
 30
0.0
 11
2791.673715502769
 21
1157.457377280495
 31
0.0
  0
LINE
  5
993D
330
1E
100
AcDbEntity
  8
0
 48
0.27
100
AcDbLine
 10
2791.124326830469
 20
1162.487822814573
 30
0.0
 11
2791.312877955882
 21
1162.536351058417
 31
0.0
  0
LINE
  5
993E
330
1E
100
AcDbEntity
  8
0
 48
0.27
100
AcDbLine
 10
2790.798289925007
 20
1162.323321380002
 30
0.0
 11
2791.124326830469
 21
1162.487822814573
 31
0.0
  0
LINE
  5
993F
330
1E
100
AcDbEntity
  8
0
 48
0.27
100
AcDbLine
 10
2790.053496346281
 20
1158.208017281535
 30
0.0
 11
2789.92439408977
 21
1158.388338525455
 31
0.0
  0
LINE
  5
9940
330
1E
100
AcDbEntity
  8
0
 48
0.27
100
AcDbLine
 10
2792.847313958988
 20
1158.253542153052
 30
0.0
 11
2792.98107758812
 21
1158.219115597186
 31
0.0
  0
LINE
  5
9941
330
1E
100
AcDbEntity
  8
0
 48
0.27
100
AcDbLine
 10
2792.98107758812
 20
1161.802495473102
 30
0.0
 11
2793.114841217353
 21
1161.768068917236
 31
0.0
  0
LINE
  5
9942
330
1E
100
AcDbEntity
  8
0
 48
0.27
100
AcDbLine
 10
2791.483081522661
 20
1162.515171138051
 30
0.0
 11
2791.673715502769
 21
1162.564233789793
 31
0.0
  0
LINE
  5
9943
330
1E
100
AcDbEntity
  8
0
 48
0.27
100
AcDbLine
 10
2790.629024244115
 20
1162.189147592684
 30
0.0
 11
2790.798289925007
 21
1162.323321380002
 31
0.0
  0
LINE
  5
9944
330
1E
100
AcDbEntity
  8
0
 48
0.27
100
AcDbLine
 10
2789.92439408977
 20
1161.633272544833
 30
0.0
 11
2790.053496346281
 21
1161.813593788753
 31
0.0
  0
LINE
  5
9945
330
1E
100
AcDbEntity
  8
0
 48
0.27
100
AcDbLine
 10
2789.92439408977
 20
1158.388338525455
 30
0.0
 11
2789.811235892619
 21
1158.631010473221
 31
0.0
  0
LINE
  5
9946
330
1E
100
AcDbEntity
  8
0
 48
0.27
100
AcDbLine
 10
2791.299774274568
 20
1157.651745435693
 30
0.0
 11
2791.483081522661
 21
1157.506441268256
 31
0.0
  0
LINE
  5
9947
330
1E
100
AcDbEntity
  8
0
 48
0.27
100
AcDbLine
 10
2789.811235892619
 20
1161.390600597067
 30
0.0
 11
2789.92439408977
 21
1161.633272544833
 31
0.0
  0
LINE
  5
9948
330
1E
100
AcDbEntity
  8
0
 48
0.27
100
AcDbLine
 10
2792.718689997555
 20
1158.355500497068
 30
0.0
 11
2792.847313958988
 21
1158.253542153052
 31
0.0
  0
LINE
  5
9949
330
1E
100
AcDbEntity
  8
0
 48
0.27
100
AcDbLine
 10
2791.299774274568
 20
1162.369865634594
 30
0.0
 11
2791.483081522661
 21
1162.515171138051
 31
0.0
  0
LINE
  5
994A
330
1E
100
AcDbEntity
  8
0
 48
0.27
100
AcDbLine
 10
2792.847313958988
 20
1161.768068917236
 30
0.0
 11
2792.98107758812
 21
1161.802495473102
 31
0.0
  0
LINE
  5
994B
330
1E
100
AcDbEntity
  8
0
 48
0.27
100
AcDbLine
 10
2789.811235892619
 20
1158.631010473221
 30
0.0
 11
2789.718369162671
 21
1158.926707707154
 31
0.0
  0
LINE
  5
994C
330
1E
100
AcDbEntity
  8
0
 48
0.27
100
AcDbLine
 10
2789.718369162671
 20
1161.094903363134
 30
0.0
 11
2789.811235892619
 21
1161.390600597067
 31
0.0
  0
LINE
  5
994D
330
1E
100
AcDbEntity
  8
0
 48
0.27
100
AcDbLine
 10
2791.299774274568
 20
1157.651745435693
 30
0.0
 11
2791.130837254572
 21
1157.887707892452
 31
0.0
  0
LINE
  5
994E
330
1E
100
AcDbEntity
  8
0
 48
0.27
100
AcDbLine
 10
2789.718369162671
 20
1158.926707707154
 30
0.0
 11
2789.649363744716
 21
1159.264066043722
 31
0.0
  0
LINE
  5
994F
330
1E
100
AcDbEntity
  8
0
 48
0.27
100
AcDbLine
 10
2792.718689997555
 20
1161.666110573218
 30
0.0
 11
2792.847313958988
 21
1161.768068917236
 31
0.0
  0
LINE
  5
9950
330
1E
100
AcDbEntity
  8
0
 48
0.27
100
AcDbLine
 10
2792.718689997555
 20
1158.355500497068
 30
0.0
 11
2792.600150312976
 21
1158.521069411417
 31
0.0
  0
LINE
  5
9951
330
1E
100
AcDbEntity
  8
0
 48
0.27
100
AcDbLine
 10
2791.130837254572
 20
1162.133903177835
 30
0.0
 11
2791.299774274568
 21
1162.369865634594
 31
0.0
  0
LINE
  5
9952
330
1E
100
AcDbEntity
  8
0
 48
0.27
100
AcDbLine
 10
2789.649363744716
 20
1160.757545026566
 30
0.0
 11
2789.718369162671
 21
1161.094903363134
 31
0.0
  0
LINE
  5
9953
330
1E
100
AcDbEntity
  8
0
 48
0.27
100
AcDbLine
 10
2789.649363744716
 20
1159.264066043722
 30
0.0
 11
2789.606868965915
 21
1159.630120747539
 31
0.0
  0
LINE
  5
9954
330
1E
100
AcDbEntity
  8
0
 48
0.27
100
AcDbLine
 10
2789.606868965915
 20
1160.391490322749
 30
0.0
 11
2789.649363744716
 21
1160.757545026566
 31
0.0
  0
LINE
  5
9955
330
1E
100
AcDbEntity
  8
0
 48
0.27
100
AcDbLine
 10
2789.606868965915
 20
1159.630120747539
 30
0.0
 11
2789.592521450251
 21
1160.010806203153
 31
0.0
  0
LINE
  5
9956
330
1E
100
AcDbEntity
  8
0
 48
0.27
100
AcDbLine
 10
2789.592521450251
 20
1160.010806203153
 30
0.0
 11
2789.606868965915
 21
1160.391490322749
 31
0.0
  0
LINE
  5
9957
330
1E
100
AcDbEntity
  8
0
 48
0.27
100
AcDbLine
 10
2791.130837254572
 20
1157.887707892452
 30
0.0
 11
2790.982762182201
 21
1158.205259736796
 31
0.0
  0
LINE
  5
9958
330
1E
100
AcDbEntity
  8
0
 48
0.27
100
AcDbLine
 10
2792.600150312976
 20
1161.50054165887
 30
0.0
 11
2792.718689997555
 21
1161.666110573218
 31
0.0
  0
LINE
  5
9959
330
1E
100
AcDbEntity
  8
0
 48
0.27
100
AcDbLine
 10
2792.600150312976
 20
1158.521069411417
 30
0.0
 11
2792.496249396313
 21
1158.743889442396
 31
0.0
  0
LINE
  5
995A
330
1E
100
AcDbEntity
  8
0
 48
0.27
100
AcDbLine
 10
2790.982762182201
 20
1161.816352669512
 30
0.0
 11
2791.130837254572
 21
1162.133903177835
 31
0.0
  0
LINE
  5
995B
330
1E
100
AcDbEntity
  8
0
 48
0.27
100
AcDbLine
 10
2792.496249396313
 20
1161.277721627891
 30
0.0
 11
2792.600150312976
 21
1161.50054165887
 31
0.0
  0
LINE
  5
995C
330
1E
100
AcDbEntity
  8
0
 48
0.27
100
AcDbLine
 10
2790.982762182201
 20
1158.205259736796
 30
0.0
 11
2790.861240501607
 21
1158.592196428631
 31
0.0
  0
LINE
  5
995D
330
1E
100
AcDbEntity
  8
0
 48
0.27
100
AcDbLine
 10
2792.496249396313
 20
1158.743889442396
 30
0.0
 11
2792.410980610436
 21
1159.015396703439
 31
0.0
  0
LINE
  5
995E
330
1E
100
AcDbEntity
  8
0
 48
0.27
100
AcDbLine
 10
2790.861240501607
 20
1161.429414641556
 30
0.0
 11
2790.982762182201
 21
1161.816352669512
 31
0.0
  0
LINE
  5
995F
330
1E
100
AcDbEntity
  8
0
 48
0.27
100
AcDbLine
 10
2792.410980610436
 20
1161.006215702868
 30
0.0
 11
2792.496249396313
 21
1161.277721627891
 31
0.0
  0
LINE
  5
9960
330
1E
100
AcDbEntity
  8
0
 48
0.27
100
AcDbLine
 10
2790.861240501607
 20
1158.592196428631
 30
0.0
 11
2790.77094160153
 21
1159.033650740709
 31
0.0
  0
LINE
  5
9961
330
1E
100
AcDbEntity
  8
0
 48
0.27
100
AcDbLine
 10
2792.410980610436
 20
1159.015396703439
 30
0.0
 11
2792.347619875751
 21
1159.325155544864
 31
0.0
  0
LINE
  5
9962
330
1E
100
AcDbEntity
  8
0
 48
0.27
100
AcDbLine
 10
2790.77094160153
 20
1160.987960329578
 30
0.0
 11
2790.861240501607
 21
1161.429414641556
 31
0.0
  0
LINE
  5
9963
330
1E
100
AcDbEntity
  8
0
 48
0.27
100
AcDbLine
 10
2792.347619875751
 20
1160.696455525423
 30
0.0
 11
2792.410980610436
 21
1161.006215702868
 31
0.0
  0
LINE
  5
9964
330
1E
100
AcDbEntity
  8
0
 48
0.27
100
AcDbLine
 10
2790.77094160153
 20
1159.033650740709
 30
0.0
 11
2790.715336461317
 21
1159.512656558754
 31
0.0
  0
LINE
  5
9965
330
1E
100
AcDbEntity
  8
0
 48
0.27
100
AcDbLine
 10
2792.347619875751
 20
1159.325155544864
 30
0.0
 11
2792.308601420178
 21
1159.661264702904
 31
0.0
  0
LINE
  5
9966
330
1E
100
AcDbEntity
  8
0
 48
0.27
100
AcDbLine
 10
2790.715336461317
 20
1160.508954511533
 30
0.0
 11
2790.77094160153
 21
1160.987960329578
 31
0.0
  0
LINE
  5
9967
330
1E
100
AcDbEntity
  8
0
 48
0.27
100
AcDbLine
 10
2792.308601420178
 20
1160.360347703403
 30
0.0
 11
2792.347619875751
 21
1160.696455525423
 31
0.0
  0
LINE
  5
9968
330
1E
100
AcDbEntity
  8
0
 48
0.27
100
AcDbLine
 10
2790.715336461317
 20
1159.512656558754
 30
0.0
 11
2790.696560040324
 21
1160.010806203153
 31
0.0
  0
LINE
  5
9969
330
1E
100
AcDbEntity
  8
0
 48
0.27
100
AcDbLine
 10
2792.308601420178
 20
1159.661264702904
 30
0.0
 11
2792.295426929831
 21
1160.010806203153
 31
0.0
  0
LINE
  5
996A
330
1E
100
AcDbEntity
  8
0
 48
0.27
100
AcDbLine
 10
2792.295426929831
 20
1160.010806203153
 30
0.0
 11
2792.308601420178
 21
1160.360347703403
 31
0.0
  0
LINE
  5
996B
330
1E
100
AcDbEntity
  8
0
 48
0.27
100
AcDbLine
 10
2790.696560040324
 20
1160.010806203153
 30
0.0
 11
2790.715336461317
 21
1160.508954511533
 31
0.0
  0
LINE
  5
996C
330
1E
100
AcDbEntity
  8
0
 48
0.27
100
AcDbLine
 10
2790.193579348628
 20
1158.096975339466
 30
0.0
 11
2790.244334737371
 21
1158.063512053856
 31
0.0
  0
LINE
  5
996D
330
1E
100
AcDbEntity
  8
0
 48
0.27
100
AcDbLine
 10
2789.981053349664
 20
1158.074693202816
 30
0.0
 11
2790.029407910873
 21
1158.072639740451
 31
0.0
  0
LINE
  5
996E
330
1E
100
AcDbEntity
  8
0
 48
0.27
100
AcDbLine
 10
2790.193579348628
 20
1161.924635730821
 30
0.0
 11
2790.244334737371
 21
1161.95809901643
 31
0.0
  0
LINE
  5
996F
330
1E
100
AcDbEntity
  8
0
 48
0.27
100
AcDbLine
 10
2786.79646199643
 20
1157.010761924304
 30
0.0
 11
2786.219103751587
 21
1156.010747164688
 31
0.0
  0
LINE
  5
9970
330
1E
100
AcDbEntity
  8
0
 48
0.27
100
AcDbLine
 10
2785.21119311555
 20
1157.010761924304
 30
0.0
 11
2788.22530568189
 21
1157.010761924304
 31
0.0
  0
LINE
  5
9971
330
1E
100
AcDbEntity
  8
0
 48
0.27
100
AcDbLine
 10
2788.288205489749
 20
1162.726158042356
 30
0.0
 11
2788.22530568189
 21
1163.010849145983
 31
0.0
  0
LINE
  5
9972
330
1E
100
AcDbEntity
  8
0
 48
0.27
100
AcDbLine
 10
2788.22530568189
 20
1157.010761924304
 30
0.0
 11
2788.288205489749
 21
1157.295453027931
 31
0.0
  0
LINE
  5
9973
330
1E
100
AcDbEntity
  8
0
 48
0.27
100
AcDbLine
 10
2785.21119311555
 20
1163.010849145983
 30
0.0
 11
2788.22530568189
 21
1163.010849145983
 31
0.0
  0
LINE
  5
9974
330
1E
100
AcDbEntity
  8
0
 48
0.27
100
AcDbLine
 10
2787.56246889611
 20
1157.010761924304
 30
0.0
 11
2787.786445920072
 21
1157.068407166687
 31
0.0
  0
LINE
  5
9975
330
1E
100
AcDbEntity
  8
0
 48
0.27
100
AcDbLine
 10
2787.56246889611
 20
1163.010849145983
 30
0.0
 11
2787.786445920072
 21
1162.9532039036
 31
0.0
  0
LINE
  5
9976
330
1E
100
AcDbEntity
  8
0
 48
0.27
100
AcDbLine
 10
2787.338491872147
 20
1157.068407166687
 30
0.0
 11
2787.56246889611
 21
1157.010761924304
 31
0.0
  0
LINE
  5
9977
330
1E
100
AcDbEntity
  8
0
 48
0.27
100
AcDbLine
 10
2787.338491872147
 20
1162.9532039036
 30
0.0
 11
2787.56246889611
 21
1163.010849145983
 31
0.0
  0
LINE
  5
9978
330
1E
100
AcDbEntity
  8
0
 48
0.27
100
AcDbLine
 10
2787.123122823095
 20
1157.239126436991
 30
0.0
 11
2787.338491872147
 21
1157.068407166687
 31
0.0
  0
LINE
  5
9979
330
1E
100
AcDbEntity
  8
0
 48
0.27
100
AcDbLine
 10
2787.123122823095
 20
1162.782484633296
 30
0.0
 11
2787.338491872147
 21
1162.9532039036
 31
0.0
  0
LINE
  5
997A
330
1E
100
AcDbEntity
  8
0
 48
0.27
100
AcDbLine
 10
2784.548356329771
 20
1160.010806203153
 30
0.0
 11
2785.21119311555
 21
1163.010849145983
 31
0.0
  0
LINE
  5
997B
330
1E
100
AcDbEntity
  8
0
 48
0.27
100
AcDbLine
 10
2784.548356329771
 20
1160.010806203153
 30
0.0
 11
2786.23679532455
 21
1160.010806203153
 31
0.0
  0
LINE
  5
997C
330
1E
100
AcDbEntity
  8
0
 48
0.27
100
AcDbLine
 10
2785.21119311555
 20
1157.010761924304
 30
0.0
 11
2784.548356329771
 21
1160.010806203153
 31
0.0
  0
LINE
  5
997D
330
1E
100
AcDbEntity
  8
0
 48
0.27
100
AcDbLine
 10
2787.123122823095
 20
1157.239126436991
 30
0.0
 11
2786.924637055212
 21
1157.516359878592
 31
0.0
  0
LINE
  5
997E
330
1E
100
AcDbEntity
  8
0
 48
0.27
100
AcDbLine
 10
2786.924637055212
 20
1162.505251191695
 30
0.0
 11
2787.123122823095
 21
1162.782484633296
 31
0.0
  0
LINE
  5
997F
330
1E
100
AcDbEntity
  8
0
 48
0.27
100
AcDbLine
 10
2786.924637055212
 20
1157.516359878592
 30
0.0
 11
2786.750663240816
 21
1157.889454070233
 31
0.0
  0
LINE
  5
9980
330
1E
100
AcDbEntity
  8
0
 48
0.27
100
AcDbLine
 10
2786.750663240816
 20
1162.132157000055
 30
0.0
 11
2786.924637055212
 21
1162.505251191695
 31
0.0
  0
LINE
  5
9981
330
1E
100
AcDbEntity
  8
0
 48
0.27
100
AcDbLine
 10
2786.89963211033
 20
1157.010761924304
 30
0.0
 11
2786.23679532455
 21
1160.010806203153
 31
0.0
  0
LINE
  5
9982
330
1E
100
AcDbEntity
  8
0
 48
0.27
100
AcDbLine
 10
2786.23679532455
 20
1160.010806203153
 30
0.0
 11
2786.89963211033
 21
1163.010849145983
 31
0.0
  0
LINE
  5
9983
330
1E
100
AcDbEntity
  8
0
 48
0.27
100
AcDbLine
 10
2786.750663240816
 20
1157.889454070233
 30
0.0
 11
2786.607885486646
 21
1158.344070848483
 31
0.0
  0
LINE
  5
9984
330
1E
100
AcDbEntity
  8
0
 48
0.27
100
AcDbLine
 10
2786.607885486646
 20
1161.677540221805
 30
0.0
 11
2786.750663240816
 21
1162.132157000055
 31
0.0
  0
LINE
  5
9985
330
1E
100
AcDbEntity
  8
0
 48
0.27
100
AcDbLine
 10
2786.607885486646
 20
1158.344070848483
 30
0.0
 11
2786.50179349771
 21
1158.862739083598
 31
0.0
  0
LINE
  5
9986
330
1E
100
AcDbEntity
  8
0
 48
0.27
100
AcDbLine
 10
2786.50179349771
 20
1161.158873322709
 30
0.0
 11
2786.607885486646
 21
1161.677540221805
 31
0.0
  0
LINE
  5
9987
330
1E
100
AcDbEntity
  8
0
 48
0.27
100
AcDbLine
 10
2786.50179349771
 20
1158.862739083598
 30
0.0
 11
2786.436462133968
 21
1159.425526697421
 31
0.0
  0
LINE
  5
9988
330
1E
100
AcDbEntity
  8
0
 48
0.27
100
AcDbLine
 10
2786.436462133968
 20
1160.596085708787
 30
0.0
 11
2786.50179349771
 21
1161.158873322709
 31
0.0
  0
LINE
  5
9989
330
1E
100
AcDbEntity
  8
0
 48
0.27
100
AcDbLine
 10
2786.436462133968
 20
1159.425526697421
 30
0.0
 11
2786.414401776554
 21
1160.010806203153
 31
0.0
  0
LINE
  5
998A
330
1E
100
AcDbEntity
  8
0
 48
0.27
100
AcDbLine
 10
2786.414401776554
 20
1160.010806203153
 30
0.0
 11
2786.436462133968
 21
1160.596085708787
 31
0.0
  0
LINE
  5
998B
330
1E
100
AcDbEntity
  8
0
 48
0.27
100
AcDbLine
 10
2787.786445920072
 20
1157.068407166687
 30
0.0
 11
2789.788281737963
 21
1157.974235208893
 31
0.0
  0
LINE
  5
998C
330
1E
100
AcDbEntity
  8
0
 48
0.27
100
AcDbLine
 10
2787.786445920072
 20
1162.9532039036
 30
0.0
 11
2789.788281737963
 21
1162.047375861394
 31
0.0
  0
LINE
  5
998D
330
1E
100
AcDbEntity
  8
0
 48
0.27
100
AcDbLine
 10
2786.79646199643
 20
1163.010849145983
 30
0.0
 11
2786.219102415568
 21
1164.010863905599
 31
0.0
  0
LINE
  5
998E
330
1E
100
AcDbEntity
  8
中心線
 48
0.27
100
AcDbLine
 10
2794.644223068664
 20
1160.010806203153
 30
0.0
 11
2778.276682768208
 21
1160.010806203153
 31
0.0
  0
LINE
  5
998F
330
1E
100
AcDbEntity
  8
0
 48
0.27
100
AcDbLine
 10
2761.509698100172
 20
1165.310806203118
 30
0.0
 11
2806.309638100174
 21
1165.310806203118
 31
0.0
  0
LINE
  5
9990
330
1E
100
AcDbEntity
  8
0
  6
Continuous
100
AcDbLine
 10
2770.809675729568
 20
1136.210823326395
 30
0.0
 11
2772.009675729568
 21
1136.210821682554
 31
0.0
  0
LINE
  5
9995
330
1E
100
AcDbEntity
  8
指線
 48
0.27
100
AcDbLine
 10
2766.799142925207
 20
1155.829717925472
 30
0.0
 11
2766.243356995194
 21
1156.385503855485
 31
0.0
  0
LINE
  5
9996
330
1E
100
AcDbEntity
  8
指線
 48
0.27
100
AcDbLine
 10
2764.575999205157
 20
1156.385503855485
 30
0.0
 11
2764.020213275143
 21
1155.829717925472
 31
0.0
  0
LINE
  5
9997
330
1E
100
AcDbEntity
  8
指線
 48
0.27
100
AcDbLine
 10
2766.243356995194
 20
1153.606574205422
 30
0.0
 11
2765.409678100175
 21
1154.44025310044
 31
0.0
  0
LINE
  5
9998
330
1E
100
AcDbEntity
  8
指線
 48
0.27
100
AcDbLine
 10
2764.575999205155
 20
1153.606574205422
 30
0.0
 11
2765.409678100175
 21
1154.44025310044
 31
0.0
  0
LINE
  5
9999
330
1E
100
AcDbEntity
  8
指線
 48
0.27
100
AcDbLine
 10
2764.020213275143
 20
1154.162360135434
 30
0.0
 11
2764.853892170162
 21
1154.996039030453
 31
0.0
  0
LINE
  5
999A
330
1E
100
AcDbEntity
  8
指線
 48
0.27
100
AcDbLine
 10
2766.799142925207
 20
1154.162360135434
 30
0.0
 11
2765.965464030187
 21
1154.996039030453
 31
0.0
  0
LINE
  5
999B
330
1E
100
AcDbEntity
  8
指線
 48
0.27
100
AcDbLine
 10
2766.243356995194
 20
1153.606574205422
 30
0.0
 11
2766.799142925207
 21
1154.162360135434
 31
0.0
  0
LINE
  5
999C
330
1E
100
AcDbEntity
  8
指線
 48
0.27
100
AcDbLine
 10
2764.020213275143
 20
1154.162360135434
 30
0.0
 11
2764.575999205155
 21
1153.606574205422
 31
0.0
  0
LINE
  5
999D
330
1E
100
AcDbEntity
  8
指線
 48
0.27
100
AcDbLine
 10
2765.409678100175
 20
1155.551824960466
 30
0.0
 11
2764.575999205157
 21
1156.385503855485
 31
0.0
  0
LINE
  5
999E
330
1E
100
AcDbEntity
  8
指線
 48
0.27
100
AcDbLine
 10
2764.020213275143
 20
1155.829717925472
 30
0.0
 11
2764.853892170162
 21
1154.996039030453
 31
0.0
  0
LINE
  5
999F
330
1E
100
AcDbEntity
  8
指線
 48
0.27
100
AcDbLine
 10
2765.965464030187
 20
1154.996039030453
 30
0.0
 11
2766.799142925207
 21
1155.829717925472
 31
0.0
  0
LINE
  5
99A0
330
1E
100
AcDbEntity
  8
指線
 48
0.27
100
AcDbLine
 10
2765.409678100175
 20
1155.551824960466
 30
0.0
 11
2766.243356995194
 21
1156.385503855485
 31
0.0
  0
CIRCLE
  5
99A1
330
1E
100
AcDbEntity
  8
指線
 48
0.27
100
AcDbCircle
 10
2765.409678100175
 20
1154.996039030453
 30
0.0
 40
2.75
  0
LINE
  5
99A2
330
1E
100
AcDbEntity
  8
指線
 48
0.27
100
AcDbLine
 10
2803.799122925201
 20
1155.829717925459
 30
0.0
 11
2803.243336995188
 21
1156.385503855471
 31
0.0
  0
LINE
  5
99A3
330
1E
100
AcDbEntity
  8
指線
 48
0.27
100
AcDbLine
 10
2801.57597920515
 20
1156.385503855471
 30
0.0
 11
2801.020193275138
 21
1155.829717925459
 31
0.0
  0
LINE
  5
99A4
330
1E
100
AcDbEntity
  8
指線
 48
0.27
100
AcDbLine
 10
2803.243336995188
 20
1153.606574205408
 30
0.0
 11
2802.409658100169
 21
1154.440253100426
 31
0.0
  0
LINE
  5
99A5
330
1E
100
AcDbEntity
  8
指線
 48
0.27
100
AcDbLine
 10
2801.57597920515
 20
1153.606574205408
 30
0.0
 11
2802.409658100169
 21
1154.440253100426
 31
0.0
  0
LINE
  5
99A6
330
1E
100
AcDbEntity
  8
指線
 48
0.27
100
AcDbLine
 10
2801.020193275138
 20
1154.16236013542
 30
0.0
 11
2801.853872170156
 21
1154.996039030439
 31
0.0
  0
LINE
  5
99A7
330
1E
100
AcDbEntity
  8
指線
 48
0.27
100
AcDbLine
 10
2803.799122925201
 20
1154.16236013542
 30
0.0
 11
2802.965444030182
 21
1154.996039030439
 31
0.0
  0
LINE
  5
99A8
330
1E
100
AcDbEntity
  8
指線
 48
0.27
100
AcDbLine
 10
2803.243336995188
 20
1153.606574205408
 30
0.0
 11
2803.799122925201
 21
1154.16236013542
 31
0.0
  0
LINE
  5
99A9
330
1E
100
AcDbEntity
  8
指線
 48
0.27
100
AcDbLine
 10
2801.020193275138
 20
1154.16236013542
 30
0.0
 11
2801.57597920515
 21
1153.606574205408
 31
0.0
  0
LINE
  5
99AA
330
1E
100
AcDbEntity
  8
指線
 48
0.27
100
AcDbLine
 10
2802.409658100169
 20
1155.551824960452
 30
0.0
 11
2801.57597920515
 21
1156.385503855471
 31
0.0
  0
LINE
  5
99AB
330
1E
100
AcDbEntity
  8
指線
 48
0.27
100
AcDbLine
 10
2801.020193275138
 20
1155.829717925459
 30
0.0
 11
2801.853872170156
 21
1154.996039030439
 31
0.0
  0
LINE
  5
99AC
330
1E
100
AcDbEntity
  8
指線
 48
0.27
100
AcDbLine
 10
2802.965444030182
 20
1154.996039030439
 30
0.0
 11
2803.799122925201
 21
1155.829717925459
 31
0.0
  0
LINE
  5
99AD
330
1E
100
AcDbEntity
  8
指線
 48
0.27
100
AcDbLine
 10
2802.409658100169
 20
1155.551824960452
 30
0.0
 11
2803.243336995188
 21
1156.385503855471
 31
0.0
  0
CIRCLE
  5
99AE
330
1E
100
AcDbEntity
  8
指線
 48
0.27
100
AcDbCircle
 10
2802.409658100169
 20
1154.996039030439
 30
0.0
 40
2.75
  0
LINE
  5
99AF
330
1E
100
AcDbEntity
  8
0
  6
Continuous
100
AcDbLine
 10
2759.909698100176
 20
1160.710846203114
 30
0.0
 11
2760.409668100176
 21
1160.210846203114
 31
0.0
  0
LINE
  5
99B0
330
1E
100
AcDbEntity
  8
0
  6
Continuous
100
AcDbLine
 10
2759.909698100175
 20
1168.710836203114
 30
0.0
 11
2759.909698100176
 21
1160.710836203114
 31
0.0
  0
LINE
  5
99B1
330
1E
100
AcDbEntity
  8
0
  6
Continuous
100
AcDbLine
 10
2761.409698100175
 20
1170.210836203114
 30
0.0
 11
2759.909698100175
 21
1168.710836203114
 31
0.0
  0
CIRCLE
  5
99B2
330
1E
100
AcDbEntity
  8
0
  6
Continuous
 62
     7
100
AcDbCircle
 10
3002.231381074774
 20
1266.37792276026
 30
0.0
 40
2.5
  0
CIRCLE
  5
99B4
330
1E
100
AcDbEntity
  8
0
  6
Continuous
 62
     7
100
AcDbCircle
 10
3023.731381074774
 20
1248.87789276026
 30
0.0
 40
0.5
  0
CIRCLE
  5
99B5
330
1E
100
AcDbEntity
  8
0
  6
Continuous
 62
     7
100
AcDbCircle
 10
3023.731381074774
 20
1248.87789276026
 30
0.0
 40
5.15
  0
CIRCLE
  5
99B6
330
1E
100
AcDbEntity
  8
0
  6
Continuous
 62
     7
100
AcDbCircle
 10
2930.731381074774
 20
1248.87789276026
 30
0.0
 40
0.5
  0
CIRCLE
  5
99B7
330
1E
100
AcDbEntity
  8
0
  6
Continuous
 62
     7
100
AcDbCircle
 10
2930.731381074774
 20
1248.87789276026
 30
0.0
 40
5.15
  0
CIRCLE
  5
99B8
330
1E
100
AcDbEntity
  8
0
  6
Continuous
 62
     7
100
AcDbCircle
 10
2929.481381074774
 20
1160.210806203118
 30
0.0
 40
2.9999563091
  0
CIRCLE
  5
99B9
330
1E
100
AcDbEntity
  8
0
  6
Continuous
 62
     7
100
AcDbCircle
 10
2929.481381074774
 20
1160.210806203118
 30
0.0
 40
0.75
  0
CIRCLE
  5
99BA
330
1E
100
AcDbEntity
  8
0
  6
Continuous
 62
     7
100
AcDbCircle
 10
2929.481381074774
 20
1160.210806203118
 30
0.0
 40
2.5
  0
CIRCLE
  5
99BB
330
1E
100
AcDbEntity
  8
0
  6
Continuous
 62
     7
100
AcDbCircle
 10
3024.981381074774
 20
1160.210806203118
 30
0.0
 40
2.9999563091
  0
CIRCLE
  5
99BC
330
1E
100
AcDbEntity
  8
0
  6
Continuous
 62
     7
100
AcDbCircle
 10
3024.981381074774
 20
1160.210806203118
 30
0.0
 40
0.75
  0
CIRCLE
  5
99BD
330
1E
100
AcDbEntity
  8
0
  6
Continuous
 62
     7
100
AcDbCircle
 10
3024.981381074774
 20
1160.210806203118
 30
0.0
 40
2.5
  0
LINE
  5
99BE
330
1E
100
AcDbEntity
  8
0
  6
Continuous
 62
     7
100
AcDbLine
 10
3034.431381074774
 20
1225.37792276026
 30
0.0
 11
3034.431381074774
 21
1272.37786276026
 31
0.0
  0
LINE
  5
99BF
330
1E
100
AcDbEntity
  8
0
  6
Continuous
 62
     7
100
AcDbLine
 10
3032.231381074774
 20
1272.37786276026
 30
0.0
 11
3032.231381074774
 21
1225.37792276026
 31
0.0
  0
LINE
  5
99C0
330
1E
100
AcDbEntity
  8
0
  6
Continuous
 62
     7
100
AcDbLine
 10
3017.731381074774
 20
1272.87789276026
 30
0.0
 11
3017.731381074774
 21
1224.87795276026
 31
0.0
  0
LINE
  5
99C1
330
1E
100
AcDbEntity
  8
0
  6
Continuous
 62
     7
100
AcDbLine
 10
2936.731381074774
 20
1272.87789276026
 30
0.0
 11
3017.731381074774
 21
1272.87789276026
 31
0.0
  0
LINE
  5
99C2
330
1E
100
AcDbEntity
  8
0
  6
Continuous
 62
     7
100
AcDbLine
 10
3032.231381074774
 20
1272.37786276026
 30
0.0
 11
3034.431381074774
 21
1272.37786276026
 31
0.0
  0
LINE
  5
99C3
330
1E
100
AcDbEntity
  8
0
  6
Continuous
 62
     7
100
AcDbLine
 10
3017.731381074774
 20
1272.37786276026
 30
0.0
 11
3031.731381074774
 21
1272.37786276026
 31
0.0
  0
LINE
  5
99C4
330
1E
100
AcDbEntity
  8
0
  6
Continuous
 62
     7
100
AcDbLine
 10
2922.231381074774
 20
1272.37786276026
 30
0.0
 11
2920.031381074773
 21
1272.37786276026
 31
0.0
  0
LINE
  5
99C5
330
1E
100
AcDbEntity
  8
0
  6
Continuous
 62
     7
100
AcDbLine
 10
2936.731381074774
 20
1272.37786276026
 30
0.0
 11
2922.231381074774
 21
1272.37786276026
 31
0.0
  0
LINE
  5
99C6
330
1E
100
AcDbEntity
  8
0
  6
Continuous
 62
     7
100
AcDbLine
 10
3032.231381074774
 20
1272.37786276026
 30
0.0
 11
3031.731381074774
 21
1272.37786276026
 31
0.0
  0
LINE
  5
99C7
330
1E
100
AcDbEntity
  8
0
  6
Continuous
 62
     7
100
AcDbLine
 10
2936.731381074774
 20
1271.37789276026
 30
0.0
 11
3017.731381074774
 21
1271.37789276026
 31
0.0
  0
LINE
  5
99C8
330
1E
100
AcDbEntity
  8
0
  6
Continuous
 62
     7
100
AcDbLine
 10
3032.231381074774
 20
1271.27786276026
 30
0.0
 11
3034.431381074774
 21
1271.27786276026
 31
0.0
  0
LINE
  5
99C9
330
1E
100
AcDbEntity
  8
0
  6
Continuous
 62
     7
100
AcDbLine
 10
3017.731381074774
 20
1271.27786276026
 30
0.0
 11
3032.231381074774
 21
1271.27786276026
 31
0.0
  0
LINE
  5
99CA
330
1E
100
AcDbEntity
  8
0
  6
Continuous
 62
     7
100
AcDbLine
 10
2922.231381074774
 20
1271.27786276026
 30
0.0
 11
2920.031381074773
 21
1271.27786276026
 31
0.0
  0
LINE
  5
99CB
330
1E
100
AcDbEntity
  8
0
  6
Continuous
 62
     7
100
AcDbLine
 10
2936.731381074774
 20
1271.27786276026
 30
0.0
 11
2922.231381074774
 21
1271.27786276026
 31
0.0
  0
LINE
  5
99CC
330
1E
100
AcDbEntity
  8
0
  6
Continuous
 62
     7
100
AcDbLine
 10
2936.731381074774
 20
1260.62789276026
 30
0.0
 11
3017.731381074774
 21
1260.62789276026
 31
0.0
  0
LINE
  5
99CD
330
1E
100
AcDbEntity
  8
0
  6
Continuous
 62
     7
100
AcDbLine
 10
3034.431381074774
 20
1260.37791513086
 30
0.0
 11
3087.231381074774
 21
1260.37791513086
 31
0.0
  0
LINE
  5
99CE
330
1E
100
AcDbEntity
  8
0
  6
Continuous
 62
     7
100
AcDbLine
 10
2867.231381074774
 20
1260.37791513086
 30
0.0
 11
2920.031381074773
 21
1260.37791513086
 31
0.0
  0
LINE
  5
99CF
330
1E
100
AcDbEntity
  8
0
  6
Continuous
 62
     7
100
AcDbLine
 10
2936.731381074774
 20
1260.12786276026
 30
0.0
 11
3017.731381074774
 21
1260.12786276026
 31
0.0
  0
LINE
  5
99D2
330
1E
100
AcDbEntity
  8
0
  6
Continuous
 62
     7
100
AcDbLine
 10
3017.731381074774
 20
1256.37789276026
 30
0.0
 11
3032.231381074774
 21
1256.377884858381
 31
0.0
  0
LINE
  5
99D3
330
1E
100
AcDbEntity
  8
0
  6
Continuous
 62
     7
100
AcDbLine
 10
2936.731381074774
 20
1256.37788894556
 30
0.0
 11
2922.231381074774
 21
1256.37788499462
 31
0.0
  0
LINE
  5
99D4
330
1E
100
AcDbEntity
  8
0
  6
Continuous
 62
     7
100
AcDbLine
 10
3017.731381074774
 20
1255.87789895916
 30
0.0
 11
3032.231381074774
 21
1255.877883155402
 31
0.0
  0
LINE
  5
99D5
330
1E
100
AcDbEntity
  8
0
  6
Continuous
 62
     7
100
AcDbLine
 10
2936.731381074774
 20
1255.87789276026
 30
0.0
 11
2922.231381074774
 21
1255.877883376792
 31
0.0
  0
LINE
  5
99D6
330
1E
100
AcDbEntity
  8
0
  6
Continuous
 62
     7
100
AcDbLine
 10
2936.731381074774
 20
1255.12792276026
 30
0.0
 11
3017.731381074774
 21
1255.12792276026
 31
0.0
  0
LINE
  5
99D7
330
1E
100
AcDbEntity
  8
0
  6
Continuous
 62
     7
100
AcDbLine
 10
2936.731381074774
 20
1254.62792276026
 30
0.0
 11
3017.731381074774
 21
1254.627922760259
 31
0.0
  0
LINE
  5
99D8
330
1E
100
AcDbEntity
  8
0
  6
Continuous
 62
     7
100
AcDbLine
 10
2936.731381074774
 20
1243.12789276026
 30
0.0
 11
3017.731381074774
 21
1243.12789276026
 31
0.0
  0
LINE
  5
99D9
330
1E
100
AcDbEntity
  8
0
  6
Continuous
 62
     7
100
AcDbLine
 10
2936.731381074774
 20
1242.62792276026
 30
0.0
 11
3017.731381074774
 21
1242.62792276026
 31
0.0
  0
LINE
  5
99DA
330
1E
100
AcDbEntity
  8
0
  6
Continuous
 62
     7
100
AcDbLine
 10
3017.731381074774
 20
1241.87789276026
 30
0.0
 11
3032.231381074774
 21
1241.877902143831
 31
0.0
  0
LINE
  5
99DB
330
1E
100
AcDbEntity
  8
0
  6
Continuous
 62
     7
100
AcDbLine
 10
2936.731381074774
 20
1241.87788656136
 30
0.0
 11
2922.231381074774
 21
1241.877902365221
 31
0.0
  0
LINE
  5
99DC
330
1E
100
AcDbEntity
  8
0
  6
Continuous
 62
     7
100
AcDbLine
 10
3017.731381074774
 20
1241.37789657496
 30
0.0
 11
3032.231381074774
 21
1241.377900525899
 31
0.0
  0
LINE
  5
99DD
330
1E
100
AcDbEntity
  8
0
  6
Continuous
 62
     7
100
AcDbLine
 10
2936.731381074774
 20
1241.37789276026
 30
0.0
 11
2922.231381074774
 21
1241.377900662139
 31
0.0
  0
LINE
  5
99E0
330
1E
100
AcDbEntity
  8
0
  6
Continuous
 62
     7
100
AcDbLine
 10
2936.731381074774
 20
1237.62795276026
 30
0.0
 11
3017.731381074774
 21
1237.62795276026
 31
0.0
  0
LINE
  5
99E1
330
1E
100
AcDbEntity
  8
0
  6
Continuous
 62
     7
100
AcDbLine
 10
3034.431381074774
 20
1237.37793038966
 30
0.0
 11
3087.231381074773
 21
1237.37793038966
 31
0.0
  0
LINE
  5
99E2
330
1E
100
AcDbEntity
  8
0
  6
Continuous
 62
     7
100
AcDbLine
 10
2867.231381074774
 20
1237.37793038966
 30
0.0
 11
2909.076182217139
 21
1237.37793038966
 31
0.0
  0
LINE
  5
99E3
330
1E
100
AcDbEntity
  8
0
  6
Continuous
 62
     7
100
AcDbLine
 10
2936.731381074774
 20
1237.12795276026
 30
0.0
 11
3017.731381074774
 21
1237.12795276026
 31
0.0
  0
LINE
  5
99E4
330
1E
100
AcDbEntity
  8
0
  6
Continuous
 62
     7
100
AcDbLine
 10
3032.231381074774
 20
1226.47792276026
 30
0.0
 11
3034.431381074774
 21
1226.47792276026
 31
0.0
  0
LINE
  5
99E5
330
1E
100
AcDbEntity
  8
0
  6
Continuous
 62
     7
100
AcDbLine
 10
3017.731381074774
 20
1226.47792276026
 30
0.0
 11
3032.231381074774
 21
1226.47792276026
 31
0.0
  0
LINE
  5
99E6
330
1E
100
AcDbEntity
  8
0
  6
Continuous
 62
     7
100
AcDbLine
 10
2922.231381074774
 20
1226.47792276026
 30
0.0
 11
2920.031381074773
 21
1226.47792276026
 31
0.0
  0
LINE
  5
99E7
330
1E
100
AcDbEntity
  8
0
  6
Continuous
 62
     7
100
AcDbLine
 10
2936.731381074774
 20
1226.47792276026
 30
0.0
 11
2922.231381074774
 21
1226.47792276026
 31
0.0
  0
LINE
  5
99E8
330
1E
100
AcDbEntity
  8
0
  6
Continuous
 62
     7
100
AcDbLine
 10
2936.731381074774
 20
1226.37795276026
 30
0.0
 11
3017.731381074774
 21
1226.37795276026
 31
0.0
  0
LINE
  5
99E9
330
1E
100
AcDbEntity
  8
0
  6
Continuous
 62
     7
100
AcDbLine
 10
3032.231381074774
 20
1225.37792276026
 30
0.0
 11
3034.431381074774
 21
1225.37792276026
 31
0.0
  0
LINE
  5
99EA
330
1E
100
AcDbEntity
  8
0
  6
Continuous
 62
     7
100
AcDbLine
 10
3017.731381074774
 20
1225.37792276026
 30
0.0
 11
3032.231381074774
 21
1225.37792276026
 31
0.0
  0
LINE
  5
99EB
330
1E
100
AcDbEntity
  8
0
  6
Continuous
 62
     7
100
AcDbLine
 10
2922.231381074774
 20
1225.37792276026
 30
0.0
 11
2920.031381074773
 21
1225.37792276026
 31
0.0
  0
LINE
  5
99EC
330
1E
100
AcDbEntity
  8
0
  6
Continuous
 62
     7
100
AcDbLine
 10
2936.731381074774
 20
1225.37792276026
 30
0.0
 11
2922.231381074774
 21
1225.37792276026
 31
0.0
  0
LINE
  5
99ED
330
1E
100
AcDbEntity
  8
0
  6
Continuous
 62
     7
100
AcDbLine
 10
2936.731381074774
 20
1224.87795276026
 30
0.0
 11
3017.731381074774
 21
1224.87795276026
 31
0.0
  0
LINE
  5
99EE
330
1E
100
AcDbEntity
  8
0
  6
Continuous
 62
     7
100
AcDbLine
 10
2936.731381074774
 20
1224.87795276026
 30
0.0
 11
2936.731381074774
 21
1272.87789276026
 31
0.0
  0
LINE
  5
99EF
330
1E
100
AcDbEntity
  8
0
  6
Continuous
 62
     7
100
AcDbLine
 10
2922.231381074774
 20
1225.37792276026
 30
0.0
 11
2922.231381074774
 21
1272.37786276026
 31
0.0
  0
LINE
  5
99F0
330
1E
100
AcDbEntity
  8
0
  6
Continuous
 62
     7
100
AcDbLine
 10
2920.031381074773
 20
1225.37792276026
 30
0.0
 11
2920.031381074773
 21
1272.37786276026
 31
0.0
  0
LINE
  5
99F1
330
1E
100
AcDbEntity
  8
0
  6
Continuous
 62
     7
100
AcDbLine
 10
3034.431381074775
 20
1135.710826203117
 30
0.0
 11
3034.431381074774
 21
1165.310806203117
 31
0.0
  0
LINE
  5
99F2
330
1E
100
AcDbEntity
  8
0
  6
Continuous
 62
     7
100
AcDbLine
 10
3032.231381074774
 20
1135.710826203117
 30
0.0
 11
3032.231381074773
 21
1165.810806203118
 31
0.0
  0
LINE
  5
99F3
330
1E
100
AcDbEntity
  8
0
  6
Continuous
 62
     7
100
AcDbLine
 10
3029.231381074774
 20
1142.295286510417
 30
0.0
 11
3029.231381074774
 21
1146.895286510417
 31
0.0
  0
LINE
  5
99F4
330
1E
100
AcDbEntity
  8
0
  6
Continuous
 62
     7
100
AcDbLine
 10
3017.731381074774
 20
1170.210836203117
 30
0.0
 11
3017.731381074774
 21
1135.710836203117
 31
0.0
  0
LINE
  5
99F5
330
1E
100
AcDbEntity
  8
0
  6
Continuous
 62
     7
100
AcDbLine
 10
2936.731381074774
 20
1170.210836203117
 30
0.0
 11
3017.731381074774
 21
1170.210836203117
 31
0.0
  0
LINE
  5
99F6
330
1E
100
AcDbEntity
  8
0
  6
Continuous
 62
     7
100
AcDbLine
 10
2936.731381074774
 20
1168.710836203117
 30
0.0
 11
3017.731381074774
 21
1168.710836203117
 31
0.0
  0
LINE
  5
99F7
330
1E
100
AcDbEntity
  8
0
  6
Continuous
 62
     7
100
AcDbLine
 10
3017.731381074774
 20
1165.810806203118
 30
0.0
 11
3032.231381074773
 21
1165.810806203118
 31
0.0
  0
LINE
  5
99F8
330
1E
100
AcDbEntity
  8
0
  6
Continuous
 62
     7
100
AcDbLine
 10
2936.731381074774
 20
1165.810790944317
 30
0.0
 11
2922.231381074774
 21
1165.810806748075
 31
0.0
  0
LINE
  5
99F9
330
1E
100
AcDbEntity
  8
0
  6
Continuous
 62
     7
100
AcDbLine
 10
3032.231381074774
 20
1165.310806203117
 30
0.0
 11
3034.431381074774
 21
1165.310806203117
 31
0.0
  0
LINE
  5
99FA
330
1E
100
AcDbEntity
  8
0
  6
Continuous
 62
     7
100
AcDbLine
 10
3017.731381074774
 20
1165.310806203117
 30
0.0
 11
3032.231381074774
 21
1165.310806203117
 31
0.0
  0
LINE
  5
99FB
330
1E
100
AcDbEntity
  8
0
  6
Continuous
 62
     7
100
AcDbLine
 10
2922.231381074774
 20
1165.310806203117
 30
0.0
 11
2920.031381074773
 21
1165.310806203117
 31
0.0
  0
LINE
  5
99FC
330
1E
100
AcDbEntity
  8
0
  6
Continuous
 62
     7
100
AcDbLine
 10
2936.731381074774
 20
1165.310806203117
 30
0.0
 11
2922.231381074774
 21
1165.310806203117
 31
0.0
  0
LINE
  5
99FD
330
1E
100
AcDbEntity
  8
0
  6
Continuous
 62
     7
100
AcDbLine
 10
3032.231381074774
 20
1164.210806203118
 30
0.0
 11
3034.431381074774
 21
1164.210806203118
 31
0.0
  0
LINE
  5
99FE
330
1E
100
AcDbEntity
  8
0
  6
Continuous
 62
     7
100
AcDbLine
 10
3017.731381074774
 20
1164.210806203118
 30
0.0
 11
3032.231381074774
 21
1164.210806203118
 31
0.0
  0
LINE
  5
99FF
330
1E
100
AcDbEntity
  8
0
  6
Continuous
 62
     7
100
AcDbLine
 10
2922.231381074774
 20
1164.210806203118
 30
0.0
 11
2920.031381074773
 21
1164.210806203118
 31
0.0
  0
LINE
  5
9A00
330
1E
100
AcDbEntity
  8
0
  6
Continuous
 62
     7
100
AcDbLine
 10
2936.731381074774
 20
1164.210806203118
 30
0.0
 11
2922.231381074774
 21
1164.210806203118
 31
0.0
  0
LINE
  5
9A01
330
1E
100
AcDbEntity
  8
0
  6
Continuous
 62
     7
100
AcDbLine
 10
3035.436419660157
 20
1153.810836720717
 30
0.0
 11
3087.231381074774
 21
1153.810836720717
 31
0.0
  0
LINE
  5
9A02
330
1E
100
AcDbEntity
  8
0
  6
Continuous
 62
     7
100
AcDbLine
 10
2867.231381074774
 20
1153.810836720717
 30
0.0
 11
2919.026342489389
 21
1153.810836720717
 31
0.0
  0
LINE
  5
9A03
330
1E
100
AcDbEntity
  8
0
  6
Continuous
 62
     7
100
AcDbLine
 10
3035.274603119038
 20
1153.410836720717
 30
0.0
 11
3087.231381074774
 21
1153.410836720717
 31
0.0
  0
LINE
  5
9A04
330
1E
100
AcDbEntity
  8
0
  6
Continuous
 62
     7
100
AcDbLine
 10
2901.489646733979
 20
1153.410836720717
 30
0.0
 11
2919.18815903051
 21
1153.410836720717
 31
0.0
  0
LINE
  5
9A15
330
1E
100
AcDbEntity
  8
0
  6
Continuous
 62
     7
100
AcDbLine
 10
3029.231381074774
 20
1146.895286510417
 30
0.0
 11
3032.231381074774
 21
1146.895286510417
 31
0.0
  0
LINE
  5
9A16
330
1E
100
AcDbEntity
  8
0
  6
Continuous
 62
     7
100
AcDbLine
 10
2922.231381074774
 20
1146.895286510417
 30
0.0
 11
2925.231381074774
 21
1146.895286510417
 31
0.0
  0
LINE
  5
9A17
330
1E
100
AcDbEntity
  8
0
  6
Continuous
 62
     7
100
AcDbLine
 10
2925.231381074774
 20
1142.295286510417
 30
0.0
 11
2922.231381074774
 21
1142.295286510417
 31
0.0
  0
LINE
  5
9A18
330
1E
100
AcDbEntity
  8
0
  6
Continuous
 62
     7
100
AcDbLine
 10
3032.231381074774
 20
1142.295286510417
 30
0.0
 11
3029.231381074774
 21
1142.295286510417
 31
0.0
  0
LINE
  5
9A23
330
1E
100
AcDbEntity
  8
0
  6
Continuous
 62
     7
100
AcDbLine
 10
2936.731381074774
 20
1137.210838627917
 30
0.0
 11
3017.731381074774
 21
1137.210838627917
 31
0.0
  0
LINE
  5
9A24
330
1E
100
AcDbEntity
  8
0
  6
Continuous
 62
     7
100
AcDbLine
 10
3017.731381074774
 20
1136.710836203117
 30
0.0
 11
3034.431381074774
 21
1136.710836203117
 31
0.0
  0
LINE
  5
9A25
330
1E
100
AcDbEntity
  8
0
  6
Continuous
 62
     7
100
AcDbLine
 10
2936.731381074774
 20
1136.710836203117
 30
0.0
 11
2920.031381074773
 21
1136.710836203117
 31
0.0
  0
LINE
  5
9A2C
330
1E
100
AcDbEntity
  8
0
  6
Continuous
 62
     7
100
AcDbLine
 10
2920.031381074773
 20
1135.710826203117
 30
0.0
 11
3034.431381074775
 21
1135.710826203117
 31
0.0
  0
LINE
  5
9A2E
330
1E
100
AcDbEntity
  8
0
  6
Continuous
 62
     7
100
AcDbLine
 10
2867.231381074774
 20
1130.210806203117
 30
0.0
 11
3087.231381074774
 21
1130.210806203117
 31
0.0
  0
LINE
  5
9A2F
330
1E
100
AcDbEntity
  8
0
  6
Continuous
 62
     7
100
AcDbLine
 10
2936.731381074774
 20
1170.210836203117
 30
0.0
 11
2936.731381074774
 21
1135.710826203117
 31
0.0
  0
LINE
  5
9A30
330
1E
100
AcDbEntity
  8
0
  6
Continuous
 62
     7
100
AcDbLine
 10
2925.231381074774
 20
1146.895286510417
 30
0.0
 11
2925.231381074774
 21
1142.295286510417
 31
0.0
  0
LINE
  5
9A31
330
1E
100
AcDbEntity
  8
0
  6
Continuous
 62
     7
100
AcDbLine
 10
2922.231381074774
 20
1135.710826203117
 30
0.0
 11
2922.231381074774
 21
1165.810806748075
 31
0.0
  0
LINE
  5
9A32
330
1E
100
AcDbEntity
  8
0
  6
Continuous
 62
     7
100
AcDbLine
 10
2920.031381074773
 20
1135.710826203117
 30
0.0
 11
2920.031381074773
 21
1165.310806203117
 31
0.0
  0
LINE
  5
9A35
330
1E
100
AcDbEntity
  8
0
 62
     0
 48
0.27
100
AcDbLine
 10
2867.231381074774
 20
1153.810836720717
 30
0.0
 11
2867.231381074774
 21
1130.210806203117
 31
0.0
  0
LINE
  5
9A36
330
1E
100
AcDbEntity
  8
0
 62
     0
 48
0.27
100
AcDbLine
 10
3087.231381074774
 20
1153.810836720717
 30
0.0
 11
3087.231381074774
 21
1130.210806203117
 31
0.0
  0
LINE
  5
9A38
330
1E
100
AcDbEntity
  8
虛線
 48
0.25
100
AcDbLine
 10
2950.731381074776
 20
1130.710806203121
 30
0.0
 11
2943.731381074783
 21
1130.71080620312
 31
0.0
  0
LINE
  5
9A39
330
1E
100
AcDbEntity
  8
虛線
 48
0.25
100
AcDbLine
 10
2950.731381074776
 20
1135.710836203118
 30
0.0
 11
2950.731381074776
 21
1130.710806203121
 31
0.0
  0
LINE
  5
9A3A
330
1E
100
AcDbEntity
  8
虛線
 48
0.25
100
AcDbLine
 10
2943.731381074781
 20
1135.710836203118
 30
0.0
 11
2943.731381074783
 21
1130.71080620312
 31
0.0
  0
LINE
  5
9A3B
330
1E
100
AcDbEntity
  8
中心線
 48
0.25
100
AcDbLine
 10
2947.231381074775
 20
1135.710836203118
 30
0.0
 11
2947.231381074773
 21
1128.712418305136
 31
0.0
  0
LINE
  5
9A3C
330
1E
100
AcDbEntity
  8
虛線
 48
0.25
100
AcDbLine
 10
2943.731381074783
 20
1130.71080620312
 30
0.0
 11
2943.231381074784
 21
1130.21080620312
 31
0.0
  0
LINE
  5
9A3D
330
1E
100
AcDbEntity
  8
虛線
 48
0.25
100
AcDbLine
 10
2950.731381074776
 20
1130.710806203121
 30
0.0
 11
2951.231381074775
 21
1130.210806203121
 31
0.0
  0
LINE
  5
9A3E
330
1E
100
AcDbEntity
  8
虛線
 48
0.25
100
AcDbLine
 10
2980.731381074776
 20
1130.710806203121
 30
0.0
 11
2973.731381074783
 21
1130.71080620312
 31
0.0
  0
LINE
  5
9A3F
330
1E
100
AcDbEntity
  8
虛線
 48
0.25
100
AcDbLine
 10
2980.731381074777
 20
1135.710836203118
 30
0.0
 11
2980.731381074776
 21
1130.710806203121
 31
0.0
  0
LINE
  5
9A40
330
1E
100
AcDbEntity
  8
虛線
 48
0.25
100
AcDbLine
 10
2973.731381074781
 20
1135.710836203118
 30
0.0
 11
2973.731381074783
 21
1130.71080620312
 31
0.0
  0
LINE
  5
9A41
330
1E
100
AcDbEntity
  8
中心線
 48
0.25
100
AcDbLine
 10
2977.231381074775
 20
1135.710836203118
 30
0.0
 11
2977.231381074773
 21
1128.712418305136
 31
0.0
  0
LINE
  5
9A42
330
1E
100
AcDbEntity
  8
虛線
 48
0.25
100
AcDbLine
 10
2973.731381074783
 20
1130.71080620312
 30
0.0
 11
2973.231381074784
 21
1130.21080620312
 31
0.0
  0
LINE
  5
9A43
330
1E
100
AcDbEntity
  8
虛線
 48
0.25
100
AcDbLine
 10
2980.731381074776
 20
1130.710806203121
 30
0.0
 11
2981.231381074774
 21
1130.210806203121
 31
0.0
  0
LINE
  5
9A44
330
1E
100
AcDbEntity
  8
虛線
 48
0.25
100
AcDbLine
 10
3010.731381074776
 20
1130.710806203121
 30
0.0
 11
3003.731381074783
 21
1130.71080620312
 31
0.0
  0
LINE
  5
9A45
330
1E
100
AcDbEntity
  8
虛線
 48
0.25
100
AcDbLine
 10
3010.731381074777
 20
1135.710836203118
 30
0.0
 11
3010.731381074776
 21
1130.710806203121
 31
0.0
  0
LINE
  5
9A46
330
1E
100
AcDbEntity
  8
虛線
 48
0.25
100
AcDbLine
 10
3003.731381074781
 20
1135.710836203118
 30
0.0
 11
3003.731381074783
 21
1130.71080620312
 31
0.0
  0
LINE
  5
9A47
330
1E
100
AcDbEntity
  8
中心線
 48
0.25
100
AcDbLine
 10
3007.231381074775
 20
1135.710836203118
 30
0.0
 11
3007.231381074773
 21
1128.712418305136
 31
0.0
  0
LINE
  5
9A48
330
1E
100
AcDbEntity
  8
虛線
 48
0.25
100
AcDbLine
 10
3003.731381074783
 20
1130.71080620312
 30
0.0
 11
3003.231381074784
 21
1130.21080620312
 31
0.0
  0
LINE
  5
9A49
330
1E
100
AcDbEntity
  8
虛線
 48
0.25
100
AcDbLine
 10
3010.731381074776
 20
1130.710806203121
 30
0.0
 11
3011.231381074775
 21
1130.210806203121
 31
0.0
  0
INSERT
  5
9A4A
330
1E
100
AcDbEntity
  8
0
 62
     1
 48
0.27
100
AcDbBlockReference
  2
A$C51E2538E
 10
3061.500441659323
 20
1128.712418305132
 30
0.0
  0
LINE
  5
9A4B
330
1E
100
AcDbEntity
  8
0
 62
     0
 48
0.27
100
AcDbLine
 10
2867.231381074774
 20
1237.37793038966
 30
0.0
 11
2867.231381074774
 21
1260.37791513086
 31
0.0
  0
LINE
  5
9A4C
330
1E
100
AcDbEntity
  8
0
 62
     0
 48
0.27
100
AcDbLine
 10
3087.231381074773
 20
1237.37793038966
 30
0.0
 11
3087.231381074774
 21
1260.37791513086
 31
0.0
  0
CIRCLE
  5
9A4D
330
1E
100
AcDbEntity
  8
0
 48
0.27
100
AcDbCircle
 10
2887.231381074779
 20
1248.877922760259
 30
0.0
 40
3.5
  0
CIRCLE
  5
9A4E
330
1E
100
AcDbEntity
  8
0
 48
0.27
100
AcDbCircle
 10
2887.231381074779
 20
1248.877922760259
 30
0.0
 40
5.5
  0
LINE
  5
9A4F
330
1E
100
AcDbEntity
  8
中心線
 48
0.2
100
AcDbLine
 10
2879.984463569053
 20
1248.877922760259
 30
0.0
 11
2894.478298580505
 21
1248.877922760259
 31
0.0
  0
LINE
  5
9A50
330
1E
100
AcDbEntity
  8
中心線
 48
0.2
100
AcDbLine
 10
2887.231381074779
 20
1241.631005254534
 30
0.0
 11
2887.231381074779
 21
1256.124840265986
 31
0.0
  0
ARC
  5
9A55
330
1E
100
AcDbEntity
  8
0
 48
0.27
100
AcDbCircle
 10
3037.231381074779
 20
1248.877922760259
 30
0.0
 40
3.5
100
AcDbArc
 50
216.8698976456955
 51
143.1301023543045
  0
ARC
  5
9A56
330
1E
100
AcDbEntity
  8
0
 48
0.27
100
AcDbCircle
 10
3037.231381074779
 20
1248.877922760259
 30
0.0
 40
5.5
100
AcDbArc
 50
239.3967053917328
 51
120.6032946082671
  0
LINE
  5
9A57
330
1E
100
AcDbEntity
  8
中心線
 48
0.2
100
AcDbLine
 10
3034.431381074774
 20
1248.877922760259
 30
0.0
 11
3044.478298580505
 21
1248.877922760259
 31
0.0
  0
LINE
  5
9A58
330
1E
100
AcDbEntity
  8
中心線
 48
0.2
100
AcDbLine
 10
3037.231381074779
 20
1241.631005254534
 30
0.0
 11
3037.231381074779
 21
1256.124840265986
 31
0.0
  0
CIRCLE
  5
9A59
330
1E
100
AcDbEntity
  8
0
 48
0.27
100
AcDbCircle
 10
3067.231381074779
 20
1248.877922760259
 30
0.0
 40
3.5
  0
CIRCLE
  5
9A5A
330
1E
100
AcDbEntity
  8
0
 48
0.27
100
AcDbCircle
 10
3067.231381074779
 20
1248.877922760259
 30
0.0
 40
5.5
  0
LINE
  5
9A5B
330
1E
100
AcDbEntity
  8
中心線
 48
0.2
100
AcDbLine
 10
3059.984463569052
 20
1248.877922760259
 30
0.0
 11
3074.478298580505
 21
1248.877922760259
 31
0.0
  0
LINE
  5
9A5C
330
1E
100
AcDbEntity
  8
中心線
 48
0.2
100
AcDbLine
 10
3067.231381074779
 20
1241.631005254534
 30
0.0
 11
3067.231381074779
 21
1256.124840265986
 31
0.0
  0
LINE
  5
9A5D
330
1E
100
AcDbEntity
  8
中心線
 48
0.12
100
AcDbLine
 10
3006.231381074774
 20
1266.37792276026
 30
0.0
 11
2998.231381074774
 21
1266.37792276026
 31
0.0
  0
LINE
  5
9A5E
330
1E
100
AcDbEntity
  8
中心線
 48
0.12
100
AcDbLine
 10
3002.231381074774
 20
1262.37792276026
 30
0.0
 11
3002.231381074774
 21
1270.37792276026
 31
0.0
  0
CIRCLE
  5
9A5F
330
1E
100
AcDbEntity
  8
0
  6
Continuous
 62
     7
100
AcDbCircle
 10
3002.231381074774
 20
1248.877922760259
 30
0.0
 40
2.5
  0
LINE
  5
9A62
330
1E
100
AcDbEntity
  8
中心線
 48
0.12
100
AcDbLine
 10
3002.231381074774
 20
1244.87792276026
 30
0.0
 11
3002.231381074774
 21
1252.87792276026
 31
0.0
  0
CIRCLE
  5
9A63
330
1E
100
AcDbEntity
  8
0
  6
Continuous
 62
     7
100
AcDbCircle
 10
3002.231381074774
 20
1231.377922760259
 30
0.0
 40
2.5
  0
LINE
  5
9A65
330
1E
100
AcDbEntity
  8
中心線
 48
0.12
100
AcDbLine
 10
3006.231381074774
 20
1231.377922760259
 30
0.0
 11
2998.231381074774
 21
1231.377922760259
 31
0.0
  0
LINE
  5
9A66
330
1E
100
AcDbEntity
  8
中心線
 48
0.12
100
AcDbLine
 10
3002.231381074774
 20
1227.37792276026
 30
0.0
 11
3002.231381074774
 21
1235.37792276026
 31
0.0
  0
CIRCLE
  5
9A67
330
1E
100
AcDbEntity
  8
0
  6
Continuous
 62
     7
100
AcDbCircle
 10
2952.231381074774
 20
1231.377922760259
 30
0.0
 40
2.5
  0
LINE
  5
9A69
330
1E
100
AcDbEntity
  8
中心線
 48
0.12
100
AcDbLine
 10
2956.231381074774
 20
1231.377922760259
 30
0.0
 11
2948.231381074774
 21
1231.377922760259
 31
0.0
  0
LINE
  5
9A6A
330
1E
100
AcDbEntity
  8
中心線
 48
0.12
100
AcDbLine
 10
2952.231381074774
 20
1227.37792276026
 30
0.0
 11
2952.231381074774
 21
1235.37792276026
 31
0.0
  0
CIRCLE
  5
9A6B
330
1E
100
AcDbEntity
  8
0
  6
Continuous
 62
     7
100
AcDbCircle
 10
2952.231381074774
 20
1248.877922760259
 30
0.0
 40
2.5
  0
LINE
  5
9A6E
330
1E
100
AcDbEntity
  8
中心線
 48
0.12
100
AcDbLine
 10
2952.231381074774
 20
1244.87792276026
 30
0.0
 11
2952.231381074774
 21
1252.87792276026
 31
0.0
  0
CIRCLE
  5
9A6F
330
1E
100
AcDbEntity
  8
0
  6
Continuous
 62
     7
100
AcDbCircle
 10
2952.231381074774
 20
1266.37792276026
 30
0.0
 40
2.5
  0
LINE
  5
9A71
330
1E
100
AcDbEntity
  8
中心線
 48
0.12
100
AcDbLine
 10
2956.231381074774
 20
1266.37792276026
 30
0.0
 11
2948.231381074774
 21
1266.37792276026
 31
0.0
  0
LINE
  5
9A72
330
1E
100
AcDbEntity
  8
中心線
 48
0.12
100
AcDbLine
 10
2952.231381074774
 20
1262.37792276026
 30
0.0
 11
2952.231381074774
 21
1270.37792276026
 31
0.0
  0
INSERT
  5
9A73
330
1E
100
AcDbEntity
  8
0
 48
0.27
100
AcDbBlockReference
  2
A$C3310154B
 10
3005.731371839957
 20
1156.909716036569
 30
0.0
 41
-1.0
  0
INSERT
  5
9A74
330
1E
100
AcDbEntity
  8
中心線
 48
0.27
100
AcDbBlockReference
  2
A$C3310154B
 10
2955.731371839958
 20
1156.909716036569
 30
0.0
 41
-1.0
  0
LINE
  5
9A75
330
1E
100
AcDbEntity
  8
0
  6
Continuous
 62
     7
100
AcDbLine
 10
3029.931381074774
 20
1142.345286510417
 30
0.0
 11
3029.231381074774
 21
1142.345286510417
 31
0.0
  0
LINE
  5
9A76
330
1E
100
AcDbEntity
  8
0
  6
Continuous
 62
     7
100
AcDbLine
 10
3029.231381074774
 20
1146.845286510417
 30
0.0
 11
3029.931381074774
 21
1146.845286510417
 31
0.0
  0
ARC
  5
9A77
330
1E
100
AcDbEntity
  8
0
 62
     0
 48
0.27
100
AcDbCircle
 10
3029.931381074774
 20
1145.845286510417
 30
0.0
 40
1.000000000000028
100
AcDbArc
 50
0.0
 51
89.99999999998697
  0
ARC
  5
9A78
330
1E
100
AcDbEntity
  8
0
 62
     0
 48
0.27
100
AcDbCircle
 10
3029.931381074774
 20
1143.345286510417
 30
0.0
 40
1.000000000000014
100
AcDbArc
 50
270.0
 51
0.0
  0
LINE
  5
9A79
330
1E
100
AcDbEntity
  8
0
 62
     0
 48
0.27
100
AcDbLine
 10
3030.931381074774
 20
1145.845286510417
 30
0.0
 11
3030.931381074774
 21
1143.345286510417
 31
0.0
  0
LINE
  5
9A7A
330
1E
100
AcDbEntity
  8
0
  6
Continuous
 62
     7
100
AcDbLine
 10
2924.531381074773
 20
1142.345286510417
 30
0.0
 11
2925.231381074774
 21
1142.345286510417
 31
0.0
  0
LINE
  5
9A7B
330
1E
100
AcDbEntity
  8
0
  6
Continuous
 62
     7
100
AcDbLine
 10
2925.231381074774
 20
1146.845286510417
 30
0.0
 11
2924.531381074773
 21
1146.845286510417
 31
0.0
  0
ARC
  5
9A7C
330
1E
100
AcDbEntity
  8
0
 62
     0
 48
0.27
100
AcDbCircle
 10
2924.531381074773
 20
1145.845286510417
 30
0.0
 40
1.000000000000028
100
AcDbArc
 50
90.0
 51
180.0
  0
ARC
  5
9A7D
330
1E
100
AcDbEntity
  8
0
 62
     0
 48
0.27
100
AcDbCircle
 10
2924.531381074773
 20
1143.345286510417
 30
0.0
 40
1.000000000000014
100
AcDbArc
 50
180.0
 51
270.0
  0
LINE
  5
9A7E
330
1E
100
AcDbEntity
  8
0
 62
     0
 48
0.27
100
AcDbLine
 10
2923.531381074773
 20
1145.845286510417
 30
0.0
 11
2923.531381074773
 21
1143.345286510417
 31
0.0
  0
ARC
  5
9A7F
330
1E
100
AcDbEntity
  8
0
 62
     0
 48
0.27
100
AcDbCircle
 10
3031.931381074774
 20
1154.996039030439
 30
0.0
 40
3.700000000000045
100
AcDbArc
 50
312.506642302704
 51
47.49335769729603
  0
ARC
  5
9A80
330
1E
100
AcDbEntity
  8
0
 62
     0
 48
0.27
100
AcDbCircle
 10
2922.531381074773
 20
1154.996039030439
 30
0.0
 40
3.700000000000045
100
AcDbArc
 50
132.5066423027039
 51
227.493357697296
  0
LINE
  5
9A81
330
1E
100
AcDbEntity
  8
中心線
 48
0.2
100
AcDbLine
 10
2917.367654376395
 20
1154.99603903049
 30
0.0
 11
2923.031381074774
 21
1154.99603903049
 31
0.0
  0
LINE
  5
9A82
330
1E
100
AcDbEntity
  8
中心線
 48
0.2
100
AcDbLine
 10
3037.095107773152
 20
1154.99603903049
 30
0.0
 11
3031.431381074773
 21
1154.99603903049
 31
0.0
  0
ARC
  5
9A83
330
1E
100
AcDbEntity
  8
0
 62
     0
 48
0.27
100
AcDbCircle
 10
3031.931381074774
 20
1230.37792276021
 30
0.0
 40
3.700000000000045
100
AcDbArc
 50
312.506642302704
 51
47.49335769729603
  0
LINE
  5
9A84
330
1E
100
AcDbEntity
  8
中心線
 48
0.2
100
AcDbLine
 10
3037.095107773152
 20
1230.37792276026
 30
0.0
 11
3031.431381074773
 21
1230.37792276026
 31
0.0
  0
ARC
  5
9A85
330
1E
100
AcDbEntity
  8
0
 62
     0
 48
0.27
100
AcDbCircle
 10
3031.931381074774
 20
1267.377922760209
 30
0.0
 40
3.700000000000045
100
AcDbArc
 50
312.506642302704
 51
47.49335769729603
  0
LINE
  5
9A86
330
1E
100
AcDbEntity
  8
中心線
 48
0.2
100
AcDbLine
 10
3037.095107773152
 20
1267.37792276026
 30
0.0
 11
3031.431381074773
 21
1267.37792276026
 31
0.0
  0
ARC
  5
9A87
330
1E
100
AcDbEntity
  8
0
 62
     0
 48
0.27
100
AcDbCircle
 10
2922.531381074773
 20
1230.37792276021
 30
0.0
 40
3.700000000000045
100
AcDbArc
 50
132.5066423027039
 51
227.493357697296
  0
LINE
  5
9A88
330
1E
100
AcDbEntity
  8
中心線
 48
0.2
100
AcDbLine
 10
2917.367654376395
 20
1230.37792276026
 30
0.0
 11
2923.031381074773
 21
1230.37792276026
 31
0.0
  0
ARC
  5
9A89
330
1E
100
AcDbEntity
  8
0
 62
     0
 48
0.27
100
AcDbCircle
 10
2922.531381074773
 20
1267.377922760209
 30
0.0
 40
3.700000000000045
100
AcDbArc
 50
132.5066423027039
 51
227.493357697296
  0
LINE
  5
9A8A
330
1E
100
AcDbEntity
  8
中心線
 48
0.2
100
AcDbLine
 10
2917.367654376395
 20
1267.37792276026
 30
0.0
 11
2923.031381074773
 21
1267.37792276026
 31
0.0
  0
LINE
  5
9A8B
330
1E
100
AcDbEntity
  8
虛線
 48
0.25
100
AcDbLine
 10
3040.731381074776
 20
1130.710806203117
 30
0.0
 11
3033.731381074783
 21
1130.710806203116
 31
0.0
  0
LINE
  5
9A8C
330
1E
100
AcDbEntity
  8
虛線
 48
0.25
100
AcDbLine
 10
3040.731381074777
 20
1144.510836720694
 30
0.0
 11
3040.731381074776
 21
1130.710806203117
 31
0.0
  0
LINE
  5
9A8D
330
1E
100
AcDbEntity
  8
虛線
 48
0.25
100
AcDbLine
 10
3033.731381074781
 20
1135.710826203117
 30
0.0
 11
3033.731381074783
 21
1130.710806203116
 31
0.0
  0
LINE
  5
9A8E
330
1E
100
AcDbEntity
  8
虛線
 48
0.25
100
AcDbLine
 10
3034.431381074774
 20
1144.810775685537
 30
0.0
 11
3042.731381074776
 21
1144.810775685538
 31
0.0
  0
LINE
  5
9A8F
330
1E
100
AcDbEntity
  8
中心線
 48
0.25
100
AcDbLine
 10
3037.231381074779
 20
1155.810836720694
 30
0.0
 11
3037.231381074773
 21
1128.712418305132
 31
0.0
  0
LINE
  5
9A90
330
1E
100
AcDbEntity
  8
虛線
 48
0.25
100
AcDbLine
 10
3033.731381074783
 20
1130.710806203116
 30
0.0
 11
3033.231381074784
 21
1130.210806203116
 31
0.0
  0
LINE
  5
9A91
330
1E
100
AcDbEntity
  8
虛線
 48
0.25
100
AcDbLine
 10
3040.731381074776
 20
1130.710806203117
 30
0.0
 11
3041.231381074775
 21
1130.210806203117
 31
0.0
  0
LINE
  5
9A92
330
1E
100
AcDbEntity
  8
虛線
 48
0.25
100
AcDbLine
 10
3042.731381074777
 20
1153.410836720694
 30
0.0
 11
3042.731381074776
 21
1144.810775685538
 31
0.0
  0
LINE
  5
9A93
330
1E
100
AcDbEntity
  8
虛線
 48
0.25
100
AcDbLine
 10
3035.274603119026
 20
1153.410836720694
 30
0.0
 11
3042.731381074777
 21
1153.410836720694
 31
0.0
  0
LINE
  5
9A94
330
1E
100
AcDbEntity
  8
虛線
 48
0.25
100
AcDbLine
 10
3034.431381074774
 20
1144.510836720694
 30
0.0
 11
3040.731381074777
 21
1144.510836720694
 31
0.0
  0
LINE
  5
9A95
330
1E
100
AcDbEntity
  8
虛線
 48
0.25
100
AcDbLine
 10
3040.731381074777
 20
1144.510836720694
 30
0.0
 11
3041.031381074777
 21
1144.810836720694
 31
0.0
  0
LINE
  5
9A96
330
1E
100
AcDbEntity
  8
虛線
 48
0.25
100
AcDbLine
 10
3042.731381074777
 20
1153.410836720694
 30
0.0
 11
3042.962321182453
 21
1153.810836720694
 31
0.0
  0
LINE
  5
9A97
330
1E
100
AcDbEntity
  8
虛線
 48
0.25
100
AcDbLine
 10
2920.731381074776
 20
1130.710806203117
 30
0.0
 11
2913.731381074783
 21
1130.710806203116
 31
0.0
  0
LINE
  5
9A98
330
1E
100
AcDbEntity
  8
虛線
 48
0.25
100
AcDbLine
 10
2920.731381074776
 20
1135.710826203117
 30
0.0
 11
2920.731381074776
 21
1130.710806203117
 31
0.0
  0
LINE
  5
9A99
330
1E
100
AcDbEntity
  8
虛線
 48
0.25
100
AcDbLine
 10
2911.731381074781
 20
1153.410836720694
 30
0.0
 11
2911.731381074782
 21
1144.810844350088
 31
0.0
  0
LINE
  5
9A9A
330
1E
100
AcDbEntity
  8
虛線
 48
0.25
100
AcDbLine
 10
2913.731381074777
 20
1144.510836720694
 30
0.0
 11
2913.731381074783
 21
1130.710806203116
 31
0.0
  0
LINE
  5
9A9B
330
1E
100
AcDbEntity
  8
虛線
 48
0.25
100
AcDbLine
 10
2911.731381074782
 20
1144.810775685537
 30
0.0
 11
2920.031381074773
 21
1144.810775685538
 31
0.0
  0
LINE
  5
9A9C
330
1E
100
AcDbEntity
  8
中心線
 48
0.25
100
AcDbLine
 10
2917.231381074779
 20
1155.810836720694
 30
0.0
 11
2917.231381074773
 21
1128.712418305132
 31
0.0
  0
LINE
  5
9A9D
330
1E
100
AcDbEntity
  8
虛線
 48
0.25
100
AcDbLine
 10
2913.731381074783
 20
1130.710806203116
 30
0.0
 11
2913.231381074784
 21
1130.210806203116
 31
0.0
  0
LINE
  5
9A9E
330
1E
100
AcDbEntity
  8
虛線
 48
0.25
100
AcDbLine
 10
2920.731381074776
 20
1130.710806203117
 30
0.0
 11
2921.231381074775
 21
1130.210806203117
 31
0.0
  0
LINE
  5
9A9F
330
1E
100
AcDbEntity
  8
虛線
 48
0.25
100
AcDbLine
 10
2911.731381074777
 20
1153.410836720694
 30
0.0
 11
2919.18815903052
 21
1153.410836720694
 31
0.0
  0
LINE
  5
9AA0
330
1E
100
AcDbEntity
  8
虛線
 48
0.25
100
AcDbLine
 10
2913.731381074777
 20
1144.510836720694
 30
0.0
 11
2920.031381074773
 21
1144.510836720694
 31
0.0
  0
LINE
  5
9AA1
330
1E
100
AcDbEntity
  8
虛線
 48
0.25
100
AcDbLine
 10
2913.431381074776
 20
1144.810836720694
 30
0.0
 11
2913.731381074777
 21
1144.510836720694
 31
0.0
  0
LINE
  5
9AA2
330
1E
100
AcDbEntity
  8
虛線
 48
0.25
100
AcDbLine
 10
2911.731381074777
 20
1153.410836720694
 30
0.0
 11
2911.500440967101
 21
1153.810836720694
 31
0.0
  0
LINE
  5
A188
330
1E
100
AcDbEntity
  8
0
100
AcDbLine
 10
2776.90967716007
 20
1165.810806202701
 30
0.0
 11
2776.409675729571
 21
1165.310806202701
 31
0.0
  0
LINE
  5
A189
330
1E
100
AcDbEntity
  8
0
100
AcDbLine
 10
2790.90966810017
 20
1165.810806202701
 30
0.0
 11
2776.909668100171
 21
1165.810806202701
 31
0.0
  0
LINE
  5
A18A
330
1E
100
AcDbEntity
  8
0
100
AcDbLine
 10
2791.40966047077
 20
1165.310806202701
 30
0.0
 11
2790.90965904017
 21
1165.810806202701
 31
0.0
  0
LINE
  5
C7AB
330
1E
100
AcDbEntity
  8
0
100
AcDbLine
 10
2892.731381074777
 20
1153.410836720695
 30
0.0
 11
2892.962321182454
 21
1153.810836720695
 31
0.0
  0
LINE
  5
C7AC
330
1E
100
AcDbEntity
  8
0
100
AcDbLine
 10
2890.731381074778
 20
1144.510836720695
 30
0.0
 11
2891.031381074778
 21
1144.810836720695
 31
0.0
  0
LINE
  5
C7AD
330
1E
100
AcDbEntity
  8
0
100
AcDbLine
 10
2881.731381074777
 20
1153.410836720695
 30
0.0
 11
2881.500440967102
 21
1153.810836720695
 31
0.0
  0
LINE
  5
C7AE
330
1E
100
AcDbEntity
  8
0
100
AcDbLine
 10
2883.431381074777
 20
1144.810836720695
 30
0.0
 11
2883.731381074777
 21
1144.510836720695
 31
0.0
  0
LINE
  5
C7AF
330
1E
100
AcDbEntity
  8
0
100
AcDbLine
 10
2883.731381074777
 20
1144.510836720695
 30
0.0
 11
2890.731381074778
 21
1144.510836720695
 31
0.0
  0
LINE
  5
C7B0
330
1E
100
AcDbEntity
  8
0
100
AcDbLine
 10
2881.731381074777
 20
1153.410836720695
 30
0.0
 11
2892.731381074777
 21
1153.410836720695
 31
0.0
  0
LINE
  5
C7B1
330
1E
100
AcDbEntity
  8
0
100
AcDbLine
 10
2892.731381074777
 20
1153.410836720695
 30
0.0
 11
2892.731381074776
 21
1144.810775685539
 31
0.0
  0
LINE
  5
C7B2
330
1E
100
AcDbEntity
  8
0
100
AcDbLine
 10
2890.731381074776
 20
1130.710806203117
 30
0.0
 11
2891.231381074775
 21
1130.210806203117
 31
0.0
  0
LINE
  5
C7B3
330
1E
100
AcDbEntity
  8
0
100
AcDbLine
 10
2883.731381074784
 20
1130.710806203116
 30
0.0
 11
2883.231381074785
 21
1130.210806203117
 31
0.0
  0
LINE
  5
C7B4
330
1E
100
AcDbEntity
  8
中心線
 48
0.25
100
AcDbLine
 10
2887.231381074779
 20
1155.810836720695
 30
0.0
 11
2887.231381074774
 21
1128.712418305133
 31
0.0
  0
LINE
  5
C7B5
330
1E
100
AcDbEntity
  8
0
100
AcDbLine
 10
2881.731381074783
 20
1144.810775685538
 30
0.0
 11
2892.731381074776
 21
1144.810775685539
 31
0.0
  0
LINE
  5
C7B6
330
1E
100
AcDbEntity
  8
0
100
AcDbLine
 10
2883.731381074777
 20
1144.510836720695
 30
0.0
 11
2883.731381074784
 21
1130.710806203116
 31
0.0
  0
LINE
  5
C7B7
330
1E
100
AcDbEntity
  8
0
100
AcDbLine
 10
2881.731381074782
 20
1153.410836720695
 30
0.0
 11
2881.731381074783
 21
1144.810844350089
 31
0.0
  0
LINE
  5
C7B8
330
1E
100
AcDbEntity
  8
0
100
AcDbLine
 10
2890.731381074778
 20
1144.510836720695
 30
0.0
 11
2890.731381074776
 21
1130.710806203117
 31
0.0
  0
LINE
  5
C7B9
330
1E
100
AcDbEntity
  8
0
100
AcDbLine
 10
2890.731381074776
 20
1130.710806203117
 30
0.0
 11
2883.731381074784
 21
1130.710806203116
 31
0.0
  0
LINE
  5
C7BA
330
1E
100
AcDbEntity
  8
0
100
AcDbLine
 10
2902.977892833932
 20
1134.092504610037
 30
0.0
 11
2901.574254698426
 21
1130.210806203117
 31
0.0
  0
LINE
  5
C7BB
330
1E
100
AcDbEntity
  8
0
100
AcDbLine
 10
2900.369986163555
 20
1139.649030070414
 30
0.0
 11
2902.977892833932
 21
1134.092504610037
 31
0.0
  0
LINE
  5
C7BC
330
1E
100
AcDbEntity
  8
0
100
AcDbLine
 10
2902.563960808882
 20
1144.603402132655
 30
0.0
 11
2900.369986163555
 21
1139.649030070414
 31
0.0
  0
LINE
  5
C7BD
330
1E
100
AcDbEntity
  8
0
100
AcDbLine
 10
2900.29919995825
 20
1149.268136851173
 30
0.0
 11
2902.563960808882
 21
1144.603402132655
 31
0.0
  0
LINE
  5
C7BE
330
1E
100
AcDbEntity
  8
0
100
AcDbLine
 10
2901.604590786237
 20
1153.810836720717
 30
0.0
 11
2900.29919995825
 21
1149.268136851173
 31
0.0
  0
LINE
  5
CAB3
330
1E
100
AcDbEntity
  8
中心線
 48
0.27
100
AcDbLine
 10
2925.881381074774
 20
1160.210806203118
 30
0.0
 11
2933.081381074774
 21
1160.210806203118
 31
0.0
  0
LINE
  5
CAB4
330
1E
100
AcDbEntity
  8
中心線
 48
0.27
100
AcDbLine
 10
2929.481381074774
 20
1156.610806203118
 30
0.0
 11
2929.481381074774
 21
1163.810806203118
 31
0.0
  0
LINE
  5
CABC
330
1E
100
AcDbEntity
  8
中心線
 48
0.27
100
AcDbLine
 10
3021.381381074774
 20
1160.210806203118
 30
0.0
 11
3028.581381074774
 21
1160.210806203118
 31
0.0
  0
LINE
  5
CABD
330
1E
100
AcDbEntity
  8
中心線
 48
0.27
100
AcDbLine
 10
3024.981381074774
 20
1156.610806203118
 30
0.0
 11
3024.981381074774
 21
1163.810806203118
 31
0.0
  0
LINE
  5
CC9E
330
1E
100
AcDbEntity
  8
中心線
 48
0.27
100
AcDbLine
 10
2905.03138283379
 20
1160.010806203117
 30
-0.0000000000000009
 11
2920.335850948327
 21
1160.010806203117
 31
-0.0000000000000009
  0
ARC
  5
CC9F
330
1E
100
AcDbEntity
  8
0
 48
0.27
100
AcDbCircle
 10
2919.222998074772
 20
1158.010825534217
 30
-0.0000000000000009
 40
2.954110999999976
100
AcDbArc
 50
137.3885930045096
 51
222.6114069976016
  0
ARC
  5
CCA0
330
1E
100
AcDbEntity
  8
0
 48
0.27
100
AcDbCircle
 10
2919.222999074773
 20
1162.010825534217
 30
-0.0000000000000009
 40
2.954111999999976
100
AcDbArc
 50
137.3885980021923
 51
222.6114019998916
  0
LWPOLYLINE
  5
CCA1
330
1E
100
AcDbEntity
  8
0
 48
0.27
100
AcDbPolyline
 90
       31
 70
     0
 43
0.0
 10
2908.940170074773
 20
1160.010825534217
 10
2908.907352074773
 20
1160.221080534217
 10
2908.863205074773
 20
1160.326567534217
 10
2908.800172074773
 20
1160.424346534217
 10
2908.720696074773
 20
1160.508459534217
 10
2908.629205074773
 20
1160.574332534217
 10
2908.531285074774
 20
1160.619613534217
 10
2908.398649074773
 20
1160.648554534217
 10
2908.275640074773
 20
1160.645895534217
 10
2908.168716074773
 20
1160.620389534217
 10
2908.052511074773
 20
1160.564621534217
 10
2907.941941074773
 20
1160.475132534217
 10
2907.853711074773
 20
1160.360582534217
 10
2907.797077074773
 20
1160.240743534217
 10
2907.769226074773
 20
1160.137087534217
 10
2907.757605074773
 20
1160.010825534217
 10
2907.790423074773
 20
1159.800570534217
 10
2907.834571074772
 20
1159.695082534217
 10
2907.897603074772
 20
1159.597304534217
 10
2907.977079074773
 20
1159.513191534217
 10
2908.068570074773
 20
1159.447318534217
 10
2908.166490074773
 20
1159.402037534217
 10
2908.299126074773
 20
1159.373095534217
 10
2908.422135074773
 20
1159.375755534217
 10
2908.529059074773
 20
1159.401260534217
 10
2908.645264074773
 20
1159.457028534217
 10
2908.755834074773
 20
1159.546518534217
 10
2908.844064074773
 20
1159.661067534217
 10
2908.900698074773
 20
1159.780906534217
 10
2908.928550074773
 20
1159.884563534217
 10
2908.940170074773
 20
1160.010825534217
  0
ARC
  5
CCA2
330
1E
100
AcDbEntity
  8
0
 48
0.27
100
AcDbCircle
 10
2912.520547074773
 20
1160.010825534217
 30
-0.0000000000000009
 40
3.999999999999968
100
AcDbArc
 50
90.0
 51
131.4096219996085
  0
ARC
  5
CCA3
330
1E
100
AcDbEntity
  8
0
 48
0.27
100
AcDbCircle
 10
2912.520547074773
 20
1160.010825534217
 30
-0.0000000000000009
 40
3.999999999999968
100
AcDbArc
 50
228.5903779972994
 51
270.0
  0
LINE
  5
CCA4
330
1E
100
AcDbEntity
  8
0
 48
0.27
100
AcDbLine
 10
2920.031381074773
 20
1164.010825534217
 30
-0.0000000000000009
 11
2912.520547074773
 21
1164.010825534217
 31
-0.0000000000000009
  0
LINE
  5
CCA5
330
1E
100
AcDbEntity
  8
0
 48
0.27
100
AcDbLine
 10
2917.048883074773
 20
1160.010825534217
 30
-0.0000000000000009
 11
2920.031381074773
 21
1160.010825534217
 31
-0.0000000000000009
  0
LINE
  5
CCA6
330
1E
100
AcDbEntity
  8
0
 48
0.27
100
AcDbLine
 10
2912.520547074773
 20
1156.010825534217
 30
-0.0000000000000009
 11
2918.973262421362
 21
1156.010825534217
 31
-0.0000000000000009
  0
LINE
  5
CCA7
330
1E
100
AcDbEntity
  8
0
 48
0.27
100
AcDbLine
 10
2916.268887074773
 20
1164.010825534217
 30
-0.0000000000000009
 11
2916.268887074773
 21
1156.010825534217
 31
-0.0000000000000009
  0
LINE
  5
CCA8
330
1E
100
AcDbEntity
  8
0
 48
0.27
100
AcDbLine
 10
2908.993110074773
 20
1163.010825534217
 30
-0.0000000000000009
 11
2912.892886074773
 21
1163.010825534217
 31
-0.0000000000000009
  0
LINE
  5
CCA9
330
1E
100
AcDbEntity
  8
0
 48
0.27
100
AcDbLine
 10
2908.746717074773
 20
1157.472752534217
 30
-0.0000000000000009
 11
2908.993110074773
 21
1157.010825534217
 31
-0.0000000000000009
  0
LINE
  5
CCAA
330
1E
100
AcDbEntity
  8
0
 48
0.27
100
AcDbLine
 10
2908.993110074773
 20
1163.010825534217
 30
-0.0000000000000009
 11
2908.746717074773
 21
1162.548898534217
 31
-0.0000000000000009
  0
LINE
  5
CCAB
330
1E
100
AcDbEntity
  8
0
 48
0.27
100
AcDbLine
 10
2913.793728074773
 20
1160.010825534217
 30
-0.0000000000000009
 11
2914.493092074773
 21
1160.010825534217
 31
-0.0000000000000009
  0
LINE
  5
CCAC
330
1E
100
AcDbEntity
  8
0
 48
0.27
100
AcDbLine
 10
2912.892886074773
 20
1163.010825534217
 30
-0.0000000000000009
 11
2914.493092074773
 21
1160.010825534217
 31
-0.0000000000000009
  0
LINE
  5
CCAD
330
1E
100
AcDbEntity
  8
0
 48
0.27
100
AcDbLine
 10
2912.892886074773
 20
1157.010825534217
 30
-0.0000000000000009
 11
2908.993110074773
 21
1157.010825534217
 31
-0.0000000000000009
  0
LINE
  5
CCAE
330
1E
100
AcDbEntity
  8
0
 48
0.27
100
AcDbLine
 10
2914.493092074773
 20
1160.010825534217
 30
-0.0000000000000009
 11
2912.892886074773
 21
1157.010825534217
 31
-0.0000000000000009
  0
LINE
  5
CCAF
330
1E
100
AcDbEntity
  8
0
 48
0.27
100
AcDbLine
 10
2909.114189074773
 20
1162.540359534217
 30
-0.0000000000000009
 11
2909.532656074773
 21
1162.782463534217
 31
-0.0000000000000009
  0
LINE
  5
CCB0
330
1E
100
AcDbEntity
  8
0
 48
0.27
100
AcDbLine
 10
2909.114189074773
 20
1157.481290534217
 30
-0.0000000000000009
 11
2909.532656074773
 21
1157.239186534217
 31
-0.0000000000000009
  0
LINE
  5
CCB1
330
1E
100
AcDbEntity
  8
0
 48
0.27
100
AcDbLine
 10
2909.532656074773
 20
1162.782463534217
 30
-0.0000000000000009
 11
2910.052596074773
 21
1162.953181534217
 31
-0.0000000000000009
  0
LINE
  5
CCB2
330
1E
100
AcDbEntity
  8
0
 48
0.27
100
AcDbLine
 10
2909.532656074773
 20
1157.239186534217
 30
-0.0000000000000009
 11
2910.052596074773
 21
1157.068469534217
 31
-0.0000000000000009
  0
LINE
  5
CCB3
330
1E
100
AcDbEntity
  8
0
 48
0.27
100
AcDbLine
 10
2910.052596074773
 20
1162.953181534217
 30
-0.0000000000000009
 11
2910.593316074773
 21
1163.010825534217
 31
-0.0000000000000009
  0
LINE
  5
CCB4
330
1E
100
AcDbEntity
  8
0
 48
0.27
100
AcDbLine
 10
2910.052596074773
 20
1157.068469534217
 30
-0.0000000000000009
 11
2910.593316074773
 21
1157.010825534217
 31
-0.0000000000000009
  0
LINE
  5
CCB5
330
1E
100
AcDbEntity
  8
0
 48
0.27
100
AcDbLine
 10
2910.593316074773
 20
1163.010825534217
 30
-0.0000000000000009
 11
2911.134036074773
 21
1162.953181534217
 31
-0.0000000000000009
  0
LINE
  5
CCB6
330
1E
100
AcDbEntity
  8
0
 48
0.27
100
AcDbLine
 10
2910.593316074773
 20
1157.010825534217
 30
-0.0000000000000009
 11
2911.134036074773
 21
1157.068469534217
 31
-0.0000000000000009
  0
LINE
  5
CCB7
330
1E
100
AcDbEntity
  8
0
 48
0.27
100
AcDbLine
 10
2911.134036074773
 20
1162.953181534217
 30
-0.0000000000000009
 11
2911.653976074773
 21
1162.782463534217
 31
-0.0000000000000009
  0
LINE
  5
CCB8
330
1E
100
AcDbEntity
  8
0
 48
0.27
100
AcDbLine
 10
2911.134036074773
 20
1157.068469534217
 30
-0.0000000000000009
 11
2911.653976074773
 21
1157.239186534217
 31
-0.0000000000000009
  0
LINE
  5
CCB9
330
1E
100
AcDbEntity
  8
0
 48
0.27
100
AcDbLine
 10
2911.653976074773
 20
1162.782463534217
 30
-0.0000000000000009
 11
2912.133156074773
 21
1162.505234534217
 31
-0.0000000000000009
  0
LINE
  5
CCBA
330
1E
100
AcDbEntity
  8
0
 48
0.27
100
AcDbLine
 10
2911.653976074773
 20
1157.239186534217
 30
-0.0000000000000009
 11
2912.133156074773
 21
1157.516416534217
 31
-0.0000000000000009
  0
LINE
  5
CCBB
330
1E
100
AcDbEntity
  8
0
 48
0.27
100
AcDbLine
 10
2912.133156074773
 20
1162.505234534217
 30
-0.0000000000000009
 11
2912.553160074773
 21
1162.132145534217
 31
-0.0000000000000009
  0
LINE
  5
CCBC
330
1E
100
AcDbEntity
  8
0
 48
0.27
100
AcDbLine
 10
2912.133156074773
 20
1157.516416534217
 30
-0.0000000000000009
 11
2912.553160074773
 21
1157.889504534217
 31
-0.0000000000000009
  0
LINE
  5
CCBD
330
1E
100
AcDbEntity
  8
0
 48
0.27
100
AcDbLine
 10
2912.193522074773
 20
1163.010825534217
 30
-0.0000000000000009
 11
2913.793728074773
 21
1160.010825534217
 31
-0.0000000000000009
  0
LINE
  5
CCBE
330
1E
100
AcDbEntity
  8
0
 48
0.27
100
AcDbLine
 10
2913.793728074773
 20
1160.010825534217
 30
-0.0000000000000009
 11
2912.193522074773
 21
1157.010825534217
 31
-0.0000000000000009
  0
LINE
  5
CCBF
330
1E
100
AcDbEntity
  8
0
 48
0.27
100
AcDbLine
 10
2912.553160074773
 20
1162.132145534217
 30
-0.0000000000000009
 11
2912.897849074773
 21
1161.677535534217
 31
-0.0000000000000009
  0
LINE
  5
CCC0
330
1E
100
AcDbEntity
  8
0
 48
0.27
100
AcDbLine
 10
2912.897849074773
 20
1158.344114534217
 30
-0.0000000000000009
 11
2912.553160074773
 21
1157.889504534217
 31
-0.0000000000000009
  0
LINE
  5
CCC1
330
1E
100
AcDbEntity
  8
0
 48
0.27
100
AcDbLine
 10
2912.897849074773
 20
1161.677535534217
 30
-0.0000000000000009
 11
2913.153976074773
 21
1161.158875534217
 31
-0.0000000000000009
  0
LINE
  5
CCC2
330
1E
100
AcDbEntity
  8
0
 48
0.27
100
AcDbLine
 10
2913.153976074773
 20
1158.862774534217
 30
-0.0000000000000009
 11
2912.897849074773
 21
1158.344114534217
 31
-0.0000000000000009
  0
LINE
  5
CCC3
330
1E
100
AcDbEntity
  8
0
 48
0.27
100
AcDbLine
 10
2913.153976074773
 20
1161.158875534217
 30
-0.0000000000000009
 11
2913.311698074773
 21
1160.596096534217
 31
-0.0000000000000009
  0
LINE
  5
CCC4
330
1E
100
AcDbEntity
  8
0
 48
0.27
100
AcDbLine
 10
2913.311698074773
 20
1159.425554534217
 30
-0.0000000000000009
 11
2913.153976074773
 21
1158.862774534217
 31
-0.0000000000000009
  0
LINE
  5
CCC5
330
1E
100
AcDbEntity
  8
0
 48
0.27
100
AcDbLine
 10
2913.311698074773
 20
1160.596096534217
 30
-0.0000000000000009
 11
2913.364954074773
 21
1160.010825534217
 31
-0.0000000000000009
  0
LINE
  5
CCC6
330
1E
100
AcDbEntity
  8
0
 48
0.27
100
AcDbLine
 10
2913.364954074773
 20
1160.010825534217
 30
-0.0000000000000009
 11
2913.311698074773
 21
1159.425554534217
 31
-0.0000000000000009
  0
LINE
  5
CCC7
330
1E
100
AcDbEntity
  8
0
 48
0.27
100
AcDbLine
 10
2907.689419074773
 20
1161.651052534217
 30
-0.0000000000000009
 11
2907.692390074773
 21
1161.649437534217
 31
-0.0000000000000009
  0
LINE
  5
CCC8
330
1E
100
AcDbEntity
  8
0
 48
0.27
100
AcDbLine
 10
2907.689419074773
 20
1158.370597534217
 30
-0.0000000000000009
 11
2907.692390074773
 21
1158.372213534217
 31
-0.0000000000000009
  0
LINE
  5
CCC9
330
1E
100
AcDbEntity
  8
0
 48
0.27
100
AcDbLine
 10
2906.576709074773
 20
1160.508967534217
 30
-0.0000000000000009
 11
2906.531381074773
 21
1160.010825534217
 31
-0.0000000000000009
  0
LINE
  5
CCCA
330
1E
100
AcDbEntity
  8
0
 48
0.27
100
AcDbLine
 10
2906.710951074773
 20
1160.987965534217
 30
-0.0000000000000009
 11
2906.576709074773
 21
1160.508967534217
 31
-0.0000000000000009
  0
LINE
  5
CCCB
330
1E
100
AcDbEntity
  8
0
 48
0.27
100
AcDbLine
 10
2906.531381074773
 20
1160.010825534217
 30
-0.0000000000000009
 11
2906.576709074773
 21
1159.512683534217
 31
-0.0000000000000009
  0
LINE
  5
CCCC
330
1E
100
AcDbEntity
  8
0
 48
0.27
100
AcDbLine
 10
2906.928948074773
 20
1161.429413534217
 30
-0.0000000000000009
 11
2906.710951074773
 21
1160.987965534217
 31
-0.0000000000000009
  0
LINE
  5
CCCD
330
1E
100
AcDbEntity
  8
0
 48
0.27
100
AcDbLine
 10
2906.576709074773
 20
1159.512683534217
 30
-0.0000000000000009
 11
2906.710951074773
 21
1159.033684534217
 31
-0.0000000000000009
  0
LINE
  5
CCCE
330
1E
100
AcDbEntity
  8
0
 48
0.27
100
AcDbLine
 10
2907.222324074773
 20
1161.816345534217
 30
-0.0000000000000009
 11
2906.928948074773
 21
1161.429413534217
 31
-0.0000000000000009
  0
LINE
  5
CCCF
330
1E
100
AcDbEntity
  8
0
 48
0.27
100
AcDbLine
 10
2906.710951074773
 20
1159.033684534217
 30
-0.0000000000000009
 11
2906.928948074773
 21
1158.592237534217
 31
-0.0000000000000009
  0
LINE
  5
CCD0
330
1E
100
AcDbEntity
  8
0
 48
0.27
100
AcDbLine
 10
2907.222324074773
 20
1161.816345534217
 30
-0.0000000000000009
 11
2907.579802074773
 21
1162.133892534217
 31
-0.0000000000000009
  0
LINE
  5
CCD1
330
1E
100
AcDbEntity
  8
0
 48
0.27
100
AcDbLine
 10
2906.928948074773
 20
1158.592237534217
 30
-0.0000000000000009
 11
2907.222324074773
 21
1158.205305534217
 31
-0.0000000000000009
  0
LINE
  5
CCD2
330
1E
100
AcDbEntity
  8
0
 48
0.27
100
AcDbLine
 10
2906.725412074773
 20
1160.360361534217
 30
-0.0000000000000009
 11
2906.693606074773
 21
1160.010825534217
 31
-0.0000000000000009
  0
LINE
  5
CCD3
330
1E
100
AcDbEntity
  8
0
 48
0.27
100
AcDbLine
 10
2906.819607074773
 20
1160.696465534217
 30
-0.0000000000000009
 11
2906.725412074773
 21
1160.360361534217
 31
-0.0000000000000009
  0
LINE
  5
CCD4
330
1E
100
AcDbEntity
  8
0
 48
0.27
100
AcDbLine
 10
2906.693606074773
 20
1160.010825534217
 30
-0.0000000000000009
 11
2906.725412074773
 21
1159.661289534217
 31
-0.0000000000000009
  0
LINE
  5
CCD5
330
1E
100
AcDbEntity
  8
0
 48
0.27
100
AcDbLine
 10
2906.972571074773
 20
1161.006220534217
 30
-0.0000000000000009
 11
2906.819607074773
 21
1160.696465534217
 31
-0.0000000000000009
  0
LINE
  5
CCD6
330
1E
100
AcDbEntity
  8
0
 48
0.27
100
AcDbLine
 10
2906.725412074773
 20
1159.661289534217
 30
-0.0000000000000009
 11
2906.819607074773
 21
1159.325185534217
 31
-0.0000000000000009
  0
LINE
  5
CCD7
330
1E
100
AcDbEntity
  8
0
 48
0.27
100
AcDbLine
 10
2907.579802074773
 20
1162.133892534217
 30
-0.0000000000000009
 11
2907.987647074773
 21
1162.369851534217
 31
-0.0000000000000009
  0
LINE
  5
CCD8
330
1E
100
AcDbEntity
  8
0
 48
0.27
100
AcDbLine
 10
2907.222324074773
 20
1158.205305534217
 30
-0.0000000000000009
 11
2907.579802074773
 21
1157.887758534217
 31
-0.0000000000000009
  0
LINE
  5
CCD9
330
1E
100
AcDbEntity
  8
0
 48
0.27
100
AcDbLine
 10
2907.178427074773
 20
1161.277722534217
 30
-0.0000000000000009
 11
2906.972571074773
 21
1161.006220534217
 31
-0.0000000000000009
  0
LINE
  5
CCDA
330
1E
100
AcDbEntity
  8
0
 48
0.27
100
AcDbLine
 10
2906.819607074773
 20
1159.325185534217
 30
-0.0000000000000009
 11
2906.972571074773
 21
1159.015430534217
 31
-0.0000000000000009
  0
LINE
  5
CCDB
330
1E
100
AcDbEntity
  8
0
 48
0.27
100
AcDbLine
 10
2907.987647074773
 20
1162.369851534217
 30
-0.0000000000000009
 11
2908.430184074773
 21
1162.515153534217
 31
-0.0000000000000009
  0
LINE
  5
CCDC
330
1E
100
AcDbEntity
  8
0
 48
0.27
100
AcDbLine
 10
2907.579802074773
 20
1157.887758534217
 30
-0.0000000000000009
 11
2907.987647074773
 21
1157.651799534217
 31
-0.0000000000000009
  0
LINE
  5
CCDD
330
1E
100
AcDbEntity
  8
0
 48
0.27
100
AcDbLine
 10
2907.178427074773
 20
1161.277722534217
 30
-0.0000000000000009
 11
2907.429262074773
 21
1161.500539534217
 31
-0.0000000000000009
  0
LINE
  5
CCDE
330
1E
100
AcDbEntity
  8
0
 48
0.27
100
AcDbLine
 10
2906.972571074773
 20
1159.015430534217
 30
-0.0000000000000009
 11
2907.178427074773
 21
1158.743927534217
 31
-0.0000000000000009
  0
LINE
  5
CCDF
330
1E
100
AcDbEntity
  8
0
 48
0.27
100
AcDbLine
 10
2908.430184074773
 20
1162.515153534217
 30
-0.0000000000000009
 11
2908.890407074773
 21
1162.564216534217
 31
-0.0000000000000009
  0
LINE
  5
CCE0
330
1E
100
AcDbEntity
  8
0
 48
0.27
100
AcDbLine
 10
2907.987647074773
 20
1157.651799534217
 30
-0.0000000000000009
 11
2908.430184074773
 21
1157.506496534217
 31
-0.0000000000000009
  0
LINE
  5
CCE1
330
1E
100
AcDbEntity
  8
0
 48
0.27
100
AcDbLine
 10
2907.429262074773
 20
1161.500539534217
 30
-0.0000000000000009
 11
2907.715439074773
 21
1161.666106534217
 31
-0.0000000000000009
  0
LINE
  5
CCE2
330
1E
100
AcDbEntity
  8
0
 48
0.27
100
AcDbLine
 10
2907.178427074773
 20
1158.743927534217
 30
-0.0000000000000009
 11
2907.429262074773
 21
1158.521111534217
 31
-0.0000000000000009
  0
LINE
  5
CCE3
330
1E
100
AcDbEntity
  8
0
 48
0.27
100
AcDbLine
 10
2909.495066074773
 20
1162.487806534217
 30
-0.0000000000000009
 11
2909.932770074773
 21
1162.344090534217
 31
-0.0000000000000009
  0
LINE
  5
CCE4
330
1E
100
AcDbEntity
  8
0
 48
0.27
100
AcDbLine
 10
2907.715439074773
 20
1161.666106534217
 30
-0.0000000000000009
 11
2908.025958074773
 21
1161.768062534217
 31
-0.0000000000000009
  0
LINE
  5
CCE5
330
1E
100
AcDbEntity
  8
0
 48
0.27
100
AcDbLine
 10
2907.429262074773
 20
1158.521111534217
 30
-0.0000000000000009
 11
2907.715439074773
 21
1158.355543534217
 31
-0.0000000000000009
  0
LINE
  5
CCE6
330
1E
100
AcDbEntity
  8
0
 48
0.27
100
AcDbLine
 10
2909.350630074773
 20
1162.515153534217
 30
-0.0000000000000009
 11
2909.495066074773
 21
1162.487806534217
 31
-0.0000000000000009
  0
LINE
  5
CCE7
330
1E
100
AcDbEntity
  8
0
 48
0.27
100
AcDbLine
 10
2908.890407074773
 20
1162.564216534217
 30
-0.0000000000000009
 11
2909.350630074773
 21
1162.515153534217
 31
-0.0000000000000009
  0
LINE
  5
CCE8
330
1E
100
AcDbEntity
  8
0
 48
0.27
100
AcDbLine
 10
2908.430184074773
 20
1157.506496534217
 30
-0.0000000000000009
 11
2908.890407074773
 21
1157.457434534217
 31
-0.0000000000000009
  0
LINE
  5
CCE9
330
1E
100
AcDbEntity
  8
0
 48
0.27
100
AcDbLine
 10
2909.932770074773
 20
1162.344090534217
 30
-0.0000000000000009
 11
2910.336161074773
 21
1162.110708534217
 31
-0.0000000000000009
  0
LINE
  5
CCEA
330
1E
100
AcDbEntity
  8
0
 48
0.27
100
AcDbLine
 10
2909.495066074773
 20
1157.533844534217
 30
-0.0000000000000009
 11
2909.932770074773
 21
1157.677560534217
 31
-0.0000000000000009
  0
LINE
  5
CCEB
330
1E
100
AcDbEntity
  8
0
 48
0.27
100
AcDbLine
 10
2910.336161074773
 20
1162.110708534217
 30
-0.0000000000000009
 11
2910.689736074773
 21
1161.796629534217
 31
-0.0000000000000009
  0
LINE
  5
CCEC
330
1E
100
AcDbEntity
  8
0
 48
0.27
100
AcDbLine
 10
2909.932770074773
 20
1157.677560534217
 30
-0.0000000000000009
 11
2910.336161074773
 21
1157.910942534217
 31
-0.0000000000000009
  0
LINE
  5
CCED
330
1E
100
AcDbEntity
  8
0
 48
0.27
100
AcDbLine
 10
2908.025958074773
 20
1161.768062534217
 30
-0.0000000000000009
 11
2908.348888074773
 21
1161.802488534217
 31
-0.0000000000000009
  0
LINE
  5
CCEE
330
1E
100
AcDbEntity
  8
0
 48
0.27
100
AcDbLine
 10
2907.715439074773
 20
1158.355543534217
 30
-0.0000000000000009
 11
2908.025958074773
 21
1158.253587534217
 31
-0.0000000000000009
  0
LINE
  5
CCEF
330
1E
100
AcDbEntity
  8
0
 48
0.27
100
AcDbLine
 10
2909.350630074773
 20
1162.515153534217
 30
-0.0000000000000009
 11
2909.793167074773
 21
1162.369851534217
 31
-0.0000000000000009
  0
LINE
  5
CCF0
330
1E
100
AcDbEntity
  8
0
 48
0.27
100
AcDbLine
 10
2909.350630074773
 20
1157.506496534217
 30
-0.0000000000000009
 11
2909.495066074773
 21
1157.533844534217
 31
-0.0000000000000009
  0
LINE
  5
CCF1
330
1E
100
AcDbEntity
  8
0
 48
0.27
100
AcDbLine
 10
2908.890407074773
 20
1157.457434534217
 30
-0.0000000000000009
 11
2909.350630074773
 21
1157.506496534217
 31
-0.0000000000000009
  0
LINE
  5
CCF2
330
1E
100
AcDbEntity
  8
0
 48
0.27
100
AcDbLine
 10
2910.689736074773
 20
1161.796629534217
 30
-0.0000000000000009
 11
2910.979907074773
 21
1161.413922534217
 31
-0.0000000000000009
  0
LINE
  5
CCF3
330
1E
100
AcDbEntity
  8
0
 48
0.27
100
AcDbLine
 10
2910.336161074773
 20
1157.910942534217
 30
-0.0000000000000009
 11
2910.689736074773
 21
1158.225021534217
 31
-0.0000000000000009
  0
LINE
  5
CCF4
330
1E
100
AcDbEntity
  8
0
 48
0.27
100
AcDbLine
 10
2908.348888074773
 20
1161.802488534217
 30
-0.0000000000000009
 11
2908.671817074773
 21
1161.768062534217
 31
-0.0000000000000009
  0
LINE
  5
CCF5
330
1E
100
AcDbEntity
  8
0
 48
0.27
100
AcDbLine
 10
2908.025958074773
 20
1158.253587534217
 30
-0.0000000000000009
 11
2908.348888074773
 21
1158.219161534217
 31
-0.0000000000000009
  0
LINE
  5
CCF6
330
1E
100
AcDbEntity
  8
0
 48
0.27
100
AcDbLine
 10
2909.793167074773
 20
1162.369851534217
 30
-0.0000000000000009
 11
2910.201011074773
 21
1162.133892534217
 31
-0.0000000000000009
  0
LINE
  5
CCF7
330
1E
100
AcDbEntity
  8
0
 48
0.27
100
AcDbLine
 10
2909.350630074773
 20
1157.506496534217
 30
-0.0000000000000009
 11
2909.793167074773
 21
1157.651799534217
 31
-0.0000000000000009
  0
LINE
  5
CCF8
330
1E
100
AcDbEntity
  8
0
 48
0.27
100
AcDbLine
 10
2910.979907074773
 20
1161.413922534217
 30
-0.0000000000000009
 11
2911.195524074773
 21
1160.977295534217
 31
-0.0000000000000009
  0
LINE
  5
CCF9
330
1E
100
AcDbEntity
  8
0
 48
0.27
100
AcDbLine
 10
2910.979907074773
 20
1158.607728534217
 30
-0.0000000000000009
 11
2910.689736074773
 21
1158.225021534217
 31
-0.0000000000000009
  0
LINE
  5
CCFA
330
1E
100
AcDbEntity
  8
0
 48
0.27
100
AcDbLine
 10
2911.195524074773
 20
1160.977295534217
 30
-0.0000000000000009
 11
2911.328300074773
 21
1160.503527534217
 31
-0.0000000000000009
  0
LINE
  5
CCFB
330
1E
100
AcDbEntity
  8
0
 48
0.27
100
AcDbLine
 10
2911.195524074773
 20
1159.044355534217
 30
-0.0000000000000009
 11
2910.979907074773
 21
1158.607728534217
 31
-0.0000000000000009
  0
LINE
  5
CCFC
330
1E
100
AcDbEntity
  8
0
 48
0.27
100
AcDbLine
 10
2910.201011074773
 20
1162.133892534217
 30
-0.0000000000000009
 11
2910.558490074773
 21
1161.816345534217
 31
-0.0000000000000009
  0
LINE
  5
CCFD
330
1E
100
AcDbEntity
  8
0
 48
0.27
100
AcDbLine
 10
2909.793167074773
 20
1157.651799534217
 30
-0.0000000000000009
 11
2910.201011074773
 21
1157.887758534217
 31
-0.0000000000000009
  0
LINE
  5
CCFE
330
1E
100
AcDbEntity
  8
0
 48
0.27
100
AcDbLine
 10
2911.328300074773
 20
1160.503527534217
 30
-0.0000000000000009
 11
2911.373133074773
 21
1160.010825534217
 31
-0.0000000000000009
  0
LINE
  5
CCFF
330
1E
100
AcDbEntity
  8
0
 48
0.27
100
AcDbLine
 10
2911.328300074773
 20
1159.518123534217
 30
-0.0000000000000009
 11
2911.195524074773
 21
1159.044355534217
 31
-0.0000000000000009
  0
LINE
  5
CD00
330
1E
100
AcDbEntity
  8
0
 48
0.27
100
AcDbLine
 10
2908.671817074773
 20
1161.768062534217
 30
-0.0000000000000009
 11
2908.982336074773
 21
1161.666106534217
 31
-0.0000000000000009
  0
LINE
  5
CD01
330
1E
100
AcDbEntity
  8
0
 48
0.27
100
AcDbLine
 10
2908.348888074773
 20
1158.219161534217
 30
-0.0000000000000009
 11
2908.671817074773
 21
1158.253587534217
 31
-0.0000000000000009
  0
LINE
  5
CD02
330
1E
100
AcDbEntity
  8
0
 48
0.27
100
AcDbLine
 10
2911.373133074773
 20
1160.010825534217
 30
-0.0000000000000009
 11
2911.328300074773
 21
1159.518123534217
 31
-0.0000000000000009
  0
LINE
  5
CD03
330
1E
100
AcDbEntity
  8
0
 48
0.27
100
AcDbLine
 10
2910.558490074773
 20
1161.816345534217
 30
-0.0000000000000009
 11
2910.851865074773
 21
1161.429413534217
 31
-0.0000000000000009
  0
LINE
  5
CD04
330
1E
100
AcDbEntity
  8
0
 48
0.27
100
AcDbLine
 10
2910.201011074773
 20
1157.887758534217
 30
-0.0000000000000009
 11
2910.558490074773
 21
1158.205305534217
 31
-0.0000000000000009
  0
LINE
  5
CD05
330
1E
100
AcDbEntity
  8
0
 48
0.27
100
AcDbLine
 10
2908.982336074773
 20
1161.666106534217
 30
-0.0000000000000009
 11
2909.268513074773
 21
1161.500539534217
 31
-0.0000000000000009
  0
LINE
  5
CD06
330
1E
100
AcDbEntity
  8
0
 48
0.27
100
AcDbLine
 10
2908.671817074773
 20
1158.253587534217
 30
-0.0000000000000009
 11
2908.982336074773
 21
1158.355543534217
 31
-0.0000000000000009
  0
LINE
  5
CD07
330
1E
100
AcDbEntity
  8
0
 48
0.27
100
AcDbLine
 10
2910.851865074773
 20
1161.429413534217
 30
-0.0000000000000009
 11
2911.069862074773
 21
1160.987965534217
 31
-0.0000000000000009
  0
LINE
  5
CD08
330
1E
100
AcDbEntity
  8
0
 48
0.27
100
AcDbLine
 10
2910.851865074773
 20
1158.592237534217
 30
-0.0000000000000009
 11
2910.558490074773
 21
1158.205305534217
 31
-0.0000000000000009
  0
LINE
  5
CD09
330
1E
100
AcDbEntity
  8
0
 48
0.27
100
AcDbLine
 10
2911.069862074773
 20
1160.987965534217
 30
-0.0000000000000009
 11
2911.204105074773
 21
1160.508967534217
 31
-0.0000000000000009
  0
LINE
  5
CD0A
330
1E
100
AcDbEntity
  8
0
 48
0.27
100
AcDbLine
 10
2911.069862074773
 20
1159.033684534217
 30
-0.0000000000000009
 11
2910.851865074773
 21
1158.592237534217
 31
-0.0000000000000009
  0
LINE
  5
CD0B
330
1E
100
AcDbEntity
  8
0
 48
0.27
100
AcDbLine
 10
2909.268513074773
 20
1161.500539534217
 30
-0.0000000000000009
 11
2909.519348074773
 21
1161.277722534217
 31
-0.0000000000000009
  0
LINE
  5
CD0C
330
1E
100
AcDbEntity
  8
0
 48
0.27
100
AcDbLine
 10
2908.982336074773
 20
1158.355543534217
 30
-0.0000000000000009
 11
2909.268513074773
 21
1158.521111534217
 31
-0.0000000000000009
  0
LINE
  5
CD0D
330
1E
100
AcDbEntity
  8
0
 48
0.27
100
AcDbLine
 10
2911.204105074773
 20
1160.508967534217
 30
-0.0000000000000009
 11
2911.249433074774
 21
1160.010825534217
 31
-0.0000000000000009
  0
LINE
  5
CD0E
330
1E
100
AcDbEntity
  8
0
 48
0.27
100
AcDbLine
 10
2911.204105074773
 20
1159.512683534217
 30
-0.0000000000000009
 11
2911.069862074773
 21
1159.033684534217
 31
-0.0000000000000009
  0
LINE
  5
CD0F
330
1E
100
AcDbEntity
  8
0
 48
0.27
100
AcDbLine
 10
2911.249433074774
 20
1160.010825534217
 30
-0.0000000000000009
 11
2911.204105074773
 21
1159.512683534217
 31
-0.0000000000000009
  0
LINE
  5
CD10
330
1E
100
AcDbEntity
  8
0
 48
0.27
100
AcDbLine
 10
2909.519348074773
 20
1161.277722534217
 30
-0.0000000000000009
 11
2909.725204074773
 21
1161.006220534217
 31
-0.0000000000000009
  0
LINE
  5
CD11
330
1E
100
AcDbEntity
  8
0
 48
0.27
100
AcDbLine
 10
2909.268513074773
 20
1158.521111534217
 30
-0.0000000000000009
 11
2909.519348074773
 21
1158.743927534217
 31
-0.0000000000000009
  0
LINE
  5
CD12
330
1E
100
AcDbEntity
  8
0
 48
0.27
100
AcDbLine
 10
2909.725204074773
 20
1161.006220534217
 30
-0.0000000000000009
 11
2909.878168074773
 21
1160.696465534217
 31
-0.0000000000000009
  0
LINE
  5
CD13
330
1E
100
AcDbEntity
  8
0
 48
0.27
100
AcDbLine
 10
2909.725204074773
 20
1159.015430534217
 30
-0.0000000000000009
 11
2909.519348074773
 21
1158.743927534217
 31
-0.0000000000000009
  0
LINE
  5
CD14
330
1E
100
AcDbEntity
  8
0
 48
0.27
100
AcDbLine
 10
2909.878168074773
 20
1160.696465534217
 30
-0.0000000000000009
 11
2909.972363074773
 21
1160.360361534217
 31
-0.0000000000000009
  0
LINE
  5
CD15
330
1E
100
AcDbEntity
  8
0
 48
0.27
100
AcDbLine
 10
2909.878168074773
 20
1159.325185534217
 30
-0.0000000000000009
 11
2909.725204074773
 21
1159.015430534217
 31
-0.0000000000000009
  0
LINE
  5
CD16
330
1E
100
AcDbEntity
  8
0
 48
0.27
100
AcDbLine
 10
2909.972363074773
 20
1160.360361534217
 30
-0.0000000000000009
 11
2910.004169074773
 21
1160.010825534217
 31
-0.0000000000000009
  0
LINE
  5
CD17
330
1E
100
AcDbEntity
  8
0
 48
0.27
100
AcDbLine
 10
2909.972363074773
 20
1159.661289534217
 30
-0.0000000000000009
 11
2909.878168074773
 21
1159.325185534217
 31
-0.0000000000000009
  0
LINE
  5
CD18
330
1E
100
AcDbEntity
  8
0
 48
0.27
100
AcDbLine
 10
2910.004169074773
 20
1160.010825534217
 30
-0.0000000000000009
 11
2909.972363074773
 21
1159.661289534217
 31
-0.0000000000000009
  0
POINT
  5
CD19
330
1E
100
AcDbEntity
  8
0
100
AcDbPoint
 10
2906.531381074773
 20
1160.010825534217
 30
-0.0000000000000009
1001
pntflag
1000
endpoint
  0
LINE
  5
CD45
330
1E
100
AcDbEntity
  8
中心線
 48
0.2
100
AcDbLine
 10
2917.231381074779
 20
1253.47789276026
 30
0.0
 11
2917.231381074779
 21
1256.124840265986
 31
0.0
  0
LINE
  5
CD46
330
1E
100
AcDbEntity
  8
中心線
 48
0.2
100
AcDbLine
 10
2917.231381074779
 20
1241.631005254533
 30
0.0
 11
2917.231381074779
 21
1244.27789276026
 31
0.0
  0
ARC
  5
CD47
330
1E
100
AcDbEntity
  8
0
 48
0.27
100
AcDbCircle
 10
2917.231381074779
 20
1248.877922760259
 30
0.0
 40
5.5
100
AcDbArc
 50
245.5320287697315
 51
300.6032946081426
  0
ARC
  5
CD48
330
1E
100
AcDbEntity
  8
0
  6
Continuous
100
AcDbCircle
 10
2914.188257180269
 20
1240.62973333017
 30
0.0
 40
2.059673609817604
100
AcDbArc
 50
89.15209883495883
 51
159.1520988349398
  0
LINE
  5
CD49
330
1E
100
AcDbEntity
  8
0
  6
Continuous
100
AcDbLine
 10
2907.828811799864
 20
1243.199627716797
 30
0.0
 11
2912.078657649416
 21
1241.439283927918
 31
0.0
  0
ARC
  5
CD4A
330
1E
100
AcDbEntity
  8
0
  6
Continuous
100
AcDbCircle
 10
2909.012669301013
 20
1240.764503774374
 30
0.0
 40
2.860349020536762
100
AcDbArc
 50
118.5864858262542
 51
163.5864858262635
  0
ARC
  5
CD4B
330
1E
100
AcDbEntity
  8
0
  6
Continuous
100
AcDbCircle
 10
2912.670328252288
 20
1248.87789276026
 30
0.0
 40
4.0
100
AcDbArc
 50
90.0
 51
210.835204894088
  0
ARC
  5
CD4C
330
1E
100
AcDbEntity
  8
0
  6
Continuous
100
AcDbCircle
 10
2924.236321054407
 20
1248.87789276026
 30
0.0
 40
7.96743397963368
100
AcDbArc
 50
163.2213499979083
 51
196.7786500020917
  0
LINE
  5
CD4D
330
1E
100
AcDbEntity
  8
0
  6
Continuous
100
AcDbLine
 10
2916.268887074773
 20
1245.427892660667
 30
0.0
 11
2916.268887074773
 21
1252.327892859853
 31
0.0
  0
LINE
  5
CD4E
330
1E
100
AcDbEntity
  8
0
  6
Continuous
100
AcDbLine
 10
2916.608139616882
 20
1246.577892959446
 30
0.0
 11
2920.031381074773
 21
1246.577892959446
 31
0.0
  0
LINE
  5
CD4F
330
1E
100
AcDbEntity
  8
0
  6
Continuous
100
AcDbLine
 10
2916.608139616882
 20
1244.27789276026
 30
0.0
 11
2920.031381074773
 21
1244.27789276026
 31
0.0
  0
ARC
  5
CD50
330
1E
100
AcDbEntity
  8
0
  6
Continuous
100
AcDbCircle
 10
2918.387897051819
 20
1245.427892660667
 30
0.0
 40
2.119009977045996
100
AcDbArc
 50
147.1327799989424
 51
212.8672200010575
  0
ARC
  5
CD51
330
1E
100
AcDbEntity
  8
0
  6
Continuous
100
AcDbCircle
 10
2913.52187652738
 20
1243.045338026842
 30
0.0
 40
1.854133729915247
100
AcDbArc
 50
34.63277999893955
 51
100.3672200010575
  0
LINE
  5
CD52
330
1E
100
AcDbEntity
  8
0
  6
Continuous
100
AcDbLine
 10
2913.942782963042
 20
1244.87789276026
 30
0.0
 11
2916.341509162787
 21
1244.87789276026
 31
0.0
  0
LINE
  5
CD53
330
1E
100
AcDbEntity
  8
0
  6
Continuous
100
AcDbLine
 10
2912.616093461224
 20
1243.48804291393
 30
0.0
 11
2913.18817072974
 21
1244.869159614306
 31
0.0
  0
ARC
  5
CD54
330
1E
100
AcDbEntity
  8
0
  6
Continuous
100
AcDbCircle
 10
2914.141695705827
 20
1244.541713893668
 30
0.0
 40
1.854133729915247
100
AcDbArc
 50
214.6327799989395
 51
280.3672200010575
  0
LINE
  5
CD55
330
1E
100
AcDbEntity
  8
0
  6
Continuous
100
AcDbLine
 10
2914.475358929378
 20
1242.717849660328
 30
0.0
 11
2915.047478822744
 21
1244.099069266195
 31
0.0
  0
LINE
  5
CD56
330
1E
100
AcDbEntity
  8
0
  6
Continuous
100
AcDbLine
 10
2916.608139616882
 20
1253.47789276026
 30
0.0
 11
2920.031381074773
 21
1253.47789276026
 31
0.0
  0
LINE
  5
CD57
330
1E
100
AcDbEntity
  8
0
  6
Continuous
100
AcDbLine
 10
2916.608139616882
 20
1251.177892561074
 30
0.0
 11
2920.031381074773
 21
1251.177892561074
 31
0.0
  0
LINE
  5
CD58
330
1E
100
AcDbEntity
  8
0
  6
Continuous
100
AcDbLine
 10
2912.670328252288
 20
1252.87789276026
 30
0.0
 11
2916.341509162787
 21
1252.87789276026
 31
0.0
  0
ARC
  5
CD59
330
1E
100
AcDbEntity
  8
0
  6
Continuous
100
AcDbCircle
 10
2918.387897051819
 20
1252.327892859853
 30
0.0
 40
2.119009977045996
100
AcDbArc
 50
147.1327799989424
 51
212.8672200010575
  0
ARC
  5
CD5A
330
1E
100
AcDbEntity
  8
0
  6
Continuous
100
AcDbCircle
 10
2913.31106738638
 20
1250.424773867728
 30
0.0
 40
6.971504732179473
100
AcDbArc
 50
230.7213499979054
 51
264.2786500020824
  0
ARC
  5
CD5B
330
1E
100
AcDbEntity
  8
0
  6
Continuous
100
AcDbCircle
 10
2908.774582008268
 20
1239.472729342384
 30
0.0
 40
6.971504732179473
100
AcDbArc
 50
50.72134999790536
 51
84.27865000208244
  0
LINE
  5
CD5C
330
1E
100
AcDbEntity
  8
0
  6
Continuous
100
AcDbLine
 10
2908.65349994865
 20
1247.068785520051
 30
0.0
 11
2914.231422787207
 21
1244.75833423045
 31
0.0
  0
LINE
  5
CD5D
330
1E
100
AcDbEntity
  8
0
  6
Continuous
100
AcDbLine
 10
2907.854226607441
 20
1245.139168979662
 30
0.0
 11
2913.432149445999
 21
1242.828717690061
 31
0.0
  0
ARC
  5
CD5E
330
1E
100
AcDbEntity
  8
0
  6
Continuous
100
AcDbCircle
 10
2905.764660948629
 20
1244.11890113327
 30
0.0
 40
2.059673609817605
100
AcDbArc
 50
335.8479011650615
 51
45.8479011650646
  0
ARC
  5
CD5F
330
1E
100
AcDbEntity
  8
0
  6
Continuous
100
AcDbCircle
 10
2908.563772867269
 20
1246.85216518327
 30
0.0
 40
1.854133729915247
100
AcDbArc
 50
214.6327799989395
 51
280.3672200010575
  0
ARC
  5
CD60
330
1E
100
AcDbEntity
  8
0
  6
Continuous
100
AcDbCircle
 10
2907.943953688821
 20
1245.355789316443
 30
0.0
 40
1.854133729915247
100
AcDbArc
 50
34.63277999893955
 51
100.3672200010575
  0
LINE
  5
CD61
330
1E
100
AcDbEntity
  8
0
  6
Continuous
100
AcDbLine
 10
2907.038170944709
 20
1245.798494070137
 30
0.0
 11
2907.610248213224
 21
1247.179610770513
 31
0.0
  0
LINE
  5
CD62
330
1E
100
AcDbEntity
  8
0
  6
Continuous
100
AcDbLine
 10
2908.897478664908
 20
1245.028343595806
 30
0.0
 11
2909.469555933424
 21
1246.409460296181
 31
0.0
  0
ARC
  5
CD63
330
1E
100
AcDbEntity
  8
0
 48
0.27
100
AcDbCircle
 10
2917.231381074779
 20
1248.877922760259
 30
0.0
 40
5.5
100
AcDbArc
 50
59.39670539185734
 51
133.3422135659743
  0
ARC
  5
CD64
330
1E
100
AcDbEntity
  8
0
  6
Continuous
100
AcDbCircle
 10
2909.519651329678
 20
1240.554504942222
 30
0.0
 40
2.860349020536762
100
AcDbArc
 50
331.4135141737343
 51
16.41351417373644
  0
LINE
  5
CD65
330
1E
100
AcDbEntity
  8
0
  6
Continuous
100
AcDbLine
 10
2909.88736705304
 20
1237.041926629038
 30
0.0
 11
2912.031311958573
 21
1239.185871534571
 31
0.0
  0
LINE
  5
CD66
330
1E
100
AcDbEntity
  8
0
  6
Continuous
100
AcDbLine
 10
2906.268887074773
 20
1238.540750111212
 30
0.0
 11
2906.268887074773
 21
1241.572746073597
 31
0.0
  0
LINE
  5
CD67
330
1E
100
AcDbEntity
  8
0
  6
Continuous
100
AcDbLine
 10
2906.268887074773
 20
1238.540750111212
 30
0.0
 11
2909.88736705304
 21
1237.041926629038
 31
0.0
  0
LINE
  5
CD68
330
1E
100
AcDbEntity
  8
0
  6
Continuous
100
AcDbLine
 10
2906.268887074773
 20
1241.572746073597
 30
0.0
 11
2912.031311958573
 21
1239.185871534571
 31
0.0
  0
ARC
  5
CD70
330
1E
100
AcDbEntity
  8
標註線
 62
     1
100
AcDbCircle
 10
2952.231381074773
 20
1266.377922760259
 30
0.0
 40
3.0
100
AcDbArc
 50
169.9999999999961
 51
100.0000000000061
  0
ARC
  5
CD77
330
1E
100
AcDbEntity
  8
標註線
 62
     1
100
AcDbCircle
 10
2952.231381074773
 20
1248.877922760259
 30
0.0
 40
3.0
100
AcDbArc
 50
169.9999999999961
 51
100.0000000000061
  0
ARC
  5
CD7E
330
1E
100
AcDbEntity
  8
標註線
 62
     1
100
AcDbCircle
 10
2952.231381074773
 20
1231.377922760259
 30
0.0
 40
3.0
100
AcDbArc
 50
169.9999999999961
 51
100.0000000000061
  0
ARC
  5
CD85
330
1E
100
AcDbEntity
  8
標註線
 62
     1
100
AcDbCircle
 10
3002.231381074774
 20
1231.377922760259
 30
0.0
 40
3.0
100
AcDbArc
 50
169.9999999999961
 51
100.0000000000061
  0
ARC
  5
CD8C
330
1E
100
AcDbEntity
  8
標註線
 62
     1
100
AcDbCircle
 10
3002.231381074774
 20
1248.877922760259
 30
0.0
 40
3.0
100
AcDbArc
 50
169.9999999999961
 51
100.0000000000061
  0
ARC
  5
CD93
330
1E
100
AcDbEntity
  8
標註線
 62
     1
100
AcDbCircle
 10
3002.231381074774
 20
1266.377922760259
 30
0.0
 40
3.0
100
AcDbArc
 50
169.9999999999961
 51
100.0000000000061
  0
MTEXT
  5
CD9F
330
1E
100
AcDbEntity
  8
0
100
AcDbMText
 10
2759.034803066958
 20
1117.87671741611
 30
0.0
 40
7.800000159341863
 41
100.6095
 71
     1
 72
     5
  1
\A1;{\fTimes New Roman|b0|i0|c0|p18;RGH25HA\PC : 3450 kgf\PC\fProxy 1|b0|i0|c0|p0;\H0.7x;\S^ 0;\fTimes New Roman|b0|i0|c0|p18;\H1.429x;: 7480 kgf}
 73
     1
 44
1.0
1001
ACAD
1000
MTEXTBEGIN
1070
    73
1070
     1
1070
    44
1040
1.0
1070
    74
1070
     0
1000
MTEXTEND
  0
LINE
  5
CDC9
330
1E
100
AcDbEntity
  8
中心線
 48
0.5
100
AcDbLine
 10
2933.731381074774
 20
1248.87792276026
 30
0.0
 11
3020.731381074774
 21
1248.87792276026
 31
0.0
  0
LINE
  5
CDCA
330
1E
100
AcDbEntity
  8
中心線
 48
0.5
100
AcDbLine
 10
2977.231381074774
 20
1275.87789276026
 30
0.0
 11
2977.231381074773
 21
1221.87795276026
 31
0.0
  0
LINE
  5
DD6F
330
1E
100
AcDbEntity
  8
0
  6
Continuous
 62
     7
100
AcDbLine
 10
2910.223370813663
 20
1237.37793038966
 30
0.0
 11
2920.031381074773
 21
1237.37793038966
 31
0.0
  0
LINE
  5
EADF
330
1E
100
AcDbEntity
  8
0
100
AcDbLine
 10
3087.231381074774
 20
1153.810836720699
 30
0.0
 11
3035.436419660151
 21
1153.810836720699
 31
0.0
  0
LINE
  5
EAE0
330
1E
100
AcDbEntity
  8
0
100
AcDbLine
 10
3087.231381074774
 20
1153.410836720699
 30
0.0
 11
3035.274603119029
 21
1153.410836720699
 31
0.0
  0
LINE
  5
EAE1
330
1E
100
AcDbEntity
  8
0
100
AcDbLine
 10
3087.231381074774
 20
1151.936362328671
 30
0.0
 11
3034.431381074774
 21
1151.936362328671
 31
0.0
  0
LINE
  5
EAE2
330
1E
100
AcDbEntity
  8
0
100
AcDbLine
 10
3087.231381074774
 20
1147.786369964072
 30
0.0
 11
3034.431381074774
 21
1147.786369964072
 31
0.0
  0
LINE
  5
EAE3
330
1E
100
AcDbEntity
  8
0
100
AcDbLine
 10
3087.231381074774
 20
1141.404203056883
 30
0.0
 11
3034.431381074775
 21
1141.404203056883
 31
0.0
  0
LINE
  5
EAE4
330
1E
100
AcDbEntity
  8
0
100
AcDbLine
 10
3087.231381074774
 20
1137.254210692293
 30
0.0
 11
3034.431381074775
 21
1137.254210692293
 31
0.0
  0
LINE
  5
EAE5
330
1E
100
AcDbEntity
  8
0
100
AcDbLine
 10
3087.231381074774
 20
1131.710806203118
 30
0.0
 11
2902.116660878027
 21
1131.710806203118
 31
0.0
  0
LINE
  5
EAE6
330
1E
100
AcDbEntity
  8
0
100
AcDbLine
 10
2920.031381074773
 20
1141.404203056883
 30
0.0
 11
2901.147240068207
 21
1141.404203056883
 31
0.0
  0
LINE
  5
EAE8
330
1E
100
AcDbEntity
  8
0
100
AcDbLine
 10
2920.031381074773
 20
1137.254210692293
 30
0.0
 11
2901.493973712085
 21
1137.254210692293
 31
0.0
  0
LINE
  5
EAE9
330
1E
100
AcDbEntity
  8
0
100
AcDbLine
 10
2920.031381074773
 20
1147.786369964072
 30
0.0
 11
2901.018607992826
 21
1147.786369964072
 31
0.0
  0
LINE
  5
EAEA
330
1E
100
AcDbEntity
  8
0
100
AcDbLine
 10
2920.031381074773
 20
1151.936362328671
 30
0.0
 11
2901.06594158005
 21
1151.936362328671
 31
0.0
  0
LINE
  5
EAEB
330
1E
100
AcDbEntity
  8
0
100
AcDbLine
 10
2919.188159030518
 20
1153.410836720699
 30
0.0
 11
2901.489646733974
 21
1153.410836720699
 31
0.0
  0
ENDSEC
  0
SECTION
  2
OBJECTS
  0
DICTIONARY
  5
C
330
0
100
AcDbDictionary
281
     1
  3
ACAD_COLOR
350
3D97
  3
ACAD_GROUP
350
D
  3
ACAD_LAYOUT
350
19
  3
ACAD_MATERIAL
350
3D96
  3
ACAD_MLINESTYLE
350
16
  3
ACAD_PLOTSETTINGS
350
18
  3
ACAD_PLOTSTYLENAME
350
E
  3
ACAD_TABLESTYLE
350
E7A3
  3
ACDBHEADERROUNDTRIPXREC
350
EB1C
  3
AcDbVariableDictionary
350
3E63
  0
DICTIONARY
  5
43C2
330
2
100
AcDbDictionary
280
     1
281
     1
  3
ACAD_LAYERSTATES
360
43C3
  0
DICTIONARY
  5
3D1E
330
1E
100
AcDbDictionary
280
     1
281
     1
  3
ACAD_LAYOUTSELFREF
360
3D92
  3
ACAD_SORTENTS
360
EAE7
  0
DICTIONARY
  5
3D20
330
1A
100
AcDbDictionary
280
     1
281
     1
  3
ACAD_LAYOUTSELFREF
360
3D91
  0
DICTIONARY
  5
69B8
330
69B7
100
AcDbDictionary
280
     1
281
     1
  3
ACAD_SORTENTS
360
69B9
  0
DICTIONARY
  5
69CC
330
69CB
100
AcDbDictionary
280
     1
281
     1
  3
ACAD_SORTENTS
360
69CD
  0
DICTIONARY
  5
3D97
102
{ACAD_REACTORS
330
C
102
}
330
C
100
AcDbDictionary
281
     1
  0
DICTIONARY
  5
D
102
{ACAD_REACTORS
330
C
102
}
330
C
100
AcDbDictionary
281
     1
  3
*A1
350
4143
  3
*A10
350
43B8
  3
*A11
350
576A
  3
*A12
350
4378
  3
*A13
350
4240
  3
*A14
350
423E
  3
*A15
350
4374
  3
*A16
350
43BB
  3
*A17
350
4373
  3
*A18
350
43BD
  3
*A19
350
4236
  3
*A2
350
437E
  3
*A20
350
4377
  3
*A21
350
4145
  3
*A22
350
437A
  3
*A23
350
43BF
  3
*A24
350
4379
  3
*A25
350
43C1
  3
*A26
350
423D
  3
*A27
350
437D
  3
*A28
350
414D
  3
*A29
350
4146
  3
*A3
350
4149
  3
*A30
350
437F
  3
*A31
350
414B
  3
*A32
350
4375
  3
*A33
350
43B7
  3
*A34
350
423A
  3
*A35
350
414E
  3
*A36
350
43B9
  3
*A37
350
57D9
  3
*A38
350
437B
  3
*A39
350
43BC
  3
*A4
350
4241
  3
*A40
350
4144
  3
*A41
350
43BE
  3
*A42
350
4238
  3
*A43
350
43B5
  3
*A44
350
43C0
  3
*A45
350
414C
  3
*A46
350
4148
  3
*A47
350
423F
  3
*A48
350
43BA
  3
*A49
350
414A
  3
*A5
350
4239
  3
*A50
350
5691
  3
*A51
350
4376
  3
*A52
350
4147
  3
*A53
350
579E
  3
*A54
350
4235
  3
*A55
350
437C
  3
*A56
350
414F
  3
*A6
350
4237
  3
*A7
350
423C
  3
*A8
350
43B6
  3
*A9
350
423B
  0
DICTIONARY
  5
19
102
{ACAD_REACTORS
330
C
102
}
330
C
100
AcDbDictionary
281
     1
  3
Model
350
21
  3
配置1
350
1D
  0
DICTIONARY
  5
3D96
102
{ACAD_REACTORS
330
C
102
}
330
C
100
AcDbDictionary
281
     1
  0
DICTIONARY
  5
16
102
{ACAD_REACTORS
330
C
102
}
330
C
100
AcDbDictionary
281
     1
  3
Standard
350
17
  0
DICTIONARY
  5
18
102
{ACAD_REACTORS
330
C
102
}
330
C
100
AcDbDictionary
281
     1
  3
LANSRO
350
4150
  0
ACDBDICTIONARYWDFLT
  5
E
102
{ACAD_REACTORS
330
C
102
}
330
C
100
AcDbDictionary
281
     1
  3
Normal
350
F
100
AcDbDictionaryWithDefault
340
F
  0
DICTIONARY
  5
E7A3
102
{ACAD_REACTORS
330
C
102
}
330
C
100
AcDbDictionary
281
     1
  3
Standard
350
E7A4
  0
DICTIONARY
  5
EB1C
102
{ACAD_REACTORS
330
C
102
}
330
C
100
AcDbDictionary
281
     1
  3
COLORDICT
350
EB1E
  3
MATERIALDICT
350
EB1D
  0
DICTIONARY
  5
3E63
102
{ACAD_REACTORS
330
C
102
}
330
C
100
AcDbDictionary
281
     1
  3
CTABLESTYLE
350
E8F8
  3
DIMASSOC
350
3E64
  3
PROJECTNAME
350
3E65
  0
DICTIONARY
  5
43C3
102
{ACAD_REACTORS
330
43C2
102
}
330
43C2
100
AcDbDictionary
281
     1
  0
XRECORD
  5
3D92
102
{ACAD_REACTORS
330
3D1E
102
}
330
3D1E
100
AcDbXrecord
280
     1
340
1E
  0
SORTENTSTABLE
  5
EAE7
102
{ACAD_REACTORS
330
3D1E
102
}
330
3D1E
100
AcDbSortentsTable
330
1E
331
9921
  5
9921
331
98A3
  5
98A3
331
9958
  5
9958
331
999F
  5
999F
331
9929
  5
9929
331
9960
  5
9960
331
98AB
  5
98AB
331
98E2
  5
98E2
331
99A7
  5
99A7
331
98EA
  5
98EA
331
9931
  5
9931
331
9874
  5
9874
331
98B3
  5
98B3
331
9968
  5
9968
331
9970
  5
9970
331
98F2
  5
98F2
331
99AF
  5
99AF
331
987C
  5
987C
331
EADF
  5
EADF
331
CCFA
  5
CCFA
331
CD59
  5
CD59
331
9A95
  5
9A95
331
C7BC
  5
C7BC
331
9A56
  5
9A56
331
CCC3
  5
CCC3
331
99D8
  5
99D8
331
CCCB
  5
CCCB
331
CD02
  5
CD02
331
9A5E
  5
9A5E
331
99E0
  5
99E0
331
9A9D
  5
9A9D
331
CAB4
  5
CAB4
331
CD61
  5
CD61
331
CCD3
  5
CCD3
331
CD0A
  5
CD0A
331
9A2F
  5
9A2F
331
9A66
  5
9A66
331
99E8
  5
99E8
331
CABC
  5
CABC
331
9A6E
  5
9A6E
331
CD12
  5
CD12
331
9939
  5
9939
331
98BB
  5
98BB
331
9978
  5
9978
331
9884
  5
9884
331
9941
  5
9941
331
9980
  5
9980
331
988C
  5
988C
331
990A
  5
990A
331
9894
  5
9894
331
9949
  5
9949
331
9988
  5
9988
331
9990
  5
9990
331
98D3
  5
98D3
331
991A
  5
991A
331
989C
  5
989C
331
9951
  5
9951
331
99B1
  5
99B1
331
99F0
  5
99F0
331
CCA4
  5
CCA4
331
9A76
  5
9A76
331
CCDB
  5
CCDB
331
99B9
  5
99B9
331
99F8
  5
99F8
331
CCE3
  5
CCE3
331
CCAC
  5
CCAC
331
9A00
  5
9A00
331
9A3F
  5
9A3F
331
99C1
  5
99C1
331
9A7E
  5
9A7E
331
CCEB
  5
CCEB
331
CD4A
  5
CD4A
331
9A86
  5
9A86
331
C7AD
  5
C7AD
331
9A47
  5
9A47
331
CCB4
  5
CCB4
331
99C9
  5
99C9
331
CCBC
  5
CCBC
331
CCF3
  5
CCF3
331
9A4F
  5
9A4F
331
9A8E
  5
9A8E
331
C7B5
  5
C7B5
331
CD52
  5
CD52
331
9998
  5
9998
331
9922
  5
9922
331
98A4
  5
98A4
331
9959
  5
9959
331
9961
  5
9961
331
99A0
  5
99A0
331
98AC
  5
98AC
331
98E3
  5
98E3
331
992A
  5
992A
331
9932
  5
9932
331
9969
  5
9969
331
9875
  5
9875
331
98B4
  5
98B4
331
98EB
  5
98EB
331
99A8
  5
99A8
331
9971
  5
9971
331
987D
  5
987D
331
98F3
  5
98F3
331
EAE0
  5
EAE1
331
9A18
  5
9A18
331
CD5A
  5
CD5A
331
C7BD
  5
C7BD
331
CCC4
  5
CCC4
331
9A57
  5
9A57
331
99D9
  5
99D9
331
EAE8
  5
EAEB
331
CDC9
  5
CDC9
331
9A96
  5
9A96
331
CCFB
  5
CCFB
331
CD62
  5
CD62
331
CCCC
  5
CCCC
331
9A5F
  5
9A5F
331
99E1
  5
99E1
331
9A9E
  5
9A9E
331
CD03
  5
CD03
331
CCD4
  5
CCD4
331
CD0B
  5
CD0B
331
CABD
  5
CABD
331
9A67
  5
9A67
331
99E9
  5
99E9
331
9A6F
  5
9A6F
331
CD13
  5
CD13
331
9903
  5
9903
331
993A
  5
993A
331
9885
  5
9885
331
98BC
  5
98BC
331
9979
  5
9979
331
9981
  5
9981
331
990B
  5
990B
331
988D
  5
988D
331
9942
  5
9942
331
994A
  5
994A
331
9989
  5
9989
331
9895
  5
9895
331
9952
  5
9952
331
989D
  5
989D
331
98D4
  5
98D4
331
991B
  5
991B
331
99F1
  5
99F1
331
9A30
  5
9A30
331
99B2
  5
99B2
331
CCDC
  5
CCDC
331
9A77
  5
9A77
331
99F9
  5
99F9
331
9A38
  5
9A38
331
CCA5
  5
CCA5
331
99BA
  5
99BA
331
CCAD
  5
CCAD
331
9A40
  5
9A40
331
9A7F
  5
9A7F
331
CCE4
  5
CCE4
331
99C2
  5
99C2
331
9A01
  5
9A01
331
CD4B
  5
CD4B
331
C7AE
  5
C7AE
331
CCB5
  5
CCB5
331
9A48
  5
9A48
331
99CA
  5
99CA
331
9A87
  5
9A87
331
CCEC
  5
CCEC
331
CCF4
  5
CCF4
331
CD53
  5
CD53
331
C7B6
  5
C7B6
331
CCBD
  5
CCBD
331
9A8F
  5
9A8F
331
9923
  5
9923
331
995A
  5
995A
331
9999
  5
9999
331
99A1
  5
99A1
331
98E4
  5
98E4
331
992B
  5
992B
331
98AD
  5
98AD
331
9962
  5
9962
331
99A9
  5
99A9
331
98EC
  5
98EC
331
9933
  5
9933
331
9876
  5
9876
331
98B5
  5
98B5
331
996A
  5
996A
331
9972
  5
9972
331
98F4
  5
98F4
331
987E
  5
987E
331
9A50
  5
9A50
331
99D2
  5
99D2
331
EAE1
  5
EAE3
331
CCFC
  5
CCFC
331
CD5B
  5
CD5B
331
9A97
  5
9A97
331
C7BE
  5
C7BE
331
9A58
  5
9A58
331
CCC5
  5
CCC5
331
99DA
  5
99DA
331
CDCA
  5
CDCA
331
EAE9
  5
EAE6
331
CCCD
  5
CCCD
331
99E2
  5
99E2
331
9A9F
  5
9A9F
331
CD04
  5
CD04
331
CD63
  5
CD63
331
99EA
  5
99EA
331
CCD5
  5
CCD5
331
CD0C
  5
CD0C
331
CC9E
  5
CC9E
331
CD14
  5
CD14
331
993B
  5
993B
331
997A
  5
997A
331
9886
  5
9886
331
98BD
  5
98BD
331
9904
  5
9904
331
9943
  5
9943
331
9982
  5
9982
331
988E
  5
988E
331
98C5
  5
98C5
331
990C
  5
990C
331
994B
  5
994B
331
9896
  5
9896
331
98CD
  5
98CD
331
998A
  5
998A
331
98D5
  5
98D5
331
991C
  5
991C
331
989E
  5
989E
331
9953
  5
9953
331
9A31
  5
9A31
331
99F2
  5
99F2
331
CCA6
  5
CCA6
331
9A39
  5
9A39
331
9A78
  5
9A78
331
CCDD
  5
CCDD
331
99BB
  5
99BB
331
99FA
  5
99FA
331
CCE5
  5
CCE5
331
9A80
  5
9A80
331
9A02
  5
9A02
331
9A41
  5
9A41
331
99C3
  5
99C3
331
CCAE
  5
CCAE
331
CCED
  5
CCED
331
CD4C
  5
CD4C
331
9A88
  5
9A88
331
C7AF
  5
C7AF
331
9A49
  5
9A49
331
CCB6
  5
CCB6
331
99CB
  5
99CB
331
CCBE
  5
CCBE
331
CCF5
  5
CCF5
331
C7B7
  5
C7B7
331
CD54
  5
CD54
331
995B
  5
995B
331
999A
  5
999A
331
98DD
  5
98DD
331
9924
  5
9924
331
9963
  5
9963
331
99A2
  5
99A2
331
98AE
  5
98AE
331
98E5
  5
98E5
331
992C
  5
992C
331
9934
  5
9934
331
996B
  5
996B
331
9877
  5
9877
331
98B6
  5
98B6
331
98ED
  5
98ED
331
99AA
  5
99AA
331
98F5
  5
98F5
331
987F
  5
987F
331
9973
  5
9973
331
CD93
  5
CD93
331
99D3
  5
99D3
331
EAE2
  5
EAE5
331
9A90
  5
9A90
331
CD5C
  5
CD5C
331
CCC6
  5
CCC6
331
9A59
  5
9A59
331
99DB
  5
99DB
331
EAEA
  5
EAE4
331
9A98
  5
9A98
331
CCFD
  5
CCFD
331
CD05
  5
CD05
331
CD64
  5
CD64
331
9AA0
  5
9AA0
331
CCCE
  5
CCCE
331
99E3
  5
99E3
331
CCD6
  5
CCD6
331
CD0D
  5
CD0D
331
9A69
  5
9A69
331
99EB
  5
99EB
331
CD15
  5
CD15
331
CC9F
  5
CC9F
331
9905
  5
9905
331
9887
  5
9887
331
993C
  5
993C
331
997B
  5
997B
331
9983
  5
9983
331
98C6
  5
98C6
331
990D
  5
990D
331
988F
  5
988F
331
9944
  5
9944
331
994C
  5
994C
331
9897
  5
9897
331
98CE
  5
98CE
331
998B
  5
998B
331
9954
  5
9954
331
989F
  5
989F
331
98D6
  5
98D6
331
991D
  5
991D
331
9A71
  5
9A71
331
A188
  5
A188
331
99F3
  5
99F3
331
9A32
  5
9A32
331
99B4
  5
99B4
331
CCA7
  5
CCA7
331
9A79
  5
9A79
331
CCDE
  5
CCDE
331
99BC
  5
99BC
331
99FB
  5
99FB
331
9A3A
  5
9A3A
331
CCAF
  5
CCAF
331
9A42
  5
9A42
331
9A81
  5
9A81
331
CCE6
  5
CCE6
331
99C4
  5
99C4
331
CD8C
  5
CD8C
331
9A03
  5
9A03
331
CD45
  5
CD45
331
CD4D
  5
CD4D
331
C7B0
  5
C7B0
331
CCB7
  5
CCB7
331
9A4A
  5
9A4A
331
99CC
  5
99CC
331
9A89
  5
9A89
331
CCEE
  5
CCEE
331
CCF6
  5
CCF6
331
CD55
  5
CD55
331
CCBF
  5
CCBF
331
9925
  5
9925
331
995C
  5
995C
331
98DE
  5
98DE
331
999B
  5
999B
331
99A3
  5
99A3
331
98E6
  5
98E6
331
992D
  5
992D
331
98AF
  5
98AF
331
9964
  5
9964
331
996C
  5
996C
331
99AB
  5
99AB
331
98EE
  5
98EE
331
9935
  5
9935
331
9878
  5
9878
331
98B7
  5
98B7
331
9974
  5
9974
331
98F6
  5
98F6
331
9A91
  5
9A91
331
C7B8
  5
C7B8
331
99D4
  5
99D4
331
EAE3
  5
EAE8
331
CCFE
  5
CCFE
331
CD5D
  5
CD5D
331
9A99
  5
9A99
331
9A23
  5
9A23
331
9A5A
  5
9A5A
331
CCC7
  5
CCC7
331
EAEB
  5
EAE2
331
99DC
  5
99DC
331
CCCF
  5
CCCF
331
CD06
  5
CD06
331
9A62
  5
9A62
331
99E4
  5
99E4
331
9AA1
  5
9AA1
331
CD65
  5
CD65
331
9A6A
  5
9A6A
331
99EC
  5
99EC
331
CCD7
  5
CCD7
331
CD0E
  5
CD0E
331
CD16
  5
CD16
331
9880
  5
9880
331
993D
  5
993D
331
997C
  5
997C
331
9888
  5
9888
331
9906
  5
9906
331
990E
  5
990E
331
9945
  5
9945
331
9890
  5
9890
331
98C7
  5
98C7
331
9984
  5
9984
331
9916
  5
9916
331
994D
  5
994D
331
9898
  5
9898
331
98CF
  5
98CF
331
998C
  5
998C
331
98D7
  5
98D7
331
991E
  5
991E
331
9955
  5
9955
331
CCA0
  5
CCA0
331
9A72
  5
9A72
331
99B5
  5
99B5
331
99F4
  5
99F4
331
A189
  5
A189
331
CCA8
  5
CCA8
331
9A3B
  5
9A3B
331
9A7A
  5
9A7A
331
CCDF
  5
CCDF
331
99BD
  5
99BD
331
CD85
  5
CD85
331
99FC
  5
99FC
331
CCE7
  5
CCE7
331
CD46
  5
CD46
331
9A82
  5
9A82
331
9A04
  5
9A04
331
9A43
  5
9A43
331
CCB0
  5
CCB0
331
99C5
  5
99C5
331
CCB8
  5
CCB8
331
CCEF
  5
CCEF
331
9A8A
  5
9A8A
331
C7B1
  5
C7B1
331
CD4E
  5
CD4E
331
99CD
  5
99CD
331
9A4B
  5
9A4B
331
CCF7
  5
CCF7
331
CD56
  5
CD56
331
995D
  5
995D
331
999C
  5
999C
331
98A8
  5
98A8
331
98DF
  5
98DF
331
9926
  5
9926
331
9965
  5
9965
331
99A4
  5
99A4
331
98B0
  5
98B0
331
98E7
  5
98E7
331
992E
  5
992E
331
9936
  5
9936
331
996D
  5
996D
331
9879
  5
9879
331
98EF
  5
98EF
331
99AC
  5
99AC
331
98F7
  5
98F7
331
9975
  5
9975
331
CCC0
  5
CCC0
331
99D5
  5
99D5
331
EAE4
  5
EAEA
331
9A92
  5
9A92
331
C7B9
  5
C7B9
331
CD5E
  5
CD5E
331
CCC8
  5
CCC8
331
9A24
  5
9A24
331
9A5B
  5
9A5B
331
99DD
  5
99DD
331
9A9A
  5
9A9A
331
CCFF
  5
CCFF
331
CD07
  5
CD07
331
CD66
  5
CD66
331
9AA2
  5
9AA2
331
9A2C
  5
9A2C
331
9A63
  5
9A63
331
99E5
  5
99E5
331
CCD0
  5
CCD0
331
CD0F
  5
CD0F
331
9A6B
  5
9A6B
331
99ED
  5
99ED
331
CD17
  5
CD17
331
9881
  5
9881
331
98B8
  5
98B8
331
997D
  5
997D
331
9907
  5
9907
331
9889
  5
9889
331
993E
  5
993E
331
9985
  5
9985
331
990F
  5
990F
331
9891
  5
9891
331
9946
  5
9946
331
994E
  5
994E
331
998D
  5
998D
331
9899
  5
9899
331
9917
  5
9917
331
991F
  5
991F
331
9956
  5
9956
331
9995
  5
9995
331
CCD8
  5
CCD8
331
9A73
  5
9A73
331
99F5
  5
99F5
331
A18A
  5
A18A
331
CCA1
  5
CCA1
331
CD7E
  5
CD7E
331
99B6
  5
99B6
331
CCA9
  5
CCA9
331
9A3C
  5
9A3C
331
9A7B
  5
9A7B
331
CCE0
  5
CCE0
331
99BE
  5
99BE
331
99FD
  5
99FD
331
CD47
  5
CD47
331
CCB1
  5
CCB1
331
9A44
  5
9A44
331
99C6
  5
99C6
331
9A83
  5
9A83
331
CCE8
  5
CCE8
331
CD4F
  5
CD4F
331
C7B2
  5
C7B2
331
CCB9
  5
CCB9
331
9A15
  5
9A15
331
9A4C
  5
9A4C
331
99CE
  5
99CE
331
9A8B
  5
9A8B
331
CCF0
  5
CCF0
331
CD57
  5
CD57
331
98A1
  5
98A1
331
98D8
  5
98D8
331
9927
  5
9927
331
98A9
  5
98A9
331
995E
  5
995E
331
999D
  5
999D
331
99A5
  5
99A5
331
98E8
  5
98E8
331
992F
  5
992F
331
98B1
  5
98B1
331
9966
  5
9966
331
996E
  5
996E
331
99AD
  5
99AD
331
98F0
  5
98F0
331
987A
  5
987A
331
9937
  5
9937
331
9976
  5
9976
331
CCF8
  5
CCF8
331
9A93
  5
9A93
331
C7BA
  5
C7BA
331
CCC1
  5
CCC1
331
99D6
  5
99D6
331
EAE5
  5
EAEC
331
CCC9
  5
CCC9
331
9A9B
  5
9A9B
331
CD00
  5
CD00
331
CD5F
  5
CD5F
331
9A25
  5
9A25
331
9A5C
  5
9A5C
331
99E6
  5
99E6
331
CCD1
  5
CCD1
331
CD08
  5
CD08
331
CD67
  5
CD67
331
99EE
  5
99EE
331
CD10
  5
CD10
331
98B9
  5
98B9
331
9882
  5
9882
331
993F
  5
993F
331
997E
  5
997E
331
988A
  5
988A
331
9908
  5
9908
331
9892
  5
9892
331
9947
  5
9947
331
9986
  5
9986
331
998E
  5
998E
331
9918
  5
9918
331
994F
  5
994F
331
989A
  5
989A
331
98D1
  5
98D1
331
9996
  5
9996
331
9957
  5
9957
331
CD77
  5
CD77
331
CD18
  5
CD18
331
CCA2
  5
CCA2
331
9A35
  5
9A35
331
9A74
  5
9A74
331
CCD9
  5
CCD9
331
99B7
  5
99B7
331
99F6
  5
99F6
331
CCAA
  5
CCAA
331
9A3D
  5
9A3D
331
9A7C
  5
9A7C
331
CCE1
  5
CCE1
331
99BF
  5
99BF
331
99FE
  5
99FE
331
CCE9
  5
CCE9
331
CD48
  5
CD48
331
9A84
  5
9A84
331
C7AB
  5
C7AB
331
9A45
  5
9A45
331
CCB2
  5
CCB2
331
99C7
  5
99C7
331
CCBA
  5
CCBA
331
CCF1
  5
CCF1
331
9A4D
  5
9A4D
331
9A8C
  5
9A8C
331
99CF
  5
99CF
331
9A16
  5
9A16
331
C7B3
  5
C7B3
331
CD50
  5
CD50
331
98D9
  5
98D9
331
9920
  5
9920
331
98A2
  5
98A2
331
995F
  5
995F
331
999E
  5
999E
331
98AA
  5
98AA
331
98E1
  5
98E1
331
9928
  5
9928
331
9930
  5
9930
331
9967
  5
9967
331
98B2
  5
98B2
331
98E9
  5
98E9
331
99A6
  5
99A6
331
9873
  5
9873
331
996F
  5
996F
331
987B
  5
987B
331
98F1
  5
98F1
331
99AE
  5
99AE
331
9977
  5
9977
331
CD58
  5
CD58
331
CCC2
  5
CCC2
331
CCF9
  5
CCF9
331
9A55
  5
9A55
331
99D7
  5
99D7
331
EAE6
  5
EAE9
331
CD9F
  5
CD9F
331
9A94
  5
9A94
331
C7BB
  5
C7BB
331
CD60
  5
CD60
331
CAB3
  5
CAB3
331
CCCA
  5
CCCA
331
9A5D
  5
9A5D
331
9A9C
  5
9A9C
331
CD01
  5
CD01
331
CCD2
  5
CCD2
331
CD09
  5
CD09
331
CD68
  5
CD68
331
9A2E
  5
9A2E
331
9A65
  5
9A65
331
DD6F
  5
DD6F
331
99E7
  5
99E7
331
99EF
  5
99EF
331
CD11
  5
CD11
331
9938
  5
9938
331
9883
  5
9883
331
98BA
  5
98BA
331
997F
  5
997F
331
9909
  5
9909
331
988B
  5
988B
331
9940
  5
9940
331
9987
  5
9987
331
9893
  5
9893
331
9948
  5
9948
331
9950
  5
9950
331
998F
  5
998F
331
989B
  5
989B
331
98D2
  5
98D2
331
9919
  5
9919
331
9997
  5
9997
331
CD70
  5
CD70
331
99B0
  5
99B0
331
CCDA
  5
CCDA
331
CD19
  5
CD19
331
9A75
  5
9A75
331
99F7
  5
99F7
331
9A36
  5
9A36
331
CCA3
  5
CCA3
331
99B8
  5
99B8
331
CCAB
  5
CCAB
331
9A3E
  5
9A3E
331
9A7D
  5
9A7D
331
CCE2
  5
CCE2
331
99C0
  5
99C0
331
99FF
  5
99FF
331
CD49
  5
CD49
331
C7AC
  5
C7AC
331
CCB3
  5
CCB3
331
9A46
  5
9A46
331
99C8
  5
99C8
331
9A85
  5
9A85
331
CCEA
  5
CCEA
331
CD51
  5
CD51
331
C7B4
  5
C7B4
331
CCBB
  5
CCBB
331
9A17
  5
9A17
331
9A4E
  5
9A4E
331
9A8D
  5
9A8D
331
CCF2
  5
CCF2
  0
XRECORD
  5
3D91
102
{ACAD_REACTORS
330
3D20
102
}
330
3D20
100
AcDbXrecord
280
     1
340
1A
  0
SORTENTSTABLE
  5
69B9
102
{ACAD_REACTORS
330
69B8
102
}
330
69B8
100
AcDbSortentsTable
330
69B7
  0
SORTENTSTABLE
  5
69CD
102
{ACAD_REACTORS
330
69CC
102
}
330
69CC
100
AcDbSortentsTable
330
69CB
  0
GROUP
  5
4143
102
{ACAD_REACTORS
330
D
102
}
330
D
100
AcDbGroup
300

 70
     1
 71
     1
  0
GROUP
  5
43B8
102
{ACAD_REACTORS
330
D
102
}
330
D
100
AcDbGroup
300

 70
     1
 71
     1
  0
GROUP
  5
576A
102
{ACAD_REACTORS
330
D
102
}
330
D
100
AcDbGroup
300

 70
     1
 71
     1
  0
GROUP
  5
4378
102
{ACAD_REACTORS
330
D
102
}
330
D
100
AcDbGroup
300

 70
     1
 71
     1
  0
GROUP
  5
4240
102
{ACAD_REACTORS
330
D
102
}
330
D
100
AcDbGroup
300

 70
     1
 71
     1
  0
GROUP
  5
423E
102
{ACAD_REACTORS
330
D
102
}
330
D
100
AcDbGroup
300

 70
     1
 71
     1
  0
GROUP
  5
4374
102
{ACAD_REACTORS
330
D
102
}
330
D
100
AcDbGroup
300

 70
     1
 71
     1
  0
GROUP
  5
43BB
102
{ACAD_REACTORS
330
D
102
}
330
D
100
AcDbGroup
300

 70
     1
 71
     1
  0
GROUP
  5
4373
102
{ACAD_REACTORS
330
D
102
}
330
D
100
AcDbGroup
300

 70
     1
 71
     1
  0
GROUP
  5
43BD
102
{ACAD_REACTORS
330
D
102
}
330
D
100
AcDbGroup
300

 70
     1
 71
     1
  0
GROUP
  5
4236
102
{ACAD_REACTORS
330
D
102
}
330
D
100
AcDbGroup
300

 70
     1
 71
     1
  0
GROUP
  5
437E
102
{ACAD_REACTORS
330
D
102
}
330
D
100
AcDbGroup
300

 70
     1
 71
     1
  0
GROUP
  5
4377
102
{ACAD_REACTORS
330
D
102
}
330
D
100
AcDbGroup
300

 70
     1
 71
     1
  0
GROUP
  5
4145
102
{ACAD_REACTORS
330
D
102
}
330
D
100
AcDbGroup
300

 70
     1
 71
     1
  0
GROUP
  5
437A
102
{ACAD_REACTORS
330
D
102
}
330
D
100
AcDbGroup
300

 70
     1
 71
     1
  0
GROUP
  5
43BF
102
{ACAD_REACTORS
330
D
102
}
330
D
100
AcDbGroup
300

 70
     1
 71
     1
  0
GROUP
  5
4379
102
{ACAD_REACTORS
330
D
102
}
330
D
100
AcDbGroup
300

 70
     1
 71
     1
  0
GROUP
  5
43C1
102
{ACAD_REACTORS
330
D
102
}
330
D
100
AcDbGroup
300

 70
     1
 71
     1
  0
GROUP
  5
423D
102
{ACAD_REACTORS
330
D
102
}
330
D
100
AcDbGroup
300

 70
     1
 71
     1
  0
GROUP
  5
437D
102
{ACAD_REACTORS
330
D
102
}
330
D
100
AcDbGroup
300

 70
     1
 71
     1
  0
GROUP
  5
414D
102
{ACAD_REACTORS
330
D
102
}
330
D
100
AcDbGroup
300

 70
     1
 71
     1
  0
GROUP
  5
4146
102
{ACAD_REACTORS
330
D
102
}
330
D
100
AcDbGroup
300

 70
     1
 71
     1
  0
GROUP
  5
4149
102
{ACAD_REACTORS
330
D
102
}
330
D
100
AcDbGroup
300

 70
     1
 71
     1
  0
GROUP
  5
437F
102
{ACAD_REACTORS
330
D
102
}
330
D
100
AcDbGroup
300

 70
     1
 71
     1
  0
GROUP
  5
414B
102
{ACAD_REACTORS
330
D
102
}
330
D
100
AcDbGroup
300

 70
     1
 71
     1
  0
GROUP
  5
4375
102
{ACAD_REACTORS
330
D
102
}
330
D
100
AcDbGroup
300

 70
     1
 71
     1
  0
GROUP
  5
43B7
102
{ACAD_REACTORS
330
D
102
}
330
D
100
AcDbGroup
300

 70
     1
 71
     1
  0
GROUP
  5
423A
102
{ACAD_REACTORS
330
D
102
}
330
D
100
AcDbGroup
300

 70
     1
 71
     1
  0
GROUP
  5
414E
102
{ACAD_REACTORS
330
D
102
}
330
D
100
AcDbGroup
300

 70
     1
 71
     1
  0
GROUP
  5
43B9
102
{ACAD_REACTORS
330
D
102
}
330
D
100
AcDbGroup
300

 70
     1
 71
     1
  0
GROUP
  5
57D9
102
{ACAD_REACTORS
330
D
102
}
330
D
100
AcDbGroup
300

 70
     1
 71
     1
  0
GROUP
  5
437B
102
{ACAD_REACTORS
330
D
102
}
330
D
100
AcDbGroup
300

 70
     1
 71
     1
  0
GROUP
  5
43BC
102
{ACAD_REACTORS
330
D
102
}
330
D
100
AcDbGroup
300

 70
     1
 71
     1
  0
GROUP
  5
4241
102
{ACAD_REACTORS
330
D
102
}
330
D
100
AcDbGroup
300

 70
     1
 71
     1
  0
GROUP
  5
4144
102
{ACAD_REACTORS
330
D
102
}
330
D
100
AcDbGroup
300

 70
     1
 71
     1
  0
GROUP
  5
43BE
102
{ACAD_REACTORS
330
D
102
}
330
D
100
AcDbGroup
300

 70
     1
 71
     1
  0
GROUP
  5
4238
102
{ACAD_REACTORS
330
D
102
}
330
D
100
AcDbGroup
300

 70
     1
 71
     1
  0
GROUP
  5
43B5
102
{ACAD_REACTORS
330
D
102
}
330
D
100
AcDbGroup
300

 70
     1
 71
     1
  0
GROUP
  5
43C0
102
{ACAD_REACTORS
330
D
102
}
330
D
100
AcDbGroup
300

 70
     1
 71
     1
  0
GROUP
  5
414C
102
{ACAD_REACTORS
330
D
102
}
330
D
100
AcDbGroup
300

 70
     1
 71
     1
  0
GROUP
  5
4148
102
{ACAD_REACTORS
330
D
102
}
330
D
100
AcDbGroup
300

 70
     1
 71
     1
  0
GROUP
  5
423F
102
{ACAD_REACTORS
330
D
102
}
330
D
100
AcDbGroup
300

 70
     1
 71
     1
  0
GROUP
  5
43BA
102
{ACAD_REACTORS
330
D
102
}
330
D
100
AcDbGroup
300

 70
     1
 71
     1
  0
GROUP
  5
414A
102
{ACAD_REACTORS
330
D
102
}
330
D
100
AcDbGroup
300

 70
     1
 71
     1
  0
GROUP
  5
4239
102
{ACAD_REACTORS
330
D
102
}
330
D
100
AcDbGroup
300

 70
     1
 71
     1
  0
GROUP
  5
5691
102
{ACAD_REACTORS
330
D
102
}
330
D
100
AcDbGroup
300

 70
     1
 71
     1
  0
GROUP
  5
4376
102
{ACAD_REACTORS
330
D
102
}
330
D
100
AcDbGroup
300

 70
     1
 71
     1
  0
GROUP
  5
4147
102
{ACAD_REACTORS
330
D
102
}
330
D
100
AcDbGroup
300

 70
     1
 71
     1
  0
GROUP
  5
579E
102
{ACAD_REACTORS
330
D
102
}
330
D
100
AcDbGroup
300

 70
     1
 71
     1
  0
GROUP
  5
4235
102
{ACAD_REACTORS
330
D
102
}
330
D
100
AcDbGroup
300

 70
     1
 71
     1
  0
GROUP
  5
437C
102
{ACAD_REACTORS
330
D
102
}
330
D
100
AcDbGroup
300

 70
     1
 71
     1
  0
GROUP
  5
414F
102
{ACAD_REACTORS
330
D
102
}
330
D
100
AcDbGroup
300

 70
     1
 71
     1
  0
GROUP
  5
4237
102
{ACAD_REACTORS
330
D
102
}
330
D
100
AcDbGroup
300

 70
     1
 71
     1
  0
GROUP
  5
423C
102
{ACAD_REACTORS
330
D
102
}
330
D
100
AcDbGroup
300

 70
     1
 71
     1
  0
GROUP
  5
43B6
102
{ACAD_REACTORS
330
D
102
}
330
D
100
AcDbGroup
300

 70
     1
 71
     1
  0
GROUP
  5
423B
102
{ACAD_REACTORS
330
D
102
}
330
D
100
AcDbGroup
300

 70
     1
 71
     1
  0
LAYOUT
  5
21
102
{ACAD_XDICTIONARY
360
EB21
102
}
102
{ACAD_REACTORS
330
19
102
}
330
19
100
AcDbPlotSettings
  1

  2
none_device
  4
Letter_(8.50_x_11.00_Inches)
  6

 40
6.349999904632568
 41
6.349999904632568
 42
6.350006103515625
 43
6.350006103515625
 44
215.8999938964844
 45
279.3999938964844
 46
0.0
 47
0.0
 48
0.0
 49
0.0
140
0.0
141
0.0
142
1.0
143
47.4082470871283
 70
 11952
 72
     0
 73
     1
 74
     0
  7
AAA.ctb
 75
     0
147
0.0210933763942415
148
-68563.14848390411
149
-25583.3578307248
100
AcDbLayout
  1
Model
 70
     1
 71
     0
 10
0.0
 20
0.0
 11
12.0
 21
9.0
 12
0.0
 22
0.0
 32
0.0
 14
0.0
 24
0.0
 34
0.0
 15
0.0
 25
0.0
 35
0.0
146
0.0
 13
0.0
 23
0.0
 33
0.0
 16
1.0
 26
0.0
 36
0.0
 17
0.0
 27
1.0
 37
0.0
 76
     0
330
1E
1001
ACAD_PSEXT
1000
無
1000
無
1000
不適用
1000
除非另選一新建的繪圖機規劃名稱，否則配置將不會出圖。
1070
     0
  0
LAYOUT
  5
1D
102
{ACAD_XDICTIONARY
360
EB1F
102
}
102
{ACAD_REACTORS
330
19
102
}
330
19
100
AcDbPlotSettings
  1

  2
HP 2200
  4

  6

 40
0.0
 41
0.0
 42
0.0
 43
0.0
 44
0.0
 45
0.0
 46
0.0
 47
0.0
 48
0.0
 49
0.0
140
0.0
141
0.0
142
1.0
143
1.0
 70
   688
 72
     0
 73
     0
 74
     5
  7
AAA.ctb
 75
    16
147
1.0
148
0.0
149
0.0
100
AcDbLayout
  1
配置1
 70
     0
 71
     1
 10
0.0
 20
0.0
 11
12.0
 21
9.0
 12
0.0
 22
0.0
 32
0.0
 14
1.000000000000000E+20
 24
1.000000000000000E+20
 34
1.000000000000000E+20
 15
-1.000000000000000E+20
 25
-1.000000000000000E+20
 35
-1.000000000000000E+20
146
0.0
 13
0.0
 23
0.0
 33
0.0
 16
1.0
 26
0.0
 36
0.0
 17
0.0
 27
1.0
 37
0.0
 76
     0
330
1A
  0
MLINESTYLE
  5
17
102
{ACAD_REACTORS
330
16
102
}
330
16
100
AcDbMlineStyle
  2
STANDARD
 70
     0
  3

 62
   256
 51
90.0
 52
90.0
 71
     2
 49
0.5
 62
   256
  6
BYLAYER
 49
-0.5
 62
   256
  6
BYLAYER
  0
PLOTSETTINGS
  5
4150
102
{ACAD_XDICTIONARY
360
EB23
102
}
102
{ACAD_REACTORS
330
18
102
}
330
18
100
AcDbPlotSettings
  1
LANSRO
  2
\\1260\HP2200
  4
A4
  6

 40
6.043083190917968
 41
6.762742042541503
 42
7.736419677734375
 43
5.027069091796875
 44
209.9733276367187
 45
296.9683227539062
 46
5.15
 47
0.0
 48
0.0
 49
0.0
140
0.0
141
0.0
142
1.0
143
0.8829829263240881
 70
  1716
 72
     1
 73
     1
 74
     0
  7
AAA.ctb
 75
     0
147
1.132524729739748
148
-132.297014905803
149
-71.78507365635891
  0
ACDBPLACEHOLDER
  5
F
102
{ACAD_REACTORS
330
E
102
}
330
E
  0
ACAD_PROXY_OBJECT
  5
E7A4
102
{ACAD_REACTORS
330
E7A3
102
}
330
E7A3
100
AcDbProxyObject
 90
      499
 91
      514
 95
   983063
 70
     0
 93
     1841
310
4214DD185B99185C9928B81E85EB51B8AE3F2E07A17AD46E2B8FC02B5E8DC0F42B1CFD028000000C1008070000C3001FDFF8000000C1003FBFF000000182007F7FE00000030400FEFFC00000060801FDFF8000000C1003FBFF00000018200000000000000681FA0B0000001820100E000186003FBFF000000182007F7FE000
310
00030400FEFFC00000060801FDFF8000000C1003FBFF000000182007F7FE000000304000AD7A3703D0AC73F4160000003040201C00030C007F7FE00000030400FEFFC00000060801FDFF8000000C1003FBFF000000182007F7FE00000030400FEFFC000000608000
340
11
340
11
340
11
 94
        0
1001
ACAD
1000
AcRTDxfName
1000
TABLESTYLE
  0
XRECORD
  5
EB1E
102
{ACAD_REACTORS
330
EB1C
102
}
330
EB1C
100
AcDbXrecord
280
     1
340
3D97
  0
XRECORD
  5
EB1D
102
{ACAD_REACTORS
330
EB1C
102
}
330
EB1C
100
AcDbXrecord
280
     1
340
3D96
  0
DICTIONARYVAR
  5
E8F8
102
{ACAD_REACTORS
330
3E63
102
}
330
3E63
100
DictionaryVariables
280
     0
  1
STANDARD
  0
DICTIONARYVAR
  5
3E64
102
{ACAD_REACTORS
330
3E63
102
}
330
3E63
100
DictionaryVariables
280
     0
  1
1
  0
DICTIONARYVAR
  5
3E65
102
{ACAD_REACTORS
330
3E63
102
}
330
3E63
100
DictionaryVariables
280
     0
  1

  0
DICTIONARY
  5
EB21
330
21
100
AcDbDictionary
280
     1
281
     1
  3
ACAD_XREC_ROUNDTRIP
360
EB22
  0
DICTIONARY
  5
EB1F
330
1D
100
AcDbDictionary
280
     1
281
     1
  3
ACAD_XREC_ROUNDTRIP
360
EB20
  0
DICTIONARY
  5
EB23
330
4150
100
AcDbDictionary
280
     1
281
     1
  3
ACAD_XREC_ROUNDTRIP
360
EB24
  0
XRECORD
  5
EB22
102
{ACAD_REACTORS
330
EB21
102
}
330
EB21
100
AcDbXrecord
280
     1
102
SHADEPLOT
 70
     0
102
SHADEPLOTRESLEVEL
 70
     2
102
SHADEPLOTCUSTOMDPI
 70
   300
  0
XRECORD
  5
EB20
102
{ACAD_REACTORS
330
EB1F
102
}
330
EB1F
100
AcDbXrecord
280
     1
102
SHADEPLOT
 70
     0
102
SHADEPLOTRESLEVEL
 70
     2
102
SHADEPLOTCUSTOMDPI
 70
   300
  0
XRECORD
  5
EB24
102
{ACAD_REACTORS
330
EB23
102
}
330
EB23
100
AcDbXrecord
280
     1
102
SHADEPLOT
 70
     0
102
SHADEPLOTRESLEVEL
 70
     2
102
SHADEPLOTCUSTOMDPI
 70
   300
  0
ENDSEC
  0
EOF
