  0
SECTION
  2
HEADER
  9
$ACADVER
  1
AC1015
  9
$ACADMAINTVER
 70
    20
  9
$DWGCODEPAGE
  3
ANSI_950
  9
$INSBASE
 10
0.0
 20
0.0
 30
0.0
  9
$EXTMIN
 10
1491.951642864438
 20
636.7873125502565
 30
0.0
  9
$EXTMAX
 10
1907.251267505983
 20
894.0287483749479
 30
0.0
  9
$LIMMIN
 10
-10.0
 20
-15.0
  9
$LIMMAX
 10
120.0
 20
90.0
  9
$ORTHOMODE
 70
     1
  9
$REGENMODE
 70
     0
  9
$FILLMODE
 70
     1
  9
$QTEXTMODE
 70
     0
  9
$MIRRTEXT
 70
     0
  9
$LTSCALE
 40
3.0
  9
$ATTMODE
 70
     1
  9
$TEXTSIZE
 40
3.0
  9
$TRACEWID
 40
1.0
  9
$TEXTSTYLE
  7
STANDARD
  9
$CLAYER
  8
0
  9
$CELTYPE
  6
ByLayer
  9
$CECOLOR
 62
   256
  9
$CELTSCALE
 40
1.0
  9
$DISPSILH
 70
     0
  9
$DIMSCALE
 40
1.0
  9
$DIMASZ
 40
3.0
  9
$DIMEXO
 40
1.0
  9
$DIMDLI
 40
6.0
  9
$DIMRND
 40
0.0
  9
$DIMDLE
 40
0.0
  9
$DIMEXE
 40
1.0
  9
$DIMTP
 40
0.0
  9
$DIMTM
 40
0.0
  9
$DIMTXT
 40
3.0
  9
$DIMCEN
 40
1.5
  9
$DIMTSZ
 40
0.0
  9
$DIMTOL
 70
     0
  9
$DIMLIM
 70
     0
  9
$DIMTIH
 70
     1
  9
$DIMTOH
 70
     1
  9
$DIMSE1
 70
     0
  9
$DIMSE2
 70
     0
  9
$DIMTAD
 70
     0
  9
$DIMZIN
 70
     0
  9
$DIMBLK
  1

  9
$DIMASO
 70
     1
  9
$DIMSHO
 70
     0
  9
$DIMPOST
  1

  9
$DIMAPOST
  1

  9
$DIMALT
 70
     0
  9
$DIMALTD
 70
     2
  9
$DIMALTF
 40
25.4
  9
$DIMLFAC
 40
1.0
  9
$DIMTOFL
 70
     1
  9
$DIMTVP
 40
0.0
  9
$DIMTIX
 70
     0
  9
$DIMSOXD
 70
     0
  9
$DIMSAH
 70
     0
  9
$DIMBLK1
  1

  9
$DIMBLK2
  1

  9
$DIMSTYLE
  2
Standard
  9
$DIMCLRD
 70
     0
  9
$DIMCLRE
 70
     0
  9
$DIMCLRT
 70
     0
  9
$DIMTFAC
 40
1.0
  9
$DIMGAP
 40
0.09
  9
$DIMJUST
 70
     0
  9
$DIMSD1
 70
     0
  9
$DIMSD2
 70
     0
  9
$DIMTOLJ
 70
     1
  9
$DIMTZIN
 70
     0
  9
$DIMALTZ
 70
     0
  9
$DIMALTTZ
 70
     0
  9
$DIMUPT
 70
     0
  9
$DIMDEC
 70
     4
  9
$DIMTDEC
 70
     8
  9
$DIMALTU
 70
     2
  9
$DIMALTTD
 70
     2
  9
$DIMTXSTY
  7
STANDARD
  9
$DIMAUNIT
 70
     0
  9
$DIMADEC
 70
     0
  9
$DIMALTRND
 40
0.0
  9
$DIMAZIN
 70
     0
  9
$DIMDSEP
 70
    46
  9
$DIMATFIT
 70
     3
  9
$DIMFRAC
 70
     0
  9
$DIMLDRBLK
  1

  9
$DIMLUNIT
 70
     2
  9
$DIMLWD
 70
    -2
  9
$DIMLWE
 70
    -2
  9
$DIMTMOVE
 70
     2
  9
$LUNITS
 70
     2
  9
$LUPREC
 70
     4
  9
$SKETCHINC
 40
0.5
  9
$FILLETRAD
 40
0.0
  9
$AUNITS
 70
     0
  9
$AUPREC
 70
     0
  9
$MENU
  1
ACAD
  9
$ELEVATION
 40
0.0
  9
$PELEVATION
 40
0.0
  9
$THICKNESS
 40
0.0
  9
$LIMCHECK
 70
     0
  9
$CHAMFERA
 40
0.0
  9
$CHAMFERB
 40
0.0
  9
$CHAMFERC
 40
0.0
  9
$CHAMFERD
 40
0.0
  9
$SKPOLY
 70
     0
  9
$TDCREATE
 40
2444975.333333334
  9
$TDUCREATE
 40
2444975.000000000
  9
$TDUPDATE
 40
2454042.437999225
  9
$TDUUPDATE
 40
2454042.104665891
  9
$TDINDWG
 40
0.3154588542
  9
$TDUSRTIMER
 40
0.0000000000
  9
$USRTIMER
 70
     0
  9
$ANGBASE
 50
0.0
  9
$ANGDIR
 70
     0
  9
$PDMODE
 70
     0
  9
$PDSIZE
 40
0.001
  9
$PLINEWID
 40
0.0
  9
$SPLFRAME
 70
     0
  9
$SPLINETYPE
 70
     6
  9
$SPLINESEGS
 70
  8000
  9
$HANDSEED
  5
EAE5
  9
$SURFTAB1
 70
     6
  9
$SURFTAB2
 70
     6
  9
$SURFTYPE
 70
     6
  9
$SURFU
 70
     6
  9
$SURFV
 70
     6
  9
$UCSBASE
  2

  9
$UCSNAME
  2

  9
$UCSORG
 10
0.0
 20
0.0
 30
0.0
  9
$UCSXDIR
 10
1.0
 20
0.0
 30
0.0
  9
$UCSYDIR
 10
0.0
 20
1.0
 30
0.0
  9
$UCSORTHOREF
  2

  9
$UCSORTHOVIEW
 70
     0
  9
$UCSORGTOP
 10
0.0
 20
0.0
 30
0.0
  9
$UCSORGBOTTOM
 10
0.0
 20
0.0
 30
0.0
  9
$UCSORGLEFT
 10
0.0
 20
0.0
 30
0.0
  9
$UCSORGRIGHT
 10
0.0
 20
0.0
 30
0.0
  9
$UCSORGFRONT
 10
0.0
 20
0.0
 30
0.0
  9
$UCSORGBACK
 10
0.0
 20
0.0
 30
0.0
  9
$PUCSBASE
  2

  9
$PUCSNAME
  2

  9
$PUCSORG
 10
0.0
 20
0.0
 30
0.0
  9
$PUCSXDIR
 10
1.0
 20
0.0
 30
0.0
  9
$PUCSYDIR
 10
0.0
 20
1.0
 30
0.0
  9
$PUCSORTHOREF
  2

  9
$PUCSORTHOVIEW
 70
     0
  9
$PUCSORGTOP
 10
0.0
 20
0.0
 30
0.0
  9
$PUCSORGBOTTOM
 10
0.0
 20
0.0
 30
0.0
  9
$PUCSORGLEFT
 10
0.0
 20
0.0
 30
0.0
  9
$PUCSORGRIGHT
 10
0.0
 20
0.0
 30
0.0
  9
$PUCSORGFRONT
 10
0.0
 20
0.0
 30
0.0
  9
$PUCSORGBACK
 10
0.0
 20
0.0
 30
0.0
  9
$USERI1
 70
     0
  9
$USERI2
 70
     0
  9
$USERI3
 70
     0
  9
$USERI4
 70
     0
  9
$USERI5
 70
     0
  9
$USERR1
 40
0.0
  9
$USERR2
 40
0.0
  9
$USERR3
 40
0.0
  9
$USERR4
 40
0.0
  9
$USERR5
 40
0.0
  9
$WORLDVIEW
 70
     1
  9
$SHADEDGE
 70
     3
  9
$SHADEDIF
 70
    70
  9
$TILEMODE
 70
     1
  9
$MAXACTVP
 70
    48
  9
$PINSBASE
 10
0.0
 20
0.0
 30
0.0
  9
$PLIMCHECK
 70
     0
  9
$PEXTMIN
 10
1.000000000000000E+20
 20
1.000000000000000E+20
 30
1.000000000000000E+20
  9
$PEXTMAX
 10
-1.000000000000000E+20
 20
-1.000000000000000E+20
 30
-1.000000000000000E+20
  9
$PLIMMIN
 10
0.0
 20
0.0
  9
$PLIMMAX
 10
12.0
 20
9.0
  9
$UNITMODE
 70
     0
  9
$VISRETAIN
 70
     1
  9
$PLINEGEN
 70
     0
  9
$PSLTSCALE
 70
     0
  9
$TREEDEPTH
 70
  3020
  9
$CMLSTYLE
  2
Standard
  9
$CMLJUST
 70
     0
  9
$CMLSCALE
 40
1.0
  9
$PROXYGRAPHICS
 70
     1
  9
$MEASUREMENT
 70
     0
  9
$CELWEIGHT
370
    -1
  9
$ENDCAPS
280
     0
  9
$JOINSTYLE
280
     0
  9
$LWDISPLAY
290
     0
  9
$INSUNITS
 70
     0
  9
$HYPERLINKBASE
  1

  9
$STYLESHEET
  1

  9
$XEDIT
290
     1
  9
$CEPSNTYPE
380
     0
  9
$PSTYLEMODE
290
     1
  9
$FINGERPRINTGUID
  2
{77095E5F-9CE7-11D7-970D-0040F4541FA8}
  9
$VERSIONGUID
  2
{00F8EC18-2E4A-4601-8211-046CB7A2A047}
  9
$EXTNAMES
290
     1
  9
$PSVPSCALE
 40
0.0
  9
$OLESTARTUP
290
     0
  0
ENDSEC
  0
SECTION
  2
CLASSES
  0
CLASS
  1
ACDBDICTIONARYWDFLT
  2
AcDbDictionaryWithDefault
  3
ObjectDBX Classes
 90
        0
280
     0
281
     0
  0
CLASS
  1
ACDBPLACEHOLDER
  2
AcDbPlaceHolder
  3
ObjectDBX Classes
 90
        0
280
     0
281
     0
  0
CLASS
  1
LAYOUT
  2
AcDbLayout
  3
ObjectDBX Classes
 90
        0
280
     0
281
     0
  0
CLASS
  1
LONG_TRANSACTION
  2
AcDbLongTransaction
  3
ObjectDBX Classes
 90
    32768
280
     0
281
     0
  0
CLASS
  1
LWPOLYLINE
  2
AcDbPolyline
  3
ObjectDBX Classes
 90
        0
280
     0
281
     1
  0
CLASS
  1
HATCH
  2
AcDbHatch
  3
ObjectDBX Classes
 90
    32768
280
     0
281
     1
  0
CLASS
  1
XRECORD
  2
AcDbXrecord
  3
ObjectDBX Classes
 90
        0
280
     0
281
     0
  0
CLASS
  1
LONG_TRANSACTION
  2
AcDbLongTransaction
  3
ObjectDBX Classes
 90
    32768
280
     0
281
     0
  0
CLASS
  1
LWPOLYLINE
  2
AcDbPolyline
  3
ObjectDBX Classes
 90
        0
280
     0
281
     1
  0
CLASS
  1
HATCH
  2
AcDbHatch
  3
ObjectDBX Classes
 90
    32768
280
     0
281
     1
  0
CLASS
  1
XRECORD
  2
AcDbXrecord
  3
ObjectDBX Classes
 90
        0
280
     0
281
     0
  0
CLASS
  1
DICTIONARYVAR
  2
AcDbDictionaryVar
  3
ObjectDBX Classes
 90
        0
280
     0
281
     0
  0
CLASS
  1
PLOTSETTINGS
  2
AcDbPlotSettings
  3
ObjectDBX Classes
 90
        0
280
     0
281
     0
  0
CLASS
  1
SORTENTSTABLE
  2
AcDbSortentsTable
  3
ObjectDBX Classes
 90
        0
280
     0
281
     0
  0
CLASS
  1
TABLESTYLE
  2
AcDbTableStyle
  3
ObjectDBX Classes
 90
     2047
280
     0
281
     0
  0
ENDSEC
  0
SECTION
  2
TABLES
  0
TABLE
  2
VPORT
  5
8
330
0
100
AcDbSymbolTable
 70
     3
  0
VPORT
  5
EADB
330
8
100
AcDbSymbolTableRecord
100
AcDbViewportTableRecord
  2
*Active
 70
     0
 10
0.0
 20
0.0
 11
1.0
 21
1.0
 12
1704.008214289251
 22
767.3412501079849
 13
457.9999999999997
 23
1082.0
 14
10.0
 24
10.0
 15
10.0
 25
10.0
 16
0.0
 26
0.0
 36
1.0
 17
0.0
 27
0.0
 37
0.0
 40
287.5276867918083
 41
1.530456852791878
 42
1.0
 43
0.0
 44
0.0
 50
0.0
 51
0.0
 71
     0
 72
  2000
 73
     1
 74
     1
 75
     0
 76
     0
 77
     0
 78
     0
281
     0
 65
     1
110
0.0
120
0.0
130
0.0
111
1.0
121
0.0
131
0.0
112
0.0
122
1.0
132
0.0
 79
     0
146
0.0
  0
ENDTAB
  0
TABLE
  2
LTYPE
  5
5
330
0
100
AcDbSymbolTable
 70
     6
  0
LTYPE
  5
13
330
5
100
AcDbSymbolTableRecord
100
AcDbLinetypeTableRecord
  2
ByBlock
 70
     0
  3

 72
    65
 73
     0
 40
0.0
  0
LTYPE
  5
14
330
5
100
AcDbSymbolTableRecord
100
AcDbLinetypeTableRecord
  2
ByLayer
 70
     0
  3

 72
    65
 73
     0
 40
0.0
  0
LTYPE
  5
15
330
5
100
AcDbSymbolTableRecord
100
AcDbLinetypeTableRecord
  2
CONTINUOUS
 70
     0
  3
連續線 ________________________
 72
    65
 73
     0
 40
0.0
  0
LTYPE
  5
225
330
5
100
AcDbSymbolTableRecord
100
AcDbLinetypeTableRecord
  2
BYBLOCK
 70
     0
  3
Solid line
 72
    65
 73
     0
 40
0.0
  0
LTYPE
  5
226
330
5
100
AcDbSymbolTableRecord
100
AcDbLinetypeTableRecord
  2
BYLAYER
 70
     0
  3
Solid line
 72
    65
 73
     0
 40
0.0
  0
LTYPE
  5
413C
330
5
100
AcDbSymbolTableRecord
100
AcDbLinetypeTableRecord
  2
CENTER2
 70
     0
  3
Center (.5x) ___ _ ___ _ ___ _ ___ _ ___ _ ___
 72
    65
 73
     4
 40
28.575
 49
19.05
 74
     0
 49
-3.174999999999999
 74
     0
 49
3.174999999999999
 74
     0
 49
-3.174999999999999
 74
     0
  0
LTYPE
  5
413D
330
5
100
AcDbSymbolTableRecord
100
AcDbLinetypeTableRecord
  2
DASHED2
 70
     0
  3
Dashed (.5x) _ _ _ _ _ _ _ _ _ _ _ _ _ _ _ _ _
 72
    65
 73
     2
 40
9.524999999999998
 49
6.349999999999999
 74
     0
 49
-3.174999999999999
 74
     0
  0
LTYPE
  5
69DC
330
5
100
AcDbSymbolTableRecord
100
AcDbLinetypeTableRecord
  2
DASHED
 70
     0
  3
__ __ __ __ __ __ __ __ __ __ __ __ __ __ __
 72
    65
 73
     2
 40
4.0
 49
3.0
 74
     0
 49
-1.0
 74
     0
  0
ENDTAB
  0
TABLE
  2
LAYER
  5
2
102
{ACAD_XDICTIONARY
360
43C2
102
}
330
0
100
AcDbSymbolTable
 70
     7
  0
LAYER
  5
10
330
2
100
AcDbSymbolTableRecord
100
AcDbLayerTableRecord
  2
0
 70
     0
 62
     7
  6
CONTINUOUS
370
    -3
390
F
  0
LAYER
  5
413E
330
2
100
AcDbSymbolTableRecord
100
AcDbLayerTableRecord
  2
指線
 70
     0
 62
     3
  6
CONTINUOUS
370
    15
390
F
  0
LAYER
  5
413F
330
2
100
AcDbSymbolTableRecord
100
AcDbLayerTableRecord
  2
中心線
 70
     0
 62
     4
  6
CENTER2
370
    20
390
F
  0
LAYER
  5
4140
330
2
100
AcDbSymbolTableRecord
100
AcDbLayerTableRecord
  2
虛線
 70
     0
 62
     6
  6
DASHED2
290
     0
370
    -3
390
F
  0
LAYER
  5
43B4
330
2
100
AcDbSymbolTableRecord
100
AcDbLayerTableRecord
  2
建構線
 70
     0
 62
     1
  6
CONTINUOUS
370
    -3
390
F
  0
LAYER
  5
69DF
330
2
100
AcDbSymbolTableRecord
100
AcDbLayerTableRecord
  2
標註線
 70
     0
 62
     3
  6
CONTINUOUS
370
    13
390
F
  0
LAYER
  5
C701
330
2
100
AcDbSymbolTableRecord
100
AcDbLayerTableRecord
  2
Defpoints
 70
     0
 62
     7
  6
CONTINUOUS
290
     0
370
    -3
390
F
  0
ENDTAB
  0
TABLE
  2
STYLE
  5
3
330
0
100
AcDbSymbolTable
 70
     1
  0
STYLE
  5
11
330
3
100
AcDbSymbolTableRecord
100
AcDbTextStyleTableRecord
  2
STANDARD
 70
     0
 40
0.0
 41
1.0
 50
0.0
 71
     0
 42
3.0
  3

  4

  0
ENDTAB
  0
TABLE
  2
VIEW
  5
6
330
0
100
AcDbSymbolTable
 70
     0
  0
ENDTAB
  0
TABLE
  2
UCS
  5
7
330
0
100
AcDbSymbolTable
 70
     0
  0
ENDTAB
  0
TABLE
  2
APPID
  5
9
330
0
100
AcDbSymbolTable
 70
     4
  0
APPID
  5
12
330
9
100
AcDbSymbolTableRecord
100
AcDbRegAppTableRecord
  2
ACAD
 70
     0
  0
APPID
  5
230
330
9
100
AcDbSymbolTableRecord
100
AcDbRegAppTableRecord
  2
TCAD
 70
     0
  0
APPID
  5
4142
330
9
100
AcDbSymbolTableRecord
100
AcDbRegAppTableRecord
  2
CONTENTBLOCKICON
 70
     0
  0
APPID
  5
5D91
330
9
100
AcDbSymbolTableRecord
100
AcDbRegAppTableRecord
  2
pntflag
 70
     0
  0
ENDTAB
  0
TABLE
  2
DIMSTYLE
  5
A
330
0
100
AcDbSymbolTable
 70
     1
100
AcDbDimStyleTable
 71
     1
340
3C9D
  0
DIMSTYLE
105
3C9D
330
A
100
AcDbSymbolTableRecord
100
AcDbDimStyleTableRecord
  2
Standard
 70
     0
340
11
  0
ENDTAB
  0
TABLE
  2
BLOCK_RECORD
  5
1
330
0
100
AcDbSymbolTable
 70
     2
  0
BLOCK_RECORD
  5
1E
102
{ACAD_XDICTIONARY
360
3D1E
102
}
330
1
100
AcDbSymbolTableRecord
100
AcDbBlockTableRecord
  2
*Model_Space
340
21
  0
BLOCK_RECORD
  5
1A
102
{ACAD_XDICTIONARY
360
3D20
102
}
330
1
100
AcDbSymbolTableRecord
100
AcDbBlockTableRecord
  2
*Paper_Space
340
1D
  0
BLOCK_RECORD
  5
69B7
102
{ACAD_XDICTIONARY
360
69B8
102
}
330
1
100
AcDbSymbolTableRecord
100
AcDbBlockTableRecord
  2
A$C51E2538E
340
0
  0
BLOCK_RECORD
  5
69CB
102
{ACAD_XDICTIONARY
360
69CC
102
}
330
1
100
AcDbSymbolTableRecord
100
AcDbBlockTableRecord
  2
A$C3310154B
340
0
  0
ENDTAB
  0
ENDSEC
  0
SECTION
  2
BLOCKS
  0
BLOCK
  5
254
330
1E
100
AcDbEntity
  8
0
100
AcDbBlockBegin
  2
*Model_Space
 70
     0
 10
0.0
 20
0.0
 30
0.0
  3
*Model_Space
  1

  0
ENDBLK
  5
255
330
1E
100
AcDbEntity
  8
0
100
AcDbBlockEnd
  0
BLOCK
  5
252
330
1A
100
AcDbEntity
 67
     1
  8
0
100
AcDbBlockBegin
  2
*Paper_Space
 70
     0
 10
0.0
 20
0.0
 30
0.0
  3
*Paper_Space
  1

  0
ENDBLK
  5
253
330
1A
100
AcDbEntity
 67
     1
  8
0
100
AcDbBlockEnd
  0
BLOCK
  5
69BA
330
69B7
100
AcDbEntity
  8
0
 62
     1
 48
0.27
100
AcDbBlockBegin
  2
A$C51E2538E
 70
     0
 10
0.0
 20
0.0
 30
0.0
  3
A$C51E2538E
  1

  0
LINE
  5
69BB
330
69B7
100
AcDbEntity
  8
虛線
 48
0.25
100
AcDbLine
 10
9.230939415452212
 20
1.99838789798423
 30
0.0
 11
2.230939415459943
 21
1.998387897983548
 31
0.0
  0
LINE
  5
69BC
330
69B7
100
AcDbEntity
  8
虛線
 48
0.25
100
AcDbLine
 10
9.230939415453576
 20
15.79841841556197
 30
0.0
 11
9.230939415452212
 21
1.99838789798423
 31
0.0
  0
LINE
  5
69BD
330
69B7
100
AcDbEntity
  8
虛線
 48
0.25
100
AcDbLine
 10
0.2309394154581241
 20
24.698418415562
 30
0.0
 11
0.2309394154590336
 21
16.09842604495623
 31
0.0
  0
LINE
  5
69BE
330
69B7
100
AcDbEntity
  8
虛線
 48
0.25
100
AcDbLine
 10
2.230939415453576
 20
15.79841841556191
 30
0.0
 11
2.230939415459943
 21
1.998387897983576
 31
0.0
  0
LINE
  5
69BF
330
69B7
100
AcDbEntity
  8
虛線
 48
0.25
100
AcDbLine
 10
0.2309394154590336
 20
16.09835738040544
 30
0.0
 11
11.23093941545221
 21
16.09835738040573
 31
0.0
  0
LINE
  5
69C0
330
69B7
100
AcDbEntity
  8
中心線
 48
0.25
100
AcDbLine
 10
5.730939415455679
 20
27.09841841556201
 30
0.0
 11
5.730939415449938
 21
0.0
 31
0.0
  0
LINE
  5
69C1
330
69B7
100
AcDbEntity
  8
虛線
 48
0.25
100
AcDbLine
 10
2.230939415459943
 20
1.998387897983548
 30
0.0
 11
1.730939415460852
 21
1.498387897984002
 31
0.0
  0
LINE
  5
69C2
330
69B7
100
AcDbEntity
  8
虛線
 48
0.25
100
AcDbLine
 10
9.230939415452212
 20
1.99838789798423
 30
0.0
 11
9.730939415451302
 21
1.498387897984287
 31
0.0
  0
LINE
  5
69C3
330
69B7
100
AcDbEntity
  8
虛線
 48
0.25
100
AcDbLine
 10
11.23093941545358
 20
24.698418415562
 30
0.0
 11
11.23093941545221
 21
16.09835738040573
 31
0.0
  0
LINE
  5
69C4
330
69B7
100
AcDbEntity
  8
虛線
 48
0.25
100
AcDbLine
 10
0.2309394154535767
 20
24.698418415562
 30
0.0
 11
11.23093941545358
 21
24.698418415562
 31
0.0
  0
LINE
  5
69C5
330
69B7
100
AcDbEntity
  8
虛線
 48
0.25
100
AcDbLine
 10
2.230939415453576
 20
15.79841841556197
 30
0.0
 11
9.230939415453576
 21
15.79841841556197
 31
0.0
  0
LINE
  5
69C6
330
69B7
100
AcDbEntity
  8
虛線
 48
0.25
100
AcDbLine
 10
1.930939415453394
 20
16.09841841556192
 30
0.0
 11
2.230939415453576
 21
15.79841841556191
 31
0.0
  0
LINE
  5
69C7
330
69B7
100
AcDbEntity
  8
虛線
 48
0.25
100
AcDbLine
 10
0.2309394154535767
 20
24.698418415562
 30
0.0
 11
-0.0000006922223292
 21
25.09841841556204
 31
0.0
  0
LINE
  5
69C8
330
69B7
100
AcDbEntity
  8
虛線
 48
0.25
100
AcDbLine
 10
9.230939415453576
 20
15.79841841556197
 30
0.0
 11
9.530939415453758
 21
16.09841841556198
 31
0.0
  0
LINE
  5
69C9
330
69B7
100
AcDbEntity
  8
虛線
 48
0.25
100
AcDbLine
 10
11.23093941545358
 20
24.698418415562
 30
0.0
 11
11.46187952312948
 21
25.09841841556204
 31
0.0
  0
ENDBLK
  5
69CA
330
69B7
100
AcDbEntity
  8
0
 62
     1
 48
0.27
100
AcDbBlockEnd
  0
BLOCK
  5
69CE
330
69CB
100
AcDbEntity
  8
0
 62
     1
 48
0.27
100
AcDbBlockBegin
  2
A$C3310154B
 70
     0
 10
0.0
 20
0.0
 30
0.0
  3
A$C3310154B
  1

  0
LINE
  5
69CF
330
69CB
100
AcDbEntity
  8
虛線
 48
0.2
100
AcDbLine
 10
0.4999707651827521
 20
12.80115016654724
 30
0.0
 11
0.4999707651836616
 21
5.30113016654775
 31
0.0
  0
LINE
  5
69D0
330
69CB
100
AcDbEntity
  8
虛線
 48
0.2
100
AcDbLine
 10
6.499970765181842
 20
12.80111016654831
 30
0.0
 11
6.499970765183661
 21
5.301130166548432
 31
0.0
  0
LINE
  5
69D1
330
69CB
100
AcDbEntity
  8
虛線
 48
0.2
100
AcDbLine
 10
6.499970765183661
 20
5.301130166548432
 30
0.0
 11
0.4999707651836616
 21
5.30113016654775
 31
0.0
  0
LINE
  5
69D2
330
69CB
100
AcDbEntity
  8
中心線
 48
0.25
100
AcDbLine
 10
3.49999076518344
 20
15.30112016654811
 30
0.0
 11
3.499990765177699
 21
0.000000166540076
 31
0.0
  0
LINE
  5
69D3
330
69CB
100
AcDbEntity
  8
虛線
 48
0.2
100
AcDbLine
 10
5.999980765182044
 20
12.30112016654846
 30
0.0
 11
5.999980765187501
 21
2.30113016655747
 31
0.0
  0
LINE
  5
69D4
330
69CB
100
AcDbEntity
  8
虛線
 48
0.2
100
AcDbLine
 10
1.000000765181994
 20
12.30112016654812
 30
0.0
 11
1.000000765187905
 21
2.301130166554685
 31
0.0
  0
LINE
  5
69D5
330
69CB
100
AcDbEntity
  8
虛線
 48
0.2
100
AcDbLine
 10
5.999980765187501
 20
2.30113016655747
 30
0.0
 11
1.000000765187905
 21
2.301130166554685
 31
0.0
  0
LINE
  5
69D6
330
69CB
100
AcDbEntity
  8
虛線
 48
0.2
100
AcDbLine
 10
5.999980765182499
 20
12.3011201665484
 30
0.0
 11
1.000000765181994
 21
12.30112016654817
 31
0.0
  0
LINE
  5
69D7
330
69CB
100
AcDbEntity
  8
虛線
 48
0.2
100
AcDbLine
 10
5.999980765182044
 20
12.3011201665484
 30
0.0
 11
6.999980765182499
 21
13.30112016654863
 31
0.0
  0
LINE
  5
69D8
330
69CB
100
AcDbEntity
  8
虛線
 48
0.2
100
AcDbLine
 10
5.999980765187956
 20
2.301130166557413
 30
0.0
 11
3.499990765183611
 21
0.801130166544965
 31
0.0
  0
LINE
  5
69D9
330
69CB
100
AcDbEntity
  8
虛線
 48
0.2
100
AcDbLine
 10
1.000000765187905
 20
2.30113016657259
 30
0.0
 11
3.499990765178154
 21
0.801130166544965
 31
0.0
  0
LINE
  5
69DA
330
69CB
100
AcDbEntity
  8
虛線
 48
0.2
100
AcDbLine
 10
1.00000076518495
 20
12.30112016654834
 30
0.0
 11
0.0000007651844385
 21
13.30112016654854
 31
0.0
  0
ENDBLK
  5
69DB
330
69CB
100
AcDbEntity
  8
0
 62
     1
 48
0.27
100
AcDbBlockEnd
  0
ENDSEC
  0
SECTION
  2
ENTITIES
  0
LINE
  5
A28A
330
1E
100
AcDbEntity
  8
0
  6
Continuous
 62
     7
100
AcDbLine
 10
1707.751267505983
 20
740.2723532889276
 30
0.0
 11
1727.751267505983
 21
740.2723532889276
 31
0.0
  0
LINE
  5
A28C
330
1E
100
AcDbEntity
  8
0
  6
Continuous
 62
     7
100
AcDbLine
 10
1806.751267505983
 20
740.2723532886275
 30
0.0
 11
1826.751267505983
 21
740.2723532886275
 31
0.0
  0
LINE
  5
B26B
330
1E
100
AcDbEntity
  8
0
  6
Continuous
 62
     7
100
AcDbLine
 10
1627.251267505983
 20
692.6223532885696
 30
0.0
 11
1627.251267505983
 21
722.8223532885699
 31
0.0
  0
LINE
  5
B27B
330
1E
100
AcDbEntity
  8
中心線
 48
0.5
100
AcDbLine
 10
1687.251267505983
 20
690.6223532885704
 30
0.0
 11
1687.251267505983
 21
724.8223532885697
 31
0.0
  0
LINE
  5
B27C
330
1E
100
AcDbEntity
  8
虛線
 48
0.7
100
AcDbLine
 10
1680.251267505983
 20
722.4223532885698
 30
0.0
 11
1680.020327398308
 21
722.8223532885699
 31
0.0
  0
LINE
  5
B27D
330
1E
100
AcDbEntity
  8
虛線
 48
0.7
100
AcDbLine
 10
1694.251267505983
 20
722.4223532885698
 30
0.0
 11
1694.482207613659
 21
722.8223532885699
 31
0.0
  0
LINE
  5
B27E
330
1E
100
AcDbEntity
  8
虛線
 48
0.3
100
AcDbLine
 10
1691.751267505983
 20
710.52235328857
 30
0.0
 11
1682.751267505983
 21
710.52235328857
 31
0.0
  0
LINE
  5
B27F
330
1E
100
AcDbEntity
  8
虛線
 48
0.3
100
AcDbLine
 10
1692.051267505983
 20
710.8223532885699
 30
0.0
 11
1691.751267505983
 21
710.52235328857
 31
0.0
  0
LINE
  5
B280
330
1E
100
AcDbEntity
  8
虛線
 48
0.3
100
AcDbLine
 10
1682.451267505983
 20
710.8223532885699
 30
0.0
 11
1682.751267505983
 21
710.52235328857
 31
0.0
  0
LINE
  5
B281
330
1E
100
AcDbEntity
  8
虛線
 48
0.7
100
AcDbLine
 10
1682.751267505983
 20
693.1223532885699
 30
0.0
 11
1682.251266791697
 21
692.6223532885706
 31
0.0
  0
LINE
  5
B282
330
1E
100
AcDbEntity
  8
虛線
 48
0.7
100
AcDbLine
 10
1692.25126822027
 20
692.6223532885706
 30
0.0
 11
1691.751267505983
 21
693.1223532885699
 31
0.0
  0
LINE
  5
B283
330
1E
100
AcDbEntity
  8
虛線
 48
0.3
100
AcDbLine
 10
1682.751267505983
 20
693.1223532885696
 30
0.0
 11
1691.751267505983
 21
693.1223532885696
 31
0.0
  0
LINE
  5
B284
330
1E
100
AcDbEntity
  8
虛線
 48
0.3
100
AcDbLine
 10
1680.251267505983
 20
722.4223532885698
 30
0.0
 11
1694.251267505983
 21
722.4223532885698
 31
0.0
  0
LINE
  5
B285
330
1E
100
AcDbEntity
  8
虛線
 48
0.3
100
AcDbLine
 10
1694.251267505983
 20
710.8223532885702
 30
0.0
 11
1680.251267505983
 21
710.8223532885702
 31
0.0
  0
LINE
  5
B286
330
1E
100
AcDbEntity
  8
虛線
 48
0.3
100
AcDbLine
 10
1691.751267505983
 20
710.5223532885697
 30
0.0
 11
1691.751267505983
 21
693.1223532885699
 31
0.0
  0
LINE
  5
B287
330
1E
100
AcDbEntity
  8
虛線
 48
0.3
100
AcDbLine
 10
1682.751267505983
 20
710.5223532885706
 30
0.0
 11
1682.751267505983
 21
693.1223532885696
 31
0.0
  0
LINE
  5
B288
330
1E
100
AcDbEntity
  8
虛線
 48
0.3
100
AcDbLine
 10
1694.251267505983
 20
722.4223532885698
 30
0.0
 11
1694.251267505983
 21
710.8223532885702
 31
0.0
  0
LINE
  5
B289
330
1E
100
AcDbEntity
  8
虛線
 48
0.3
100
AcDbLine
 10
1680.251267505983
 20
722.4223532885694
 30
0.0
 11
1680.251267505983
 21
710.8223532885702
 31
0.0
  0
LINE
  5
B28A
330
1E
100
AcDbEntity
  8
中心線
 48
0.5
100
AcDbLine
 10
1727.251267505983
 20
690.6223532885706
 30
0.0
 11
1727.251267505983
 21
699.1223532889973
 31
0.0
  0
LINE
  5
B28B
330
1E
100
AcDbEntity
  8
虛線
 48
0.7
100
AcDbLine
 10
1731.751267505983
 20
693.1223532885701
 30
0.0
 11
1732.251268220269
 21
692.6223532885708
 31
0.0
  0
LINE
  5
B28C
330
1E
100
AcDbEntity
  8
虛線
 48
0.7
100
AcDbLine
 10
1722.251266791696
 20
692.6223532885708
 30
0.0
 11
1722.751267505983
 21
693.1223532885701
 31
0.0
  0
LINE
  5
B28D
330
1E
100
AcDbEntity
  8
虛線
 48
0.3
100
AcDbLine
 10
1731.751267505983
 20
693.1223532885699
 30
0.0
 11
1722.751267505983
 21
693.1223532885699
 31
0.0
  0
LINE
  5
B28E
330
1E
100
AcDbEntity
  8
虛線
 48
0.3
100
AcDbLine
 10
1722.751267505983
 20
699.1223532888479
 30
0.0
 11
1722.751267505983
 21
693.1223532885701
 31
0.0
  0
LINE
  5
B28F
330
1E
100
AcDbEntity
  8
虛線
 48
0.3
100
AcDbLine
 10
1731.751267505983
 20
699.1223532888102
 30
0.0
 11
1731.751267505983
 21
693.1223532885699
 31
0.0
  0
LINE
  5
B290
330
1E
100
AcDbEntity
  8
中心線
 48
0.5
100
AcDbLine
 10
1807.251267505983
 20
690.6223532885706
 30
0.0
 11
1807.251267505983
 21
699.1223532889973
 31
0.0
  0
LINE
  5
B291
330
1E
100
AcDbEntity
  8
虛線
 48
0.7
100
AcDbLine
 10
1811.751267505983
 20
693.1223532885701
 30
0.0
 11
1812.251268220269
 21
692.6223532885708
 31
0.0
  0
LINE
  5
B292
330
1E
100
AcDbEntity
  8
虛線
 48
0.7
100
AcDbLine
 10
1802.251266791696
 20
692.6223532885708
 30
0.0
 11
1802.751267505983
 21
693.1223532885701
 31
0.0
  0
LINE
  5
B293
330
1E
100
AcDbEntity
  8
虛線
 48
0.3
100
AcDbLine
 10
1811.751267505983
 20
693.1223532885699
 30
0.0
 11
1802.751267505983
 21
693.1223532885699
 31
0.0
  0
LINE
  5
B294
330
1E
100
AcDbEntity
  8
虛線
 48
0.3
100
AcDbLine
 10
1802.751267505983
 20
699.1223532888479
 30
0.0
 11
1802.751267505983
 21
693.1223532885701
 31
0.0
  0
LINE
  5
B295
330
1E
100
AcDbEntity
  8
虛線
 48
0.3
100
AcDbLine
 10
1811.751267505983
 20
699.1223532888102
 30
0.0
 11
1811.751267505983
 21
693.1223532885699
 31
0.0
  0
LINE
  5
B296
330
1E
100
AcDbEntity
  8
中心線
 48
0.5
100
AcDbLine
 10
1767.251267505983
 20
690.6223532885706
 30
0.0
 11
1767.251267505983
 21
699.1223532889973
 31
0.0
  0
LINE
  5
B297
330
1E
100
AcDbEntity
  8
虛線
 48
0.7
100
AcDbLine
 10
1771.751267505983
 20
693.1223532885701
 30
0.0
 11
1772.251268220269
 21
692.6223532885708
 31
0.0
  0
LINE
  5
B298
330
1E
100
AcDbEntity
  8
虛線
 48
0.7
100
AcDbLine
 10
1762.251266791696
 20
692.6223532885708
 30
0.0
 11
1762.751267505983
 21
693.1223532885701
 31
0.0
  0
LINE
  5
B299
330
1E
100
AcDbEntity
  8
虛線
 48
0.3
100
AcDbLine
 10
1771.751267505983
 20
693.1223532885699
 30
0.0
 11
1762.751267505983
 21
693.1223532885699
 31
0.0
  0
LINE
  5
B29A
330
1E
100
AcDbEntity
  8
虛線
 48
0.3
100
AcDbLine
 10
1762.751267505983
 20
699.1223532888479
 30
0.0
 11
1762.751267505983
 21
693.1223532885701
 31
0.0
  0
LINE
  5
B29B
330
1E
100
AcDbEntity
  8
虛線
 48
0.3
100
AcDbLine
 10
1771.751267505983
 20
699.1223532888102
 30
0.0
 11
1771.751267505983
 21
693.1223532885699
 31
0.0
  0
LINE
  5
B29C
330
1E
100
AcDbEntity
  8
0
 48
0.27
100
AcDbLine
 10
1705.251267505983
 20
699.1223532889277
 30
0.0
 11
1727.751267505983
 21
699.1223532889275
 31
0.0
  0
LINE
  5
B29D
330
1E
100
AcDbEntity
  8
中心線
 48
0.3
100
AcDbLine
 10
1887.251267505983
 20
845.7818308692225
 30
0.0
 11
1887.251267505983
 21
864.2756658806751
 31
0.0
  0
LINE
  5
B29E
330
1E
100
AcDbEntity
  8
中心線
 48
0.3
100
AcDbLine
 10
1878.004350000257
 20
855.0287483749487
 30
0.0
 11
1896.498185011709
 21
855.0287483749487
 31
0.0
  0
LINE
  5
B29F
330
1E
100
AcDbEntity
  8
中心線
 48
0.3
100
AcDbLine
 10
1847.251267505983
 20
845.7818308692225
 30
0.0
 11
1847.251267505983
 21
864.2756658806751
 31
0.0
  0
LINE
  5
B2A0
330
1E
100
AcDbEntity
  8
中心線
 48
0.3
100
AcDbLine
 10
1838.004350000257
 20
855.0287483749487
 30
0.0
 11
1856.498185011709
 21
855.0287483749487
 31
0.0
  0
LINE
  5
B2A1
330
1E
100
AcDbEntity
  8
中心線
 48
0.3
100
AcDbLine
 10
1687.251267505983
 20
845.7818308692225
 30
0.0
 11
1687.251267505983
 21
864.2756658806751
 31
0.0
  0
LINE
  5
B2A2
330
1E
100
AcDbEntity
  8
中心線
 48
0.3
100
AcDbLine
 10
1678.004350000257
 20
855.0287483749487
 30
0.0
 11
1693.890214683498
 21
855.0287483749487
 31
0.0
  0
LINE
  5
B2A3
330
1E
100
AcDbEntity
  8
中心線
 48
0.3
100
AcDbLine
 10
1647.251267505983
 20
845.7818308692225
 30
0.0
 11
1647.251267505983
 21
864.2756658806751
 31
0.0
  0
LINE
  5
B2A4
330
1E
100
AcDbEntity
  8
中心線
 48
0.3
100
AcDbLine
 10
1638.004350000257
 20
855.0287483749487
 30
0.0
 11
1656.49818501171
 21
855.0287483749487
 31
0.0
  0
CIRCLE
  5
B2A5
330
1E
100
AcDbEntity
  8
0
 48
0.27
100
AcDbCircle
 10
1887.251267505983
 20
855.0287483749487
 30
0.0
 40
6.999999999999772
  0
CIRCLE
  5
B2A6
330
1E
100
AcDbEntity
  8
0
 48
0.27
100
AcDbCircle
 10
1887.251267505983
 20
855.0287483749487
 30
0.0
 40
4.499999999999772
  0
CIRCLE
  5
B2A7
330
1E
100
AcDbEntity
  8
0
 48
0.27
100
AcDbCircle
 10
1847.251267505983
 20
855.0287483749487
 30
0.0
 40
6.999999999999772
  0
CIRCLE
  5
B2A8
330
1E
100
AcDbEntity
  8
0
 48
0.27
100
AcDbCircle
 10
1847.251267505983
 20
855.0287483749487
 30
0.0
 40
4.499999999999772
  0
ARC
  5
B2A9
330
1E
100
AcDbEntity
  8
0
 48
0.27
100
AcDbCircle
 10
1687.251267505983
 20
855.0287483749487
 30
0.0
 40
6.999999999999772
100
AcDbArc
 50
344.5799378814883
 51
348.9567002153104
  0
CIRCLE
  5
B2AA
330
1E
100
AcDbEntity
  8
0
 48
0.27
100
AcDbCircle
 10
1687.251267505983
 20
855.0287483749487
 30
0.0
 40
4.499999999999772
  0
CIRCLE
  5
B2AB
330
1E
100
AcDbEntity
  8
0
 48
0.27
100
AcDbCircle
 10
1647.251267505983
 20
855.0287483749487
 30
0.0
 40
6.999999999999772
  0
CIRCLE
  5
B2AC
330
1E
100
AcDbEntity
  8
0
 48
0.27
100
AcDbCircle
 10
1647.251267505983
 20
855.0287483749487
 30
0.0
 40
4.499999999999772
  0
LINE
  5
B2AD
330
1E
100
AcDbEntity
  8
0
 48
0.27
100
AcDbLine
 10
1829.251267505983
 20
872.0287483749487
 30
0.0
 11
1907.251267505983
 21
872.0287483749487
 31
0.0
  0
LINE
  5
B2AE
330
1E
100
AcDbEntity
  8
0
 48
0.27
100
AcDbLine
 10
1627.251267505983
 20
872.0287483749487
 30
0.0
 11
1705.251267505983
 21
872.0287483749487
 31
0.0
  0
LINE
  5
B2AF
330
1E
100
AcDbEntity
  8
0
 48
0.27
100
AcDbLine
 10
1829.251267505983
 20
838.0287483749487
 30
0.0
 11
1907.251267505983
 21
838.0287483749487
 31
0.0
  0
LINE
  5
B2B0
330
1E
100
AcDbEntity
  8
0
 48
0.27
100
AcDbLine
 10
1627.251267505983
 20
838.0287483749487
 30
0.0
 11
1705.251267505983
 21
838.0287483749487
 31
0.0
  0
LINE
  5
B2B1
330
1E
100
AcDbEntity
  8
0
 48
0.27
100
AcDbLine
 10
1627.251267505983
 20
872.0287483749487
 30
0.0
 11
1627.251267505983
 21
838.0287483749487
 31
0.0
  0
LINE
  5
B2B2
330
1E
100
AcDbEntity
  8
0
 48
0.27
100
AcDbLine
 10
1907.251267505983
 20
838.0287483749487
 30
0.0
 11
1907.251267505983
 21
872.0287483749487
 31
0.0
  0
LINE
  5
B2B3
330
1E
100
AcDbEntity
  8
0
  6
Continuous
 62
     7
100
AcDbLine
 10
1907.251267505983
 20
692.6223532885696
 30
0.0
 11
1907.251267505983
 21
722.8223532885699
 31
0.0
  0
LINE
  5
B2B4
330
1E
100
AcDbEntity
  8
中心線
 48
0.5
100
AcDbLine
 10
1887.251267505983
 20
690.6223532885704
 30
0.0
 11
1887.251267505983
 21
724.8223532885697
 31
0.0
  0
LINE
  5
B2B5
330
1E
100
AcDbEntity
  8
虛線
 48
0.7
100
AcDbLine
 10
1894.251267505983
 20
722.4223532885698
 30
0.0
 11
1894.482207613659
 21
722.8223532885699
 31
0.0
  0
LINE
  5
B2B6
330
1E
100
AcDbEntity
  8
虛線
 48
0.7
100
AcDbLine
 10
1880.251267505983
 20
722.4223532885698
 30
0.0
 11
1880.020327398307
 21
722.8223532885699
 31
0.0
  0
LINE
  5
B2B7
330
1E
100
AcDbEntity
  8
虛線
 48
0.3
100
AcDbLine
 10
1882.751267505983
 20
710.52235328857
 30
0.0
 11
1891.751267505983
 21
710.52235328857
 31
0.0
  0
LINE
  5
B2B8
330
1E
100
AcDbEntity
  8
虛線
 48
0.3
100
AcDbLine
 10
1882.451267505983
 20
710.8223532885699
 30
0.0
 11
1882.751267505983
 21
710.52235328857
 31
0.0
  0
LINE
  5
B2B9
330
1E
100
AcDbEntity
  8
虛線
 48
0.3
100
AcDbLine
 10
1892.051267505983
 20
710.8223532885699
 30
0.0
 11
1891.751267505983
 21
710.52235328857
 31
0.0
  0
LINE
  5
B2BA
330
1E
100
AcDbEntity
  8
虛線
 48
0.7
100
AcDbLine
 10
1891.751267505983
 20
693.1223532885699
 30
0.0
 11
1892.251268220269
 21
692.6223532885706
 31
0.0
  0
LINE
  5
B2BB
330
1E
100
AcDbEntity
  8
虛線
 48
0.7
100
AcDbLine
 10
1882.251266791696
 20
692.6223532885706
 30
0.0
 11
1882.751267505983
 21
693.1223532885699
 31
0.0
  0
LINE
  5
B2BC
330
1E
100
AcDbEntity
  8
虛線
 48
0.3
100
AcDbLine
 10
1891.751267505983
 20
693.1223532885696
 30
0.0
 11
1882.751267505983
 21
693.1223532885696
 31
0.0
  0
LINE
  5
B2BD
330
1E
100
AcDbEntity
  8
虛線
 48
0.3
100
AcDbLine
 10
1894.251267505983
 20
722.4223532885698
 30
0.0
 11
1880.251267505983
 21
722.4223532885698
 31
0.0
  0
LINE
  5
B2BE
330
1E
100
AcDbEntity
  8
虛線
 48
0.3
100
AcDbLine
 10
1880.251267505983
 20
710.8223532885702
 30
0.0
 11
1894.251267505983
 21
710.8223532885702
 31
0.0
  0
LINE
  5
B2BF
330
1E
100
AcDbEntity
  8
虛線
 48
0.3
100
AcDbLine
 10
1882.751267505983
 20
710.5223532885697
 30
0.0
 11
1882.751267505983
 21
693.1223532885699
 31
0.0
  0
LINE
  5
B2C0
330
1E
100
AcDbEntity
  8
虛線
 48
0.3
100
AcDbLine
 10
1891.751267505983
 20
710.5223532885706
 30
0.0
 11
1891.751267505983
 21
693.1223532885696
 31
0.0
  0
LINE
  5
B2C1
330
1E
100
AcDbEntity
  8
虛線
 48
0.3
100
AcDbLine
 10
1880.251267505983
 20
722.4223532885698
 30
0.0
 11
1880.251267505983
 21
710.8223532885702
 31
0.0
  0
LINE
  5
B2C2
330
1E
100
AcDbEntity
  8
虛線
 48
0.3
100
AcDbLine
 10
1894.251267505983
 20
722.4223532885694
 30
0.0
 11
1894.251267505983
 21
710.8223532885702
 31
0.0
  0
ARC
  5
B2C5
330
1E
100
AcDbEntity
  8
0
  6
Continuous
 62
     7
100
AcDbCircle
 10
1824.747100839317
 20
881.2287483719041
 30
0.0
 40
5.704166666666643
100
AcDbArc
 50
322.1507111678919
 51
37.84928883210811
  0
LINE
  5
B2C6
330
1E
100
AcDbEntity
  8
中心線
 48
0.3
100
AcDbLine
 10
1833.414994204361
 20
881.2287483719545
 30
0.0
 11
1826.251267505983
 21
881.2287483719545
 31
0.0
  0
ARC
  5
B2C7
330
1E
100
AcDbEntity
  8
0
  6
Continuous
 62
     7
100
AcDbCircle
 10
1824.747100839316
 20
828.8287483714997
 30
0.0
 40
5.704166666666643
100
AcDbArc
 50
322.1507111678919
 51
37.84928883210811
  0
LINE
  5
B2C8
330
1E
100
AcDbEntity
  8
中心線
 48
0.3
100
AcDbLine
 10
1833.414994204361
 20
828.8287483715501
 30
0.0
 11
1826.251267505983
 21
828.8287483715501
 31
0.0
  0
ARC
  5
B2C9
330
1E
100
AcDbEntity
  8
0
  6
Continuous
 62
     7
100
AcDbCircle
 10
1709.75543417265
 20
881.2287483719041
 30
0.0
 40
5.704166666666643
100
AcDbArc
 50
142.1507111678919
 51
217.8492888321081
  0
LINE
  5
B2CA
330
1E
100
AcDbEntity
  8
中心線
 48
0.3
100
AcDbLine
 10
1701.087540807605
 20
881.2287483719542
 30
0.0
 11
1708.251267505983
 21
881.2287483719542
 31
0.0
  0
ARC
  5
B2CB
330
1E
100
AcDbEntity
  8
0
  6
Continuous
 62
     7
100
AcDbCircle
 10
1709.75543417265
 20
828.8287483714997
 30
0.0
 40
5.704166666666643
100
AcDbArc
 50
142.1507111678919
 51
217.8492888321081
  0
LINE
  5
B2CC
330
1E
100
AcDbEntity
  8
中心線
 48
0.3
100
AcDbLine
 10
1701.087540807605
 20
828.8287483715498
 30
0.0
 11
1708.251267505983
 21
828.8287483715498
 31
0.0
  0
LINE
  5
B2CD
330
1E
100
AcDbEntity
  8
0
 48
0.27
100
AcDbLine
 10
1829.251267505983
 20
889.5287483749493
 30
0.0
 11
1829.251267505983
 21
820.5287483749492
 31
0.0
  0
LINE
  5
B2CE
330
1E
100
AcDbEntity
  8
0
 48
0.27
100
AcDbLine
 10
1705.251267505983
 20
889.5287483749488
 30
0.0
 11
1705.251267505983
 21
820.5287483749488
 31
0.0
  0
CIRCLE
  5
B2D1
330
1E
100
AcDbEntity
  8
0
  6
Continuous
 62
     7
100
AcDbCircle
 10
1814.751267505983
 20
855.0287483749492
 30
0.0
 40
5.15
  0
CIRCLE
  5
B2D2
330
1E
100
AcDbEntity
  8
0
  6
Continuous
 62
     7
100
AcDbCircle
 10
1814.751267505983
 20
855.0287483749492
 30
0.0
 40
0.75
  0
LINE
  5
B2D3
330
1E
100
AcDbEntity
  8
0
  6
Continuous
 62
     7
100
AcDbLine
 10
1829.251267505983
 20
889.5287483749493
 30
0.0
 11
1806.751267505983
 21
889.5287483749493
 31
0.0
  0
LINE
  5
B2D4
330
1E
100
AcDbEntity
  8
0
  6
Continuous
 62
     7
100
AcDbLine
 10
1829.251267505983
 20
888.0287483749492
 30
0.0
 11
1806.751267505983
 21
888.0287483749492
 31
0.0
  0
LINE
  5
B2D5
330
1E
100
AcDbEntity
  8
0
  6
Continuous
 62
     7
100
AcDbLine
 10
1826.751267505983
 20
820.5287483749492
 30
0.0
 11
1826.751267505983
 21
889.5287483749493
 31
0.0
  0
LINE
  5
B2D6
330
1E
100
AcDbEntity
  8
0
  6
Continuous
 62
     7
100
AcDbLine
 10
1806.751267505983
 20
862.978748374949
 30
0.0
 11
1826.751267505983
 21
862.978748374949
 31
0.0
  0
LINE
  5
B2D7
330
1E
100
AcDbEntity
  8
0
  6
Continuous
 62
     7
100
AcDbLine
 10
1806.751267505983
 20
862.5287483749492
 30
0.0
 11
1826.751267505983
 21
862.5287483749492
 31
0.0
  0
LINE
  5
B2D8
330
1E
100
AcDbEntity
  8
0
  6
Continuous
 62
     7
100
AcDbLine
 10
1826.751267505983
 20
847.5287483749493
 30
0.0
 11
1806.751267505983
 21
847.5287483749493
 31
0.0
  0
LINE
  5
B2D9
330
1E
100
AcDbEntity
  8
0
  6
Continuous
 62
     7
100
AcDbLine
 10
1826.751267505983
 20
847.0787483749489
 30
0.0
 11
1806.751267505983
 21
847.0787483749489
 31
0.0
  0
LINE
  5
B2DA
330
1E
100
AcDbEntity
  8
0
  6
Continuous
 62
     7
100
AcDbLine
 10
1829.251267505983
 20
822.0287483749492
 30
0.0
 11
1806.751267505983
 21
822.0287483749492
 31
0.0
  0
LINE
  5
B2DB
330
1E
100
AcDbEntity
  8
0
  6
Continuous
 62
     7
100
AcDbLine
 10
1829.251267505983
 20
820.5287483749492
 30
0.0
 11
1806.751267505983
 21
820.5287483749492
 31
0.0
  0
CIRCLE
  5
B2DE
330
1E
100
AcDbEntity
  8
0
  6
Continuous
 62
     7
100
AcDbCircle
 10
1719.751267505983
 20
855.0287483749487
 30
0.0
 40
5.15
  0
CIRCLE
  5
B2DF
330
1E
100
AcDbEntity
  8
0
  6
Continuous
 62
     7
100
AcDbCircle
 10
1719.751267505983
 20
855.0287483749487
 30
0.0
 40
0.75
  0
LINE
  5
B2E0
330
1E
100
AcDbEntity
  8
0
  6
Continuous
 62
     7
100
AcDbLine
 10
1705.251267505983
 20
889.5287483749488
 30
0.0
 11
1727.751267505983
 21
889.5287483749488
 31
0.0
  0
LINE
  5
B2E1
330
1E
100
AcDbEntity
  8
0
  6
Continuous
 62
     7
100
AcDbLine
 10
1705.251267505983
 20
888.0287483749491
 30
0.0
 11
1727.751267505983
 21
888.0287483749487
 31
0.0
  0
LINE
  5
B2E2
330
1E
100
AcDbEntity
  8
0
  6
Continuous
 62
     7
100
AcDbLine
 10
1707.751267505983
 20
820.5287483749488
 30
0.0
 11
1707.751267505983
 21
889.5287483749488
 31
0.0
  0
LINE
  5
B2E3
330
1E
100
AcDbEntity
  8
0
  6
Continuous
 62
     7
100
AcDbLine
 10
1727.751267505983
 20
862.9787483749488
 30
0.0
 11
1707.751267505983
 21
862.9787483749488
 31
0.0
  0
LINE
  5
B2E4
330
1E
100
AcDbEntity
  8
0
  6
Continuous
 62
     7
100
AcDbLine
 10
1727.751267505983
 20
862.5287483749488
 30
0.0
 11
1707.751267505983
 21
862.5287483749488
 31
0.0
  0
LINE
  5
B2E5
330
1E
100
AcDbEntity
  8
0
  6
Continuous
 62
     7
100
AcDbLine
 10
1707.751267505983
 20
847.5287483749488
 30
0.0
 11
1727.751267505983
 21
847.5287483749488
 31
0.0
  0
LINE
  5
B2E6
330
1E
100
AcDbEntity
  8
0
  6
Continuous
 62
     7
100
AcDbLine
 10
1707.751267505983
 20
847.0787483749489
 30
0.0
 11
1727.751267505983
 21
847.0787483749489
 31
0.0
  0
LINE
  5
B2E7
330
1E
100
AcDbEntity
  8
0
  6
Continuous
 62
     7
100
AcDbLine
 10
1727.751267505983
 20
820.5287483749488
 30
0.0
 11
1727.751267505983
 21
889.5287483749488
 31
0.0
  0
LINE
  5
B2E8
330
1E
100
AcDbEntity
  8
0
  6
Continuous
 62
     7
100
AcDbLine
 10
1705.251267505983
 20
822.0287483749491
 30
0.0
 11
1727.751267505983
 21
822.0287483749487
 31
0.0
  0
LINE
  5
B2E9
330
1E
100
AcDbEntity
  8
0
  6
Continuous
 62
     7
100
AcDbLine
 10
1705.251267505983
 20
820.5287483749488
 30
0.0
 11
1727.751267505983
 21
820.5287483749488
 31
0.0
  0
LINE
  5
B41B
330
1E
100
AcDbEntity
  8
中心線
100
AcDbLine
 10
1792.251267505983
 20
850.0287483749479
 30
0.0
 11
1792.251267505983
 21
860.0287483749479
 31
0.0
  0
CIRCLE
  5
B41C
330
1E
100
AcDbEntity
  8
0
100
AcDbCircle
 10
1792.251267505983
 20
855.0287483749478
 30
0.0
 40
3.375
  0
LINE
  5
B41E
330
1E
100
AcDbEntity
  8
中心線
100
AcDbLine
 10
1742.251267505983
 20
850.0287483749479
 30
0.0
 11
1742.251267505983
 21
860.0287483749479
 31
0.0
  0
CIRCLE
  5
B41F
330
1E
100
AcDbEntity
  8
0
100
AcDbCircle
 10
1742.251267505983
 20
855.0287483749478
 30
0.0
 40
3.375
  0
LINE
  5
B421
330
1E
100
AcDbEntity
  8
0
100
AcDbLine
 10
1806.751267505983
 20
821.8287483749472
 30
0.0
 11
1727.751267505983
 21
821.8287483749472
 31
0.0
  0
LINE
  5
B422
330
1E
100
AcDbEntity
  8
0
100
AcDbLine
 10
1806.751267505983
 20
837.5287483749479
 30
0.0
 11
1727.751267505983
 21
837.5287483749479
 31
0.0
  0
LINE
  5
B423
330
1E
100
AcDbEntity
  8
0
100
AcDbLine
 10
1806.751267505983
 20
838.0287483749478
 30
0.0
 11
1727.751267505983
 21
838.0287483749478
 31
0.0
  0
LINE
  5
B424
330
1E
100
AcDbEntity
  8
0
100
AcDbLine
 10
1806.751267505983
 20
847.6287483749482
 30
0.0
 11
1727.751267505983
 21
847.6287483749482
 31
0.0
  0
LINE
  5
B425
330
1E
100
AcDbEntity
  8
0
100
AcDbLine
 10
1806.751267505983
 20
848.1287483749483
 30
0.0
 11
1727.751267505983
 21
848.1287483749483
 31
0.0
  0
LINE
  5
B426
330
1E
100
AcDbEntity
  8
0
100
AcDbLine
 10
1806.751267505983
 20
861.9287483749475
 30
0.0
 11
1727.751267505983
 21
861.9287483749475
 31
0.0
  0
LINE
  5
B427
330
1E
100
AcDbEntity
  8
0
100
AcDbLine
 10
1806.751267505983
 20
862.4287483749474
 30
0.0
 11
1727.751267505983
 21
862.4287483749474
 31
0.0
  0
LINE
  5
B428
330
1E
100
AcDbEntity
  8
0
100
AcDbLine
 10
1806.751267505983
 20
872.0287483749478
 30
0.0
 11
1727.751267505983
 21
872.0287483749478
 31
0.0
  0
LINE
  5
B429
330
1E
100
AcDbEntity
  8
0
100
AcDbLine
 10
1806.751267505983
 20
872.5287483749479
 30
0.0
 11
1727.751267505983
 21
872.5287483749479
 31
0.0
  0
LINE
  5
B42A
330
1E
100
AcDbEntity
  8
0
100
AcDbLine
 10
1806.751267505983
 20
888.2287483749468
 30
0.0
 11
1727.751267505983
 21
888.2287483749468
 31
0.0
  0
LINE
  5
B42B
330
1E
100
AcDbEntity
  8
中心線
100
AcDbLine
 10
1742.251267505983
 20
825.0287483749479
 30
0.0
 11
1742.251267505983
 21
835.0287483749479
 31
0.0
  0
LINE
  5
B42C
330
1E
100
AcDbEntity
  8
中心線
100
AcDbLine
 10
1747.251267505983
 20
830.0287483749478
 30
0.0
 11
1737.251267505983
 21
830.0287483749478
 31
0.0
  0
LINE
  5
B42D
330
1E
100
AcDbEntity
  8
中心線
100
AcDbLine
 10
1742.251267505983
 20
875.0287483749479
 30
0.0
 11
1742.251267505983
 21
885.0287483749479
 31
0.0
  0
LINE
  5
B42E
330
1E
100
AcDbEntity
  8
中心線
100
AcDbLine
 10
1747.251267505983
 20
880.0287483749478
 30
0.0
 11
1737.251267505983
 21
880.0287483749478
 31
0.0
  0
LINE
  5
B42F
330
1E
100
AcDbEntity
  8
中心線
100
AcDbLine
 10
1792.251267505983
 20
875.0287483749479
 30
0.0
 11
1792.251267505983
 21
885.0287483749479
 31
0.0
  0
LINE
  5
B430
330
1E
100
AcDbEntity
  8
中心線
100
AcDbLine
 10
1797.251267505983
 20
880.0287483749478
 30
0.0
 11
1787.251267505983
 21
880.0287483749478
 31
0.0
  0
CIRCLE
  5
B431
330
1E
100
AcDbEntity
  8
0
100
AcDbCircle
 10
1742.251267505983
 20
880.0287483749478
 30
0.0
 40
3.375
  0
CIRCLE
  5
B433
330
1E
100
AcDbEntity
  8
0
100
AcDbCircle
 10
1742.251267505983
 20
830.0287483749478
 30
0.0
 40
3.375
  0
CIRCLE
  5
B435
330
1E
100
AcDbEntity
  8
0
100
AcDbCircle
 10
1792.251267505983
 20
880.0287483749478
 30
0.0
 40
3.375
  0
ARC
  5
B436
330
1E
100
AcDbEntity
  8
標註線
 62
     1
100
AcDbCircle
 10
1792.251267505983
 20
880.0287483749478
 30
0.0
 40
4.0
100
AcDbArc
 50
169.9999999988309
 51
100.0000000011691
  0
LINE
  5
B437
330
1E
100
AcDbEntity
  8
中心線
100
AcDbLine
 10
1792.251267505983
 20
825.0287483749479
 30
0.0
 11
1792.251267505983
 21
835.0287483749479
 31
0.0
  0
CIRCLE
  5
B438
330
1E
100
AcDbEntity
  8
0
100
AcDbCircle
 10
1792.251267505983
 20
830.0287483749478
 30
0.0
 40
3.375
  0
LINE
  5
B43A
330
1E
100
AcDbEntity
  8
中心線
100
AcDbLine
 10
1797.251267505983
 20
830.0287483749478
 30
0.0
 11
1787.251267505983
 21
830.0287483749478
 31
0.0
  0
LINE
  5
B43B
330
1E
100
AcDbEntity
  8
0
100
AcDbLine
 10
1806.751267505983
 20
890.0287483749478
 30
0.0
 11
1727.751267505983
 21
890.0287483749478
 31
0.0
  0
LINE
  5
B43C
330
1E
100
AcDbEntity
  8
0
100
AcDbLine
 10
1806.751267505983
 20
820.0287483749484
 30
0.0
 11
1727.751267505983
 21
820.0287483749496
 31
0.0
  0
LINE
  5
B43D
330
1E
100
AcDbEntity
  8
0
100
AcDbLine
 10
1727.751267505983
 20
890.0287483749478
 30
0.0
 11
1727.751267505983
 21
820.0287483749496
 31
0.0
  0
LINE
  5
B43E
330
1E
100
AcDbEntity
  8
0
100
AcDbLine
 10
1806.751267505983
 20
890.0287483749483
 30
0.0
 11
1806.751267505983
 21
820.0287483749484
 31
0.0
  0
LINE
  5
B43F
330
1E
100
AcDbEntity
  8
中心線
 48
0.5
100
AcDbLine
 10
1847.251267505983
 20
690.6223532885704
 30
0.0
 11
1847.251267505983
 21
724.8223532885697
 31
0.0
  0
LINE
  5
B440
330
1E
100
AcDbEntity
  8
虛線
 48
0.7
100
AcDbLine
 10
1854.251267505983
 20
722.4223532885698
 30
0.0
 11
1854.482207613659
 21
722.8223532885699
 31
0.0
  0
LINE
  5
B441
330
1E
100
AcDbEntity
  8
虛線
 48
0.7
100
AcDbLine
 10
1840.251267505983
 20
722.4223532885698
 30
0.0
 11
1840.020327398307
 21
722.8223532885699
 31
0.0
  0
LINE
  5
B442
330
1E
100
AcDbEntity
  8
虛線
 48
0.3
100
AcDbLine
 10
1842.751267505983
 20
710.52235328857
 30
0.0
 11
1851.751267505983
 21
710.52235328857
 31
0.0
  0
LINE
  5
B443
330
1E
100
AcDbEntity
  8
虛線
 48
0.3
100
AcDbLine
 10
1842.451267505983
 20
710.8223532885699
 30
0.0
 11
1842.751267505983
 21
710.52235328857
 31
0.0
  0
LINE
  5
B444
330
1E
100
AcDbEntity
  8
虛線
 48
0.3
100
AcDbLine
 10
1852.051267505983
 20
710.8223532885699
 30
0.0
 11
1851.751267505983
 21
710.52235328857
 31
0.0
  0
LINE
  5
B445
330
1E
100
AcDbEntity
  8
虛線
 48
0.7
100
AcDbLine
 10
1851.751267505983
 20
693.1223532885699
 30
0.0
 11
1852.251268220269
 21
692.6223532885706
 31
0.0
  0
LINE
  5
B446
330
1E
100
AcDbEntity
  8
虛線
 48
0.7
100
AcDbLine
 10
1842.251266791696
 20
692.6223532885706
 30
0.0
 11
1842.751267505983
 21
693.1223532885699
 31
0.0
  0
LINE
  5
B447
330
1E
100
AcDbEntity
  8
虛線
 48
0.3
100
AcDbLine
 10
1851.751267505983
 20
693.1223532885696
 30
0.0
 11
1842.751267505983
 21
693.1223532885696
 31
0.0
  0
LINE
  5
B448
330
1E
100
AcDbEntity
  8
虛線
 48
0.3
100
AcDbLine
 10
1854.251267505983
 20
722.4223532885698
 30
0.0
 11
1840.251267505983
 21
722.4223532885698
 31
0.0
  0
LINE
  5
B449
330
1E
100
AcDbEntity
  8
虛線
 48
0.3
100
AcDbLine
 10
1840.251267505983
 20
710.8223532885702
 30
0.0
 11
1854.251267505983
 21
710.8223532885702
 31
0.0
  0
LINE
  5
B44A
330
1E
100
AcDbEntity
  8
虛線
 48
0.3
100
AcDbLine
 10
1842.751267505983
 20
710.5223532885697
 30
0.0
 11
1842.751267505983
 21
693.1223532885699
 31
0.0
  0
LINE
  5
B44B
330
1E
100
AcDbEntity
  8
虛線
 48
0.3
100
AcDbLine
 10
1851.751267505983
 20
710.5223532885706
 30
0.0
 11
1851.751267505983
 21
693.1223532885696
 31
0.0
  0
LINE
  5
B44C
330
1E
100
AcDbEntity
  8
虛線
 48
0.3
100
AcDbLine
 10
1840.251267505983
 20
722.4223532885698
 30
0.0
 11
1840.251267505983
 21
710.8223532885702
 31
0.0
  0
LINE
  5
B44D
330
1E
100
AcDbEntity
  8
虛線
 48
0.3
100
AcDbLine
 10
1854.251267505983
 20
722.4223532885694
 30
0.0
 11
1854.251267505983
 21
710.8223532885702
 31
0.0
  0
ARC
  5
B44E
330
1E
100
AcDbEntity
  8
0
  6
Continuous
 62
     7
100
AcDbCircle
 10
1824.747100839317
 20
723.8223532884472
 30
0.0
 40
5.704166666666643
100
AcDbArc
 50
322.1507111678919
 51
37.84928883210811
  0
ARC
  5
B44F
330
1E
100
AcDbEntity
  8
0
  6
Continuous
 62
     7
100
AcDbCircle
 10
1709.75543417265
 20
723.8223532882475
 30
0.0
 40
5.704166666666643
100
AcDbArc
 50
142.1507111678919
 51
217.8492888321081
  0
LINE
  5
B450
330
1E
100
AcDbEntity
  8
中心線
 48
0.3
100
AcDbLine
 10
1833.414994204362
 20
723.8223532884973
 30
0.0
 11
1826.251267505983
 21
723.8223532884973
 31
0.0
  0
LINE
  5
B451
330
1E
100
AcDbEntity
  8
中心線
 48
0.3
100
AcDbLine
 10
1701.087540807605
 20
723.8223532882978
 30
0.0
 11
1708.251267505983
 21
723.8223532882978
 31
0.0
  0
LINE
  5
B452
330
1E
100
AcDbEntity
  8
虛線
 48
0.25
100
AcDbLine
 10
1788.876267505983
 20
746.6223532885691
 30
0.0
 11
1787.876267505983
 21
747.6223532885691
 31
0.0
  0
LINE
  5
B453
330
1E
100
AcDbEntity
  8
虛線
 48
0.25
100
AcDbLine
 10
1795.626267505984
 20
746.6223532885692
 30
0.0
 11
1796.626267505984
 21
747.6223532885692
 31
0.0
  0
LINE
  5
B454
330
1E
100
AcDbEntity
  8
虛線
 48
0.25
100
AcDbLine
 10
1788.876267505983
 20
746.6223532885691
 30
0.0
 11
1795.626267505983
 21
746.6223532885687
 31
0.0
  0
LINE
  5
B455
330
1E
100
AcDbEntity
  8
中心線
 48
0.3
100
AcDbLine
 10
1792.251267505983
 20
749.6879670624194
 30
0.0
 11
1792.251267505983
 21
728.7693269257006
 31
0.0
  0
LINE
  5
B456
330
1E
100
AcDbEntity
  8
虛線
 48
0.25
100
AcDbLine
 10
1796.251236988405
 20
735.6223532885692
 30
0.0
 11
1796.251236988405
 21
747.2473227709904
 31
0.0
  0
LINE
  5
B457
330
1E
100
AcDbEntity
  8
虛線
 48
0.25
100
AcDbLine
 10
1788.251236988404
 20
735.6223532885692
 30
0.0
 11
1788.251236988404
 21
747.2473838061482
 31
0.0
  0
LINE
  5
B45A
330
1E
100
AcDbEntity
  8
虛線
 48
0.25
100
AcDbLine
 10
1788.251236988404
 20
735.6223532885692
 30
0.0
 11
1796.251236988405
 21
735.6223532885692
 31
0.0
  0
LINE
  5
B45B
330
1E
100
AcDbEntity
  8
虛線
 48
0.25
100
AcDbLine
 10
1788.876267505983
 20
731.6223532885693
 30
0.0
 11
1795.626267505983
 21
731.6223532885692
 31
0.0
  0
LINE
  5
B45C
330
1E
100
AcDbEntity
  8
虛線
 48
0.25
100
AcDbLine
 10
1795.626267505983
 20
731.6223532885692
 30
0.0
 11
1792.251267505983
 21
729.6254195729334
 31
0.0
  0
LINE
  5
B45D
330
1E
100
AcDbEntity
  8
虛線
 48
0.25
100
AcDbLine
 10
1788.876267505983
 20
731.6223532885693
 30
0.0
 11
1792.251267505983
 21
729.6254195729334
 31
0.0
  0
LINE
  5
B461
330
1E
100
AcDbEntity
  8
中心線
 48
0.3
100
AcDbLine
 10
1742.251267505983
 20
749.6879670624198
 30
0.0
 11
1742.251267505983
 21
728.7693269257011
 31
0.0
  0
LINE
  5
B46A
330
1E
100
AcDbEntity
  8
0
100
AcDbLine
 10
1727.751267505983
 20
700.1223532885696
 30
0.0
 11
1806.751267505983
 21
700.1223532885696
 31
0.0
  0
LINE
  5
B46B
330
1E
100
AcDbEntity
  8
0
100
AcDbLine
 10
1727.751267505983
 20
746.1223532885696
 30
0.0
 11
1806.751267505983
 21
746.1223532885696
 31
0.0
  0
LINE
  5
B46C
330
1E
100
AcDbEntity
  8
0
100
AcDbLine
 10
1727.751267505983
 20
747.6223532885697
 30
0.0
 11
1806.751267505983
 21
747.6223532885692
 31
0.0
  0
LINE
  5
B46D
330
1E
100
AcDbEntity
  8
0
  6
Continuous
 62
     7
100
AcDbLine
 10
1705.251267505983
 20
699.1223532889277
 30
0.0
 11
1705.251267505983
 21
739.8223532889273
 31
0.0
  0
LINE
  5
B46E
330
1E
100
AcDbEntity
  8
0
  6
Continuous
 62
     7
100
AcDbLine
 10
1707.751267505983
 20
699.1223532889275
 30
0.0
 11
1707.751267505983
 21
740.2723532889276
 31
0.0
  0
LINE
  5
B46F
330
1E
100
AcDbEntity
  8
0
  6
Continuous
 62
     7
100
AcDbLine
 10
1708.251267505983
 20
708.3223549314275
 30
0.0
 11
1708.251267505983
 21
712.8223516455277
 31
0.0
  0
LINE
  5
B470
330
1E
100
AcDbEntity
  8
0
  6
Continuous
 62
     7
100
AcDbLine
 10
1711.251267505983
 20
713.5723532889273
 30
0.0
 11
1711.251267505983
 21
707.5723532889274
 31
0.0
  0
LINE
  5
B471
330
1E
100
AcDbEntity
  8
0
  6
Continuous
 62
     7
100
AcDbLine
 10
1727.751267505983
 20
699.1223532889275
 30
0.0
 11
1727.751267505983
 21
747.6223532884278
 31
0.0
  0
LINE
  5
B472
330
1E
100
AcDbEntity
  8
0
  6
Continuous
 62
     7
100
AcDbLine
 10
1907.251267505983
 20
692.6223532885696
 30
0.0
 11
1627.251267505983
 21
692.6223532885683
 31
0.0
  0
LINE
  5
B473
330
1E
100
AcDbEntity
  8
0
  6
Continuous
 62
     7
100
AcDbLine
 10
1907.251267505983
 20
694.1223532885692
 30
0.0
 11
1660.619248097508
 21
694.1223532885694
 31
0.0
  0
LINE
  5
B474
330
1E
100
AcDbEntity
  8
0
  6
Continuous
 62
     7
100
AcDbLine
 10
1806.751267505983
 20
699.1223532885956
 30
0.0
 11
1829.251267505983
 21
699.1223532885008
 31
0.0
  0
LINE
  5
B475
330
1E
100
AcDbEntity
  8
0
  6
Continuous
 62
     7
100
AcDbLine
 10
1727.751267505983
 20
699.1223532889275
 30
0.0
 11
1806.751267505983
 21
699.1223532885956
 31
0.0
  0
LINE
  5
B478
330
1E
100
AcDbEntity
  8
0
  6
Continuous
 62
     7
100
AcDbLine
 10
1727.751267505983
 20
700.1223532889276
 30
0.0
 11
1705.251267505983
 21
700.1223532889274
 31
0.0
  0
LINE
  5
B479
330
1E
100
AcDbEntity
  8
0
  6
Continuous
 62
     7
100
AcDbLine
 10
1806.751267505983
 20
700.1223532886272
 30
0.0
 11
1829.251267505983
 21
700.1223532886272
 31
0.0
  0
LINE
  5
B48A
330
1E
100
AcDbEntity
  8
0
  6
Continuous
 62
     7
100
AcDbLine
 10
1711.251267505983
 20
707.5723532889274
 30
0.0
 11
1707.751267505983
 21
707.5723532889274
 31
0.0
  0
LINE
  5
B48B
330
1E
100
AcDbEntity
  8
0
  6
Continuous
 62
     7
100
AcDbLine
 10
1823.251267505983
 20
707.5723532886274
 30
0.0
 11
1826.751267505983
 21
707.5723532886274
 31
0.0
  0
LINE
  5
B48C
330
1E
100
AcDbEntity
  8
0
  6
Continuous
 62
     7
100
AcDbLine
 10
1708.751267505983
 20
707.8223532884276
 30
0.0
 11
1711.251267505983
 21
707.8223532884276
 31
0.0
  0
LINE
  5
B48D
330
1E
100
AcDbEntity
  8
0
  6
Continuous
 62
     7
100
AcDbLine
 10
1823.251267505983
 20
707.8223532886275
 30
0.0
 11
1825.751267505983
 21
707.8223532886275
 31
0.0
  0
LINE
  5
B48E
330
1E
100
AcDbEntity
  8
0
  6
Continuous
 62
     7
100
AcDbLine
 10
1708.751267505983
 20
713.3223532884276
 30
0.0
 11
1711.251267505983
 21
713.3223532884276
 31
0.0
  0
LINE
  5
B48F
330
1E
100
AcDbEntity
  8
0
  6
Continuous
 62
     7
100
AcDbLine
 10
1823.251267505983
 20
713.3223532886274
 30
0.0
 11
1825.751267505983
 21
713.3223532886274
 31
0.0
  0
LINE
  5
B490
330
1E
100
AcDbEntity
  8
0
  6
Continuous
 62
     7
100
AcDbLine
 10
1711.251267505983
 20
713.5723532889273
 30
0.0
 11
1707.751267505983
 21
713.5723532889273
 31
0.0
  0
LINE
  5
B491
330
1E
100
AcDbEntity
  8
0
  6
Continuous
 62
     7
100
AcDbLine
 10
1823.251267505983
 20
713.5723532886275
 30
0.0
 11
1826.751267505983
 21
713.5723532886275
 31
0.0
  0
LINE
  5
B49F
330
1E
100
AcDbEntity
  8
0
  6
Continuous
 62
     7
100
AcDbLine
 10
1704.413382379341
 20
721.8223532885692
 30
0.0
 11
1661.257455913575
 21
721.82235328857
 31
0.0
  0
LINE
  5
B4A0
330
1E
100
AcDbEntity
  8
0
  6
Continuous
 62
     7
100
AcDbLine
 10
1907.251267505983
 20
721.822353288566
 30
0.0
 11
1830.08915263255
 21
721.8223532885672
 31
0.0
  0
LINE
  5
B4A1
330
1E
100
AcDbEntity
  8
0
  6
Continuous
 62
     7
100
AcDbLine
 10
1907.251267505983
 20
722.8223532885699
 30
0.0
 11
1830.36292823707
 21
722.8223532885701
 31
0.0
  0
LINE
  5
B4A2
330
1E
100
AcDbEntity
  8
0
  6
Continuous
 62
     7
100
AcDbLine
 10
1704.139606774861
 20
722.8223532885696
 30
0.0
 11
1627.251267505983
 21
722.8223532885699
 31
0.0
  0
LINE
  5
B4A3
330
1E
100
AcDbEntity
  8
0
  6
Continuous
 62
     7
100
AcDbLine
 10
1705.251267505983
 20
738.3223532889274
 30
0.0
 11
1727.751267505983
 21
738.3223532889274
 31
0.0
  0
LINE
  5
B4A4
330
1E
100
AcDbEntity
  8
0
  6
Continuous
 62
     7
100
AcDbLine
 10
1806.751267505983
 20
738.3223532886274
 30
0.0
 11
1829.251267505983
 21
738.3223532886274
 31
0.0
  0
LINE
  5
B4A5
330
1E
100
AcDbEntity
  8
0
  6
Continuous
 62
     7
100
AcDbLine
 10
1705.251267505983
 20
739.8223532889273
 30
0.0
 11
1727.751267505983
 21
739.8223532889273
 31
0.0
  0
LINE
  5
B4A6
330
1E
100
AcDbEntity
  8
0
  6
Continuous
 62
     7
100
AcDbLine
 10
1806.751267505983
 20
739.8223532886275
 30
0.0
 11
1829.251267505983
 21
739.8223532886275
 31
0.0
  0
LINE
  5
B4A7
330
1E
100
AcDbEntity
  8
0
  6
Continuous
 62
     7
100
AcDbLine
 10
1806.751267505983
 20
699.1223532885956
 30
0.0
 11
1806.751267505983
 21
747.622353288627
 31
0.0
  0
LINE
  5
B4A8
330
1E
100
AcDbEntity
  8
0
  6
Continuous
 62
     7
100
AcDbLine
 10
1823.251267505983
 20
713.5723532886275
 30
0.0
 11
1823.251267505983
 21
707.5723532886274
 31
0.0
  0
LINE
  5
B4A9
330
1E
100
AcDbEntity
  8
0
  6
Continuous
 62
     7
100
AcDbLine
 10
1826.251267505983
 20
712.8222464233274
 30
0.0
 11
1826.251267505983
 21
708.3224601540271
 31
0.0
  0
LINE
  5
B4AA
330
1E
100
AcDbEntity
  8
0
  6
Continuous
 62
     7
100
AcDbLine
 10
1826.751267505983
 20
699.1223532885115
 30
0.0
 11
1826.751267505983
 21
740.2723532886275
 31
0.0
  0
LINE
  5
B4AB
330
1E
100
AcDbEntity
  8
0
  6
Continuous
 62
     7
100
AcDbLine
 10
1829.251267505983
 20
699.1223532885008
 30
0.0
 11
1829.251267505983
 21
739.8223532886275
 31
0.0
  0
ARC
  5
B4AC
330
1E
100
AcDbEntity
  8
0
  6
Continuous
 62
     7
100
AcDbCircle
 10
1825.751267505983
 20
712.8223532886274
 30
0.0
 40
0.5
100
AcDbArc
 50
0.0
 51
90.0
  0
ARC
  5
B4AD
330
1E
100
AcDbEntity
  8
0
  6
Continuous
 62
     7
100
AcDbCircle
 10
1825.751267505983
 20
708.3223532886274
 30
0.0
 40
0.5
100
AcDbArc
 50
270.0
 51
0.0
  0
ARC
  5
B4AE
330
1E
100
AcDbEntity
  8
0
  6
Continuous
 62
     7
100
AcDbCircle
 10
1708.751267505983
 20
712.8223532884276
 30
0.0
 40
0.5
100
AcDbArc
 50
90.0
 51
180.0
  0
ARC
  5
B4AF
330
1E
100
AcDbEntity
  8
0
  6
Continuous
 62
     7
100
AcDbCircle
 10
1708.751267505983
 20
708.3223532884276
 30
0.0
 40
0.5
100
AcDbArc
 50
180.0
 51
270.0
  0
CIRCLE
  5
B4B0
330
1E
100
AcDbEntity
  8
0
  6
Continuous
 62
     7
100
AcDbCircle
 10
1816.751267505983
 20
728.0223532886277
 30
0.0
 40
2.5
  0
CIRCLE
  5
B4B1
330
1E
100
AcDbEntity
  8
0
  6
Continuous
 62
     7
100
AcDbCircle
 10
1816.751267505983
 20
728.0223532886277
 30
0.0
 40
1.25
  0
CIRCLE
  5
B4B2
330
1E
100
AcDbEntity
  8
0
  6
Continuous
 62
     7
100
AcDbCircle
 10
1816.751267505983
 20
728.0223532886277
 30
0.0
 40
3.0
  0
CIRCLE
  5
B4B3
330
1E
100
AcDbEntity
  8
0
  6
Continuous
 62
     7
100
AcDbCircle
 10
1717.751267505983
 20
728.0223532889272
 30
0.0
 40
1.25
  0
CIRCLE
  5
B4B4
330
1E
100
AcDbEntity
  8
0
  6
Continuous
 62
     7
100
AcDbCircle
 10
1717.751267505983
 20
728.0223532889272
 30
0.0
 40
2.5
  0
CIRCLE
  5
B4B5
330
1E
100
AcDbEntity
  8
0
  6
Continuous
 62
     7
100
AcDbCircle
 10
1717.751267505983
 20
728.0223532889272
 30
0.0
 40
3.0
  0
MTEXT
  5
D6B3
330
1E
100
AcDbEntity
  8
0
100
AcDbMText
 10
1499.941129910678
 20
675.181152761198
 30
0.0
 40
7.800000159341863
 41
100.6095
 71
     1
 72
     5
  1
\A1;{\fTimes New Roman|b0|i0|c0|p18;RGH35CA\PC : 5890 kgf\PC\fProxy 1|b0|i0|c0|p0;\H0.7x;\S^ 0;\fTimes New Roman|b0|i0|c0|p18;\H1.429x;: 10720 kgf}
 73
     1
 44
1.0
1001
ACAD
1000
MTEXTBEGIN
1070
    73
1070
     1
1070
    44
1040
1.0
1070
    74
1070
     0
1000
MTEXTEND
  0
LINE
  5
D6C4
330
1E
100
AcDbEntity
  8
0
100
AcDbLine
 10
1662.029297172519
 20
698.2022811001825
 30
0.0
 11
1660.100838529942
 21
692.6223532885684
 31
0.0
  0
LINE
  5
D6C5
330
1E
100
AcDbEntity
  8
0
100
AcDbLine
 10
1659.386602398244
 20
704.6276311560277
 30
0.0
 11
1662.029297172519
 21
698.2022811001825
 31
0.0
  0
LINE
  5
D6C6
330
1E
100
AcDbEntity
  8
0
100
AcDbLine
 10
1662.314986737168
 20
711.052981211872
 30
0.0
 11
1659.386602398244
 21
704.6276311560277
 31
0.0
  0
LINE
  5
D6C7
330
1E
100
AcDbEntity
  8
0
100
AcDbLine
 10
1659.386602398244
 20
717.8352982403285
 30
0.0
 11
1662.314986737168
 21
711.052981211872
 31
0.0
  0
LINE
  5
D6C8
330
1E
100
AcDbEntity
  8
0
100
AcDbLine
 10
1661.726687838565
 20
722.8223532885698
 30
0.0
 11
1659.386602398244
 21
717.8352982403285
 31
0.0
  0
LINE
  5
D6C9
330
1E
100
AcDbEntity
  8
中心線
 48
0.25
100
AcDbLine
 10
1647.251267505983
 20
690.6223532885704
 30
0.0
 11
1647.251267505983
 21
724.8223532885697
 31
0.0
  0
LINE
  5
D6CA
330
1E
100
AcDbEntity
  8
0
100
AcDbLine
 10
1640.251267505983
 20
722.4223532885698
 30
0.0
 11
1640.020327398308
 21
722.8223532885699
 31
0.0
  0
LINE
  5
D6CB
330
1E
100
AcDbEntity
  8
0
100
AcDbLine
 10
1654.251267505983
 20
722.4223532885698
 30
0.0
 11
1654.482207613659
 21
722.8223532885699
 31
0.0
  0
LINE
  5
D6CC
330
1E
100
AcDbEntity
  8
0
100
AcDbLine
 10
1651.751267505983
 20
710.52235328857
 30
0.0
 11
1642.751267505984
 21
710.52235328857
 31
0.0
  0
LINE
  5
D6CD
330
1E
100
AcDbEntity
  8
0
100
AcDbLine
 10
1652.051267505983
 20
710.8223532885699
 30
0.0
 11
1651.751267505983
 21
710.52235328857
 31
0.0
  0
LINE
  5
D6CE
330
1E
100
AcDbEntity
  8
0
100
AcDbLine
 10
1642.451267505983
 20
710.8223532885699
 30
0.0
 11
1642.751267505984
 21
710.52235328857
 31
0.0
  0
LINE
  5
D6CF
330
1E
100
AcDbEntity
  8
0
100
AcDbLine
 10
1642.751267505984
 20
693.1223532885699
 30
0.0
 11
1642.251266791697
 21
692.6223532885706
 31
0.0
  0
LINE
  5
D6D0
330
1E
100
AcDbEntity
  8
0
100
AcDbLine
 10
1652.251268220271
 20
692.6223532885706
 30
0.0
 11
1651.751267505983
 21
693.1223532885699
 31
0.0
  0
LINE
  5
D6D1
330
1E
100
AcDbEntity
  8
0
100
AcDbLine
 10
1642.751267505984
 20
693.1223532885696
 30
0.0
 11
1651.751267505983
 21
693.1223532885696
 31
0.0
  0
LINE
  5
D6D2
330
1E
100
AcDbEntity
  8
0
100
AcDbLine
 10
1640.251267505983
 20
722.4223532885698
 30
0.0
 11
1654.251267505983
 21
722.4223532885698
 31
0.0
  0
LINE
  5
D6D3
330
1E
100
AcDbEntity
  8
0
100
AcDbLine
 10
1654.251267505983
 20
710.8223532885702
 30
0.0
 11
1640.251267505983
 21
710.8223532885702
 31
0.0
  0
LINE
  5
D6D4
330
1E
100
AcDbEntity
  8
0
100
AcDbLine
 10
1651.751267505983
 20
710.5223532885697
 30
0.0
 11
1651.751267505983
 21
693.1223532885699
 31
0.0
  0
LINE
  5
D6D5
330
1E
100
AcDbEntity
  8
0
100
AcDbLine
 10
1642.751267505984
 20
710.5223532885706
 30
0.0
 11
1642.751267505984
 21
693.1223532885696
 31
0.0
  0
LINE
  5
D6D6
330
1E
100
AcDbEntity
  8
0
100
AcDbLine
 10
1654.251267505983
 20
722.4223532885698
 30
0.0
 11
1654.251267505983
 21
710.8223532885702
 31
0.0
  0
LINE
  5
D6D7
330
1E
100
AcDbEntity
  8
0
100
AcDbLine
 10
1640.251267505983
 20
722.4223532885694
 30
0.0
 11
1640.251267505983
 21
710.8223532885702
 31
0.0
  0
POINT
  5
D6D8
330
1E
100
AcDbEntity
  8
0
100
AcDbPoint
 10
1691.751267505983
 20
731.622372620168
 30
0.0
1001
pntflag
1000
endpoint
  0
LINE
  5
D6D9
330
1E
100
AcDbEntity
  8
0
 48
0.27
100
AcDbLine
 10
1695.224055505983
 20
731.622372620168
 30
0.0
 11
1695.192249505983
 21
731.2728366201682
 31
0.0
  0
LINE
  5
D6DA
330
1E
100
AcDbEntity
  8
0
 48
0.27
100
AcDbLine
 10
1695.192249505983
 20
731.2728366201682
 30
0.0
 11
1695.098054505983
 21
730.9367326201681
 31
0.0
  0
LINE
  5
D6DB
330
1E
100
AcDbEntity
  8
0
 48
0.27
100
AcDbLine
 10
1695.192249505983
 20
731.971908620168
 30
0.0
 11
1695.224055505983
 21
731.622372620168
 31
0.0
  0
LINE
  5
D6DC
330
1E
100
AcDbEntity
  8
0
 48
0.27
100
AcDbLine
 10
1695.098054505983
 20
730.9367326201681
 30
0.0
 11
1694.945090505983
 21
730.6269776201681
 31
0.0
  0
LINE
  5
D6DD
330
1E
100
AcDbEntity
  8
0
 48
0.27
100
AcDbLine
 10
1695.098054505983
 20
732.308012620168
 30
0.0
 11
1695.192249505983
 21
731.971908620168
 31
0.0
  0
LINE
  5
D6DE
330
1E
100
AcDbEntity
  8
0
 48
0.27
100
AcDbLine
 10
1694.945090505983
 20
730.6269776201681
 30
0.0
 11
1694.739234505983
 21
730.3554746201682
 31
0.0
  0
LINE
  5
D6DF
330
1E
100
AcDbEntity
  8
0
 48
0.27
100
AcDbLine
 10
1694.945090505983
 20
732.617767620168
 30
0.0
 11
1695.098054505983
 21
732.308012620168
 31
0.0
  0
LINE
  5
D6E0
330
1E
100
AcDbEntity
  8
0
 48
0.27
100
AcDbLine
 10
1694.488399505983
 20
730.132658620168
 30
0.0
 11
1694.739234505983
 21
730.3554746201682
 31
0.0
  0
LINE
  5
D6E1
330
1E
100
AcDbEntity
  8
0
 48
0.27
100
AcDbLine
 10
1694.739234505983
 20
732.889269620168
 30
0.0
 11
1694.945090505983
 21
732.617767620168
 31
0.0
  0
LINE
  5
D6E2
330
1E
100
AcDbEntity
  8
0
 48
0.27
100
AcDbLine
 10
1696.469319505983
 20
731.622372620168
 30
0.0
 11
1696.423991505983
 21
731.1242306201681
 31
0.0
  0
LINE
  5
D6E3
330
1E
100
AcDbEntity
  8
0
 48
0.27
100
AcDbLine
 10
1696.423991505983
 20
731.1242306201681
 30
0.0
 11
1696.289748505983
 21
730.645231620168
 31
0.0
  0
LINE
  5
D6E4
330
1E
100
AcDbEntity
  8
0
 48
0.27
100
AcDbLine
 10
1696.423991505983
 20
732.120514620168
 30
0.0
 11
1696.469319505983
 21
731.622372620168
 31
0.0
  0
LINE
  5
D6E5
330
1E
100
AcDbEntity
  8
0
 48
0.27
100
AcDbLine
 10
1694.202222505983
 20
729.9670906201681
 30
0.0
 11
1694.488399505983
 21
730.132658620168
 31
0.0
  0
LINE
  5
D6E6
330
1E
100
AcDbEntity
  8
0
 48
0.27
100
AcDbLine
 10
1694.488399505983
 20
733.1120866201681
 30
0.0
 11
1694.739234505983
 21
732.889269620168
 31
0.0
  0
LINE
  5
D6E7
330
1E
100
AcDbEntity
  8
0
 48
0.27
100
AcDbLine
 10
1696.289748505983
 20
730.645231620168
 30
0.0
 11
1696.071751505983
 21
730.2037846201681
 31
0.0
  0
LINE
  5
D6E8
330
1E
100
AcDbEntity
  8
0
 48
0.27
100
AcDbLine
 10
1696.289748505983
 20
732.599512620168
 30
0.0
 11
1696.423991505983
 21
732.120514620168
 31
0.0
  0
LINE
  5
D6E9
330
1E
100
AcDbEntity
  8
0
 48
0.27
100
AcDbLine
 10
1696.071751505983
 20
730.2037846201681
 30
0.0
 11
1695.778376505983
 21
729.8168526201679
 31
0.0
  0
LINE
  5
D6EA
330
1E
100
AcDbEntity
  8
0
 48
0.27
100
AcDbLine
 10
1696.071751505983
 20
733.0409606201681
 30
0.0
 11
1696.289748505983
 21
732.599512620168
 31
0.0
  0
LINE
  5
D6EB
330
1E
100
AcDbEntity
  8
0
 48
0.27
100
AcDbLine
 10
1693.891703505983
 20
729.8651346201681
 30
0.0
 11
1694.202222505983
 21
729.9670906201681
 31
0.0
  0
LINE
  5
D6EC
330
1E
100
AcDbEntity
  8
0
 48
0.27
100
AcDbLine
 10
1694.202222505983
 20
733.2776536201682
 30
0.0
 11
1694.488399505983
 21
733.1120866201681
 31
0.0
  0
LINE
  5
D6ED
330
1E
100
AcDbEntity
  8
0
 48
0.27
100
AcDbLine
 10
1695.420897505983
 20
729.4993056201681
 30
0.0
 11
1695.778376505983
 21
729.8168526201679
 31
0.0
  0
LINE
  5
D6EE
330
1E
100
AcDbEntity
  8
0
 48
0.27
100
AcDbLine
 10
1695.778376505983
 20
733.4278926201682
 30
0.0
 11
1696.071751505983
 21
733.0409606201681
 31
0.0
  0
LINE
  5
D6EF
330
1E
100
AcDbEntity
  8
0
 48
0.27
100
AcDbLine
 10
1696.593019505983
 20
731.622372620168
 30
0.0
 11
1696.548186505983
 21
731.129670620168
 31
0.0
  0
LINE
  5
D6F0
330
1E
100
AcDbEntity
  8
0
 48
0.27
100
AcDbLine
 10
1693.568774505983
 20
729.8307086201682
 30
0.0
 11
1693.891703505983
 21
729.8651346201681
 31
0.0
  0
LINE
  5
D6F1
330
1E
100
AcDbEntity
  8
0
 48
0.27
100
AcDbLine
 10
1693.891703505983
 20
733.3796096201681
 30
0.0
 11
1694.202222505983
 21
733.2776536201682
 31
0.0
  0
LINE
  5
D6F2
330
1E
100
AcDbEntity
  8
0
 48
0.27
100
AcDbLine
 10
1696.548186505983
 20
731.129670620168
 30
0.0
 11
1696.415410505983
 21
730.655902620168
 31
0.0
  0
LINE
  5
D6F3
330
1E
100
AcDbEntity
  8
0
 48
0.27
100
AcDbLine
 10
1696.548186505983
 20
732.1150746201681
 30
0.0
 11
1696.593019505983
 21
731.622372620168
 31
0.0
  0
LINE
  5
D6F4
330
1E
100
AcDbEntity
  8
0
 48
0.27
100
AcDbLine
 10
1695.013053505983
 20
729.263346620168
 30
0.0
 11
1695.420897505983
 21
729.4993056201681
 31
0.0
  0
LINE
  5
D6F5
330
1E
100
AcDbEntity
  8
0
 48
0.27
100
AcDbLine
 10
1695.420897505983
 20
733.7454396201681
 30
0.0
 11
1695.778376505983
 21
733.4278926201682
 31
0.0
  0
LINE
  5
D6F6
330
1E
100
AcDbEntity
  8
0
 48
0.27
100
AcDbLine
 10
1696.415410505983
 20
730.655902620168
 30
0.0
 11
1696.199793505983
 21
730.2192756201682
 31
0.0
  0
LINE
  5
D6F7
330
1E
100
AcDbEntity
  8
0
 48
0.27
100
AcDbLine
 10
1696.415410505983
 20
732.5888426201681
 30
0.0
 11
1696.548186505983
 21
732.1150746201681
 31
0.0
  0
LINE
  5
D6F8
330
1E
100
AcDbEntity
  8
0
 48
0.27
100
AcDbLine
 10
1696.199793505983
 20
730.2192756201682
 30
0.0
 11
1695.909622505983
 21
729.8365686201679
 31
0.0
  0
LINE
  5
D6F9
330
1E
100
AcDbEntity
  8
0
 48
0.27
100
AcDbLine
 10
1696.199793505983
 20
733.025469620168
 30
0.0
 11
1696.415410505983
 21
732.5888426201681
 31
0.0
  0
LINE
  5
D6FA
330
1E
100
AcDbEntity
  8
0
 48
0.27
100
AcDbLine
 10
1694.570516505983
 20
729.1180436201679
 30
0.0
 11
1695.013053505983
 21
729.263346620168
 31
0.0
  0
LINE
  5
D6FB
330
1E
100
AcDbEntity
  8
0
 48
0.27
100
AcDbLine
 10
1695.013053505983
 20
733.9813986201682
 30
0.0
 11
1695.420897505983
 21
733.7454396201681
 31
0.0
  0
LINE
  5
D6FC
330
1E
100
AcDbEntity
  8
0
 48
0.27
100
AcDbLine
 10
1693.245844505983
 20
729.8651346201681
 30
0.0
 11
1693.568774505983
 21
729.8307086201682
 31
0.0
  0
LINE
  5
D6FD
330
1E
100
AcDbEntity
  8
0
 48
0.27
100
AcDbLine
 10
1693.568774505983
 20
733.4140356201681
 30
0.0
 11
1693.891703505983
 21
733.3796096201681
 31
0.0
  0
LINE
  5
D6FE
330
1E
100
AcDbEntity
  8
0
 48
0.27
100
AcDbLine
 10
1695.556047505983
 20
729.5224896201682
 30
0.0
 11
1695.909622505983
 21
729.8365686201679
 31
0.0
  0
LINE
  5
D6FF
330
1E
100
AcDbEntity
  8
0
 48
0.27
100
AcDbLine
 10
1695.909622505983
 20
733.4081766201681
 30
0.0
 11
1696.199793505983
 21
733.025469620168
 31
0.0
  0
LINE
  5
D700
330
1E
100
AcDbEntity
  8
0
 48
0.27
100
AcDbLine
 10
1694.110293505983
 20
729.0689816201681
 30
0.0
 11
1694.570516505983
 21
729.1180436201679
 31
0.0
  0
LINE
  5
D701
330
1E
100
AcDbEntity
  8
0
 48
0.27
100
AcDbLine
 10
1694.570516505983
 20
729.1180436201679
 30
0.0
 11
1694.714952505983
 21
729.1453916201681
 31
0.0
  0
LINE
  5
D702
330
1E
100
AcDbEntity
  8
0
 48
0.27
100
AcDbLine
 10
1694.570516505983
 20
734.1267006201681
 30
0.0
 11
1695.013053505983
 21
733.9813986201682
 31
0.0
  0
LINE
  5
D703
330
1E
100
AcDbEntity
  8
0
 48
0.27
100
AcDbLine
 10
1692.935325505983
 20
729.9670906201681
 30
0.0
 11
1693.245844505983
 21
729.8651346201681
 31
0.0
  0
LINE
  5
D704
330
1E
100
AcDbEntity
  8
0
 48
0.27
100
AcDbLine
 10
1693.245844505983
 20
733.3796096201681
 30
0.0
 11
1693.568774505983
 21
733.4140356201681
 31
0.0
  0
LINE
  5
D705
330
1E
100
AcDbEntity
  8
0
 48
0.27
100
AcDbLine
 10
1695.152656505983
 20
729.2891076201681
 30
0.0
 11
1695.556047505983
 21
729.5224896201682
 31
0.0
  0
LINE
  5
D706
330
1E
100
AcDbEntity
  8
0
 48
0.27
100
AcDbLine
 10
1695.556047505983
 20
733.7222556201681
 30
0.0
 11
1695.909622505983
 21
733.4081766201681
 31
0.0
  0
LINE
  5
D707
330
1E
100
AcDbEntity
  8
0
 48
0.27
100
AcDbLine
 10
1694.714952505983
 20
729.1453916201681
 30
0.0
 11
1695.152656505983
 21
729.2891076201681
 31
0.0
  0
LINE
  5
D708
330
1E
100
AcDbEntity
  8
0
 48
0.27
100
AcDbLine
 10
1695.152656505983
 20
733.9556376201681
 30
0.0
 11
1695.556047505983
 21
733.7222556201681
 31
0.0
  0
LINE
  5
D709
330
1E
100
AcDbEntity
  8
0
 48
0.27
100
AcDbLine
 10
1693.650070505983
 20
729.1180436201679
 30
0.0
 11
1694.110293505983
 21
729.0689816201681
 31
0.0
  0
LINE
  5
D70A
330
1E
100
AcDbEntity
  8
0
 48
0.27
100
AcDbLine
 10
1694.110293505983
 20
734.175763620168
 30
0.0
 11
1694.570516505983
 21
734.1267006201681
 31
0.0
  0
LINE
  5
D70B
330
1E
100
AcDbEntity
  8
0
 48
0.27
100
AcDbLine
 10
1694.570516505983
 20
734.1267006201681
 30
0.0
 11
1694.714952505983
 21
734.0993536201681
 31
0.0
  0
LINE
  5
D70C
330
1E
100
AcDbEntity
  8
0
 48
0.27
100
AcDbLine
 10
1692.649148505983
 20
730.132658620168
 30
0.0
 11
1692.935325505983
 21
729.9670906201681
 31
0.0
  0
LINE
  5
D70D
330
1E
100
AcDbEntity
  8
0
 48
0.27
100
AcDbLine
 10
1692.935325505983
 20
733.2776536201682
 30
0.0
 11
1693.245844505983
 21
733.3796096201681
 31
0.0
  0
LINE
  5
D70E
330
1E
100
AcDbEntity
  8
0
 48
0.27
100
AcDbLine
 10
1694.714952505983
 20
734.0993536201681
 30
0.0
 11
1695.152656505983
 21
733.9556376201681
 31
0.0
  0
LINE
  5
D70F
330
1E
100
AcDbEntity
  8
0
 48
0.27
100
AcDbLine
 10
1692.398313505983
 20
730.3554746201682
 30
0.0
 11
1692.649148505983
 21
730.132658620168
 31
0.0
  0
LINE
  5
D710
330
1E
100
AcDbEntity
  8
0
 48
0.27
100
AcDbLine
 10
1692.649148505983
 20
733.1120866201681
 30
0.0
 11
1692.935325505983
 21
733.2776536201682
 31
0.0
  0
LINE
  5
D711
330
1E
100
AcDbEntity
  8
0
 48
0.27
100
AcDbLine
 10
1693.207533505983
 20
729.263346620168
 30
0.0
 11
1693.650070505983
 21
729.1180436201679
 31
0.0
  0
LINE
  5
D712
330
1E
100
AcDbEntity
  8
0
 48
0.27
100
AcDbLine
 10
1693.650070505983
 20
734.1267006201681
 30
0.0
 11
1694.110293505983
 21
734.175763620168
 31
0.0
  0
LINE
  5
D713
330
1E
100
AcDbEntity
  8
0
 48
0.27
100
AcDbLine
 10
1692.192457505983
 20
730.6269776201681
 30
0.0
 11
1692.398313505983
 21
730.3554746201682
 31
0.0
  0
LINE
  5
D714
330
1E
100
AcDbEntity
  8
0
 48
0.27
100
AcDbLine
 10
1692.398313505983
 20
732.889269620168
 30
0.0
 11
1692.649148505983
 21
733.1120866201681
 31
0.0
  0
LINE
  5
D715
330
1E
100
AcDbEntity
  8
0
 48
0.27
100
AcDbLine
 10
1692.799688505983
 20
729.4993056201681
 30
0.0
 11
1693.207533505983
 21
729.263346620168
 31
0.0
  0
LINE
  5
D716
330
1E
100
AcDbEntity
  8
0
 48
0.27
100
AcDbLine
 10
1693.207533505983
 20
733.9813986201682
 30
0.0
 11
1693.650070505983
 21
734.1267006201681
 31
0.0
  0
LINE
  5
D717
330
1E
100
AcDbEntity
  8
0
 48
0.27
100
AcDbLine
 10
1692.039493505983
 20
730.9367326201681
 30
0.0
 11
1692.192457505983
 21
730.6269776201681
 31
0.0
  0
LINE
  5
D718
330
1E
100
AcDbEntity
  8
0
 48
0.27
100
AcDbLine
 10
1692.398313505983
 20
732.889269620168
 30
0.0
 11
1692.192457505983
 21
732.617767620168
 31
0.0
  0
LINE
  5
D719
330
1E
100
AcDbEntity
  8
0
 48
0.27
100
AcDbLine
 10
1692.442210505983
 20
729.8168526201679
 30
0.0
 11
1692.799688505983
 21
729.4993056201681
 31
0.0
  0
LINE
  5
D71A
330
1E
100
AcDbEntity
  8
0
 48
0.27
100
AcDbLine
 10
1692.799688505983
 20
733.7454396201681
 30
0.0
 11
1693.207533505983
 21
733.9813986201682
 31
0.0
  0
LINE
  5
D71B
330
1E
100
AcDbEntity
  8
0
 48
0.27
100
AcDbLine
 10
1691.945298505983
 20
731.2728366201682
 30
0.0
 11
1692.039493505983
 21
730.9367326201681
 31
0.0
  0
LINE
  5
D71C
330
1E
100
AcDbEntity
  8
0
 48
0.27
100
AcDbLine
 10
1692.192457505983
 20
732.617767620168
 30
0.0
 11
1692.039493505983
 21
732.308012620168
 31
0.0
  0
LINE
  5
D71D
330
1E
100
AcDbEntity
  8
0
 48
0.27
100
AcDbLine
 10
1691.913492505983
 20
731.622372620168
 30
0.0
 11
1691.945298505983
 21
731.2728366201682
 31
0.0
  0
LINE
  5
D71E
330
1E
100
AcDbEntity
  8
0
 48
0.27
100
AcDbLine
 10
1692.039493505983
 20
732.308012620168
 30
0.0
 11
1691.945298505983
 21
731.971908620168
 31
0.0
  0
LINE
  5
D71F
330
1E
100
AcDbEntity
  8
0
 48
0.27
100
AcDbLine
 10
1691.945298505983
 20
731.971908620168
 30
0.0
 11
1691.913492505983
 21
731.622372620168
 31
0.0
  0
LINE
  5
D720
330
1E
100
AcDbEntity
  8
0
 48
0.27
100
AcDbLine
 10
1692.148834505983
 20
730.2037846201681
 30
0.0
 11
1692.442210505983
 21
729.8168526201679
 31
0.0
  0
LINE
  5
D721
330
1E
100
AcDbEntity
  8
0
 48
0.27
100
AcDbLine
 10
1692.442210505983
 20
733.4278926201682
 30
0.0
 11
1692.799688505983
 21
733.7454396201681
 31
0.0
  0
LINE
  5
D722
330
1E
100
AcDbEntity
  8
0
 48
0.27
100
AcDbLine
 10
1691.930837505983
 20
730.645231620168
 30
0.0
 11
1692.148834505983
 21
730.2037846201681
 31
0.0
  0
LINE
  5
D723
330
1E
100
AcDbEntity
  8
0
 48
0.27
100
AcDbLine
 10
1692.442210505983
 20
733.4278926201682
 30
0.0
 11
1692.148834505983
 21
733.0409606201681
 31
0.0
  0
LINE
  5
D724
330
1E
100
AcDbEntity
  8
0
 48
0.27
100
AcDbLine
 10
1691.796595505983
 20
731.1242306201681
 30
0.0
 11
1691.930837505983
 21
730.645231620168
 31
0.0
  0
LINE
  5
D725
330
1E
100
AcDbEntity
  8
0
 48
0.27
100
AcDbLine
 10
1692.148834505983
 20
733.0409606201681
 30
0.0
 11
1691.930837505983
 21
732.599512620168
 31
0.0
  0
LINE
  5
D726
330
1E
100
AcDbEntity
  8
0
 48
0.27
100
AcDbLine
 10
1691.751267505983
 20
731.622372620168
 30
0.0
 11
1691.796595505983
 21
731.1242306201681
 31
0.0
  0
LINE
  5
D727
330
1E
100
AcDbEntity
  8
0
 48
0.27
100
AcDbLine
 10
1691.930837505983
 20
732.599512620168
 30
0.0
 11
1691.796595505983
 21
732.120514620168
 31
0.0
  0
LINE
  5
D728
330
1E
100
AcDbEntity
  8
0
 48
0.27
100
AcDbLine
 10
1691.796595505983
 20
732.120514620168
 30
0.0
 11
1691.751267505983
 21
731.622372620168
 31
0.0
  0
LINE
  5
D729
330
1E
100
AcDbEntity
  8
0
 48
0.27
100
AcDbLine
 10
1692.909305505983
 20
729.9821446201681
 30
0.0
 11
1692.912276505983
 21
729.9837606201681
 31
0.0
  0
LINE
  5
D72A
330
1E
100
AcDbEntity
  8
0
 48
0.27
100
AcDbLine
 10
1692.909305505983
 20
733.2625996201679
 30
0.0
 11
1692.912276505983
 21
733.260984620168
 31
0.0
  0
LINE
  5
D72B
330
1E
100
AcDbEntity
  8
0
 48
0.27
100
AcDbLine
 10
1698.584840505983
 20
731.622372620168
 30
0.0
 11
1698.531584505983
 21
731.0371016201681
 31
0.0
  0
LINE
  5
D72C
330
1E
100
AcDbEntity
  8
0
 48
0.27
100
AcDbLine
 10
1698.531584505983
 20
732.2076436201682
 30
0.0
 11
1698.584840505983
 21
731.622372620168
 31
0.0
  0
LINE
  5
D72D
330
1E
100
AcDbEntity
  8
0
 48
0.27
100
AcDbLine
 10
1698.531584505983
 20
731.0371016201681
 30
0.0
 11
1698.373862505983
 21
730.4743216201682
 31
0.0
  0
LINE
  5
D72E
330
1E
100
AcDbEntity
  8
0
 48
0.27
100
AcDbLine
 10
1698.373862505983
 20
732.7704226201681
 30
0.0
 11
1698.531584505983
 21
732.2076436201682
 31
0.0
  0
LINE
  5
D72F
330
1E
100
AcDbEntity
  8
0
 48
0.27
100
AcDbLine
 10
1698.373862505983
 20
730.4743216201682
 30
0.0
 11
1698.117735505983
 21
729.955661620168
 31
0.0
  0
LINE
  5
D730
330
1E
100
AcDbEntity
  8
0
 48
0.27
100
AcDbLine
 10
1698.117735505983
 20
733.2890826201681
 30
0.0
 11
1698.373862505983
 21
732.7704226201681
 31
0.0
  0
LINE
  5
D731
330
1E
100
AcDbEntity
  8
0
 48
0.27
100
AcDbLine
 10
1698.117735505983
 20
729.955661620168
 30
0.0
 11
1697.773046505983
 21
729.501051620168
 31
0.0
  0
LINE
  5
D732
330
1E
100
AcDbEntity
  8
0
 48
0.27
100
AcDbLine
 10
1697.773046505983
 20
733.743692620168
 30
0.0
 11
1698.117735505983
 21
733.2890826201681
 31
0.0
  0
LINE
  5
D733
330
1E
100
AcDbEntity
  8
0
 48
0.27
100
AcDbLine
 10
1699.013614505983
 20
731.622372620168
 30
0.0
 11
1697.413408505983
 21
728.6223726201681
 31
0.0
  0
LINE
  5
D734
330
1E
100
AcDbEntity
  8
0
 48
0.27
100
AcDbLine
 10
1697.413408505983
 20
734.6223726201681
 30
0.0
 11
1699.013614505983
 21
731.622372620168
 31
0.0
  0
LINE
  5
D735
330
1E
100
AcDbEntity
  8
0
 48
0.27
100
AcDbLine
 10
1697.353042505983
 20
729.1279636201681
 30
0.0
 11
1697.773046505983
 21
729.501051620168
 31
0.0
  0
LINE
  5
D736
330
1E
100
AcDbEntity
  8
0
 48
0.27
100
AcDbLine
 10
1697.353042505983
 20
734.116781620168
 30
0.0
 11
1697.773046505983
 21
733.743692620168
 31
0.0
  0
LINE
  5
D737
330
1E
100
AcDbEntity
  8
0
 48
0.27
100
AcDbLine
 10
1696.873862505983
 20
728.850733620168
 30
0.0
 11
1697.353042505983
 21
729.1279636201681
 31
0.0
  0
LINE
  5
D738
330
1E
100
AcDbEntity
  8
0
 48
0.27
100
AcDbLine
 10
1696.873862505983
 20
734.394010620168
 30
0.0
 11
1697.353042505983
 21
734.116781620168
 31
0.0
  0
LINE
  5
D739
330
1E
100
AcDbEntity
  8
0
 48
0.27
100
AcDbLine
 10
1696.353922505983
 20
728.6800166201681
 30
0.0
 11
1696.873862505983
 21
728.850733620168
 31
0.0
  0
LINE
  5
D73A
330
1E
100
AcDbEntity
  8
0
 48
0.27
100
AcDbLine
 10
1696.353922505983
 20
734.5647286201681
 30
0.0
 11
1696.873862505983
 21
734.394010620168
 31
0.0
  0
LINE
  5
D73B
330
1E
100
AcDbEntity
  8
0
 48
0.27
100
AcDbLine
 10
1695.813202505983
 20
728.6223726201681
 30
0.0
 11
1696.353922505983
 21
728.6800166201681
 31
0.0
  0
LINE
  5
D73C
330
1E
100
AcDbEntity
  8
0
 48
0.27
100
AcDbLine
 10
1695.813202505983
 20
734.6223726201681
 30
0.0
 11
1696.353922505983
 21
734.5647286201681
 31
0.0
  0
LINE
  5
D73D
330
1E
100
AcDbEntity
  8
0
 48
0.27
100
AcDbLine
 10
1695.272482505983
 20
728.6800166201681
 30
0.0
 11
1695.813202505983
 21
728.6223726201681
 31
0.0
  0
LINE
  5
D73E
330
1E
100
AcDbEntity
  8
0
 48
0.27
100
AcDbLine
 10
1695.272482505983
 20
734.5647286201681
 30
0.0
 11
1695.813202505983
 21
734.6223726201681
 31
0.0
  0
LINE
  5
D73F
330
1E
100
AcDbEntity
  8
0
 48
0.27
100
AcDbLine
 10
1694.752542505983
 20
728.850733620168
 30
0.0
 11
1695.272482505983
 21
728.6800166201681
 31
0.0
  0
LINE
  5
D740
330
1E
100
AcDbEntity
  8
0
 48
0.27
100
AcDbLine
 10
1694.752542505983
 20
734.394010620168
 30
0.0
 11
1695.272482505983
 21
734.5647286201681
 31
0.0
  0
LINE
  5
D741
330
1E
100
AcDbEntity
  8
0
 48
0.27
100
AcDbLine
 10
1694.334075505983
 20
729.0928376201682
 30
0.0
 11
1694.752542505983
 21
728.850733620168
 31
0.0
  0
LINE
  5
D742
330
1E
100
AcDbEntity
  8
0
 48
0.27
100
AcDbLine
 10
1694.334075505983
 20
734.1519066201681
 30
0.0
 11
1694.752542505983
 21
734.394010620168
 31
0.0
  0
LINE
  5
D743
330
1E
100
AcDbEntity
  8
0
 48
0.27
100
AcDbLine
 10
1699.712978505983
 20
731.622372620168
 30
0.0
 11
1698.112772505983
 21
728.6223726201681
 31
0.0
  0
LINE
  5
D744
330
1E
100
AcDbEntity
  8
0
 48
0.27
100
AcDbLine
 10
1698.112772505983
 20
728.6223726201681
 30
0.0
 11
1694.212996505983
 21
728.6223726201681
 31
0.0
  0
LINE
  5
D745
330
1E
100
AcDbEntity
  8
0
 48
0.27
100
AcDbLine
 10
1698.112772505983
 20
734.6223726201681
 30
0.0
 11
1699.712978505983
 21
731.622372620168
 31
0.0
  0
LINE
  5
D746
330
1E
100
AcDbEntity
  8
0
 48
0.27
100
AcDbLine
 10
1699.013614505983
 20
731.622372620168
 30
0.0
 11
1699.712978505983
 21
731.622372620168
 31
0.0
  0
LINE
  5
D747
330
1E
100
AcDbEntity
  8
0
 48
0.27
100
AcDbLine
 10
1694.212996505983
 20
734.6223726201681
 30
0.0
 11
1693.966603505983
 21
734.160445620168
 31
0.0
  0
LINE
  5
D748
330
1E
100
AcDbEntity
  8
0
 48
0.27
100
AcDbLine
 10
1693.966603505983
 20
729.0842996201681
 30
0.0
 11
1694.212996505983
 21
728.6223726201681
 31
0.0
  0
LINE
  5
D749
330
1E
100
AcDbEntity
  8
0
 48
0.27
100
AcDbLine
 10
1694.212996505983
 20
734.6223726201681
 30
0.0
 11
1698.112772505983
 21
734.6223726201681
 31
0.0
  0
LINE
  5
D74A
330
1E
100
AcDbEntity
  8
0
 48
0.27
100
AcDbLine
 10
1701.488773505983
 20
735.622372620168
 30
0.0
 11
1701.488773505983
 21
727.622372620168
 31
0.0
  0
LINE
  5
D74B
330
1E
100
AcDbEntity
  8
0
 48
0.27
100
AcDbLine
 10
1697.740433505983
 20
727.622372620168
 30
0.0
 11
1705.251267505983
 21
727.6223726201679
 31
0.0
  0
LINE
  5
D74C
330
1E
100
AcDbEntity
  8
0
 48
0.27
100
AcDbLine
 10
1702.268769505983
 20
731.622372620168
 30
0.0
 11
1705.251267505983
 21
731.622372620168
 31
0.0
  0
LINE
  5
D74D
330
1E
100
AcDbEntity
  8
0
 48
0.27
100
AcDbLine
 10
1705.251267505984
 20
735.622372620168
 30
0.0
 11
1697.740433505983
 21
735.622372620168
 31
0.0
  0
ARC
  5
D74E
330
1E
100
AcDbEntity
  8
0
 48
0.27
100
AcDbCircle
 10
1697.740433505983
 20
731.622372620168
 30
0.0
 40
3.999999999999968
100
AcDbArc
 50
228.5903779972994
 51
270.0
  0
ARC
  5
D74F
330
1E
100
AcDbEntity
  8
0
 48
0.27
100
AcDbCircle
 10
1697.740433505983
 20
731.622372620168
 30
0.0
 40
3.999999999999968
100
AcDbArc
 50
90.0
 51
131.4096219995944
  0
LWPOLYLINE
  5
D750
330
1E
100
AcDbEntity
  8
0
 48
0.27
100
AcDbPolyline
 90
       31
 70
     0
 43
0.0
 10
1694.160056505983
 20
731.622372620168
 10
1694.127238505983
 20
731.832627620168
 10
1694.083091505983
 20
731.938114620168
 10
1694.020058505983
 20
732.035893620168
 10
1693.940582505983
 20
732.1200066201681
 10
1693.849091505983
 20
732.1858796201682
 10
1693.751171505983
 20
732.231160620168
 10
1693.618535505983
 20
732.2601016201681
 10
1693.495526505983
 20
732.2574426201681
 10
1693.388602505983
 20
732.2319366201679
 10
1693.272397505983
 20
732.176168620168
 10
1693.161827505983
 20
732.0866796201681
 10
1693.073597505983
 20
731.972129620168
 10
1693.016963505983
 20
731.8522906201681
 10
1692.989112505983
 20
731.7486346201681
 10
1692.977491505983
 20
731.622372620168
 10
1693.010309505983
 20
731.4121176201681
 10
1693.054457505983
 20
731.306629620168
 10
1693.117489505983
 20
731.2088516201681
 10
1693.196965505983
 20
731.124738620168
 10
1693.288456505983
 20
731.058865620168
 10
1693.386376505983
 20
731.013584620168
 10
1693.519012505983
 20
730.9846426201679
 10
1693.642021505983
 20
730.987302620168
 10
1693.748945505983
 20
731.0128076201681
 10
1693.865150505983
 20
731.0685756201681
 10
1693.975720505983
 20
731.1580656201681
 10
1694.063950505983
 20
731.272614620168
 10
1694.120584505983
 20
731.392453620168
 10
1694.148436505983
 20
731.4961106201681
 10
1694.160056505983
 20
731.622372620168
  0
ARC
  5
D751
330
1E
100
AcDbEntity
  8
0
 48
0.27
100
AcDbCircle
 10
1704.442885505983
 20
733.6223726201681
 30
0.0
 40
2.954111999999976
100
AcDbArc
 50
137.3885980021923
 51
222.6114019999052
  0
ARC
  5
D752
330
1E
100
AcDbEntity
  8
0
 48
0.27
100
AcDbCircle
 10
1704.442884505983
 20
729.6223726201681
 30
0.0
 40
2.954110999999976
100
AcDbArc
 50
137.3885930045096
 51
222.6114069976016
  0
LINE
  5
D753
330
1E
100
AcDbEntity
  8
中心線
 48
0.27
100
AcDbLine
 10
1690.251269265
 20
731.622353289068
 30
0.0
 11
1705.555737379537
 21
731.622353289068
 31
0.0
  0
ARC
  5
D754
330
1E
100
AcDbEntity
  8
0
  6
Continuous
100
AcDbCircle
 10
1697.890214683498
 20
855.0287483749491
 30
0.0
 40
4.0
100
AcDbArc
 50
90.0
 51
210.8352048940846
  0
ARC
  5
D755
330
1E
100
AcDbEntity
  8
0
  6
Continuous
100
AcDbCircle
 10
1703.607783483029
 20
858.4787484745421
 30
0.0
 40
2.119009977045996
100
AcDbArc
 50
147.1327799989424
 51
212.8672200010575
  0
LINE
  5
D756
330
1E
100
AcDbEntity
  8
0
  6
Continuous
100
AcDbLine
 10
1697.890214683498
 20
859.0287483749492
 30
0.0
 11
1701.561395593998
 21
859.0287483749492
 31
0.0
  0
LINE
  5
D757
330
1E
100
AcDbEntity
  8
0
  6
Continuous
100
AcDbLine
 10
1701.828026048093
 20
857.3287481757631
 30
0.0
 11
1705.251267505983
 21
857.3287481757631
 31
0.0
  0
LINE
  5
D758
330
1E
100
AcDbEntity
  8
0
  6
Continuous
100
AcDbLine
 10
1701.828026048093
 20
859.628748374949
 30
0.0
 11
1705.251267505983
 21
859.628748374949
 31
0.0
  0
LINE
  5
D759
330
1E
100
AcDbEntity
  8
0
  6
Continuous
100
AcDbLine
 10
1699.695245360588
 20
848.8687052750172
 30
0.0
 11
1700.267365253954
 21
850.2499248808844
 31
0.0
  0
ARC
  5
D75A
330
1E
100
AcDbEntity
  8
0
  6
Continuous
100
AcDbCircle
 10
1699.361582137037
 20
850.6925695083577
 30
0.0
 40
1.854133729915247
100
AcDbArc
 50
214.6327799989322
 51
280.3672200010575
  0
LINE
  5
D75B
330
1E
100
AcDbEntity
  8
0
  6
Continuous
100
AcDbLine
 10
1697.835979892435
 20
849.6388985286193
 30
0.0
 11
1698.40805716095
 21
851.0200152289954
 31
0.0
  0
LINE
  5
D75C
330
1E
100
AcDbEntity
  8
0
  6
Continuous
100
AcDbLine
 10
1699.162669394251
 20
851.0287483749491
 30
0.0
 11
1701.561395593998
 21
851.0287483749491
 31
0.0
  0
ARC
  5
D75D
330
1E
100
AcDbEntity
  8
0
  6
Continuous
100
AcDbCircle
 10
1698.741762958589
 20
849.1961936415314
 30
0.0
 40
1.854133729915247
100
AcDbArc
 50
34.63277999893215
 51
100.3672200010575
  0
ARC
  5
D75E
330
1E
100
AcDbEntity
  8
0
  6
Continuous
100
AcDbCircle
 10
1703.607783483029
 20
851.5787482753562
 30
0.0
 40
2.119009977045996
100
AcDbArc
 50
147.1327799989424
 51
212.8672200010575
  0
LINE
  5
D75F
330
1E
100
AcDbEntity
  8
0
  6
Continuous
100
AcDbLine
 10
1701.828026048093
 20
850.4287483749489
 30
0.0
 11
1705.251267505983
 21
850.4287483749489
 31
0.0
  0
LINE
  5
D760
330
1E
100
AcDbEntity
  8
0
  6
Continuous
100
AcDbLine
 10
1701.828026048093
 20
852.7287485741348
 30
0.0
 11
1705.251267505983
 21
852.7287485741348
 31
0.0
  0
LINE
  5
D761
330
1E
100
AcDbEntity
  8
0
  6
Continuous
100
AcDbLine
 10
1701.488773505983
 20
851.5787482753562
 30
0.0
 11
1701.488773505983
 21
858.4787484745421
 31
0.0
  0
ARC
  5
D762
330
1E
100
AcDbEntity
  8
0
  6
Continuous
100
AcDbCircle
 10
1709.456207485617
 20
855.0287483749491
 30
0.0
 40
7.96743397963368
100
AcDbArc
 50
163.2213499979083
 51
196.7786500020917
  0
LINE
  5
D763
330
1E
100
AcDbEntity
  8
0
  6
Continuous
100
AcDbLine
 10
1694.117365096118
 20
851.1791992104949
 30
0.0
 11
1694.689442364634
 21
852.5603159108706
 31
0.0
  0
LINE
  5
D764
330
1E
100
AcDbEntity
  8
0
  6
Continuous
100
AcDbLine
 10
1692.258057375919
 20
851.9493496848268
 30
0.0
 11
1692.830134644434
 21
853.3304663852025
 31
0.0
  0
ARC
  5
D765
330
1E
100
AcDbEntity
  8
0
  6
Continuous
100
AcDbCircle
 10
1693.163840120032
 20
851.5066449311325
 30
0.0
 40
1.854133729915247
100
AcDbArc
 50
34.63277999893215
 51
100.3672200010575
  0
ARC
  5
D766
330
1E
100
AcDbEntity
  8
0
  6
Continuous
100
AcDbCircle
 10
1693.783659298479
 20
853.0030207979589
 30
0.0
 40
1.854133729915247
100
AcDbArc
 50
214.6327799989322
 51
280.3672200010575
  0
ARC
  5
D767
330
1E
100
AcDbEntity
  8
0
  6
Continuous
100
AcDbCircle
 10
1690.984547379839
 20
850.2697567479593
 30
0.0
 40
2.059673609817605
100
AcDbArc
 50
335.8479011650642
 51
45.8479011650646
  0
LINE
  5
D768
330
1E
100
AcDbEntity
  8
0
  6
Continuous
100
AcDbLine
 10
1695.107253484251
 20
843.1927822437266
 30
0.0
 11
1697.251198389784
 21
845.33672714926
 31
0.0
  0
LINE
  5
D769
330
1E
100
AcDbEntity
  8
0
  6
Continuous
100
AcDbLine
 10
1693.048698231075
 20
849.3504833314867
 30
0.0
 11
1697.298544080626
 21
847.5901395426072
 31
0.0
  0
ARC
  5
D76A
330
1E
100
AcDbEntity
  8
0
  6
Continuous
100
AcDbCircle
 10
1699.408143611479
 20
846.7805889448593
 30
0.0
 40
2.059673609817604
100
AcDbArc
 50
89.15209883494572
 51
159.1520988349398
  0
ARC
  5
D76B
330
1E
100
AcDbEntity
  8
0
  6
Continuous
100
AcDbCircle
 10
1694.739537760888
 20
846.7053605569114
 30
0.0
 40
2.860349020536762
100
AcDbArc
 50
331.4135141737281
 51
16.41351417374012
  0
LINE
  5
D76C
330
1E
100
AcDbEntity
  8
0
  6
Continuous
100
AcDbLine
 10
1693.074113038651
 20
851.2900245943514
 30
0.0
 11
1698.652035877209
 21
848.97957330475
 31
0.0
  0
LINE
  5
D76D
330
1E
100
AcDbEntity
  8
0
  6
Continuous
100
AcDbLine
 10
1693.873386379859
 20
853.2196411347399
 30
0.0
 11
1699.451309218417
 21
850.9091898451387
 31
0.0
  0
ARC
  5
D76E
330
1E
100
AcDbEntity
  8
0
  6
Continuous
100
AcDbCircle
 10
1693.994468439478
 20
845.6235849570733
 30
0.0
 40
6.971504732179473
100
AcDbArc
 50
50.72134999791451
 51
84.27865000208308
  0
ARC
  5
D76F
330
1E
100
AcDbEntity
  8
0
  6
Continuous
100
AcDbCircle
 10
1698.53095381759
 20
856.575629482417
 30
0.0
 40
6.971504732179473
100
AcDbArc
 50
230.7213499979145
 51
264.2786500020961
  0
ARC
  5
D771
330
1E
100
AcDbEntity
  8
0
  6
Continuous
100
AcDbCircle
 10
1694.232555732224
 20
846.9153593890636
 30
0.0
 40
2.860349020536762
100
AcDbArc
 50
118.5864858262542
 51
163.5864858262599
  0
LINE
  5
D772
330
1E
100
AcDbEntity
  8
0
  6
Continuous
100
AcDbLine
 10
1691.488773505983
 20
847.7236016882866
 30
0.0
 11
1697.251198389784
 21
845.33672714926
 31
0.0
  0
LINE
  5
D773
330
1E
100
AcDbEntity
  8
0
  6
Continuous
100
AcDbLine
 10
1691.488773505983
 20
844.6916057259006
 30
0.0
 11
1695.107253484251
 21
843.1927822437266
 31
0.0
  0
LINE
  5
D774
330
1E
100
AcDbEntity
  8
0
  6
Continuous
100
AcDbLine
 10
1691.488773505983
 20
844.6916057259006
 30
0.0
 11
1691.488773505983
 21
847.7236016882866
 31
0.0
  0
ARC
  5
D775
330
1E
100
AcDbEntity
  8
0
 48
0.27
100
AcDbCircle
 10
1687.251267505983
 20
855.0287483749487
 30
0.0
 40
6.999999999999772
100
AcDbArc
 50
11.04329978469363
 51
324.251666473528
  0
LINE
  5
D77A
330
1E
100
AcDbEntity
  8
中心線
 48
0.8
100
AcDbLine
 10
1767.251267505983
 20
894.0287483749479
 30
0.0
 11
1767.251267505983
 21
816.028748374949
 31
0.0
  0
LINE
  5
D77B
330
1E
100
AcDbEntity
  8
中心線
 48
0.8
100
AcDbLine
 10
1723.751267505983
 20
855.0287483749487
 30
0.0
 11
1810.751267505983
 21
855.0287483749492
 31
0.0
  0
LINE
  5
D77D
330
1E
100
AcDbEntity
  8
虛線
 48
0.25
100
AcDbLine
 10
1795.626267505983
 20
746.6223532885687
 30
0.0
 11
1795.626267505983
 21
731.6223532885692
 31
0.0
  0
LINE
  5
D77E
330
1E
100
AcDbEntity
  8
虛線
 48
0.25
100
AcDbLine
 10
1788.876267505983
 20
746.6223532885691
 30
0.0
 11
1788.876267505983
 21
731.6223532885693
 31
0.0
  0
LINE
  5
D790
330
1E
100
AcDbEntity
  8
虛線
 48
0.25
100
AcDbLine
 10
1738.876267505984
 20
746.6223532885691
 30
0.0
 11
1738.876267505984
 21
731.6223532885693
 31
0.0
  0
LINE
  5
D791
330
1E
100
AcDbEntity
  8
虛線
 48
0.25
100
AcDbLine
 10
1745.626267505984
 20
746.6223532885687
 30
0.0
 11
1745.626267505983
 21
731.6223532885692
 31
0.0
  0
LINE
  5
D792
330
1E
100
AcDbEntity
  8
虛線
 48
0.25
100
AcDbLine
 10
1738.876267505984
 20
731.6223532885693
 30
0.0
 11
1742.251267505983
 21
729.6254195729334
 31
0.0
  0
LINE
  5
D793
330
1E
100
AcDbEntity
  8
虛線
 48
0.25
100
AcDbLine
 10
1745.626267505983
 20
731.6223532885692
 30
0.0
 11
1742.251267505983
 21
729.6254195729334
 31
0.0
  0
LINE
  5
D794
330
1E
100
AcDbEntity
  8
虛線
 48
0.25
100
AcDbLine
 10
1738.876267505984
 20
731.6223532885693
 30
0.0
 11
1745.626267505983
 21
731.6223532885692
 31
0.0
  0
LINE
  5
D795
330
1E
100
AcDbEntity
  8
虛線
 48
0.25
100
AcDbLine
 10
1738.251236988405
 20
735.6223532885692
 30
0.0
 11
1746.251236988405
 21
735.6223532885692
 31
0.0
  0
LINE
  5
D796
330
1E
100
AcDbEntity
  8
虛線
 48
0.25
100
AcDbLine
 10
1738.251236988405
 20
735.6223532885692
 30
0.0
 11
1738.251236988405
 21
747.2473838061482
 31
0.0
  0
LINE
  5
D797
330
1E
100
AcDbEntity
  8
虛線
 48
0.25
100
AcDbLine
 10
1746.251236988405
 20
735.6223532885692
 30
0.0
 11
1746.251236988405
 21
747.2473227709904
 31
0.0
  0
LINE
  5
D798
330
1E
100
AcDbEntity
  8
虛線
 48
0.25
100
AcDbLine
 10
1738.876267505984
 20
746.6223532885691
 30
0.0
 11
1745.626267505984
 21
746.6223532885687
 31
0.0
  0
LINE
  5
D799
330
1E
100
AcDbEntity
  8
虛線
 48
0.25
100
AcDbLine
 10
1745.626267505984
 20
746.6223532885692
 30
0.0
 11
1746.626267505984
 21
747.6223532885692
 31
0.0
  0
LINE
  5
D79A
330
1E
100
AcDbEntity
  8
虛線
 48
0.25
100
AcDbLine
 10
1738.876267505984
 20
746.6223532885691
 30
0.0
 11
1737.876267505983
 21
747.6223532885691
 31
0.0
  0
LINE
  5
DA99
330
1E
100
AcDbEntity
  8
中心線
 48
0.27
100
AcDbLine
 10
1813.151267505983
 20
728.0223532886277
 30
0.0
 11
1820.351267505983
 21
728.0223532886277
 31
0.0
  0
LINE
  5
DA9A
330
1E
100
AcDbEntity
  8
中心線
 48
0.27
100
AcDbLine
 10
1816.751267505983
 20
724.4223532886278
 30
0.0
 11
1816.751267505983
 21
731.6223532886276
 31
0.0
  0
LINE
  5
DAA2
330
1E
100
AcDbEntity
  8
中心線
 48
0.27
100
AcDbLine
 10
1714.151267505983
 20
728.0223532889272
 30
0.0
 11
1721.351267505983
 21
728.0223532889272
 31
0.0
  0
LINE
  5
DAA3
330
1E
100
AcDbEntity
  8
中心線
 48
0.27
100
AcDbLine
 10
1717.751267505983
 20
724.4223532889273
 30
0.0
 11
1717.751267505983
 21
731.6223532889271
 31
0.0
  0
ARC
  5
DBEE
330
1E
100
AcDbEntity
  8
標註線
 62
     1
100
AcDbCircle
 10
1792.251267505983
 20
855.0287483749478
 30
0.0
 40
4.0
100
AcDbArc
 50
169.9999999988309
 51
100.0000000011691
  0
ARC
  5
DBF6
330
1E
100
AcDbEntity
  8
標註線
 62
     1
100
AcDbCircle
 10
1792.251267505983
 20
830.0287483749478
 30
0.0
 40
4.0
100
AcDbArc
 50
169.9999999988309
 51
100.0000000011691
  0
ARC
  5
DBFD
330
1E
100
AcDbEntity
  8
標註線
 62
     1
100
AcDbCircle
 10
1742.251267505983
 20
830.0287483749478
 30
0.0
 40
4.0
100
AcDbArc
 50
169.9999999988309
 51
100.0000000011691
  0
ARC
  5
DC04
330
1E
100
AcDbEntity
  8
標註線
 62
     1
100
AcDbCircle
 10
1742.251267505983
 20
855.0287483749478
 30
0.0
 40
4.0
100
AcDbArc
 50
169.9999999988309
 51
100.0000000011691
  0
ARC
  5
DC0B
330
1E
100
AcDbEntity
  8
標註線
 62
     1
100
AcDbCircle
 10
1742.251267505983
 20
880.0287483749478
 30
0.0
 40
4.0
100
AcDbArc
 50
169.9999999988309
 51
100.0000000011691
  0
LINE
  5
DD98
330
1E
100
AcDbEntity
  8
0
  6
ByBlock
100
AcDbLine
 10
1560.451642864438
 20
699.1223532885684
 30
0.0
 11
1561.951642864438
 21
700.6223532885684
 31
0.0
  0
LINE
  5
DD99
330
1E
100
AcDbEntity
  8
0
  6
ByBlock
100
AcDbLine
 10
1492.451642864464
 20
700.1223532885529
 30
0.0
 11
1493.451642864374
 21
699.1223532885839
 31
0.0
  0
LINE
  5
DD9A
330
1E
100
AcDbEntity
  8
0
  6
Continuous
 62
     7
100
AcDbLine
 10
1534.901642864438
 20
739.8147267067684
 30
0.0
 11
1534.451642864438
 21
740.2647267067684
 31
0.0
  0
LINE
  5
DD9B
330
1E
100
AcDbEntity
  8
0
  6
Continuous
 62
     7
100
AcDbLine
 10
1519.451642864438
 20
740.2647267067684
 30
0.0
 11
1534.451642864438
 21
740.2647267067684
 31
0.0
  0
LINE
  5
DD9C
330
1E
100
AcDbEntity
  8
0
  6
Continuous
 62
     7
100
AcDbLine
 10
1519.451642864438
 20
740.2647267067684
 30
0.0
 11
1519.001642864438
 21
739.8147267067684
 31
0.0
  0
LINE
  5
DD9D
330
1E
100
AcDbEntity
  8
中心線
 48
0.25
100
AcDbLine
 10
1537.686197832927
 20
731.622353289068
 30
0.0
 11
1521.318657532471
 21
731.622353289068
 31
0.0
  0
LINE
  5
DD9E
330
1E
100
AcDbEntity
  8
0
 48
0.27
100
AcDbLine
 10
1529.838436760692
 20
734.6223962318977
 30
0.0
 11
1529.26107717983
 21
735.6224109915138
 31
0.0
  0
LINE
  5
DD9F
330
1E
100
AcDbEntity
  8
0
 48
0.27
100
AcDbLine
 10
1530.828420684335
 20
734.5647509895152
 30
0.0
 11
1532.830256502226
 21
733.6589229473092
 31
0.0
  0
LINE
  5
DDA0
330
1E
100
AcDbEntity
  8
0
 48
0.27
100
AcDbLine
 10
1530.828420684335
 20
728.6799542526019
 30
0.0
 11
1532.830256502226
 21
729.5857822948078
 31
0.0
  0
LINE
  5
DDA1
330
1E
100
AcDbEntity
  8
0
 48
0.27
100
AcDbLine
 10
1529.456376540816
 20
731.622353289068
 30
0.0
 11
1529.47843689823
 21
732.2076327947016
 31
0.0
  0
LINE
  5
DDA2
330
1E
100
AcDbEntity
  8
0
 48
0.27
100
AcDbLine
 10
1529.47843689823
 20
731.0370737833355
 30
0.0
 11
1529.456376540816
 21
731.622353289068
 31
0.0
  0
LINE
  5
DDA3
330
1E
100
AcDbEntity
  8
0
 48
0.27
100
AcDbLine
 10
1529.47843689823
 20
732.2076327947016
 30
0.0
 11
1529.543768261972
 21
732.770420408624
 31
0.0
  0
LINE
  5
DDA4
330
1E
100
AcDbEntity
  8
0
 48
0.27
100
AcDbLine
 10
1529.543768261972
 20
730.4742861695126
 30
0.0
 11
1529.47843689823
 21
731.0370737833355
 31
0.0
  0
LINE
  5
DDA5
330
1E
100
AcDbEntity
  8
0
 48
0.27
100
AcDbLine
 10
1529.543768261972
 20
732.770420408624
 30
0.0
 11
1529.649860250908
 21
733.2890873077194
 31
0.0
  0
LINE
  5
DDA6
330
1E
100
AcDbEntity
  8
0
 48
0.27
100
AcDbLine
 10
1529.649860250908
 20
729.9556179343981
 30
0.0
 11
1529.543768261972
 21
730.4742861695126
 31
0.0
  0
LINE
  5
DDA7
330
1E
100
AcDbEntity
  8
0
 48
0.27
100
AcDbLine
 10
1529.649860250908
 20
733.2890873077194
 30
0.0
 11
1529.792638005078
 21
733.7437040859695
 31
0.0
  0
LINE
  5
DDA8
330
1E
100
AcDbEntity
  8
0
 48
0.27
100
AcDbLine
 10
1529.792638005078
 20
729.5010011561475
 30
0.0
 11
1529.649860250908
 21
729.9556179343981
 31
0.0
  0
LINE
  5
DDA9
330
1E
100
AcDbEntity
  8
0
 48
0.27
100
AcDbLine
 10
1529.278770088812
 20
731.622353289068
 30
0.0
 11
1529.941606874592
 21
734.6223962318977
 31
0.0
  0
LINE
  5
DDAA
330
1E
100
AcDbEntity
  8
0
 48
0.27
100
AcDbLine
 10
1529.941606874592
 20
728.6223090102193
 30
0.0
 11
1529.278770088812
 21
731.622353289068
 31
0.0
  0
LINE
  5
DDAB
330
1E
100
AcDbEntity
  8
0
 48
0.27
100
AcDbLine
 10
1529.792638005078
 20
733.7437040859695
 30
0.0
 11
1529.966611819475
 21
734.1167982776096
 31
0.0
  0
LINE
  5
DDAC
330
1E
100
AcDbEntity
  8
0
 48
0.27
100
AcDbLine
 10
1529.966611819475
 20
729.1279069645074
 30
0.0
 11
1529.792638005078
 21
729.5010011561475
 31
0.0
  0
LINE
  5
DDAD
330
1E
100
AcDbEntity
  8
0
 48
0.27
100
AcDbLine
 10
1529.966611819475
 20
734.1167982776096
 30
0.0
 11
1530.165097587358
 21
734.3940317192109
 31
0.0
  0
LINE
  5
DDAE
330
1E
100
AcDbEntity
  8
0
 48
0.27
100
AcDbLine
 10
1530.165097587358
 20
728.8506735229057
 30
0.0
 11
1529.966611819475
 21
729.1279069645074
 31
0.0
  0
LINE
  5
DDAF
330
1E
100
AcDbEntity
  8
0
 48
0.27
100
AcDbLine
 10
1528.253167879813
 20
728.6223090102193
 30
0.0
 11
1527.590331094034
 21
731.622353289068
 31
0.0
  0
LINE
  5
DDB0
330
1E
100
AcDbEntity
  8
0
 48
0.27
100
AcDbLine
 10
1527.590331094034
 20
731.622353289068
 30
0.0
 11
1529.278770088812
 21
731.622353289068
 31
0.0
  0
LINE
  5
DDB1
330
1E
100
AcDbEntity
  8
0
 48
0.27
100
AcDbLine
 10
1527.590331094034
 20
731.622353289068
 30
0.0
 11
1528.253167879813
 21
734.6223962318977
 31
0.0
  0
LINE
  5
DDB2
330
1E
100
AcDbEntity
  8
0
 48
0.27
100
AcDbLine
 10
1530.165097587358
 20
734.3940317192109
 30
0.0
 11
1530.380466636409
 21
734.5647509895152
 31
0.0
  0
LINE
  5
DDB3
330
1E
100
AcDbEntity
  8
0
 48
0.27
100
AcDbLine
 10
1530.165097587358
 20
728.8506735229057
 30
0.0
 11
1530.380466636409
 21
728.6799542526019
 31
0.0
  0
LINE
  5
DDB4
330
1E
100
AcDbEntity
  8
0
 48
0.27
100
AcDbLine
 10
1530.380466636409
 20
734.5647509895152
 30
0.0
 11
1530.604443660372
 21
734.6223962318977
 31
0.0
  0
LINE
  5
DDB5
330
1E
100
AcDbEntity
  8
0
 48
0.27
100
AcDbLine
 10
1530.380466636409
 20
728.6799542526019
 30
0.0
 11
1530.604443660372
 21
728.6223090102193
 31
0.0
  0
LINE
  5
DDB6
330
1E
100
AcDbEntity
  8
0
 48
0.27
100
AcDbLine
 10
1530.604443660372
 20
734.6223962318977
 30
0.0
 11
1530.828420684335
 21
734.5647509895152
 31
0.0
  0
LINE
  5
DDB7
330
1E
100
AcDbEntity
  8
0
 48
0.27
100
AcDbLine
 10
1530.604443660372
 20
728.6223090102193
 30
0.0
 11
1530.828420684335
 21
728.6799542526019
 31
0.0
  0
LINE
  5
DDB8
330
1E
100
AcDbEntity
  8
0
 48
0.27
100
AcDbLine
 10
1528.253167879813
 20
734.6223962318977
 30
0.0
 11
1531.267280446153
 21
734.6223962318977
 31
0.0
  0
LINE
  5
DDB9
330
1E
100
AcDbEntity
  8
0
 48
0.27
100
AcDbLine
 10
1531.267280446153
 20
728.6223090102193
 30
0.0
 11
1531.330180254012
 21
728.9070001138461
 31
0.0
  0
LINE
  5
DDBA
330
1E
100
AcDbEntity
  8
0
 48
0.27
100
AcDbLine
 10
1531.330180254012
 20
734.3377051282709
 30
0.0
 11
1531.267280446153
 21
734.6223962318977
 31
0.0
  0
LINE
  5
DDBB
330
1E
100
AcDbEntity
  8
0
 48
0.27
100
AcDbLine
 10
1528.253167879813
 20
728.6223090102193
 30
0.0
 11
1531.267280446153
 21
728.6223090102193
 31
0.0
  0
LINE
  5
DDBC
330
1E
100
AcDbEntity
  8
0
 48
0.27
100
AcDbLine
 10
1529.838436760692
 20
728.6223090102193
 30
0.0
 11
1529.261078515849
 21
727.6222942506028
 31
0.0
  0
LINE
  5
DDBD
330
1E
100
AcDbEntity
  8
0
 48
0.27
100
AcDbLine
 10
1533.235554112891
 20
733.5361828167361
 30
0.0
 11
1533.286309501634
 21
733.5696461023453
 31
0.0
  0
LINE
  5
DDBE
330
1E
100
AcDbEntity
  8
0
 48
0.27
100
AcDbLine
 10
1533.023028113926
 20
729.6862402887309
 30
0.0
 11
1533.071382675135
 21
729.6841868263664
 31
0.0
  0
LINE
  5
DDBF
330
1E
100
AcDbEntity
  8
0
 48
0.27
100
AcDbLine
 10
1533.235554112891
 20
729.708522425381
 30
0.0
 11
1533.286309501634
 21
729.6750591397713
 31
0.0
  0
LINE
  5
DDC0
330
1E
100
AcDbEntity
  8
0
 48
0.27
100
AcDbLine
 10
1533.738534804586
 20
731.622353289068
 30
0.0
 11
1533.75731122558
 21
732.1205015974483
 31
0.0
  0
LINE
  5
DDC1
330
1E
100
AcDbEntity
  8
0
 48
0.27
100
AcDbLine
 10
1535.337401694093
 20
731.622353289068
 30
0.0
 11
1535.35057618444
 21
731.9718947893179
 31
0.0
  0
LINE
  5
DDC2
330
1E
100
AcDbEntity
  8
0
 48
0.27
100
AcDbLine
 10
1535.35057618444
 20
731.2728117888187
 30
0.0
 11
1535.337401694093
 21
731.622353289068
 31
0.0
  0
LINE
  5
DDC3
330
1E
100
AcDbEntity
  8
0
 48
0.27
100
AcDbLine
 10
1533.75731122558
 20
731.1242036446692
 30
0.0
 11
1533.738534804586
 21
731.622353289068
 31
0.0
  0
LINE
  5
DDC4
330
1E
100
AcDbEntity
  8
0
 48
0.27
100
AcDbLine
 10
1535.35057618444
 20
731.9718947893179
 30
0.0
 11
1535.389594640013
 21
732.3080026113379
 31
0.0
  0
LINE
  5
DDC5
330
1E
100
AcDbEntity
  8
0
 48
0.27
100
AcDbLine
 10
1533.75731122558
 20
732.1205015974483
 30
0.0
 11
1533.812916365792
 21
732.599507415493
 31
0.0
  0
LINE
  5
DDC6
330
1E
100
AcDbEntity
  8
0
 48
0.27
100
AcDbLine
 10
1535.389594640013
 20
730.9367026307791
 30
0.0
 11
1535.35057618444
 21
731.2728117888187
 31
0.0
  0
LINE
  5
DDC7
330
1E
100
AcDbEntity
  8
0
 48
0.27
100
AcDbLine
 10
1533.812916365792
 20
730.6451978266241
 30
0.0
 11
1533.75731122558
 21
731.1242036446692
 31
0.0
  0
LINE
  5
DDC8
330
1E
100
AcDbEntity
  8
0
 48
0.27
100
AcDbLine
 10
1535.389594640013
 20
732.3080026113379
 30
0.0
 11
1535.452955374699
 21
732.6177627887828
 31
0.0
  0
LINE
  5
DDC9
330
1E
100
AcDbEntity
  8
0
 48
0.27
100
AcDbLine
 10
1533.812916365792
 20
732.599507415493
 30
0.0
 11
1533.90321526587
 21
733.0409617274713
 31
0.0
  0
LINE
  5
DDCA
330
1E
100
AcDbEntity
  8
0
 48
0.27
100
AcDbLine
 10
1535.452955374699
 20
730.6269437893538
 30
0.0
 11
1535.389594640013
 21
730.9367026307791
 31
0.0
  0
LINE
  5
DDCB
330
1E
100
AcDbEntity
  8
0
 48
0.27
100
AcDbLine
 10
1533.90321526587
 20
730.2037435145457
 30
0.0
 11
1533.812916365792
 21
730.6451978266241
 31
0.0
  0
LINE
  5
DDCC
330
1E
100
AcDbEntity
  8
0
 48
0.27
100
AcDbLine
 10
1535.452955374699
 20
732.6177627887828
 30
0.0
 11
1535.538224160576
 21
732.8892687138059
 31
0.0
  0
LINE
  5
DDCD
330
1E
100
AcDbEntity
  8
0
 48
0.27
100
AcDbLine
 10
1533.90321526587
 20
733.0409617274713
 30
0.0
 11
1534.024736946463
 21
733.4278997554265
 31
0.0
  0
LINE
  5
DDCE
330
1E
100
AcDbEntity
  8
0
 48
0.27
100
AcDbLine
 10
1535.538224160576
 20
730.3554365283107
 30
0.0
 11
1535.452955374699
 21
730.6269437893538
 31
0.0
  0
LINE
  5
DDCF
330
1E
100
AcDbEntity
  8
0
 48
0.27
100
AcDbLine
 10
1534.024736946463
 20
729.8168068227105
 30
0.0
 11
1533.90321526587
 21
730.2037435145457
 31
0.0
  0
LINE
  5
DDD0
330
1E
100
AcDbEntity
  8
0
 48
0.27
100
AcDbLine
 10
1535.538224160576
 20
732.8892687138059
 30
0.0
 11
1535.642125077239
 21
733.112088744785
 31
0.0
  0
LINE
  5
DDD1
330
1E
100
AcDbEntity
  8
0
 48
0.27
100
AcDbLine
 10
1534.024736946463
 20
733.4278997554265
 30
0.0
 11
1534.172812018834
 21
733.7454502637501
 31
0.0
  0
LINE
  5
DDD2
330
1E
100
AcDbEntity
  8
0
 48
0.27
100
AcDbLine
 10
1535.642125077239
 20
730.1326164973316
 30
0.0
 11
1535.538224160576
 21
730.3554365283107
 31
0.0
  0
LINE
  5
DDD3
330
1E
100
AcDbEntity
  8
0
 48
0.27
100
AcDbLine
 10
1535.642125077239
 20
733.112088744785
 30
0.0
 11
1535.760664761818
 21
733.2776576591331
 31
0.0
  0
LINE
  5
DDD4
330
1E
100
AcDbEntity
  8
0
 48
0.27
100
AcDbLine
 10
1534.172812018834
 20
729.4992549783664
 30
0.0
 11
1534.024736946463
 21
729.8168068227105
 31
0.0
  0
LINE
  5
DDD5
330
1E
100
AcDbEntity
  8
0
 48
0.27
100
AcDbLine
 10
1532.634496214513
 20
731.622353289068
 30
0.0
 11
1532.648843730178
 21
732.0030374086636
 31
0.0
  0
LINE
  5
DDD6
330
1E
100
AcDbEntity
  8
0
 48
0.27
100
AcDbLine
 10
1532.648843730178
 20
731.2416678334535
 30
0.0
 11
1532.634496214513
 21
731.622353289068
 31
0.0
  0
LINE
  5
DDD7
330
1E
100
AcDbEntity
  8
0
 48
0.27
100
AcDbLine
 10
1532.648843730178
 20
732.0030374086636
 30
0.0
 11
1532.691338508978
 21
732.3690921124807
 31
0.0
  0
LINE
  5
DDD8
330
1E
100
AcDbEntity
  8
0
 48
0.27
100
AcDbLine
 10
1532.691338508978
 20
730.8756131296368
 30
0.0
 11
1532.648843730178
 21
731.2416678334535
 31
0.0
  0
LINE
  5
DDD9
330
1E
100
AcDbEntity
  8
0
 48
0.27
100
AcDbLine
 10
1532.691338508978
 20
732.3690921124807
 30
0.0
 11
1532.760343926933
 21
732.7064504490485
 31
0.0
  0
LINE
  5
DDDA
330
1E
100
AcDbEntity
  8
0
 48
0.27
100
AcDbLine
 10
1534.172812018834
 20
733.7454502637501
 30
0.0
 11
1534.341749038831
 21
733.981412720509
 31
0.0
  0
LINE
  5
DDDB
330
1E
100
AcDbEntity
  8
0
 48
0.27
100
AcDbLine
 10
1535.760664761818
 20
729.9670475829834
 30
0.0
 11
1535.642125077239
 21
730.1326164973316
 31
0.0
  0
LINE
  5
DDDC
330
1E
100
AcDbEntity
  8
0
 48
0.27
100
AcDbLine
 10
1535.760664761818
 20
733.2776576591331
 30
0.0
 11
1535.88928872325
 21
733.3796160031506
 31
0.0
  0
LINE
  5
DDDD
330
1E
100
AcDbEntity
  8
0
 48
0.27
100
AcDbLine
 10
1532.760343926933
 20
730.5382547930685
 30
0.0
 11
1532.691338508978
 21
730.8756131296368
 31
0.0
  0
LINE
  5
DDDE
330
1E
100
AcDbEntity
  8
0
 48
0.27
100
AcDbLine
 10
1534.341749038831
 20
729.2632925216075
 30
0.0
 11
1534.172812018834
 21
729.4992549783664
 31
0.0
  0
LINE
  5
DDDF
330
1E
100
AcDbEntity
  8
0
 48
0.27
100
AcDbLine
 10
1532.760343926933
 20
732.7064504490485
 30
0.0
 11
1532.853210656882
 21
733.0021476829815
 31
0.0
  0
LINE
  5
DDE0
330
1E
100
AcDbEntity
  8
0
 48
0.27
100
AcDbLine
 10
1532.853210656882
 20
730.2425575591359
 30
0.0
 11
1532.760343926933
 21
730.5382547930685
 31
0.0
  0
LINE
  5
DDE1
330
1E
100
AcDbEntity
  8
0
 48
0.27
100
AcDbLine
 10
1535.88928872325
 20
733.3796160031506
 30
0.0
 11
1536.023052352382
 21
733.4140425590167
 31
0.0
  0
LINE
  5
DDE2
330
1E
100
AcDbEntity
  8
0
 48
0.27
100
AcDbLine
 10
1534.341749038831
 20
733.981412720509
 30
0.0
 11
1534.525056286923
 21
734.1267182239653
 31
0.0
  0
LINE
  5
DDE3
330
1E
100
AcDbEntity
  8
0
 48
0.27
100
AcDbLine
 10
1535.760664761818
 20
729.9670475829834
 30
0.0
 11
1535.88928872325
 21
729.8650892389669
 31
0.0
  0
LINE
  5
DDE4
330
1E
100
AcDbEntity
  8
0
 48
0.27
100
AcDbLine
 10
1532.853210656882
 20
733.0021476829815
 30
0.0
 11
1532.966368854032
 21
733.2448196307478
 31
0.0
  0
LINE
  5
DDE5
330
1E
100
AcDbEntity
  8
0
 48
0.27
100
AcDbLine
 10
1534.341749038831
 20
729.2632925216075
 30
0.0
 11
1534.525056286923
 21
729.1179883541708
 31
0.0
  0
LINE
  5
DDE6
330
1E
100
AcDbEntity
  8
0
 48
0.27
100
AcDbLine
 10
1532.966368854032
 20
729.9998856113697
 30
0.0
 11
1532.853210656882
 21
730.2425575591359
 31
0.0
  0
LINE
  5
DDE7
330
1E
100
AcDbEntity
  8
0
 48
0.27
100
AcDbLine
 10
1532.966368854032
 20
733.2448196307478
 30
0.0
 11
1533.095471110543
 21
733.4251408746677
 31
0.0
  0
LINE
  5
DDE8
330
1E
100
AcDbEntity
  8
0
 48
0.27
100
AcDbLine
 10
1533.670999008377
 20
733.800694678599
 30
0.0
 11
1533.84026468927
 21
733.9348684659171
 31
0.0
  0
LINE
  5
DDE9
330
1E
100
AcDbEntity
  8
0
 48
0.27
100
AcDbLine
 10
1534.525056286923
 20
734.1267182239653
 30
0.0
 11
1534.715690267031
 21
734.1757808757074
 31
0.0
  0
LINE
  5
DDEA
330
1E
100
AcDbEntity
  8
0
 48
0.27
100
AcDbLine
 10
1536.023052352382
 20
733.4140425590167
 30
0.0
 11
1536.156815981615
 21
733.3796160031506
 31
0.0
  0
LINE
  5
DDEB
330
1E
100
AcDbEntity
  8
0
 48
0.27
100
AcDbLine
 10
1535.88928872325
 20
729.8650892389669
 30
0.0
 11
1536.023052352382
 21
729.8306626831008
 31
0.0
  0
LINE
  5
DDEC
330
1E
100
AcDbEntity
  8
0
 48
0.27
100
AcDbLine
 10
1533.095471110543
 20
729.8195643674498
 30
0.0
 11
1532.966368854032
 21
729.9998856113697
 31
0.0
  0
LINE
  5
DDED
330
1E
100
AcDbEntity
  8
0
 48
0.27
100
AcDbLine
 10
1533.84026468927
 20
733.9348684659171
 30
0.0
 11
1534.166301594731
 21
734.0993699004875
 31
0.0
  0
LINE
  5
DDEE
330
1E
100
AcDbEntity
  8
0
 48
0.27
100
AcDbLine
 10
1534.166301594731
 20
734.0993699004875
 30
0.0
 11
1534.354852720144
 21
734.1478981443315
 31
0.0
  0
LINE
  5
DDEF
330
1E
100
AcDbEntity
  8
0
 48
0.27
100
AcDbLine
 10
1534.525056286923
 20
729.1179883541708
 30
0.0
 11
1534.715690267031
 21
729.06892436641
 31
0.0
  0
LINE
  5
DDF0
330
1E
100
AcDbEntity
  8
0
 48
0.27
100
AcDbLine
 10
1533.095471110543
 20
733.4251408746677
 30
0.0
 11
1533.235554112891
 21
733.5361828167361
 31
0.0
  0
LINE
  5
DDF1
330
1E
100
AcDbEntity
  8
0
 48
0.27
100
AcDbLine
 10
1533.286309501634
 20
733.5696461023453
 30
0.0
 11
1533.84026468927
 21
733.9348684659171
 31
0.0
  0
LINE
  5
DDF2
330
1E
100
AcDbEntity
  8
0
 48
0.27
100
AcDbLine
 10
1534.166301594731
 20
729.1453353416291
 30
0.0
 11
1534.354852720144
 21
729.0968084337055
 31
0.0
  0
LINE
  5
DDF3
330
1E
100
AcDbEntity
  8
0
 48
0.27
100
AcDbLine
 10
1533.84026468927
 20
729.3098367762004
 30
0.0
 11
1534.166301594731
 21
729.1453353416291
 31
0.0
  0
LINE
  5
DDF4
330
1E
100
AcDbEntity
  8
0
 48
0.27
100
AcDbLine
 10
1533.095471110543
 20
729.8195643674498
 30
0.0
 11
1533.235554112891
 21
729.708522425381
 31
0.0
  0
LINE
  5
DDF5
330
1E
100
AcDbEntity
  8
0
 48
0.27
100
AcDbLine
 10
1534.354852720144
 20
734.1478981443315
 30
0.0
 11
1534.715690267031
 21
734.1757808757074
 31
0.0
  0
LINE
  5
DDF6
330
1E
100
AcDbEntity
  8
0
 48
0.27
100
AcDbLine
 10
1534.715690267031
 20
734.1757808757074
 30
0.0
 11
1534.906322911119
 21
734.1267182239653
 31
0.0
  0
LINE
  5
DDF7
330
1E
100
AcDbEntity
  8
0
 48
0.27
100
AcDbLine
 10
1536.156815981615
 20
733.3796160031506
 30
0.0
 11
1536.285438607028
 21
733.2776576591331
 31
0.0
  0
LINE
  5
DDF8
330
1E
100
AcDbEntity
  8
0
 48
0.27
100
AcDbLine
 10
1534.906322911119
 20
734.1267182239653
 30
0.0
 11
1536.156815981615
 21
733.3796160031506
 31
0.0
  0
LINE
  5
DDF9
330
1E
100
AcDbEntity
  8
0
 48
0.27
100
AcDbLine
 10
1536.023052352382
 20
729.8306626831008
 30
0.0
 11
1536.156815981615
 21
729.8650892389669
 31
0.0
  0
LINE
  5
DDFA
330
1E
100
AcDbEntity
  8
0
 48
0.27
100
AcDbLine
 10
1533.286309501634
 20
729.6750591397713
 30
0.0
 11
1533.84026468927
 21
729.3098367762004
 31
0.0
  0
LINE
  5
DDFB
330
1E
100
AcDbEntity
  8
0
 48
0.27
100
AcDbLine
 10
1534.354852720144
 20
729.0968084337055
 30
0.0
 11
1534.715690267031
 21
729.06892436641
 31
0.0
  0
LINE
  5
DDFC
330
1E
100
AcDbEntity
  8
0
 48
0.27
100
AcDbLine
 10
1534.715690267031
 20
729.06892436641
 30
0.0
 11
1534.906322911119
 21
729.1179883541708
 31
0.0
  0
LINE
  5
DDFD
330
1E
100
AcDbEntity
  8
0
 48
0.27
100
AcDbLine
 10
1536.403978291607
 20
733.112088744785
 30
0.0
 11
1536.285438607028
 21
733.2776576591331
 31
0.0
  0
LINE
  5
DDFE
330
1E
100
AcDbEntity
  8
0
 48
0.27
100
AcDbLine
 10
1536.156815981615
 20
729.8650892389669
 30
0.0
 11
1536.285438607028
 21
729.9670475829834
 31
0.0
  0
LINE
  5
DDFF
330
1E
100
AcDbEntity
  8
0
 48
0.27
100
AcDbLine
 10
1534.906322911119
 20
729.1179883541708
 30
0.0
 11
1536.156815981615
 21
729.8650892389669
 31
0.0
  0
LINE
  5
DE00
330
1E
100
AcDbEntity
  8
0
 48
0.27
100
AcDbLine
 10
1533.071382675135
 20
733.5605197517707
 30
0.0
 11
1533.286309501634
 21
733.5696461023453
 31
0.0
  0
LINE
  5
DE01
330
1E
100
AcDbEntity
  8
0
 48
0.27
100
AcDbLine
 10
1533.071382675135
 20
729.6841868263664
 30
0.0
 11
1533.286309501634
 21
729.6750591397713
 31
0.0
  0
LINE
  5
DE02
330
1E
100
AcDbEntity
  8
0
 48
0.27
100
AcDbLine
 10
1536.50787920827
 20
732.8892687138059
 30
0.0
 11
1536.403978291607
 21
733.112088744785
 31
0.0
  0
LINE
  5
DE03
330
1E
100
AcDbEntity
  8
0
 48
0.27
100
AcDbLine
 10
1536.285438607028
 20
729.9670475829834
 30
0.0
 11
1536.403978291607
 21
730.1326164973316
 31
0.0
  0
LINE
  5
DE04
330
1E
100
AcDbEntity
  8
0
 48
0.27
100
AcDbLine
 10
1532.830256502226
 20
733.6589229473092
 30
0.0
 11
1533.071382675135
 21
733.5605197517707
 31
0.0
  0
LINE
  5
DE05
330
1E
100
AcDbEntity
  8
0
 48
0.27
100
AcDbLine
 10
1532.830256502226
 20
729.5857822948078
 30
0.0
 11
1533.071382675135
 21
729.6841868263664
 31
0.0
  0
LINE
  5
DE06
330
1E
100
AcDbEntity
  8
0
 48
0.27
100
AcDbLine
 10
1536.593149330167
 20
732.6177627887828
 30
0.0
 11
1536.50787920827
 21
732.8892687138059
 31
0.0
  0
LINE
  5
DE07
330
1E
100
AcDbEntity
  8
0
 48
0.27
100
AcDbLine
 10
1536.403978291607
 20
730.1326164973316
 30
0.0
 11
1536.50787920827
 21
730.3554365283107
 31
0.0
  0
LINE
  5
DE08
330
1E
100
AcDbEntity
  8
0
 48
0.27
100
AcDbLine
 10
1536.656510064851
 20
732.3080026113379
 30
0.0
 11
1536.593149330167
 21
732.6177627887828
 31
0.0
  0
LINE
  5
DE09
330
1E
100
AcDbEntity
  8
0
 48
0.27
100
AcDbLine
 10
1535.748513662604
 20
729.9840203773574
 30
0.0
 11
1535.750412146607
 21
729.9849489110074
 31
0.0
  0
LINE
  5
DE0A
330
1E
100
AcDbEntity
  8
0
 48
0.27
100
AcDbLine
 10
1536.50787920827
 20
730.3554365283107
 30
0.0
 11
1536.593149330167
 21
730.6269437893538
 31
0.0
  0
LINE
  5
DE0B
330
1E
100
AcDbEntity
  8
0
 48
0.27
100
AcDbLine
 10
1536.695527184405
 20
731.9718947893179
 30
0.0
 11
1536.656510064851
 21
732.3080026113379
 31
0.0
  0
LINE
  5
DE0C
330
1E
100
AcDbEntity
  8
0
 48
0.27
100
AcDbLine
 10
1536.593149330167
 20
730.6269437893538
 30
0.0
 11
1536.656510064851
 21
730.9367026307791
 31
0.0
  0
LINE
  5
DE0D
330
1E
100
AcDbEntity
  8
0
 48
0.27
100
AcDbLine
 10
1536.708701674753
 20
731.622353289068
 30
0.0
 11
1536.695527184405
 21
731.9718947893179
 31
0.0
  0
LINE
  5
DE0E
330
1E
100
AcDbEntity
  8
0
 48
0.27
100
AcDbLine
 10
1536.656510064851
 20
730.9367026307791
 30
0.0
 11
1536.695527184405
 21
731.2728117888187
 31
0.0
  0
LINE
  5
DE0F
330
1E
100
AcDbEntity
  8
0
 48
0.27
100
AcDbLine
 10
1536.695527184405
 20
731.2728117888187
 30
0.0
 11
1536.708701674753
 21
731.622353289068
 31
0.0
  0
LWPOLYLINE
  5
DE10
330
1E
100
AcDbEntity
  8
0
 48
0.27
100
AcDbPolyline
 90
       17
 70
     0
 43
0.0
 10
1535.903461220261
 20
731.622353289068
 10
1535.937010011218
 20
731.4053128794276
 10
1535.969901480384
 20
731.3424077274903
 10
1536.006472347841
 20
731.3128656597009
 10
1536.040450001056
 20
731.3131729441847
 10
1536.076943379382
 20
731.3433776777446
 10
1536.108287737772
 20
731.4031485274445
 10
1536.1376748273
 20
731.5332234062493
 10
1536.142642148585
 20
731.622353289068
 10
1536.109094693647
 20
731.8393923626895
 10
1536.076201888462
 20
731.9022975146268
 10
1536.039631021005
 20
731.9318395824166
 10
1536.005654703809
 20
731.9315322978322
 10
1535.969159989464
 20
731.9013275642728
 10
1535.937816967093
 20
731.8415567145725
 10
1535.908428541546
 20
731.7114818358677
 10
1535.903461220261
 20
731.622353289068
  0
LINE
  5
DE11
330
1E
100
AcDbEntity
  8
0
 48
0.27
100
AcDbLine
 10
1522.332774233656
 20
731.622353289068
 30
0.0
 11
1524.642208549047
 21
727.6222942506028
 31
0.0
  0
LINE
  5
DE12
330
1E
100
AcDbEntity
  8
0
 48
0.27
100
AcDbLine
 10
1524.642208549047
 20
735.6224109915138
 30
0.0
 11
1522.332774233656
 21
731.622353289068
 31
0.0
  0
ARC
  5
DE13
330
1E
100
AcDbEntity
  8
0
 48
0.27
100
AcDbCircle
 10
1526.951642864438
 20
731.622353289068
 30
0.0
 40
4.000057702445608
100
AcDbArc
 50
48.59037799889628
 51
311.4096220031896
  0
LINE
  5
DE14
330
1E
100
AcDbEntity
  8
0
 48
0.27
100
AcDbLine
 10
1529.261078515849
 20
727.6222942506028
 30
0.0
 11
1524.642208549047
 21
727.6222942506028
 31
0.0
  0
LINE
  5
DE15
330
1E
100
AcDbEntity
  8
0
 48
0.27
100
AcDbLine
 10
1524.642208549047
 20
735.6224109915138
 30
0.0
 11
1529.26107717983
 21
735.6224109915138
 31
0.0
  0
LINE
  5
DE16
330
1E
100
AcDbEntity
  8
虛線
 48
0.7
100
AcDbLine
 10
1533.951642864438
 20
722.422353288568
 30
0.0
 11
1534.182582972114
 21
722.8223532885676
 31
0.0
  0
LINE
  5
DE17
330
1E
100
AcDbEntity
  8
虛線
 48
0.7
100
AcDbLine
 10
1519.951642864438
 20
722.422353288568
 30
0.0
 11
1519.720702756762
 21
722.8223532885676
 31
0.0
  0
LINE
  5
DE18
330
1E
100
AcDbEntity
  8
虛線
 48
0.3
100
AcDbLine
 10
1522.451642864438
 20
710.522353288568
 30
0.0
 11
1531.451642864438
 21
710.522353288568
 31
0.0
  0
LINE
  5
DE19
330
1E
100
AcDbEntity
  8
虛線
 48
0.3
100
AcDbLine
 10
1522.151642864438
 20
710.8223532885676
 30
0.0
 11
1522.451642864438
 21
710.522353288568
 31
0.0
  0
LINE
  5
DE1A
330
1E
100
AcDbEntity
  8
虛線
 48
0.3
100
AcDbLine
 10
1531.751642864437
 20
710.8223532885676
 30
0.0
 11
1531.451642864438
 21
710.522353288568
 31
0.0
  0
LINE
  5
DE1B
330
1E
100
AcDbEntity
  8
虛線
 48
0.7
100
AcDbLine
 10
1531.451642864437
 20
693.1223532885678
 30
0.0
 11
1531.951643578723
 21
692.6223532885687
 31
0.0
  0
LINE
  5
DE1C
330
1E
100
AcDbEntity
  8
虛線
 48
0.7
100
AcDbLine
 10
1521.951642150151
 20
692.6223532885687
 30
0.0
 11
1522.451642864438
 21
693.1223532885678
 31
0.0
  0
LINE
  5
DE1D
330
1E
100
AcDbEntity
  8
虛線
 48
0.3
100
AcDbLine
 10
1531.451642864438
 20
693.1223532885678
 30
0.0
 11
1522.451642864438
 21
693.1223532885678
 31
0.0
  0
LINE
  5
DE1E
330
1E
100
AcDbEntity
  8
虛線
 48
0.3
100
AcDbLine
 10
1533.951642864438
 20
722.422353288568
 30
0.0
 11
1519.951642864438
 21
722.422353288568
 31
0.0
  0
LINE
  5
DE1F
330
1E
100
AcDbEntity
  8
0
  6
ByBlock
100
AcDbLine
 10
1537.451642864438
 20
693.1223532885674
 30
0.0
 11
1533.451642864438
 21
693.1223532885678
 31
0.0
  0
LINE
  5
DE20
330
1E
100
AcDbEntity
  8
0
  6
ByBlock
100
AcDbLine
 10
1537.951642864437
 20
692.6223532885678
 30
0.0
 11
1537.451642864438
 21
693.1223532885674
 31
0.0
  0
LINE
  5
DE21
330
1E
100
AcDbEntity
  8
0
  6
ByBlock
100
AcDbLine
 10
1533.451642864438
 20
693.1223532885678
 30
0.0
 11
1532.951642864438
 21
692.6223532885687
 31
0.0
  0
LINE
  5
DE22
330
1E
100
AcDbEntity
  8
0
  6
ByBlock
100
AcDbLine
 10
1537.951642864437
 20
692.6223532885678
 30
0.0
 11
1542.451642864438
 21
692.6223532885683
 31
0.0
  0
LINE
  5
DE23
330
1E
100
AcDbEntity
  8
0
  6
ByBlock
100
AcDbLine
 10
1516.451642864437
 20
693.1223532885683
 30
0.0
 11
1520.451642864438
 21
693.1223532885683
 31
0.0
  0
LINE
  5
DE24
330
1E
100
AcDbEntity
  8
0
  6
ByBlock
100
AcDbLine
 10
1509.951642864438
 20
694.1223532885683
 30
0.0
 11
1511.451642864438
 21
692.6223532885683
 31
0.0
  0
LINE
  5
DE25
330
1E
100
AcDbEntity
  8
0
  6
ByBlock
100
AcDbLine
 10
1511.451642864438
 20
692.6223532885683
 30
0.0
 11
1515.951642864437
 21
692.6223532885683
 31
0.0
  0
LINE
  5
DE26
330
1E
100
AcDbEntity
  8
0
  6
ByBlock
100
AcDbLine
 10
1515.951642864437
 20
692.6223532885683
 30
0.0
 11
1516.451642864437
 21
693.1223532885683
 31
0.0
  0
LINE
  5
DE27
330
1E
100
AcDbEntity
  8
0
  6
ByBlock
100
AcDbLine
 10
1520.951642864437
 20
692.6223532885683
 30
0.0
 11
1532.951642864438
 21
692.6223532885687
 31
0.0
  0
LINE
  5
DE28
330
1E
100
AcDbEntity
  8
0
  6
ByBlock
100
AcDbLine
 10
1520.451642864438
 20
693.1223532885683
 30
0.0
 11
1520.951642864437
 21
692.6223532885683
 31
0.0
  0
LINE
  5
DE29
330
1E
100
AcDbEntity
  8
0
  6
ByBlock
100
AcDbLine
 10
1542.451642864438
 20
692.6223532885683
 30
0.0
 11
1543.951642864438
 21
694.1223532885683
 31
0.0
  0
LINE
  5
DE2A
330
1E
100
AcDbEntity
  8
虛線
 48
0.3
100
AcDbLine
 10
1519.951642864438
 20
710.8223532885681
 30
0.0
 11
1533.951642864438
 21
710.8223532885681
 31
0.0
  0
LINE
  5
DE2B
330
1E
100
AcDbEntity
  8
虛線
 48
0.3
100
AcDbLine
 10
1522.451642864438
 20
710.5223532885674
 30
0.0
 11
1522.451642864438
 21
693.1223532885678
 31
0.0
  0
LINE
  5
DE2C
330
1E
100
AcDbEntity
  8
虛線
 48
0.3
100
AcDbLine
 10
1531.451642864437
 20
710.5223532885684
 30
0.0
 11
1531.451642864438
 21
693.1223532885678
 31
0.0
  0
LINE
  5
DE2D
330
1E
100
AcDbEntity
  8
虛線
 48
0.3
100
AcDbLine
 10
1519.951642864438
 20
722.422353288568
 30
0.0
 11
1519.951642864438
 21
710.8223532885681
 31
0.0
  0
LINE
  5
DE2E
330
1E
100
AcDbEntity
  8
虛線
 48
0.3
100
AcDbLine
 10
1533.951642864438
 20
722.4223532885671
 30
0.0
 11
1533.951642864438
 21
710.8223532885681
 31
0.0
  0
LINE
  5
DE2F
330
1E
100
AcDbEntity
  8
0
  6
ByBlock
100
AcDbLine
 10
1544.451642867938
 20
699.7223532890679
 30
0.0
 11
1545.982364685938
 21
699.7223532890679
 31
0.0
  0
LINE
  5
DE30
330
1E
100
AcDbEntity
  8
0
  6
ByBlock
100
AcDbLine
 10
1545.982364685938
 20
699.7223532890679
 30
0.0
 11
1545.982364685938
 21
701.7735058074682
 31
0.0
  0
LINE
  5
DE31
330
1E
100
AcDbEntity
  8
0
  6
ByBlock
100
AcDbLine
 10
1545.982364685938
 20
722.663505807468
 30
0.0
 11
1543.392795386338
 21
725.253075107068
 31
0.0
  0
LINE
  5
DE32
330
1E
100
AcDbEntity
  8
0
  6
ByBlock
100
AcDbLine
 10
1545.982364685938
 20
719.3812007706683
 30
0.0
 11
1545.982364685938
 21
722.663505807468
 31
0.0
  0
LINE
  5
DE33
330
1E
100
AcDbEntity
  8
0
  6
ByBlock
100
AcDbLine
 10
1539.982364685937
 20
707.7735058074681
 30
0.0
 11
1539.982364685937
 21
713.3812007706683
 31
0.0
  0
LINE
  5
DE34
330
1E
100
AcDbEntity
  8
0
  6
ByBlock
100
AcDbLine
 10
1545.982364685938
 20
701.7735058074682
 30
0.0
 11
1539.982364685937
 21
707.7735058074681
 31
0.0
  0
LINE
  5
DE35
330
1E
100
AcDbEntity
  8
0
  6
ByBlock
100
AcDbLine
 10
1539.982364685937
 20
713.3812007706683
 30
0.0
 11
1545.982364685938
 21
719.3812007706683
 31
0.0
  0
LINE
  5
DE36
330
1E
100
AcDbEntity
  8
0
  6
ByBlock
100
AcDbLine
 10
1513.920921049937
 20
707.7735058074681
 30
0.0
 11
1513.920921049937
 21
713.3812007706683
 31
0.0
  0
LINE
  5
DE37
330
1E
100
AcDbEntity
  8
0
  6
ByBlock
100
AcDbLine
 10
1507.920921049937
 20
699.7223532890679
 30
0.0
 11
1509.451642867938
 21
699.7223532890679
 31
0.0
  0
LINE
  5
DE38
330
1E
100
AcDbEntity
  8
0
  6
ByBlock
100
AcDbLine
 10
1507.920921049937
 20
699.7223532890679
 30
0.0
 11
1507.920921049937
 21
701.7735058074682
 31
0.0
  0
LINE
  5
DE39
330
1E
100
AcDbEntity
  8
0
  6
ByBlock
100
AcDbLine
 10
1507.920921049937
 20
719.3812007706683
 30
0.0
 11
1507.920921049937
 21
722.663505807468
 31
0.0
  0
LINE
  5
DE3A
330
1E
100
AcDbEntity
  8
0
  6
ByBlock
100
AcDbLine
 10
1507.920921049937
 20
722.663505807468
 30
0.0
 11
1510.510490349537
 21
725.253075107068
 31
0.0
  0
LINE
  5
DE3B
330
1E
100
AcDbEntity
  8
0
  6
ByBlock
100
AcDbLine
 10
1507.920921049937
 20
701.7735058074682
 30
0.0
 11
1513.920921049937
 21
707.7735058074681
 31
0.0
  0
LINE
  5
DE3C
330
1E
100
AcDbEntity
  8
0
  6
ByBlock
100
AcDbLine
 10
1513.920921049937
 20
713.3812007706683
 30
0.0
 11
1507.920921049937
 21
719.3812007706683
 31
0.0
  0
LINE
  5
DE3D
330
1E
100
AcDbEntity
  8
0
  6
ByBlock
100
AcDbLine
 10
1510.510490349537
 20
725.253075107068
 30
0.0
 11
1543.392795386338
 21
725.253075107068
 31
0.0
  0
LINE
  5
DE3E
330
1E
100
AcDbEntity
  8
指線
 48
0.27
100
AcDbLine
 10
1552.090982696057
 20
722.0545863354227
 30
0.0
 11
1551.38387591487
 21
722.7616931166089
 31
0.0
  0
LINE
  5
DE3F
330
1E
100
AcDbEntity
  8
指線
 48
0.27
100
AcDbLine
 10
1551.38387591487
 20
724.8830134601685
 30
0.0
 11
1552.090982696057
 21
725.5901202413552
 31
0.0
  0
LINE
  5
DE40
330
1E
100
AcDbEntity
  8
指線
 48
0.27
100
AcDbLine
 10
1554.919409820803
 20
724.8830134601685
 30
0.0
 11
1553.858749649023
 21
723.8223532883885
 31
0.0
  0
LINE
  5
DE41
330
1E
100
AcDbEntity
  8
指線
 48
0.27
100
AcDbLine
 10
1554.212303039616
 20
725.5901202413552
 30
0.0
 11
1553.151642867837
 21
724.5294600695752
 31
0.0
  0
LINE
  5
DE42
330
1E
100
AcDbEntity
  8
指線
 48
0.27
100
AcDbLine
 10
1554.212303039616
 20
725.5901202413552
 30
0.0
 11
1554.919409820803
 21
724.8830134601685
 31
0.0
  0
LINE
  5
DE43
330
1E
100
AcDbEntity
  8
指線
 48
0.27
100
AcDbLine
 10
1552.44453608665
 20
723.8223532883885
 30
0.0
 11
1551.38387591487
 21
724.8830134601685
 31
0.0
  0
LINE
  5
DE44
330
1E
100
AcDbEntity
  8
指線
 48
0.27
100
AcDbLine
 10
1552.090982696057
 20
725.5901202413552
 30
0.0
 11
1553.151642867837
 21
724.5294600695752
 31
0.0
  0
LINE
  5
DE45
330
1E
100
AcDbEntity
  8
指線
 48
0.27
100
AcDbLine
 10
1553.151642867837
 20
723.1152465072023
 30
0.0
 11
1552.090982696057
 21
722.0545863354227
 31
0.0
  0
LINE
  5
DE46
330
1E
100
AcDbEntity
  8
指線
 48
0.27
100
AcDbLine
 10
1552.44453608665
 20
723.8223532883885
 30
0.0
 11
1551.38387591487
 21
722.7616931166089
 31
0.0
  0
LINE
  5
DE47
330
1E
100
AcDbEntity
  8
指線
 48
0.27
100
AcDbLine
 10
1554.919409820803
 20
722.7616931166094
 30
0.0
 11
1554.212303039616
 21
722.0545863354227
 31
0.0
  0
CIRCLE
  5
DE48
330
1E
100
AcDbEntity
  8
指線
 48
0.27
100
AcDbCircle
 10
1553.151642867837
 20
723.8223532883885
 30
0.0
 40
3.5
  0
LINE
  5
DE49
330
1E
100
AcDbEntity
  8
指線
 48
0.27
100
AcDbLine
 10
1554.919409820803
 20
722.7616931166094
 30
0.0
 11
1553.858749649023
 21
723.8223532883885
 31
0.0
  0
LINE
  5
DE4A
330
1E
100
AcDbEntity
  8
指線
 48
0.27
100
AcDbLine
 10
1554.212303039616
 20
722.0545863354227
 30
0.0
 11
1553.151642867837
 21
723.1152465072023
 31
0.0
  0
LINE
  5
DE4B
330
1E
100
AcDbEntity
  8
指線
 48
0.27
100
AcDbLine
 10
1500.751642867432
 20
724.5294600695752
 30
0.0
 11
1501.812303039212
 21
725.5901202413552
 31
0.0
  0
LINE
  5
DE4C
330
1E
100
AcDbEntity
  8
指線
 48
0.27
100
AcDbLine
 10
1501.458749648619
 20
723.8223532883885
 30
0.0
 11
1502.519409820399
 21
724.8830134601685
 31
0.0
  0
LINE
  5
DE4D
330
1E
100
AcDbEntity
  8
指線
 48
0.27
100
AcDbLine
 10
1498.983875914467
 20
724.8830134601685
 30
0.0
 11
1500.044536086246
 21
723.8223532883885
 31
0.0
  0
LINE
  5
DE4E
330
1E
100
AcDbEntity
  8
指線
 48
0.27
100
AcDbLine
 10
1500.751642867432
 20
724.5294600695752
 30
0.0
 11
1499.690982695653
 21
725.5901202413552
 31
0.0
  0
LINE
  5
DE4F
330
1E
100
AcDbEntity
  8
指線
 48
0.27
100
AcDbLine
 10
1498.983875914467
 20
722.7616931166084
 30
0.0
 11
1499.690982695652
 21
722.0545863354223
 31
0.0
  0
LINE
  5
DE50
330
1E
100
AcDbEntity
  8
指線
 48
0.27
100
AcDbLine
 10
1501.812303039212
 20
722.0545863354223
 30
0.0
 11
1502.519409820399
 21
722.7616931166084
 31
0.0
  0
LINE
  5
DE51
330
1E
100
AcDbEntity
  8
指線
 48
0.27
100
AcDbLine
 10
1502.519409820399
 20
722.7616931166084
 30
0.0
 11
1501.458749648619
 21
723.8223532883885
 31
0.0
  0
LINE
  5
DE52
330
1E
100
AcDbEntity
  8
指線
 48
0.27
100
AcDbLine
 10
1498.983875914467
 20
722.7616931166084
 30
0.0
 11
1500.044536086246
 21
723.8223532883885
 31
0.0
  0
LINE
  5
DE53
330
1E
100
AcDbEntity
  8
指線
 48
0.27
100
AcDbLine
 10
1499.690982695652
 20
722.0545863354223
 30
0.0
 11
1500.751642867432
 21
723.1152465072018
 31
0.0
  0
LINE
  5
DE54
330
1E
100
AcDbEntity
  8
指線
 48
0.27
100
AcDbLine
 10
1501.812303039212
 20
722.0545863354223
 30
0.0
 11
1500.751642867432
 21
723.1152465072018
 31
0.0
  0
LINE
  5
DE55
330
1E
100
AcDbEntity
  8
指線
 48
0.27
100
AcDbLine
 10
1499.690982695653
 20
725.5901202413552
 30
0.0
 11
1498.983875914467
 21
724.8830134601685
 31
0.0
  0
LINE
  5
DE56
330
1E
100
AcDbEntity
  8
指線
 48
0.27
100
AcDbLine
 10
1502.519409820399
 20
724.8830134601685
 30
0.0
 11
1501.812303039212
 21
725.5901202413552
 31
0.0
  0
CIRCLE
  5
DE57
330
1E
100
AcDbEntity
  8
指線
 48
0.27
100
AcDbCircle
 10
1500.751642867432
 20
723.8223532883885
 30
0.0
 40
3.5
  0
LINE
  5
DE58
330
1E
100
AcDbEntity
  8
0
  6
ByBlock
100
AcDbLine
 10
1542.951642864438
 20
722.8223532885685
 30
0.0
 11
1510.951642864438
 21
722.8223532885685
 31
0.0
  0
LINE
  5
DE59
330
1E
100
AcDbEntity
  8
0
  6
ByBlock
100
AcDbLine
 10
1542.758749649138
 20
723.7223532890684
 30
0.0
 11
1511.144536086738
 21
723.7223532890684
 31
0.0
  0
LINE
  5
DE5A
330
1E
100
AcDbEntity
  8
0
  6
ByBlock
100
AcDbLine
 10
1559.951642867938
 20
739.8223532890683
 30
0.0
 11
1493.951642867938
 21
739.8223532890683
 31
0.0
  0
LINE
  5
DE5B
330
1E
100
AcDbEntity
  8
0
  6
ByBlock
100
AcDbLine
 10
1543.951642864438
 20
747.1223532885683
 30
0.0
 11
1534.351642864438
 21
747.1223532885683
 31
0.0
  0
LINE
  5
DE5C
330
1E
100
AcDbEntity
  8
0
  6
ByBlock
100
AcDbLine
 10
1493.451642864374
 20
699.1223532885839
 30
0.0
 11
1509.951642864438
 21
699.1223532890935
 31
0.0
  0
LINE
  5
DE5D
330
1E
100
AcDbEntity
  8
0
  6
ByBlock
100
AcDbLine
 10
1509.451642864438
 20
747.6223532885683
 30
0.0
 11
1493.451642864438
 21
747.6223532885683
 31
0.0
  0
LINE
  5
DE5E
330
1E
100
AcDbEntity
  8
0
  6
ByBlock
100
AcDbLine
 10
1492.451642864464
 20
700.1223532885529
 30
0.0
 11
1492.451642867647
 21
735.1223532853594
 31
0.0
  0
LINE
  5
DE5F
330
1E
100
AcDbEntity
  8
0
  6
ByBlock
100
AcDbLine
 10
1492.451642867938
 20
700.2223532890684
 30
0.0
 11
1492.451642867938
 21
738.3223532890683
 31
0.0
  0
LINE
  5
DE60
330
1E
100
AcDbEntity
  8
0
  6
ByBlock
100
AcDbLine
 10
1493.451642864438
 20
747.6223532885683
 30
0.0
 11
1491.951642864438
 21
746.1223532885683
 31
0.0
  0
LINE
  5
DE61
330
1E
100
AcDbEntity
  8
0
  6
ByBlock
100
AcDbLine
 10
1493.951642867938
 20
739.8223532890683
 30
0.0
 11
1492.451642867938
 21
738.3223532890683
 31
0.0
  0
LINE
  5
DE62
330
1E
100
AcDbEntity
  8
0
  6
ByBlock
100
AcDbLine
 10
1491.951642864439
 20
735.6223532885685
 30
0.0
 11
1491.951642864438
 21
746.1223532885683
 31
0.0
  0
LINE
  5
DE63
330
1E
100
AcDbEntity
  8
0
  6
ByBlock
100
AcDbLine
 10
1491.951642864439
 20
735.6223532885685
 30
0.0
 11
1492.451642867647
 21
735.1223532853594
 31
0.0
  0
LINE
  5
DE64
330
1E
100
AcDbEntity
  8
0
  6
ByBlock
100
AcDbLine
 10
1509.451642867938
 20
701.1394600702683
 30
0.0
 11
1515.451642867938
 21
707.1394600702683
 31
0.0
  0
LINE
  5
DE65
330
1E
100
AcDbEntity
  8
0
  6
ByBlock
100
AcDbLine
 10
1515.951642864438
 20
706.9323532824569
 30
0.0
 11
1509.951642864438
 21
700.9323532900671
 31
0.0
  0
LINE
  5
DE66
330
1E
100
AcDbEntity
  8
0
  6
ByBlock
100
AcDbLine
 10
1509.951642864438
 20
700.9323532900671
 30
0.0
 11
1509.951642864438
 21
694.1223532885683
 31
0.0
  0
LINE
  5
DE67
330
1E
100
AcDbEntity
  8
0
  6
ByBlock
100
AcDbLine
 10
1509.451642867938
 20
699.7223532890679
 30
0.0
 11
1509.451642867938
 21
701.1394600702683
 31
0.0
  0
LINE
  5
DE68
330
1E
100
AcDbEntity
  8
0
  6
ByBlock
100
AcDbLine
 10
1509.451642867938
 20
722.0294600702682
 30
0.0
 11
1511.144536086738
 21
723.7223532890684
 31
0.0
  0
LINE
  5
DE69
330
1E
100
AcDbEntity
  8
0
  6
ByBlock
100
AcDbLine
 10
1510.951642864438
 20
722.8223532885685
 30
0.0
 11
1509.951642864438
 21
721.8223532885685
 31
0.0
  0
LINE
  5
DE6A
330
1E
100
AcDbEntity
  8
0
  6
ByBlock
100
AcDbLine
 10
1515.451642867938
 20
714.0152465078681
 30
0.0
 11
1509.451642867938
 21
720.0152465078681
 31
0.0
  0
LINE
  5
DE6B
330
1E
100
AcDbEntity
  8
0
  6
ByBlock
100
AcDbLine
 10
1509.451642867938
 20
720.0152465078681
 30
0.0
 11
1509.451642867938
 21
722.0294600702682
 31
0.0
  0
LINE
  5
DE6C
330
1E
100
AcDbEntity
  8
0
  6
ByBlock
100
AcDbLine
 10
1509.951642864438
 20
721.8223532885685
 30
0.0
 11
1509.951642864438
 21
720.2223532889851
 31
0.0
  0
LINE
  5
DE6D
330
1E
100
AcDbEntity
  8
0
  6
ByBlock
100
AcDbLine
 10
1509.951642864438
 20
720.2223532889851
 30
0.0
 11
1515.951642864438
 21
714.2223532879521
 31
0.0
  0
LINE
  5
DE6E
330
1E
100
AcDbEntity
  8
0
  6
ByBlock
100
AcDbLine
 10
1515.451642867938
 20
707.1394600702683
 30
0.0
 11
1515.451642867938
 21
714.0152465078681
 31
0.0
  0
LINE
  5
DE6F
330
1E
100
AcDbEntity
  8
0
  6
ByBlock
100
AcDbLine
 10
1515.951642864438
 20
714.2223532879521
 30
0.0
 11
1515.951642864438
 21
706.9323532824569
 31
0.0
  0
LINE
  5
DE72
330
1E
100
AcDbEntity
  8
0
  6
ByBlock
100
AcDbLine
 10
1519.551642864438
 20
747.1223532885683
 30
0.0
 11
1509.951642864438
 21
747.1223532885683
 31
0.0
  0
LINE
  5
DE73
330
1E
100
AcDbEntity
  8
0
  6
ByBlock
100
AcDbLine
 10
1509.451642864438
 20
747.6223532885683
 30
0.0
 11
1509.951642864438
 21
747.1223532885683
 31
0.0
  0
LINE
  5
DE74
330
1E
100
AcDbEntity
  8
0
  6
ByBlock
100
AcDbLine
 10
1533.851642864438
 20
747.6223532885683
 30
0.0
 11
1520.051642864437
 21
747.6223532885683
 31
0.0
  0
LINE
  5
DE75
330
1E
100
AcDbEntity
  8
0
  6
ByBlock
100
AcDbLine
 10
1520.051642864437
 20
747.6223532885683
 30
0.0
 11
1519.551642864438
 21
747.1223532885683
 31
0.0
  0
LINE
  5
DE76
330
1E
100
AcDbEntity
  8
0
  6
ByBlock
100
AcDbLine
 10
1533.851642864438
 20
747.6223532885683
 30
0.0
 11
1534.351642864438
 21
747.1223532885683
 31
0.0
  0
LINE
  5
DE77
330
1E
100
AcDbEntity
  8
0
  6
ByBlock
100
AcDbLine
 10
1561.451642867938
 20
700.1223532890681
 30
0.0
 11
1561.451642867938
 21
738.3223532890683
 31
0.0
  0
LINE
  5
DE78
330
1E
100
AcDbEntity
  8
0
  6
ByBlock
100
AcDbLine
 10
1561.951642864438
 20
700.6223532885684
 30
0.0
 11
1561.951642864438
 21
746.1223532885683
 31
0.0
  0
LINE
  5
DE79
330
1E
100
AcDbEntity
  8
0
  6
ByBlock
100
AcDbLine
 10
1543.951642864438
 20
699.1223532885688
 30
0.0
 11
1560.451642864438
 21
699.1223532885684
 31
0.0
  0
LINE
  5
DE7A
330
1E
100
AcDbEntity
  8
0
  6
ByBlock
100
AcDbLine
 10
1543.951642864438
 20
700.9323532899652
 30
0.0
 11
1537.951642864438
 21
706.9323532823569
 31
0.0
  0
LINE
  5
DE7B
330
1E
100
AcDbEntity
  8
0
  6
ByBlock
100
AcDbLine
 10
1544.451642867938
 20
701.1394600702683
 30
0.0
 11
1538.451642867938
 21
707.1394600702683
 31
0.0
  0
LINE
  5
DE7C
330
1E
100
AcDbEntity
  8
0
  6
ByBlock
100
AcDbLine
 10
1543.951642864438
 20
694.1223532885683
 30
0.0
 11
1543.951642864438
 21
700.9323532899652
 31
0.0
  0
LINE
  5
DE7D
330
1E
100
AcDbEntity
  8
0
  6
ByBlock
100
AcDbLine
 10
1544.451642867938
 20
699.7223532890679
 30
0.0
 11
1544.451642867938
 21
701.1394600702683
 31
0.0
  0
LINE
  5
DE7E
330
1E
100
AcDbEntity
  8
0
  6
ByBlock
100
AcDbLine
 10
1537.951642864438
 20
714.2223532880531
 30
0.0
 11
1543.951642864438
 21
720.2223532890859
 31
0.0
  0
LINE
  5
DE7F
330
1E
100
AcDbEntity
  8
0
  6
ByBlock
100
AcDbLine
 10
1538.451642867938
 20
714.0152465078681
 30
0.0
 11
1544.451642867938
 21
720.0152465078681
 31
0.0
  0
LINE
  5
DE80
330
1E
100
AcDbEntity
  8
0
  6
ByBlock
100
AcDbLine
 10
1537.951642864438
 20
706.9323532823569
 30
0.0
 11
1537.951642864438
 21
714.2223532880531
 31
0.0
  0
LINE
  5
DE81
330
1E
100
AcDbEntity
  8
0
  6
ByBlock
100
AcDbLine
 10
1538.451642867938
 20
707.1394600702683
 30
0.0
 11
1538.451642867938
 21
714.0152465078681
 31
0.0
  0
LINE
  5
DE84
330
1E
100
AcDbEntity
  8
0
  6
ByBlock
100
AcDbLine
 10
1543.951642864438
 20
721.8223532885685
 30
0.0
 11
1542.951642864438
 21
722.8223532885685
 31
0.0
  0
LINE
  5
DE85
330
1E
100
AcDbEntity
  8
0
  6
ByBlock
100
AcDbLine
 10
1544.451642867938
 20
722.0294600702682
 30
0.0
 11
1542.758749649138
 21
723.7223532890684
 31
0.0
  0
LINE
  5
DE86
330
1E
100
AcDbEntity
  8
0
  6
ByBlock
100
AcDbLine
 10
1543.951642864438
 20
720.2223532890859
 30
0.0
 11
1543.951642864438
 21
721.8223532885685
 31
0.0
  0
LINE
  5
DE87
330
1E
100
AcDbEntity
  8
0
  6
ByBlock
100
AcDbLine
 10
1544.451642867938
 20
720.0152465078681
 30
0.0
 11
1544.451642867938
 21
722.0294600702682
 31
0.0
  0
LINE
  5
DE88
330
1E
100
AcDbEntity
  8
0
  6
ByBlock
100
AcDbLine
 10
1560.451642864438
 20
747.6223532885683
 30
0.0
 11
1544.451642864438
 21
747.6223532885683
 31
0.0
  0
LINE
  5
DE89
330
1E
100
AcDbEntity
  8
0
  6
ByBlock
100
AcDbLine
 10
1544.451642864438
 20
747.6223532885683
 30
0.0
 11
1543.951642864438
 21
747.1223532885683
 31
0.0
  0
LINE
  5
DE8A
330
1E
100
AcDbEntity
  8
0
  6
ByBlock
100
AcDbLine
 10
1561.451642867938
 20
738.3223532890683
 30
0.0
 11
1559.951642867938
 21
739.8223532890683
 31
0.0
  0
LINE
  5
DE8B
330
1E
100
AcDbEntity
  8
0
  6
ByBlock
100
AcDbLine
 10
1560.451642864438
 20
747.6223532885683
 30
0.0
 11
1561.951642864438
 21
746.1223532885683
 31
0.0
  0
LINE
  5
DE8C
330
1E
100
AcDbEntity
  8
中心線
 48
0.27
100
AcDbLine
 10
1501.951642864438
 20
749.6879670624184
 30
0.0
 11
1501.951642864438
 21
728.7693269256997
 31
0.0
  0
LINE
  5
DE8D
330
1E
100
AcDbEntity
  8
中心線
 48
0.27
100
AcDbLine
 10
1551.951673382016
 20
749.6879670624184
 30
0.0
 11
1551.951673382016
 21
728.7693269256997
 31
0.0
  0
LINE
  5
DE8E
330
1E
100
AcDbEntity
  8
中心線
 48
0.27
100
AcDbLine
 10
1526.951642864438
 20
749.6879670624184
 30
0.0
 11
1526.951642864438
 21
690.814415064487
 31
0.0
  0
LINE
  5
DE8F
330
1E
100
AcDbEntity
  8
虛線
 48
0.25
100
AcDbLine
 10
1498.576642864438
 20
746.6223532885691
 30
0.0
 11
1498.576642864438
 21
731.6223532885693
 31
0.0
  0
LINE
  5
DE90
330
1E
100
AcDbEntity
  8
虛線
 48
0.25
100
AcDbLine
 10
1505.326642864438
 20
746.6223532885687
 30
0.0
 11
1505.326642864438
 21
731.6223532885692
 31
0.0
  0
LINE
  5
DE91
330
1E
100
AcDbEntity
  8
虛線
 48
0.25
100
AcDbLine
 10
1498.576642864438
 20
731.6223532885693
 30
0.0
 11
1501.951642864438
 21
729.6254195729334
 31
0.0
  0
LINE
  5
DE92
330
1E
100
AcDbEntity
  8
虛線
 48
0.25
100
AcDbLine
 10
1505.326642864438
 20
731.6223532885692
 30
0.0
 11
1501.951642864438
 21
729.6254195729334
 31
0.0
  0
LINE
  5
DE93
330
1E
100
AcDbEntity
  8
虛線
 48
0.25
100
AcDbLine
 10
1498.576642864438
 20
731.6223532885693
 30
0.0
 11
1505.326642864438
 21
731.6223532885692
 31
0.0
  0
LINE
  5
DE94
330
1E
100
AcDbEntity
  8
虛線
 48
0.25
100
AcDbLine
 10
1497.951612346859
 20
735.6223532885692
 30
0.0
 11
1505.95161234686
 21
735.6223532885692
 31
0.0
  0
LINE
  5
DE95
330
1E
100
AcDbEntity
  8
虛線
 48
0.25
100
AcDbLine
 10
1497.951612346859
 20
735.6223532885692
 30
0.0
 11
1497.951612346859
 21
747.2473838061482
 31
0.0
  0
LINE
  5
DE96
330
1E
100
AcDbEntity
  8
虛線
 48
0.25
100
AcDbLine
 10
1505.95161234686
 20
735.6223532885692
 30
0.0
 11
1505.95161234686
 21
747.2473227709904
 31
0.0
  0
LINE
  5
DE97
330
1E
100
AcDbEntity
  8
虛線
 48
0.25
100
AcDbLine
 10
1498.576642864438
 20
746.6223532885691
 30
0.0
 11
1505.326642864438
 21
746.6223532885687
 31
0.0
  0
LINE
  5
DE98
330
1E
100
AcDbEntity
  8
虛線
 48
0.25
100
AcDbLine
 10
1505.326642864439
 20
746.6223532885692
 30
0.0
 11
1506.326642864439
 21
747.6223532885692
 31
0.0
  0
LINE
  5
DE99
330
1E
100
AcDbEntity
  8
虛線
 48
0.25
100
AcDbLine
 10
1498.576642864438
 20
746.6223532885691
 30
0.0
 11
1497.576642864438
 21
747.6223532885691
 31
0.0
  0
LINE
  5
DE9A
330
1E
100
AcDbEntity
  8
虛線
 48
0.25
100
AcDbLine
 10
1523.576642864438
 20
746.622353288568
 30
0.0
 11
1523.576642864438
 21
731.6223532885683
 31
0.0
  0
LINE
  5
DE9B
330
1E
100
AcDbEntity
  8
虛線
 48
0.25
100
AcDbLine
 10
1530.326642864438
 20
746.6223532885678
 30
0.0
 11
1530.326642864438
 21
731.6223532885682
 31
0.0
  0
LINE
  5
DE9C
330
1E
100
AcDbEntity
  8
虛線
 48
0.25
100
AcDbLine
 10
1523.576642864438
 20
731.6223532885683
 30
0.0
 11
1526.951642864438
 21
729.6254195729324
 31
0.0
  0
LINE
  5
DE9D
330
1E
100
AcDbEntity
  8
虛線
 48
0.25
100
AcDbLine
 10
1530.326642864438
 20
731.6223532885682
 30
0.0
 11
1526.951642864438
 21
729.6254195729324
 31
0.0
  0
LINE
  5
DE9E
330
1E
100
AcDbEntity
  8
虛線
 48
0.25
100
AcDbLine
 10
1523.576642864438
 20
731.6223532885683
 30
0.0
 11
1530.326642864438
 21
731.6223532885682
 31
0.0
  0
LINE
  5
DE9F
330
1E
100
AcDbEntity
  8
虛線
 48
0.25
100
AcDbLine
 10
1522.951612346859
 20
735.6223532885682
 30
0.0
 11
1530.95161234686
 21
735.6223532885682
 31
0.0
  0
LINE
  5
DEA0
330
1E
100
AcDbEntity
  8
虛線
 48
0.25
100
AcDbLine
 10
1522.951612346859
 20
735.6223532885682
 30
0.0
 11
1522.951612346859
 21
747.2473838061472
 31
0.0
  0
LINE
  5
DEA1
330
1E
100
AcDbEntity
  8
虛線
 48
0.25
100
AcDbLine
 10
1530.95161234686
 20
735.6223532885682
 30
0.0
 11
1530.95161234686
 21
747.2473227709894
 31
0.0
  0
LINE
  5
DEA2
330
1E
100
AcDbEntity
  8
虛線
 48
0.25
100
AcDbLine
 10
1523.576642864438
 20
746.622353288568
 30
0.0
 11
1530.326642864438
 21
746.6223532885678
 31
0.0
  0
LINE
  5
DEA3
330
1E
100
AcDbEntity
  8
虛線
 48
0.25
100
AcDbLine
 10
1530.326642864438
 20
746.6223532885682
 30
0.0
 11
1531.326642864438
 21
747.6223532885682
 31
0.0
  0
LINE
  5
DEA4
330
1E
100
AcDbEntity
  8
虛線
 48
0.25
100
AcDbLine
 10
1523.576642864438
 20
746.622353288568
 30
0.0
 11
1522.576642864438
 21
747.6223532885681
 31
0.0
  0
LINE
  5
DEA5
330
1E
100
AcDbEntity
  8
虛線
 48
0.25
100
AcDbLine
 10
1548.576673382016
 20
746.622353288568
 30
0.0
 11
1548.576673382016
 21
731.6223532885683
 31
0.0
  0
LINE
  5
DEA6
330
1E
100
AcDbEntity
  8
虛線
 48
0.25
100
AcDbLine
 10
1555.326673382016
 20
746.6223532885678
 30
0.0
 11
1555.326673382016
 21
731.6223532885682
 31
0.0
  0
LINE
  5
DEA7
330
1E
100
AcDbEntity
  8
虛線
 48
0.25
100
AcDbLine
 10
1548.576673382016
 20
731.6223532885683
 30
0.0
 11
1551.951673382016
 21
729.6254195729324
 31
0.0
  0
LINE
  5
DEA8
330
1E
100
AcDbEntity
  8
虛線
 48
0.25
100
AcDbLine
 10
1555.326673382016
 20
731.6223532885682
 30
0.0
 11
1551.951673382016
 21
729.6254195729324
 31
0.0
  0
LINE
  5
DEA9
330
1E
100
AcDbEntity
  8
虛線
 48
0.25
100
AcDbLine
 10
1548.576673382016
 20
731.6223532885683
 30
0.0
 11
1555.326673382016
 21
731.6223532885682
 31
0.0
  0
LINE
  5
DEAA
330
1E
100
AcDbEntity
  8
虛線
 48
0.25
100
AcDbLine
 10
1547.951642864437
 20
735.6223532885682
 30
0.0
 11
1555.951642864438
 21
735.6223532885682
 31
0.0
  0
LINE
  5
DEAB
330
1E
100
AcDbEntity
  8
虛線
 48
0.25
100
AcDbLine
 10
1547.951642864437
 20
735.6223532885682
 30
0.0
 11
1547.951642864437
 21
747.2473838061472
 31
0.0
  0
LINE
  5
DEAC
330
1E
100
AcDbEntity
  8
虛線
 48
0.25
100
AcDbLine
 10
1555.951642864438
 20
735.6223532885682
 30
0.0
 11
1555.951642864438
 21
747.2473227709894
 31
0.0
  0
LINE
  5
DEAD
330
1E
100
AcDbEntity
  8
虛線
 48
0.25
100
AcDbLine
 10
1548.576673382016
 20
746.622353288568
 30
0.0
 11
1555.326673382016
 21
746.6223532885678
 31
0.0
  0
LINE
  5
DEAE
330
1E
100
AcDbEntity
  8
虛線
 48
0.25
100
AcDbLine
 10
1555.326673382017
 20
746.6223532885682
 30
0.0
 11
1556.326673382017
 21
747.6223532885682
 31
0.0
  0
LINE
  5
DEAF
330
1E
100
AcDbEntity
  8
虛線
 48
0.25
100
AcDbLine
 10
1548.576673382016
 20
746.622353288568
 30
0.0
 11
1547.576673382016
 21
747.6223532885681
 31
0.0
  0
LINE
  5
EAB7
330
1E
100
AcDbEntity
  8
0
100
AcDbLine
 10
1907.251267505983
 20
720.2223532890859
 30
0.0
 11
1829.251267505983
 21
720.2223532890859
 31
0.0
  0
LINE
  5
EAB8
330
1E
100
AcDbEntity
  8
0
100
AcDbLine
 10
1907.251267505983
 20
714.2223532880531
 30
0.0
 11
1829.251267505983
 21
714.2223532880531
 31
0.0
  0
LINE
  5
EAB9
330
1E
100
AcDbEntity
  8
0
100
AcDbLine
 10
1907.251267505983
 20
706.9323532823569
 30
0.0
 11
1829.251267505983
 21
706.9323532823569
 31
0.0
  0
LINE
  5
EABA
330
1E
100
AcDbEntity
  8
0
100
AcDbLine
 10
1907.251267505983
 20
700.9323532899652
 30
0.0
 11
1829.251267505983
 21
700.9323532899652
 31
0.0
  0
LINE
  5
EABC
330
1E
100
AcDbEntity
  8
0
100
AcDbLine
 10
1705.251267505983
 20
720.2223532890859
 30
0.0
 11
1660.506684833831
 21
720.2223532890859
 31
0.0
  0
LINE
  5
EABE
330
1E
100
AcDbEntity
  8
0
100
AcDbLine
 10
1705.251267505983
 20
714.2223532880531
 30
0.0
 11
1660.946554752468
 21
714.2223532880531
 31
0.0
  0
LINE
  5
EABF
330
1E
100
AcDbEntity
  8
0
100
AcDbLine
 10
1705.251267505983
 20
706.9323532823569
 30
0.0
 11
1660.436990645056
 21
706.9323532823569
 31
0.0
  0
LINE
  5
EAC0
330
1E
100
AcDbEntity
  8
0
100
AcDbLine
 10
1705.251267505983
 20
700.9323532899652
 30
0.0
 11
1660.906440449286
 21
700.9323532899652
 31
0.0
  0
ENDSEC
  0
SECTION
  2
OBJECTS
  0
DICTIONARY
  5
C
330
0
100
AcDbDictionary
281
     1
  3
ACAD_COLOR
350
3D97
  3
ACAD_GROUP
350
D
  3
ACAD_LAYOUT
350
19
  3
ACAD_MATERIAL
350
3D96
  3
ACAD_MLINESTYLE
350
16
  3
ACAD_PLOTSETTINGS
350
18
  3
ACAD_PLOTSTYLENAME
350
E
  3
ACAD_TABLESTYLE
350
E7A3
  3
ACDBHEADERROUNDTRIPXREC
350
EADC
  3
AcDbVariableDictionary
350
3E63
  0
DICTIONARY
  5
43C2
330
2
100
AcDbDictionary
280
     1
281
     1
  3
ACAD_LAYERSTATES
360
43C3
  0
DICTIONARY
  5
3D1E
330
1E
100
AcDbDictionary
280
     1
281
     1
  3
ACAD_LAYOUTSELFREF
360
3D92
  3
ACAD_SORTENTS
360
EABD
  0
DICTIONARY
  5
3D20
330
1A
100
AcDbDictionary
280
     1
281
     1
  3
ACAD_LAYOUTSELFREF
360
3D91
  0
DICTIONARY
  5
69B8
330
69B7
100
AcDbDictionary
280
     1
281
     1
  3
ACAD_SORTENTS
360
69B9
  0
DICTIONARY
  5
69CC
330
69CB
100
AcDbDictionary
280
     1
281
     1
  3
ACAD_SORTENTS
360
69CD
  0
DICTIONARY
  5
3D97
102
{ACAD_REACTORS
330
C
102
}
330
C
100
AcDbDictionary
281
     1
  0
DICTIONARY
  5
D
102
{ACAD_REACTORS
330
C
102
}
330
C
100
AcDbDictionary
281
     1
  3
*A1
350
4143
  3
*A10
350
437E
  3
*A11
350
4149
  3
*A12
350
4241
  3
*A13
350
4239
  3
*A14
350
4237
  3
*A15
350
423C
  3
*A16
350
43B6
  3
*A17
350
423B
  3
*A18
350
43B8
  3
*A19
350
576A
  3
*A2
350
4378
  3
*A20
350
4240
  3
*A21
350
423E
  3
*A22
350
4374
  3
*A23
350
43BB
  3
*A24
350
4373
  3
*A25
350
43BD
  3
*A26
350
4236
  3
*A27
350
4377
  3
*A28
350
4145
  3
*A29
350
437A
  3
*A3
350
43BF
  3
*A30
350
4379
  3
*A31
350
43C1
  3
*A32
350
423D
  3
*A33
350
437D
  3
*A34
350
414D
  3
*A35
350
4146
  3
*A36
350
437F
  3
*A37
350
414B
  3
*A38
350
4375
  3
*A39
350
43B7
  3
*A4
350
423A
  3
*A40
350
414E
  3
*A41
350
43B9
  3
*A42
350
57D9
  3
*A43
350
437B
  3
*A44
350
43BC
  3
*A45
350
4144
  3
*A46
350
43BE
  3
*A47
350
4238
  3
*A48
350
43B5
  3
*A49
350
43C0
  3
*A5
350
414C
  3
*A50
350
4148
  3
*A51
350
423F
  3
*A52
350
43BA
  3
*A53
350
414A
  3
*A54
350
5691
  3
*A55
350
4376
  3
*A56
350
4147
  3
*A6
350
579E
  3
*A7
350
4235
  3
*A8
350
437C
  3
*A9
350
414F
  0
DICTIONARY
  5
19
102
{ACAD_REACTORS
330
C
102
}
330
C
100
AcDbDictionary
281
     1
  3
Model
350
21
  3
配置1
350
1D
  0
DICTIONARY
  5
3D96
102
{ACAD_REACTORS
330
C
102
}
330
C
100
AcDbDictionary
281
     1
  0
DICTIONARY
  5
16
102
{ACAD_REACTORS
330
C
102
}
330
C
100
AcDbDictionary
281
     1
  3
Standard
350
17
  0
DICTIONARY
  5
18
102
{ACAD_REACTORS
330
C
102
}
330
C
100
AcDbDictionary
281
     1
  3
LANSRO
350
4150
  0
ACDBDICTIONARYWDFLT
  5
E
102
{ACAD_REACTORS
330
C
102
}
330
C
100
AcDbDictionary
281
     1
  3
Normal
350
F
100
AcDbDictionaryWithDefault
340
F
  0
DICTIONARY
  5
E7A3
102
{ACAD_REACTORS
330
C
102
}
330
C
100
AcDbDictionary
281
     1
  3
Standard
350
E7A4
  0
DICTIONARY
  5
EADC
102
{ACAD_REACTORS
330
C
102
}
330
C
100
AcDbDictionary
281
     1
  3
COLORDICT
350
EADE
  3
MATERIALDICT
350
EADD
  0
DICTIONARY
  5
3E63
102
{ACAD_REACTORS
330
C
102
}
330
C
100
AcDbDictionary
281
     1
  3
CTABLESTYLE
350
E8F8
  3
DIMASSOC
350
3E64
  3
PROJECTNAME
350
3E65
  0
DICTIONARY
  5
43C3
102
{ACAD_REACTORS
330
43C2
102
}
330
43C2
100
AcDbDictionary
281
     1
  0
XRECORD
  5
3D92
102
{ACAD_REACTORS
330
3D1E
102
}
330
3D1E
100
AcDbXrecord
280
     1
340
1E
  0
SORTENTSTABLE
  5
EABD
102
{ACAD_REACTORS
330
3D1E
102
}
330
3D1E
100
AcDbSortentsTable
330
1E
331
DDA8
  5
DDA8
331
D6EC
  5
D6EC
331
D72B
  5
D72B
331
D762
  5
D762
331
DDEF
  5
DDEF
331
DE26
  5
DE26
331
D76A
  5
D76A
331
D6F4
  5
D6F4
331
D733
  5
D733
331
DDB0
  5
DDB0
331
DE65
  5
DE65
331
DE6D
  5
DE6D
331
B299
  5
B299
331
DDB8
  5
DDB8
331
D73B
  5
D73B
331
D772
  5
D772
331
DDF7
  5
DDF7
331
D6FC
  5
D6FC
331
DE2E
  5
DE2E
331
B2D8
  5
B2D8
331
B43F
  5
B43F
331
DE75
  5
DE75
331
B2A1
  5
B2A1
331
DDC0
  5
DDC0
331
D77A
  5
D77A
331
DDFF
  5
DDFF
331
D704
  5
D704
331
DE36
  5
DE36
331
B2A9
  5
B2A9
331
B2E0
  5
B2E0
331
DE3E
  5
DE3E
331
A28A
  5
A28A
331
B447
  5
B447
331
D6C5
  5
D6C5
331
B44F
  5
B44F
331
B48E
  5
B48E
331
B2E8
  5
B2E8
331
DE9E
  5
DE9E
331
DEA6
  5
DEA6
331
DEAE
  5
DEAE
331
DDC8
  5
DDC8
331
D70C
  5
D70C
331
D743
  5
D743
331
D6CD
  5
D6CD
331
D792
  5
D792
331
DE07
  5
DE07
331
DE46
  5
DE46
331
D79A
  5
D79A
331
D714
  5
D714
331
D74B
  5
D74B
331
DDD0
  5
DDD0
331
D6D5
  5
D6D5
331
B2B1
  5
B2B1
331
DE0F
  5
DE0F
331
DE4E
  5
DE4E
331
DA9A
  5
DA9A
331
DD99
  5
DD99
331
D6DD
  5
D6DD
331
D71C
  5
D71C
331
D753
  5
D753
331
DDD8
  5
DDD8
331
B457
  5
B457
331
B282
  5
B282
331
B2B9
  5
B2B9
331
DDE0
  5
DDE0
331
DE17
  5
DE17
331
D75B
  5
D75B
331
DAA2
  5
DAA2
331
D6E5
  5
D6E5
331
D724
  5
D724
331
DDA1
  5
DDA1
331
DE56
  5
DE56
331
B4A6
  5
B4A6
331
B2C1
  5
B2C1
331
B428
  5
B428
331
DE5E
  5
DE5E
331
B28A
  5
B28A
331
DE1F
  5
DE1F
331
B4AE
  5
B4AE
331
B2C9
  5
B2C9
331
B430
  5
B430
331
B292
  5
B292
331
B46F
  5
B46F
331
DE7F
  5
DE7F
331
DE87
  5
DE87
331
DE8F
  5
DE8F
331
EABE
  5
EABC
331
DE97
  5
DE97
331
DDA9
  5
DDA9
331
D72C
  5
D72C
331
D763
  5
D763
331
DDE8
  5
DDE8
331
D6ED
  5
D6ED
331
DE27
  5
DE27
331
DE66
  5
DE66
331
DDB1
  5
DDB1
331
D734
  5
D734
331
D76B
  5
D76B
331
DDF0
  5
DDF0
331
D6F5
  5
D6F5
331
B29A
  5
B29A
331
B2D1
  5
B2D1
331
DDF8
  5
DDF8
331
DE2F
  5
DE2F
331
DDB9
  5
DDB9
331
DE6E
  5
DE6E
331
D6FD
  5
D6FD
331
D73C
  5
D73C
331
D773
  5
D773
331
B438
  5
B438
331
B440
  5
B440
331
DE76
  5
DE76
331
B2A2
  5
B2A2
331
DE37
  5
DE37
331
B2D9
  5
B2D9
331
D77B
  5
D77B
331
D705
  5
D705
331
DDC1
  5
DDC1
331
B448
  5
B448
331
B2AA
  5
B2AA
331
DE3F
  5
DE3F
331
B2E1
  5
B2E1
331
D6C6
  5
D6C6
331
B48F
  5
B48F
331
B2E9
  5
B2E9
331
B26B
  5
B26B
331
DE9F
  5
DE9F
331
DEA7
  5
DEA7
331
DEAF
  5
DEAF
331
DDC9
  5
DDC9
331
D793
  5
D793
331
DE00
  5
DE00
331
D6CE
  5
D6CE
331
D70D
  5
D70D
331
D744
  5
D744
331
D74C
  5
D74C
331
DDD1
  5
DDD1
331
DE08
  5
DE08
331
D6D6
  5
D6D6
331
D715
  5
D715
331
DE47
  5
DE47
331
B2B2
  5
B2B2
331
DE4F
  5
DE4F
331
B27B
  5
B27B
331
B450
  5
B450
331
DD9A
  5
DD9A
331
D71D
  5
D71D
331
D754
  5
D754
331
DDD9
  5
DDD9
331
D6DE
  5
D6DE
331
DE10
  5
DE10
331
B49F
  5
B49F
331
B2BA
  5
B2BA
331
B421
  5
B421
331
DE18
  5
DE18
331
DE57
  5
DE57
331
DAA3
  5
DAA3
331
DDA2
  5
DDA2
331
D725
  5
D725
331
D75C
  5
D75C
331
DDE1
  5
DDE1
331
B283
  5
B283
331
D6E6
  5
D6E6
331
B4A7
  5
B4A7
331
B28B
  5
B28B
331
B2C2
  5
B2C2
331
DE5F
  5
DE5F
331
B429
  5
B429
331
B4AF
  5
B4AF
331
B431
  5
B431
331
B293
  5
B293
331
B2CA
  5
B2CA
331
DE78
  5
DE78
331
DE80
  5
DE80
331
DE88
  5
DE88
331
EAB7
  5
EAB7
331
DE90
  5
DE90
331
EABF
  5
EAC0
331
DE20
  5
DE20
331
DDAA
  5
DDAA
331
D6EE
  5
D6EE
331
D72D
  5
D72D
331
D764
  5
D764
331
DDE9
  5
DDE9
331
DDF1
  5
DDF1
331
DE28
  5
DE28
331
D76C
  5
D76C
331
D6F6
  5
D6F6
331
D735
  5
D735
331
DDB2
  5
DDB2
331
DE67
  5
DE67
331
B2D2
  5
B2D2
331
DE6F
  5
DE6F
331
B29B
  5
B29B
331
B470
  5
B470
331
DDBA
  5
DDBA
331
D73D
  5
D73D
331
D774
  5
D774
331
D6FE
  5
D6FE
331
DDF9
  5
DDF9
331
DE30
  5
DE30
331
B2DA
  5
B2DA
331
B441
  5
B441
331
DE38
  5
DE38
331
DDC2
  5
DDC2
331
DE77
  5
DE77
331
B2A3
  5
B2A3
331
D706
  5
D706
331
B478
  5
B478
331
B2AB
  5
B2AB
331
B2E2
  5
B2E2
331
A28C
  5
A28C
331
B449
  5
B449
331
D6C7
  5
D6C7
331
B490
  5
B490
331
DE98
  5
DE98
331
DEA0
  5
DEA0
331
DEA8
  5
DEA8
331
DE40
  5
DE40
331
DDCA
  5
DDCA
331
D70E
  5
D70E
331
D745
  5
D745
331
D6CF
  5
D6CF
331
D794
  5
D794
331
DE01
  5
DE01
331
DE09
  5
DE09
331
DE48
  5
DE48
331
DC0B
  5
DC0B
331
D6D7
  5
D6D7
331
D716
  5
D716
331
D74D
  5
D74D
331
DDD2
  5
DDD2
331
B451
  5
B451
331
B27C
  5
B27C
331
B2B3
  5
B2B3
331
DDDA
  5
DDDA
331
DE11
  5
DE11
331
DD9B
  5
DD9B
331
DE50
  5
DE50
331
D6DF
  5
D6DF
331
D71E
  5
D71E
331
D755
  5
D755
331
B4A0
  5
B4A0
331
B422
  5
B422
331
B284
  5
B284
331
B2BB
  5
B2BB
331
DDE2
  5
DDE2
331
DE19
  5
DE19
331
D75D
  5
D75D
331
D6E7
  5
D6E7
331
D726
  5
D726
331
DDA3
  5
DDA3
331
DE58
  5
DE58
331
B4A8
  5
B4A8
331
B42A
  5
B42A
331
B28C
  5
B28C
331
B461
  5
B461
331
B2CB
  5
B2CB
331
B4B0
  5
B4B0
331
B294
  5
B294
331
DE79
  5
DE79
331
DE81
  5
DE81
331
DE89
  5
DE89
331
DE91
  5
DE91
331
EAB8
  5
EABA
331
DE60
  5
DE60
331
DDAB
  5
DDAB
331
D72E
  5
D72E
331
D765
  5
D765
331
DDEA
  5
DDEA
331
D6EF
  5
D6EF
331
DE21
  5
DE21
331
DE29
  5
DE29
331
DE68
  5
DE68
331
DDB3
  5
DDB3
331
D736
  5
D736
331
D76D
  5
D76D
331
DDF2
  5
DDF2
331
D6F7
  5
D6F7
331
B471
  5
B471
331
B29C
  5
B29C
331
DDFA
  5
DDFA
331
DE31
  5
DE31
331
B2D3
  5
B2D3
331
DDBB
  5
DDBB
331
D6FF
  5
D6FF
331
D73E
  5
D73E
331
D775
  5
D775
331
B43A
  5
B43A
331
B442
  5
B442
331
B479
  5
B479
331
B2A4
  5
B2A4
331
DE39
  5
DE39
331
B2DB
  5
B2DB
331
D77D
  5
D77D
331
D707
  5
D707
331
DDC3
  5
DDC3
331
B2E3
  5
B2E3
331
B44A
  5
B44A
331
B2AC
  5
B2AC
331
B491
  5
B491
331
EAC0
  5
EAC3
331
DE99
  5
DE99
331
DEA1
  5
DEA1
331
DEA9
  5
DEA9
331
D6C8
  5
D6C8
331
DDCB
  5
DDCB
331
DE02
  5
DE02
331
D746
  5
D746
331
D795
  5
D795
331
D6D0
  5
D6D0
331
D70F
  5
D70F
331
DC04
  5
DC04
331
DE41
  5
DE41
331
DE49
  5
DE49
331
D74E
  5
D74E
331
DDD3
  5
DDD3
331
DE0A
  5
DE0A
331
D6D8
  5
D6D8
331
D717
  5
D717
331
B2B4
  5
B2B4
331
B41B
  5
B41B
331
DE51
  5
DE51
331
B27D
  5
B27D
331
B452
  5
B452
331
DD9C
  5
DD9C
331
D71F
  5
D71F
331
D756
  5
D756
331
DDDB
  5
DDDB
331
D6E0
  5
D6E0
331
DE12
  5
DE12
331
B45A
  5
B45A
331
B4A1
  5
B4A1
331
B285
  5
B285
331
B2BC
  5
B2BC
331
DE1A
  5
DE1A
331
DE59
  5
DE59
331
B423
  5
B423
331
DDA4
  5
DDA4
331
D727
  5
D727
331
D75E
  5
D75E
331
DDE3
  5
DDE3
331
B4A9
  5
B4A9
331
B28D
  5
B28D
331
B42B
  5
B42B
331
B4B1
  5
B4B1
331
B433
  5
B433
331
B46A
  5
B46A
331
B295
  5
B295
331
B2CC
  5
B2CC
331
DE7A
  5
DE7A
331
DE8A
  5
DE8A
331
EAB9
  5
EABF
331
DE92
  5
DE92
331
D6E8
  5
D6E8
331
DDEB
  5
DDEB
331
DE22
  5
DE22
331
DDAC
  5
DDAC
331
DE61
  5
DE61
331
D6F0
  5
D6F0
331
D72F
  5
D72F
331
D766
  5
D766
331
DDF3
  5
DDF3
331
DE2A
  5
DE2A
331
D76E
  5
D76E
331
D6F8
  5
D6F8
331
D737
  5
D737
331
DDB4
  5
DDB4
331
DE69
  5
DE69
331
B2D4
  5
B2D4
331
B43B
  5
B43B
331
B29D
  5
B29D
331
B472
  5
B472
331
DBFD
  5
DBFD
331
DDBC
  5
DDBC
331
D73F
  5
D73F
331
DDFB
  5
DDFB
331
D700
  5
D700
331
DE32
  5
DE32
331
B443
  5
B443
331
DE3A
  5
DE3A
331
DDC4
  5
DDC4
331
D77E
  5
D77E
331
B2A5
  5
B2A5
331
B48A
  5
B48A
331
B2AD
  5
B2AD
331
B2E4
  5
B2E4
331
B44B
  5
B44B
331
DE9A
  5
DE9A
331
DEA2
  5
DEA2
331
DEAA
  5
DEAA
331
D6C9
  5
D6C9
331
D708
  5
D708
331
DE42
  5
DE42
331
DDCC
  5
DDCC
331
D710
  5
D710
331
D747
  5
D747
331
D6D1
  5
D6D1
331
D796
  5
D796
331
DE03
  5
DE03
331
DE0B
  5
DE0B
331
DE4A
  5
DE4A
331
D6D9
  5
D6D9
331
D718
  5
D718
331
D74F
  5
D74F
331
DDD4
  5
DDD4
331
B41C
  5
B41C
331
B453
  5
B453
331
B27E
  5
B27E
331
B2B5
  5
B2B5
331
DDDC
  5
DDDC
331
DE13
  5
DE13
331
D757
  5
D757
331
D6E1
  5
D6E1
331
D720
  5
D720
331
DD9D
  5
DD9D
331
DE52
  5
DE52
331
B4A2
  5
B4A2
331
B424
  5
B424
331
B45B
  5
B45B
331
DE5A
  5
DE5A
331
B286
  5
B286
331
DDE4
  5
DDE4
331
DE1B
  5
DE1B
331
B2BD
  5
B2BD
331
D75F
  5
D75F
331
DDA5
  5
DDA5
331
B4AA
  5
B4AA
331
B2C5
  5
B2C5
331
B42C
  5
B42C
331
B28E
  5
B28E
331
B46B
  5
B46B
331
B296
  5
B296
331
B2CD
  5
B2CD
331
B4B2
  5
B4B2
331
DE7B
  5
DE7B
331
DE8B
  5
DE8B
331
DE93
  5
DE93
331
EABA
  5
EAC2
331
D6E9
  5
D6E9
331
D728
  5
D728
331
DE62
  5
DE62
331
DDAD
  5
DDAD
331
DDEC
  5
DDEC
331
D730
  5
D730
331
D767
  5
D767
331
D6F1
  5
D6F1
331
DBEE
  5
DBEE
331
DE23
  5
DE23
331
DE2B
  5
DE2B
331
DE6A
  5
DE6A
331
DBF6
  5
DBF6
331
DDB5
  5
DDB5
331
D6F9
  5
D6F9
331
D738
  5
D738
331
D76F
  5
D76F
331
DDF4
  5
DDF4
331
B473
  5
B473
331
B29E
  5
B29E
331
B2D5
  5
B2D5
331
DDFC
  5
DDFC
331
DE33
  5
DE33
331
D701
  5
D701
331
DDBD
  5
DDBD
331
DE72
  5
DE72
331
B43C
  5
B43C
331
B444
  5
B444
331
B2A6
  5
B2A6
331
DE3B
  5
DE3B
331
DDC5
  5
DDC5
331
B48B
  5
B48B
331
B2E5
  5
B2E5
331
B44C
  5
B44C
331
B2AE
  5
B2AE
331
DE9B
  5
DE9B
331
DEA3
  5
DEA3
331
DEAB
  5
DEAB
331
D6CA
  5
D6CA
331
D709
  5
D709
331
D740
  5
D740
331
DDCD
  5
DDCD
331
D748
  5
D748
331
D797
  5
D797
331
DE04
  5
DE04
331
D6D2
  5
D6D2
331
D711
  5
D711
331
DE43
  5
DE43
331
DE4B
  5
DE4B
331
D750
  5
D750
331
DDD5
  5
DDD5
331
DE0C
  5
DE0C
331
D6DA
  5
D6DA
331
D719
  5
D719
331
B2B6
  5
B2B6
331
DE53
  5
DE53
331
B27F
  5
B27F
331
B454
  5
B454
331
DD9E
  5
DD9E
331
D721
  5
D721
331
D758
  5
D758
331
DDDD
  5
DDDD
331
D6E2
  5
D6E2
331
DE14
  5
DE14
331
B45C
  5
B45C
331
B4A3
  5
B4A3
331
B287
  5
B287
331
B2BE
  5
B2BE
331
DE1C
  5
DE1C
331
DE5B
  5
DE5B
331
B425
  5
B425
331
DDA6
  5
DDA6
331
DDE5
  5
DDE5
331
B42D
  5
B42D
331
B28F
  5
B28F
331
B2C6
  5
B2C6
331
B4AB
  5
B4AB
331
B4B3
  5
B4B3
331
B435
  5
B435
331
B46C
  5
B46C
331
B297
  5
B297
331
B2CE
  5
B2CE
331
DE7C
  5
DE7C
331
DE84
  5
DE84
331
DE8C
  5
DE8C
331
DE94
  5
DE94
331
D6EA
  5
D6EA
331
D729
  5
D729
331
D760
  5
D760
331
DDED
  5
DDED
331
DE24
  5
DE24
331
D768
  5
D768
331
D6F2
  5
D6F2
331
D731
  5
D731
331
DDAE
  5
DDAE
331
DE63
  5
DE63
331
DE6B
  5
DE6B
331
DDF5
  5
DDF5
331
DE2C
  5
DE2C
331
D739
  5
D739
331
D6FA
  5
D6FA
331
DDB6
  5
DDB6
331
B2D6
  5
B2D6
331
B43D
  5
B43D
331
DE73
  5
DE73
331
B29F
  5
B29F
331
B474
  5
B474
331
DDBE
  5
DDBE
331
DDFD
  5
DDFD
331
D702
  5
D702
331
DE34
  5
DE34
331
D6B3
  5
D6B3
331
B2A7
  5
B2A7
331
DE3C
  5
DE3C
331
B2DE
  5
B2DE
331
DDC6
  5
DDC6
331
B445
  5
B445
331
B48C
  5
B48C
331
B2AF
  5
B2AF
331
B2E6
  5
B2E6
331
B44D
  5
B44D
331
DE9C
  5
DE9C
331
DEA4
  5
DEA4
331
DEAC
  5
DEAC
331
D70A
  5
D70A
331
D741
  5
D741
331
D6CB
  5
D6CB
331
D790
  5
D790
331
DE05
  5
DE05
331
DE44
  5
DE44
331
DDCE
  5
DDCE
331
D712
  5
D712
331
D749
  5
D749
331
D6D3
  5
D6D3
331
D798
  5
D798
331
DE0D
  5
DE0D
331
DE4C
  5
DE4C
331
D6DB
  5
D6DB
331
D71A
  5
D71A
331
D751
  5
D751
331
DDD6
  5
DDD6
331
B41E
  5
B41E
331
B455
  5
B455
331
B280
  5
B280
331
B2B7
  5
B2B7
331
DDDE
  5
DDDE
331
DE15
  5
DE15
331
D759
  5
D759
331
D6E3
  5
D6E3
331
D722
  5
D722
331
DD9F
  5
DD9F
331
DE54
  5
DE54
331
B4A4
  5
B4A4
331
B426
  5
B426
331
B45D
  5
B45D
331
DE5C
  5
DE5C
331
B288
  5
B288
331
DDA7
  5
DDA7
331
DDE6
  5
DDE6
331
DE1D
  5
DE1D
331
B2BF
  5
B2BF
331
B4AC
  5
B4AC
331
B2C7
  5
B2C7
331
B42E
  5
B42E
331
B290
  5
B290
331
B46D
  5
B46D
331
B4B4
  5
B4B4
331
B436
  5
B436
331
DE7D
  5
DE7D
331
DE85
  5
DE85
331
DE8D
  5
DE8D
331
EABC
  5
EAB8
331
DE95
  5
DE95
331
D761
  5
D761
331
D6EB
  5
D6EB
331
D72A
  5
D72A
331
DE64
  5
DE64
331
DDAF
  5
DDAF
331
D732
  5
D732
331
D769
  5
D769
331
DDEE
  5
DDEE
331
D6F3
  5
D6F3
331
DE25
  5
DE25
331
B298
  5
B298
331
DE2D
  5
DE2D
331
DE6C
  5
DE6C
331
DDB7
  5
DDB7
331
D6FB
  5
D6FB
331
D73A
  5
D73A
331
D771
  5
D771
331
DDF6
  5
DDF6
331
B43E
  5
B43E
331
B475
  5
B475
331
B2A0
  5
B2A0
331
B2D7
  5
B2D7
331
DDFE
  5
DDFE
331
DE35
  5
DE35
331
D703
  5
D703
331
DDBF
  5
DDBF
331
DE74
  5
DE74
331
B446
  5
B446
331
B2A8
  5
B2A8
331
DE3D
  5
DE3D
331
B2DF
  5
B2DF
331
DDC7
  5
DDC7
331
B48D
  5
B48D
331
B2E7
  5
B2E7
331
B44E
  5
B44E
331
D6C4
  5
D6C4
331
DE9D
  5
DE9D
331
DEA5
  5
DEA5
331
DEAD
  5
DEAD
331
D791
  5
D791
331
D6CC
  5
D6CC
331
D70B
  5
D70B
331
D742
  5
D742
331
DDCF
  5
DDCF
331
D74A
  5
D74A
331
D799
  5
D799
331
DE06
  5
DE06
331
D6D4
  5
D6D4
331
D713
  5
D713
331
DE45
  5
DE45
331
B2B0
  5
B2B0
331
DE4D
  5
DE4D
331
DD98
  5
DD98
331
DDD7
  5
DDD7
331
D71B
  5
D71B
331
D752
  5
D752
331
D6DC
  5
D6DC
331
DA99
  5
DA99
331
DE0E
  5
DE0E
331
B2B8
  5
B2B8
331
B41F
  5
B41F
331
DE16
  5
DE16
331
DE55
  5
DE55
331
DDA0
  5
DDA0
331
D723
  5
D723
331
D75A
  5
D75A
331
DDDF
  5
DDDF
331
B281
  5
B281
331
D6E4
  5
D6E4
331
B456
  5
B456
331
B4A5
  5
B4A5
331
B289
  5
B289
331
B2C0
  5
B2C0
331
DE1E
  5
DE1E
331
DE5D
  5
DE5D
331
B427
  5
B427
331
DDE7
  5
DDE7
331
B4AD
  5
B4AD
331
B42F
  5
B42F
331
B291
  5
B291
331
B2C8
  5
B2C8
331
B4B5
  5
B4B5
331
B437
  5
B437
331
B46E
  5
B46E
331
DE7E
  5
DE7E
331
DE86
  5
DE86
331
DE8E
  5
DE8E
331
DE96
  5
DE96
  0
XRECORD
  5
3D91
102
{ACAD_REACTORS
330
3D20
102
}
330
3D20
100
AcDbXrecord
280
     1
340
1A
  0
SORTENTSTABLE
  5
69B9
102
{ACAD_REACTORS
330
69B8
102
}
330
69B8
100
AcDbSortentsTable
330
69B7
  0
SORTENTSTABLE
  5
69CD
102
{ACAD_REACTORS
330
69CC
102
}
330
69CC
100
AcDbSortentsTable
330
69CB
  0
GROUP
  5
4143
102
{ACAD_REACTORS
330
D
102
}
330
D
100
AcDbGroup
300

 70
     1
 71
     1
  0
GROUP
  5
437E
102
{ACAD_REACTORS
330
D
102
}
330
D
100
AcDbGroup
300

 70
     1
 71
     1
  0
GROUP
  5
4149
102
{ACAD_REACTORS
330
D
102
}
330
D
100
AcDbGroup
300

 70
     1
 71
     1
  0
GROUP
  5
4241
102
{ACAD_REACTORS
330
D
102
}
330
D
100
AcDbGroup
300

 70
     1
 71
     1
  0
GROUP
  5
4239
102
{ACAD_REACTORS
330
D
102
}
330
D
100
AcDbGroup
300

 70
     1
 71
     1
  0
GROUP
  5
4237
102
{ACAD_REACTORS
330
D
102
}
330
D
100
AcDbGroup
300

 70
     1
 71
     1
  0
GROUP
  5
423C
102
{ACAD_REACTORS
330
D
102
}
330
D
100
AcDbGroup
300

 70
     1
 71
     1
  0
GROUP
  5
43B6
102
{ACAD_REACTORS
330
D
102
}
330
D
100
AcDbGroup
300

 70
     1
 71
     1
  0
GROUP
  5
423B
102
{ACAD_REACTORS
330
D
102
}
330
D
100
AcDbGroup
300

 70
     1
 71
     1
  0
GROUP
  5
43B8
102
{ACAD_REACTORS
330
D
102
}
330
D
100
AcDbGroup
300

 70
     1
 71
     1
  0
GROUP
  5
576A
102
{ACAD_REACTORS
330
D
102
}
330
D
100
AcDbGroup
300

 70
     1
 71
     1
  0
GROUP
  5
4378
102
{ACAD_REACTORS
330
D
102
}
330
D
100
AcDbGroup
300

 70
     1
 71
     1
  0
GROUP
  5
4240
102
{ACAD_REACTORS
330
D
102
}
330
D
100
AcDbGroup
300

 70
     1
 71
     1
  0
GROUP
  5
423E
102
{ACAD_REACTORS
330
D
102
}
330
D
100
AcDbGroup
300

 70
     1
 71
     1
  0
GROUP
  5
4374
102
{ACAD_REACTORS
330
D
102
}
330
D
100
AcDbGroup
300

 70
     1
 71
     1
  0
GROUP
  5
43BB
102
{ACAD_REACTORS
330
D
102
}
330
D
100
AcDbGroup
300

 70
     1
 71
     1
  0
GROUP
  5
4373
102
{ACAD_REACTORS
330
D
102
}
330
D
100
AcDbGroup
300

 70
     1
 71
     1
  0
GROUP
  5
43BD
102
{ACAD_REACTORS
330
D
102
}
330
D
100
AcDbGroup
300

 70
     1
 71
     1
  0
GROUP
  5
4236
102
{ACAD_REACTORS
330
D
102
}
330
D
100
AcDbGroup
300

 70
     1
 71
     1
  0
GROUP
  5
4377
102
{ACAD_REACTORS
330
D
102
}
330
D
100
AcDbGroup
300

 70
     1
 71
     1
  0
GROUP
  5
4145
102
{ACAD_REACTORS
330
D
102
}
330
D
100
AcDbGroup
300

 70
     1
 71
     1
  0
GROUP
  5
437A
102
{ACAD_REACTORS
330
D
102
}
330
D
100
AcDbGroup
300

 70
     1
 71
     1
  0
GROUP
  5
43BF
102
{ACAD_REACTORS
330
D
102
}
330
D
100
AcDbGroup
300

 70
     1
 71
     1
  0
GROUP
  5
4379
102
{ACAD_REACTORS
330
D
102
}
330
D
100
AcDbGroup
300

 70
     1
 71
     1
  0
GROUP
  5
43C1
102
{ACAD_REACTORS
330
D
102
}
330
D
100
AcDbGroup
300

 70
     1
 71
     1
  0
GROUP
  5
423D
102
{ACAD_REACTORS
330
D
102
}
330
D
100
AcDbGroup
300

 70
     1
 71
     1
  0
GROUP
  5
437D
102
{ACAD_REACTORS
330
D
102
}
330
D
100
AcDbGroup
300

 70
     1
 71
     1
  0
GROUP
  5
414D
102
{ACAD_REACTORS
330
D
102
}
330
D
100
AcDbGroup
300

 70
     1
 71
     1
  0
GROUP
  5
4146
102
{ACAD_REACTORS
330
D
102
}
330
D
100
AcDbGroup
300

 70
     1
 71
     1
  0
GROUP
  5
437F
102
{ACAD_REACTORS
330
D
102
}
330
D
100
AcDbGroup
300

 70
     1
 71
     1
  0
GROUP
  5
414B
102
{ACAD_REACTORS
330
D
102
}
330
D
100
AcDbGroup
300

 70
     1
 71
     1
  0
GROUP
  5
4375
102
{ACAD_REACTORS
330
D
102
}
330
D
100
AcDbGroup
300

 70
     1
 71
     1
  0
GROUP
  5
43B7
102
{ACAD_REACTORS
330
D
102
}
330
D
100
AcDbGroup
300

 70
     1
 71
     1
  0
GROUP
  5
423A
102
{ACAD_REACTORS
330
D
102
}
330
D
100
AcDbGroup
300

 70
     1
 71
     1
  0
GROUP
  5
414E
102
{ACAD_REACTORS
330
D
102
}
330
D
100
AcDbGroup
300

 70
     1
 71
     1
  0
GROUP
  5
43B9
102
{ACAD_REACTORS
330
D
102
}
330
D
100
AcDbGroup
300

 70
     1
 71
     1
  0
GROUP
  5
57D9
102
{ACAD_REACTORS
330
D
102
}
330
D
100
AcDbGroup
300

 70
     1
 71
     1
  0
GROUP
  5
437B
102
{ACAD_REACTORS
330
D
102
}
330
D
100
AcDbGroup
300

 70
     1
 71
     1
  0
GROUP
  5
43BC
102
{ACAD_REACTORS
330
D
102
}
330
D
100
AcDbGroup
300

 70
     1
 71
     1
  0
GROUP
  5
4144
102
{ACAD_REACTORS
330
D
102
}
330
D
100
AcDbGroup
300

 70
     1
 71
     1
  0
GROUP
  5
43BE
102
{ACAD_REACTORS
330
D
102
}
330
D
100
AcDbGroup
300

 70
     1
 71
     1
  0
GROUP
  5
4238
102
{ACAD_REACTORS
330
D
102
}
330
D
100
AcDbGroup
300

 70
     1
 71
     1
  0
GROUP
  5
43B5
102
{ACAD_REACTORS
330
D
102
}
330
D
100
AcDbGroup
300

 70
     1
 71
     1
  0
GROUP
  5
43C0
102
{ACAD_REACTORS
330
D
102
}
330
D
100
AcDbGroup
300

 70
     1
 71
     1
  0
GROUP
  5
414C
102
{ACAD_REACTORS
330
D
102
}
330
D
100
AcDbGroup
300

 70
     1
 71
     1
  0
GROUP
  5
4148
102
{ACAD_REACTORS
330
D
102
}
330
D
100
AcDbGroup
300

 70
     1
 71
     1
  0
GROUP
  5
423F
102
{ACAD_REACTORS
330
D
102
}
330
D
100
AcDbGroup
300

 70
     1
 71
     1
  0
GROUP
  5
43BA
102
{ACAD_REACTORS
330
D
102
}
330
D
100
AcDbGroup
300

 70
     1
 71
     1
  0
GROUP
  5
414A
102
{ACAD_REACTORS
330
D
102
}
330
D
100
AcDbGroup
300

 70
     1
 71
     1
  0
GROUP
  5
5691
102
{ACAD_REACTORS
330
D
102
}
330
D
100
AcDbGroup
300

 70
     1
 71
     1
  0
GROUP
  5
4376
102
{ACAD_REACTORS
330
D
102
}
330
D
100
AcDbGroup
300

 70
     1
 71
     1
  0
GROUP
  5
4147
102
{ACAD_REACTORS
330
D
102
}
330
D
100
AcDbGroup
300

 70
     1
 71
     1
  0
GROUP
  5
579E
102
{ACAD_REACTORS
330
D
102
}
330
D
100
AcDbGroup
300

 70
     1
 71
     1
  0
GROUP
  5
4235
102
{ACAD_REACTORS
330
D
102
}
330
D
100
AcDbGroup
300

 70
     1
 71
     1
  0
GROUP
  5
437C
102
{ACAD_REACTORS
330
D
102
}
330
D
100
AcDbGroup
300

 70
     1
 71
     1
  0
GROUP
  5
414F
102
{ACAD_REACTORS
330
D
102
}
330
D
100
AcDbGroup
300

 70
     1
 71
     1
  0
LAYOUT
  5
21
102
{ACAD_XDICTIONARY
360
EAE1
102
}
102
{ACAD_REACTORS
330
19
102
}
330
19
100
AcDbPlotSettings
  1

  2
HP 2200
  4

  6

 40
0.0
 41
0.0
 42
0.0
 43
0.0
 44
0.0
 45
0.0
 46
0.0
 47
0.0
 48
0.0
 49
0.0
140
0.0
141
0.0
142
1.0
143
1.0
 70
  1712
 72
     0
 73
     0
 74
     0
  7
AAA.ctb
 75
     0
147
1.0
148
0.0
149
0.0
100
AcDbLayout
  1
Model
 70
     1
 71
     0
 10
0.0
 20
0.0
 11
12.0
 21
9.0
 12
0.0
 22
0.0
 32
0.0
 14
0.0
 24
0.0
 34
0.0
 15
0.0
 25
0.0
 35
0.0
146
0.0
 13
0.0
 23
0.0
 33
0.0
 16
1.0
 26
0.0
 36
0.0
 17
0.0
 27
1.0
 37
0.0
 76
     0
330
1E
  0
LAYOUT
  5
1D
102
{ACAD_XDICTIONARY
360
EADF
102
}
102
{ACAD_REACTORS
330
19
102
}
330
19
100
AcDbPlotSettings
  1

  2
HP 2200
  4

  6

 40
0.0
 41
0.0
 42
0.0
 43
0.0
 44
0.0
 45
0.0
 46
0.0
 47
0.0
 48
0.0
 49
0.0
140
0.0
141
0.0
142
1.0
143
1.0
 70
   688
 72
     0
 73
     0
 74
     5
  7
AAA.ctb
 75
    16
147
1.0
148
0.0
149
0.0
100
AcDbLayout
  1
配置1
 70
     0
 71
     1
 10
0.0
 20
0.0
 11
12.0
 21
9.0
 12
0.0
 22
0.0
 32
0.0
 14
1.000000000000000E+20
 24
1.000000000000000E+20
 34
1.000000000000000E+20
 15
-1.000000000000000E+20
 25
-1.000000000000000E+20
 35
-1.000000000000000E+20
146
0.0
 13
0.0
 23
0.0
 33
0.0
 16
1.0
 26
0.0
 36
0.0
 17
0.0
 27
1.0
 37
0.0
 76
     0
330
1A
  0
MLINESTYLE
  5
17
102
{ACAD_REACTORS
330
16
102
}
330
16
100
AcDbMlineStyle
  2
STANDARD
 70
     0
  3

 62
   256
 51
90.0
 52
90.0
 71
     2
 49
0.5
 62
   256
  6
BYLAYER
 49
-0.5
 62
   256
  6
BYLAYER
  0
PLOTSETTINGS
  5
4150
102
{ACAD_XDICTIONARY
360
EAE3
102
}
102
{ACAD_REACTORS
330
18
102
}
330
18
100
AcDbPlotSettings
  1
LANSRO
  2
\\1260\HP2200
  4
A4
  6

 40
6.043083190917968
 41
6.762742042541503
 42
7.736419677734375
 43
5.027069091796875
 44
209.9733276367187
 45
296.9683227539062
 46
5.15
 47
0.0
 48
0.0
 49
0.0
140
0.0
141
0.0
142
1.0
143
0.8829829263240881
 70
  1716
 72
     1
 73
     1
 74
     0
  7
AAA.ctb
 75
     0
147
1.132524729739748
148
-132.297014905803
149
-71.78507365635891
  0
ACDBPLACEHOLDER
  5
F
102
{ACAD_REACTORS
330
E
102
}
330
E
  0
ACAD_PROXY_OBJECT
  5
E7A4
102
{ACAD_REACTORS
330
E7A3
102
}
330
E7A3
100
AcDbProxyObject
 90
      499
 91
      514
 95
   983063
 70
     0
 93
     1841
310
4214DD185B99185C9928B81E85EB51B8AE3F2E07A17AD46E2B8FC02B5E8DC0F42B1CFD028000000C1008070000C3001FDFF8000000C1003FBFF000000182007F7FE00000030400FEFFC00000060801FDFF8000000C1003FBFF00000018200000000000000681FA0B0000001820100E000186003FBFF000000182007F7FE000
310
00030400FEFFC00000060801FDFF8000000C1003FBFF000000182007F7FE000000304000AD7A3703D0AC73F4160000003040201C00030C007F7FE00000030400FEFFC00000060801FDFF8000000C1003FBFF000000182007F7FE00000030400FEFFC000000608000
340
11
340
11
340
11
 94
        0
1001
ACAD
1000
AcRTDxfName
1000
TABLESTYLE
  0
XRECORD
  5
EADE
102
{ACAD_REACTORS
330
EADC
102
}
330
EADC
100
AcDbXrecord
280
     1
340
3D97
  0
XRECORD
  5
EADD
102
{ACAD_REACTORS
330
EADC
102
}
330
EADC
100
AcDbXrecord
280
     1
340
3D96
  0
DICTIONARYVAR
  5
E8F8
102
{ACAD_REACTORS
330
3E63
102
}
330
3E63
100
DictionaryVariables
280
     0
  1
STANDARD
  0
DICTIONARYVAR
  5
3E64
102
{ACAD_REACTORS
330
3E63
102
}
330
3E63
100
DictionaryVariables
280
     0
  1
1
  0
DICTIONARYVAR
  5
3E65
102
{ACAD_REACTORS
330
3E63
102
}
330
3E63
100
DictionaryVariables
280
     0
  1

  0
DICTIONARY
  5
EAE1
330
21
100
AcDbDictionary
280
     1
281
     1
  3
ACAD_XREC_ROUNDTRIP
360
EAE2
  0
DICTIONARY
  5
EADF
330
1D
100
AcDbDictionary
280
     1
281
     1
  3
ACAD_XREC_ROUNDTRIP
360
EAE0
  0
DICTIONARY
  5
EAE3
330
4150
100
AcDbDictionary
280
     1
281
     1
  3
ACAD_XREC_ROUNDTRIP
360
EAE4
  0
XRECORD
  5
EAE2
102
{ACAD_REACTORS
330
EAE1
102
}
330
EAE1
100
AcDbXrecord
280
     1
102
SHADEPLOT
 70
     0
102
SHADEPLOTRESLEVEL
 70
     2
102
SHADEPLOTCUSTOMDPI
 70
   300
  0
XRECORD
  5
EAE0
102
{ACAD_REACTORS
330
EADF
102
}
330
EADF
100
AcDbXrecord
280
     1
102
SHADEPLOT
 70
     0
102
SHADEPLOTRESLEVEL
 70
     2
102
SHADEPLOTCUSTOMDPI
 70
   300
  0
XRECORD
  5
EAE4
102
{ACAD_REACTORS
330
EAE3
102
}
330
EAE3
100
AcDbXrecord
280
     1
102
SHADEPLOT
 70
     0
102
SHADEPLOTRESLEVEL
 70
     2
102
SHADEPLOTCUSTOMDPI
 70
   300
  0
ENDSEC
  0
EOF
