  0
SECTION
  2
HEADER
  9
$ACADVER
  1
AC1015
  9
$ACADMAINTVER
 70
    20
  9
$DWGCODEPAGE
  3
ANSI_950
  9
$INSBASE
 10
0.0
 20
0.0
 30
0.0
  9
$EXTMIN
 10
2702.558284853791
 20
636.7873125502565
 30
0.0
  9
$EXTMAX
 10
3117.857909495337
 20
894.0287483749479
 30
0.0
  9
$LIMMIN
 10
-10.0
 20
-15.0
  9
$LIMMAX
 10
120.0
 20
90.0
  9
$ORTHOMODE
 70
     1
  9
$REGENMODE
 70
     0
  9
$FILLMODE
 70
     1
  9
$QTEXTMODE
 70
     0
  9
$MIRRTEXT
 70
     0
  9
$LTSCALE
 40
3.0
  9
$ATTMODE
 70
     1
  9
$TEXTSIZE
 40
3.0
  9
$TRACEWID
 40
1.0
  9
$TEXTSTYLE
  7
STANDARD
  9
$CLAYER
  8
0
  9
$CELTYPE
  6
ByLayer
  9
$CECOLOR
 62
   256
  9
$CELTSCALE
 40
1.0
  9
$DISPSILH
 70
     0
  9
$DIMSCALE
 40
1.0
  9
$DIMASZ
 40
3.0
  9
$DIMEXO
 40
1.0
  9
$DIMDLI
 40
6.0
  9
$DIMRND
 40
0.0
  9
$DIMDLE
 40
0.0
  9
$DIMEXE
 40
1.0
  9
$DIMTP
 40
0.0
  9
$DIMTM
 40
0.0
  9
$DIMTXT
 40
3.0
  9
$DIMCEN
 40
1.5
  9
$DIMTSZ
 40
0.0
  9
$DIMTOL
 70
     0
  9
$DIMLIM
 70
     0
  9
$DIMTIH
 70
     1
  9
$DIMTOH
 70
     1
  9
$DIMSE1
 70
     0
  9
$DIMSE2
 70
     0
  9
$DIMTAD
 70
     0
  9
$DIMZIN
 70
     0
  9
$DIMBLK
  1

  9
$DIMASO
 70
     1
  9
$DIMSHO
 70
     0
  9
$DIMPOST
  1

  9
$DIMAPOST
  1

  9
$DIMALT
 70
     0
  9
$DIMALTD
 70
     2
  9
$DIMALTF
 40
25.4
  9
$DIMLFAC
 40
1.0
  9
$DIMTOFL
 70
     1
  9
$DIMTVP
 40
0.0
  9
$DIMTIX
 70
     0
  9
$DIMSOXD
 70
     0
  9
$DIMSAH
 70
     0
  9
$DIMBLK1
  1

  9
$DIMBLK2
  1

  9
$DIMSTYLE
  2
Standard
  9
$DIMCLRD
 70
     0
  9
$DIMCLRE
 70
     0
  9
$DIMCLRT
 70
     0
  9
$DIMTFAC
 40
1.0
  9
$DIMGAP
 40
0.09
  9
$DIMJUST
 70
     0
  9
$DIMSD1
 70
     0
  9
$DIMSD2
 70
     0
  9
$DIMTOLJ
 70
     1
  9
$DIMTZIN
 70
     0
  9
$DIMALTZ
 70
     0
  9
$DIMALTTZ
 70
     0
  9
$DIMUPT
 70
     0
  9
$DIMDEC
 70
     4
  9
$DIMTDEC
 70
     8
  9
$DIMALTU
 70
     2
  9
$DIMALTTD
 70
     2
  9
$DIMTXSTY
  7
STANDARD
  9
$DIMAUNIT
 70
     0
  9
$DIMADEC
 70
     0
  9
$DIMALTRND
 40
0.0
  9
$DIMAZIN
 70
     0
  9
$DIMDSEP
 70
    46
  9
$DIMATFIT
 70
     3
  9
$DIMFRAC
 70
     0
  9
$DIMLDRBLK
  1

  9
$DIMLUNIT
 70
     2
  9
$DIMLWD
 70
    -2
  9
$DIMLWE
 70
    -2
  9
$DIMTMOVE
 70
     2
  9
$LUNITS
 70
     2
  9
$LUPREC
 70
     4
  9
$SKETCHINC
 40
0.5
  9
$FILLETRAD
 40
0.0
  9
$AUNITS
 70
     0
  9
$AUPREC
 70
     0
  9
$MENU
  1
ACAD
  9
$ELEVATION
 40
0.0
  9
$PELEVATION
 40
0.0
  9
$THICKNESS
 40
0.0
  9
$LIMCHECK
 70
     0
  9
$CHAMFERA
 40
0.0
  9
$CHAMFERB
 40
0.0
  9
$CHAMFERC
 40
0.0
  9
$CHAMFERD
 40
0.0
  9
$SKPOLY
 70
     0
  9
$TDCREATE
 40
2444975.333333334
  9
$TDUCREATE
 40
2444975.000000000
  9
$TDUPDATE
 40
2454042.439360648
  9
$TDUUPDATE
 40
2454042.106027315
  9
$TDINDWG
 40
0.3139628356
  9
$TDUSRTIMER
 40
0.0000000000
  9
$USRTIMER
 70
     0
  9
$ANGBASE
 50
0.0
  9
$ANGDIR
 70
     0
  9
$PDMODE
 70
     0
  9
$PDSIZE
 40
0.001
  9
$PLINEWID
 40
0.0
  9
$SPLFRAME
 70
     0
  9
$SPLINETYPE
 70
     6
  9
$SPLINESEGS
 70
  8000
  9
$HANDSEED
  5
EAFA
  9
$SURFTAB1
 70
     6
  9
$SURFTAB2
 70
     6
  9
$SURFTYPE
 70
     6
  9
$SURFU
 70
     6
  9
$SURFV
 70
     6
  9
$UCSBASE
  2

  9
$UCSNAME
  2

  9
$UCSORG
 10
0.0
 20
0.0
 30
0.0
  9
$UCSXDIR
 10
1.0
 20
0.0
 30
0.0
  9
$UCSYDIR
 10
0.0
 20
1.0
 30
0.0
  9
$UCSORTHOREF
  2

  9
$UCSORTHOVIEW
 70
     0
  9
$UCSORGTOP
 10
0.0
 20
0.0
 30
0.0
  9
$UCSORGBOTTOM
 10
0.0
 20
0.0
 30
0.0
  9
$UCSORGLEFT
 10
0.0
 20
0.0
 30
0.0
  9
$UCSORGRIGHT
 10
0.0
 20
0.0
 30
0.0
  9
$UCSORGFRONT
 10
0.0
 20
0.0
 30
0.0
  9
$UCSORGBACK
 10
0.0
 20
0.0
 30
0.0
  9
$PUCSBASE
  2

  9
$PUCSNAME
  2

  9
$PUCSORG
 10
0.0
 20
0.0
 30
0.0
  9
$PUCSXDIR
 10
1.0
 20
0.0
 30
0.0
  9
$PUCSYDIR
 10
0.0
 20
1.0
 30
0.0
  9
$PUCSORTHOREF
  2

  9
$PUCSORTHOVIEW
 70
     0
  9
$PUCSORGTOP
 10
0.0
 20
0.0
 30
0.0
  9
$PUCSORGBOTTOM
 10
0.0
 20
0.0
 30
0.0
  9
$PUCSORGLEFT
 10
0.0
 20
0.0
 30
0.0
  9
$PUCSORGRIGHT
 10
0.0
 20
0.0
 30
0.0
  9
$PUCSORGFRONT
 10
0.0
 20
0.0
 30
0.0
  9
$PUCSORGBACK
 10
0.0
 20
0.0
 30
0.0
  9
$USERI1
 70
     0
  9
$USERI2
 70
     0
  9
$USERI3
 70
     0
  9
$USERI4
 70
     0
  9
$USERI5
 70
     0
  9
$USERR1
 40
0.0
  9
$USERR2
 40
0.0
  9
$USERR3
 40
0.0
  9
$USERR4
 40
0.0
  9
$USERR5
 40
0.0
  9
$WORLDVIEW
 70
     1
  9
$SHADEDGE
 70
     3
  9
$SHADEDIF
 70
    70
  9
$TILEMODE
 70
     1
  9
$MAXACTVP
 70
    48
  9
$PINSBASE
 10
0.0
 20
0.0
 30
0.0
  9
$PLIMCHECK
 70
     0
  9
$PEXTMIN
 10
1.000000000000000E+20
 20
1.000000000000000E+20
 30
1.000000000000000E+20
  9
$PEXTMAX
 10
-1.000000000000000E+20
 20
-1.000000000000000E+20
 30
-1.000000000000000E+20
  9
$PLIMMIN
 10
0.0
 20
0.0
  9
$PLIMMAX
 10
12.0
 20
9.0
  9
$UNITMODE
 70
     0
  9
$VISRETAIN
 70
     1
  9
$PLINEGEN
 70
     0
  9
$PSLTSCALE
 70
     0
  9
$TREEDEPTH
 70
  3020
  9
$CMLSTYLE
  2
Standard
  9
$CMLJUST
 70
     0
  9
$CMLSCALE
 40
1.0
  9
$PROXYGRAPHICS
 70
     1
  9
$MEASUREMENT
 70
     0
  9
$CELWEIGHT
370
    -1
  9
$ENDCAPS
280
     0
  9
$JOINSTYLE
280
     0
  9
$LWDISPLAY
290
     0
  9
$INSUNITS
 70
     0
  9
$HYPERLINKBASE
  1

  9
$STYLESHEET
  1

  9
$XEDIT
290
     1
  9
$CEPSNTYPE
380
     0
  9
$PSTYLEMODE
290
     1
  9
$FINGERPRINTGUID
  2
{77095E5F-9CE7-11D7-970D-0040F4541FA8}
  9
$VERSIONGUID
  2
{22A38C6D-BA64-4A73-867E-FB9FC1556928}
  9
$EXTNAMES
290
     1
  9
$PSVPSCALE
 40
0.0
  9
$OLESTARTUP
290
     0
  0
ENDSEC
  0
SECTION
  2
CLASSES
  0
CLASS
  1
ACDBDICTIONARYWDFLT
  2
AcDbDictionaryWithDefault
  3
ObjectDBX Classes
 90
        0
280
     0
281
     0
  0
CLASS
  1
ACDBPLACEHOLDER
  2
AcDbPlaceHolder
  3
ObjectDBX Classes
 90
        0
280
     0
281
     0
  0
CLASS
  1
LAYOUT
  2
AcDbLayout
  3
ObjectDBX Classes
 90
        0
280
     0
281
     0
  0
CLASS
  1
LONG_TRANSACTION
  2
AcDbLongTransaction
  3
ObjectDBX Classes
 90
    32768
280
     0
281
     0
  0
CLASS
  1
LWPOLYLINE
  2
AcDbPolyline
  3
ObjectDBX Classes
 90
        0
280
     0
281
     1
  0
CLASS
  1
HATCH
  2
AcDbHatch
  3
ObjectDBX Classes
 90
    32768
280
     0
281
     1
  0
CLASS
  1
XRECORD
  2
AcDbXrecord
  3
ObjectDBX Classes
 90
        0
280
     0
281
     0
  0
CLASS
  1
LONG_TRANSACTION
  2
AcDbLongTransaction
  3
ObjectDBX Classes
 90
    32768
280
     0
281
     0
  0
CLASS
  1
LWPOLYLINE
  2
AcDbPolyline
  3
ObjectDBX Classes
 90
        0
280
     0
281
     1
  0
CLASS
  1
HATCH
  2
AcDbHatch
  3
ObjectDBX Classes
 90
    32768
280
     0
281
     1
  0
CLASS
  1
XRECORD
  2
AcDbXrecord
  3
ObjectDBX Classes
 90
        0
280
     0
281
     0
  0
CLASS
  1
DICTIONARYVAR
  2
AcDbDictionaryVar
  3
ObjectDBX Classes
 90
        0
280
     0
281
     0
  0
CLASS
  1
PLOTSETTINGS
  2
AcDbPlotSettings
  3
ObjectDBX Classes
 90
        0
280
     0
281
     0
  0
CLASS
  1
SORTENTSTABLE
  2
AcDbSortentsTable
  3
ObjectDBX Classes
 90
        0
280
     0
281
     0
  0
CLASS
  1
TABLESTYLE
  2
AcDbTableStyle
  3
ObjectDBX Classes
 90
     2047
280
     0
281
     0
  0
ENDSEC
  0
SECTION
  2
TABLES
  0
TABLE
  2
VPORT
  5
8
330
0
100
AcDbSymbolTable
 70
     6
  0
VPORT
  5
EAF0
330
8
100
AcDbSymbolTableRecord
100
AcDbViewportTableRecord
  2
*Active
 70
     0
 10
0.0
 20
0.0
 11
1.0
 21
1.0
 12
2912.58736280925
 22
771.4650340448318
 13
457.9999999999997
 23
1082.0
 14
10.0
 24
10.0
 15
10.0
 25
10.0
 16
0.0
 26
0.0
 36
1.0
 17
0.0
 27
0.0
 37
0.0
 40
283.4157995315426
 41
1.530456852791878
 42
1.0
 43
0.0
 44
0.0
 50
0.0
 51
0.0
 71
     0
 72
  2000
 73
     1
 74
     1
 75
     0
 76
     0
 77
     0
 78
     0
281
     0
 65
     1
110
0.0
120
0.0
130
0.0
111
1.0
121
0.0
131
0.0
112
0.0
122
1.0
132
0.0
 79
     0
146
0.0
  0
ENDTAB
  0
TABLE
  2
LTYPE
  5
5
330
0
100
AcDbSymbolTable
 70
     6
  0
LTYPE
  5
13
330
5
100
AcDbSymbolTableRecord
100
AcDbLinetypeTableRecord
  2
ByBlock
 70
     0
  3

 72
    65
 73
     0
 40
0.0
  0
LTYPE
  5
14
330
5
100
AcDbSymbolTableRecord
100
AcDbLinetypeTableRecord
  2
ByLayer
 70
     0
  3

 72
    65
 73
     0
 40
0.0
  0
LTYPE
  5
15
330
5
100
AcDbSymbolTableRecord
100
AcDbLinetypeTableRecord
  2
CONTINUOUS
 70
     0
  3
連續線 ________________________
 72
    65
 73
     0
 40
0.0
  0
LTYPE
  5
225
330
5
100
AcDbSymbolTableRecord
100
AcDbLinetypeTableRecord
  2
BYBLOCK
 70
     0
  3
Solid line
 72
    65
 73
     0
 40
0.0
  0
LTYPE
  5
226
330
5
100
AcDbSymbolTableRecord
100
AcDbLinetypeTableRecord
  2
BYLAYER
 70
     0
  3
Solid line
 72
    65
 73
     0
 40
0.0
  0
LTYPE
  5
413C
330
5
100
AcDbSymbolTableRecord
100
AcDbLinetypeTableRecord
  2
CENTER2
 70
     0
  3
Center (.5x) ___ _ ___ _ ___ _ ___ _ ___ _ ___
 72
    65
 73
     4
 40
28.575
 49
19.05
 74
     0
 49
-3.174999999999999
 74
     0
 49
3.174999999999999
 74
     0
 49
-3.174999999999999
 74
     0
  0
LTYPE
  5
413D
330
5
100
AcDbSymbolTableRecord
100
AcDbLinetypeTableRecord
  2
DASHED2
 70
     0
  3
Dashed (.5x) _ _ _ _ _ _ _ _ _ _ _ _ _ _ _ _ _
 72
    65
 73
     2
 40
9.524999999999998
 49
6.349999999999999
 74
     0
 49
-3.174999999999999
 74
     0
  0
LTYPE
  5
69DC
330
5
100
AcDbSymbolTableRecord
100
AcDbLinetypeTableRecord
  2
DASHED
 70
     0
  3
__ __ __ __ __ __ __ __ __ __ __ __ __ __ __
 72
    65
 73
     2
 40
4.0
 49
3.0
 74
     0
 49
-1.0
 74
     0
  0
ENDTAB
  0
TABLE
  2
LAYER
  5
2
102
{ACAD_XDICTIONARY
360
43C2
102
}
330
0
100
AcDbSymbolTable
 70
     7
  0
LAYER
  5
10
330
2
100
AcDbSymbolTableRecord
100
AcDbLayerTableRecord
  2
0
 70
     0
 62
     7
  6
CONTINUOUS
370
    -3
390
F
  0
LAYER
  5
413E
330
2
100
AcDbSymbolTableRecord
100
AcDbLayerTableRecord
  2
指線
 70
     0
 62
     3
  6
CONTINUOUS
370
    15
390
F
  0
LAYER
  5
413F
330
2
100
AcDbSymbolTableRecord
100
AcDbLayerTableRecord
  2
中心線
 70
     0
 62
     4
  6
CENTER2
370
    20
390
F
  0
LAYER
  5
4140
330
2
100
AcDbSymbolTableRecord
100
AcDbLayerTableRecord
  2
虛線
 70
     0
 62
     6
  6
DASHED2
290
     0
370
    -3
390
F
  0
LAYER
  5
43B4
330
2
100
AcDbSymbolTableRecord
100
AcDbLayerTableRecord
  2
建構線
 70
     0
 62
     1
  6
CONTINUOUS
370
    -3
390
F
  0
LAYER
  5
69DF
330
2
100
AcDbSymbolTableRecord
100
AcDbLayerTableRecord
  2
標註線
 70
     0
 62
     3
  6
CONTINUOUS
370
    13
390
F
  0
LAYER
  5
C701
330
2
100
AcDbSymbolTableRecord
100
AcDbLayerTableRecord
  2
Defpoints
 70
     0
 62
     7
  6
CONTINUOUS
290
     0
370
    -3
390
F
  0
ENDTAB
  0
TABLE
  2
STYLE
  5
3
330
0
100
AcDbSymbolTable
 70
     2
  0
STYLE
  5
11
330
3
100
AcDbSymbolTableRecord
100
AcDbTextStyleTableRecord
  2
STANDARD
 70
     0
 40
0.0
 41
1.0
 50
0.0
 71
     0
 42
3.0
  3

  4

  0
STYLE
  5
EACE
330
3
100
AcDbSymbolTableRecord
100
AcDbTextStyleTableRecord
  2
型式2
 70
     0
 40
0.0
 41
1.0
 50
0.0
 71
     0
 42
5.0
  3
KAIU.TTF
  4

1001
ACAD
1000
DFKai-SB
1071
    34881
  0
ENDTAB
  0
TABLE
  2
VIEW
  5
6
330
0
100
AcDbSymbolTable
 70
     0
  0
ENDTAB
  0
TABLE
  2
UCS
  5
7
330
0
100
AcDbSymbolTable
 70
     0
  0
ENDTAB
  0
TABLE
  2
APPID
  5
9
330
0
100
AcDbSymbolTable
 70
     4
  0
APPID
  5
12
330
9
100
AcDbSymbolTableRecord
100
AcDbRegAppTableRecord
  2
ACAD
 70
     0
  0
APPID
  5
230
330
9
100
AcDbSymbolTableRecord
100
AcDbRegAppTableRecord
  2
TCAD
 70
     0
  0
APPID
  5
4142
330
9
100
AcDbSymbolTableRecord
100
AcDbRegAppTableRecord
  2
CONTENTBLOCKICON
 70
     0
  0
APPID
  5
5D91
330
9
100
AcDbSymbolTableRecord
100
AcDbRegAppTableRecord
  2
pntflag
 70
     0
  0
ENDTAB
  0
TABLE
  2
DIMSTYLE
  5
A
330
0
100
AcDbSymbolTable
 70
     2
100
AcDbDimStyleTable
 71
     1
340
3C9D
  0
DIMSTYLE
105
3C9D
330
A
100
AcDbSymbolTableRecord
100
AcDbDimStyleTableRecord
  2
Standard
 70
     0
340
11
  0
DIMSTYLE
105
EACF
330
A
100
AcDbSymbolTableRecord
100
AcDbDimStyleTableRecord
  2
ISO-25
 70
     0
 40
2.0
 41
2.399999999999999
 42
0.7
 43
3.2
 44
0.7
 73
     0
 74
     0
 77
     1
 78
     8
140
2.5
141
2.5
143
0.03937007874016
147
0.7
171
     3
172
     1
176
   256
177
   256
178
   256
271
     2
272
     8
274
     3
283
     0
284
     8
340
11
  0
ENDTAB
  0
TABLE
  2
BLOCK_RECORD
  5
1
330
0
100
AcDbSymbolTable
 70
     4
  0
BLOCK_RECORD
  5
1E
102
{ACAD_XDICTIONARY
360
3D1E
102
}
330
1
100
AcDbSymbolTableRecord
100
AcDbBlockTableRecord
  2
*Model_Space
340
21
  0
BLOCK_RECORD
  5
1A
102
{ACAD_XDICTIONARY
360
3D20
102
}
330
1
100
AcDbSymbolTableRecord
100
AcDbBlockTableRecord
  2
*Paper_Space
340
1D
  0
BLOCK_RECORD
  5
69B7
102
{ACAD_XDICTIONARY
360
69B8
102
}
330
1
100
AcDbSymbolTableRecord
100
AcDbBlockTableRecord
  2
A$C51E2538E
340
0
  0
BLOCK_RECORD
  5
69CB
102
{ACAD_XDICTIONARY
360
69CC
102
}
330
1
100
AcDbSymbolTableRecord
100
AcDbBlockTableRecord
  2
A$C3310154B
340
0
  0
ENDTAB
  0
ENDSEC
  0
SECTION
  2
BLOCKS
  0
BLOCK
  5
254
330
1E
100
AcDbEntity
  8
0
100
AcDbBlockBegin
  2
*Model_Space
 70
     0
 10
0.0
 20
0.0
 30
0.0
  3
*Model_Space
  1

  0
ENDBLK
  5
255
330
1E
100
AcDbEntity
  8
0
100
AcDbBlockEnd
  0
BLOCK
  5
252
330
1A
100
AcDbEntity
 67
     1
  8
0
100
AcDbBlockBegin
  2
*Paper_Space
 70
     0
 10
0.0
 20
0.0
 30
0.0
  3
*Paper_Space
  1

  0
ENDBLK
  5
253
330
1A
100
AcDbEntity
 67
     1
  8
0
100
AcDbBlockEnd
  0
BLOCK
  5
69BA
330
69B7
100
AcDbEntity
  8
0
 62
     1
 48
0.27
100
AcDbBlockBegin
  2
A$C51E2538E
 70
     0
 10
0.0
 20
0.0
 30
0.0
  3
A$C51E2538E
  1

  0
LINE
  5
69BB
330
69B7
100
AcDbEntity
  8
虛線
 48
0.25
100
AcDbLine
 10
9.230939415452212
 20
1.99838789798423
 30
0.0
 11
2.230939415459943
 21
1.998387897983548
 31
0.0
  0
LINE
  5
69BC
330
69B7
100
AcDbEntity
  8
虛線
 48
0.25
100
AcDbLine
 10
9.230939415453576
 20
15.79841841556197
 30
0.0
 11
9.230939415452212
 21
1.99838789798423
 31
0.0
  0
LINE
  5
69BD
330
69B7
100
AcDbEntity
  8
虛線
 48
0.25
100
AcDbLine
 10
0.2309394154581241
 20
24.698418415562
 30
0.0
 11
0.2309394154590336
 21
16.09842604495623
 31
0.0
  0
LINE
  5
69BE
330
69B7
100
AcDbEntity
  8
虛線
 48
0.25
100
AcDbLine
 10
2.230939415453576
 20
15.79841841556191
 30
0.0
 11
2.230939415459943
 21
1.998387897983576
 31
0.0
  0
LINE
  5
69BF
330
69B7
100
AcDbEntity
  8
虛線
 48
0.25
100
AcDbLine
 10
0.2309394154590336
 20
16.09835738040544
 30
0.0
 11
11.23093941545221
 21
16.09835738040573
 31
0.0
  0
LINE
  5
69C0
330
69B7
100
AcDbEntity
  8
中心線
 48
0.25
100
AcDbLine
 10
5.730939415455679
 20
27.09841841556201
 30
0.0
 11
5.730939415449938
 21
0.0
 31
0.0
  0
LINE
  5
69C1
330
69B7
100
AcDbEntity
  8
虛線
 48
0.25
100
AcDbLine
 10
2.230939415459943
 20
1.998387897983548
 30
0.0
 11
1.730939415460852
 21
1.498387897984002
 31
0.0
  0
LINE
  5
69C2
330
69B7
100
AcDbEntity
  8
虛線
 48
0.25
100
AcDbLine
 10
9.230939415452212
 20
1.99838789798423
 30
0.0
 11
9.730939415451302
 21
1.498387897984287
 31
0.0
  0
LINE
  5
69C3
330
69B7
100
AcDbEntity
  8
虛線
 48
0.25
100
AcDbLine
 10
11.23093941545358
 20
24.698418415562
 30
0.0
 11
11.23093941545221
 21
16.09835738040573
 31
0.0
  0
LINE
  5
69C4
330
69B7
100
AcDbEntity
  8
虛線
 48
0.25
100
AcDbLine
 10
0.2309394154535767
 20
24.698418415562
 30
0.0
 11
11.23093941545358
 21
24.698418415562
 31
0.0
  0
LINE
  5
69C5
330
69B7
100
AcDbEntity
  8
虛線
 48
0.25
100
AcDbLine
 10
2.230939415453576
 20
15.79841841556197
 30
0.0
 11
9.230939415453576
 21
15.79841841556197
 31
0.0
  0
LINE
  5
69C6
330
69B7
100
AcDbEntity
  8
虛線
 48
0.25
100
AcDbLine
 10
1.930939415453394
 20
16.09841841556192
 30
0.0
 11
2.230939415453576
 21
15.79841841556191
 31
0.0
  0
LINE
  5
69C7
330
69B7
100
AcDbEntity
  8
虛線
 48
0.25
100
AcDbLine
 10
0.2309394154535767
 20
24.698418415562
 30
0.0
 11
-0.0000006922223292
 21
25.09841841556204
 31
0.0
  0
LINE
  5
69C8
330
69B7
100
AcDbEntity
  8
虛線
 48
0.25
100
AcDbLine
 10
9.230939415453576
 20
15.79841841556197
 30
0.0
 11
9.530939415453758
 21
16.09841841556198
 31
0.0
  0
LINE
  5
69C9
330
69B7
100
AcDbEntity
  8
虛線
 48
0.25
100
AcDbLine
 10
11.23093941545358
 20
24.698418415562
 30
0.0
 11
11.46187952312948
 21
25.09841841556204
 31
0.0
  0
ENDBLK
  5
69CA
330
69B7
100
AcDbEntity
  8
0
 62
     1
 48
0.27
100
AcDbBlockEnd
  0
BLOCK
  5
69CE
330
69CB
100
AcDbEntity
  8
0
 62
     1
 48
0.27
100
AcDbBlockBegin
  2
A$C3310154B
 70
     0
 10
0.0
 20
0.0
 30
0.0
  3
A$C3310154B
  1

  0
LINE
  5
69CF
330
69CB
100
AcDbEntity
  8
虛線
 48
0.2
100
AcDbLine
 10
0.4999707651827521
 20
12.80115016654724
 30
0.0
 11
0.4999707651836616
 21
5.30113016654775
 31
0.0
  0
LINE
  5
69D0
330
69CB
100
AcDbEntity
  8
虛線
 48
0.2
100
AcDbLine
 10
6.499970765181842
 20
12.80111016654831
 30
0.0
 11
6.499970765183661
 21
5.301130166548432
 31
0.0
  0
LINE
  5
69D1
330
69CB
100
AcDbEntity
  8
虛線
 48
0.2
100
AcDbLine
 10
6.499970765183661
 20
5.301130166548432
 30
0.0
 11
0.4999707651836616
 21
5.30113016654775
 31
0.0
  0
LINE
  5
69D2
330
69CB
100
AcDbEntity
  8
中心線
 48
0.25
100
AcDbLine
 10
3.49999076518344
 20
15.30112016654811
 30
0.0
 11
3.499990765177699
 21
0.000000166540076
 31
0.0
  0
LINE
  5
69D3
330
69CB
100
AcDbEntity
  8
虛線
 48
0.2
100
AcDbLine
 10
5.999980765182044
 20
12.30112016654846
 30
0.0
 11
5.999980765187501
 21
2.30113016655747
 31
0.0
  0
LINE
  5
69D4
330
69CB
100
AcDbEntity
  8
虛線
 48
0.2
100
AcDbLine
 10
1.000000765181994
 20
12.30112016654812
 30
0.0
 11
1.000000765187905
 21
2.301130166554685
 31
0.0
  0
LINE
  5
69D5
330
69CB
100
AcDbEntity
  8
虛線
 48
0.2
100
AcDbLine
 10
5.999980765187501
 20
2.30113016655747
 30
0.0
 11
1.000000765187905
 21
2.301130166554685
 31
0.0
  0
LINE
  5
69D6
330
69CB
100
AcDbEntity
  8
虛線
 48
0.2
100
AcDbLine
 10
5.999980765182499
 20
12.3011201665484
 30
0.0
 11
1.000000765181994
 21
12.30112016654817
 31
0.0
  0
LINE
  5
69D7
330
69CB
100
AcDbEntity
  8
虛線
 48
0.2
100
AcDbLine
 10
5.999980765182044
 20
12.3011201665484
 30
0.0
 11
6.999980765182499
 21
13.30112016654863
 31
0.0
  0
LINE
  5
69D8
330
69CB
100
AcDbEntity
  8
虛線
 48
0.2
100
AcDbLine
 10
5.999980765187956
 20
2.301130166557413
 30
0.0
 11
3.499990765183611
 21
0.801130166544965
 31
0.0
  0
LINE
  5
69D9
330
69CB
100
AcDbEntity
  8
虛線
 48
0.2
100
AcDbLine
 10
1.000000765187905
 20
2.30113016657259
 30
0.0
 11
3.499990765178154
 21
0.801130166544965
 31
0.0
  0
LINE
  5
69DA
330
69CB
100
AcDbEntity
  8
虛線
 48
0.2
100
AcDbLine
 10
1.00000076518495
 20
12.30112016654834
 30
0.0
 11
0.0000007651844385
 21
13.30112016654854
 31
0.0
  0
ENDBLK
  5
69DB
330
69CB
100
AcDbEntity
  8
0
 62
     1
 48
0.27
100
AcDbBlockEnd
  0
ENDSEC
  0
SECTION
  2
ENTITIES
  0
LINE
  5
A28F
330
1E
100
AcDbEntity
  8
0
  6
Continuous
 62
     7
100
AcDbLine
 10
2904.607909495336
 20
740.2723532890695
 30
0.0
 11
2924.607909495336
 21
740.2723532890693
 31
0.0
  0
LINE
  5
A290
330
1E
100
AcDbEntity
  8
0
  6
Continuous
 62
     7
100
AcDbLine
 10
3031.107909495336
 20
740.2723532885695
 30
0.0
 11
3051.107909495336
 21
740.2723532885695
 31
0.0
  0
ARC
  5
B62E
330
1E
100
AcDbEntity
  8
0
  6
Continuous
 62
     7
100
AcDbCircle
 10
3049.10374282867
 20
881.2287483719039
 30
0.0
 40
5.704166666666643
100
AcDbArc
 50
322.1507111678919
 51
37.84928883210811
  0
LINE
  5
B62F
330
1E
100
AcDbEntity
  8
中心線
 48
0.3
100
AcDbLine
 10
3057.771636193714
 20
881.2287483719542
 30
0.0
 11
3050.607909495336
 21
881.2287483719542
 31
0.0
  0
ARC
  5
B630
330
1E
100
AcDbEntity
  8
0
  6
Continuous
 62
     7
100
AcDbCircle
 10
3049.10374282867
 20
828.8287483714995
 30
0.0
 40
5.704166666666643
100
AcDbArc
 50
322.1507111678919
 51
37.84928883210811
  0
LINE
  5
B631
330
1E
100
AcDbEntity
  8
中心線
 48
0.3
100
AcDbLine
 10
3057.771636193714
 20
828.8287483715498
 30
0.0
 11
3050.607909495336
 21
828.8287483715498
 31
0.0
  0
ARC
  5
B632
330
1E
100
AcDbEntity
  8
0
  6
Continuous
 62
     7
100
AcDbCircle
 10
2906.612076162003
 20
881.2287483719039
 30
0.0
 40
5.704166666666643
100
AcDbArc
 50
142.1507111678919
 51
217.8492888321081
  0
LINE
  5
B633
330
1E
100
AcDbEntity
  8
中心線
 48
0.3
100
AcDbLine
 10
2897.944182796957
 20
881.2287483719542
 30
0.0
 11
2905.107909495336
 21
881.2287483719542
 31
0.0
  0
ARC
  5
B634
330
1E
100
AcDbEntity
  8
0
  6
Continuous
 62
     7
100
AcDbCircle
 10
2906.612076162003
 20
828.8287483714995
 30
0.0
 40
5.704166666666643
100
AcDbArc
 50
142.1507111678919
 51
217.8492888321081
  0
LINE
  5
B635
330
1E
100
AcDbEntity
  8
中心線
 48
0.3
100
AcDbLine
 10
2897.944182796957
 20
828.8287483715498
 30
0.0
 11
2905.107909495336
 21
828.8287483715498
 31
0.0
  0
LINE
  5
B636
330
1E
100
AcDbEntity
  8
0
 48
0.27
100
AcDbLine
 10
3053.607909495336
 20
889.5287483749488
 30
0.0
 11
3053.607909495336
 21
820.5287483749488
 31
0.0
  0
LINE
  5
B637
330
1E
100
AcDbEntity
  8
0
 48
0.27
100
AcDbLine
 10
2902.107909495336
 20
889.5287483749488
 30
0.0
 11
2902.107909495336
 21
820.5287483749488
 31
0.0
  0
CIRCLE
  5
B63A
330
1E
100
AcDbEntity
  8
0
  6
Continuous
 62
     7
100
AcDbCircle
 10
3039.107909495336
 20
855.0287483749487
 30
0.0
 40
5.15
  0
CIRCLE
  5
B63B
330
1E
100
AcDbEntity
  8
0
  6
Continuous
 62
     7
100
AcDbCircle
 10
3039.107909495336
 20
855.0287483749487
 30
0.0
 40
0.75
  0
LINE
  5
B63C
330
1E
100
AcDbEntity
  8
0
  6
Continuous
 62
     7
100
AcDbLine
 10
3053.607909495336
 20
889.5287483749488
 30
0.0
 11
3031.107909495336
 21
889.5287483749488
 31
0.0
  0
LINE
  5
B63D
330
1E
100
AcDbEntity
  8
0
  6
Continuous
 62
     7
100
AcDbLine
 10
3053.607909495336
 20
888.0287483749491
 30
0.0
 11
3031.107909495336
 21
888.0287483749487
 31
0.0
  0
LINE
  5
B63E
330
1E
100
AcDbEntity
  8
0
  6
Continuous
 62
     7
100
AcDbLine
 10
3051.107909495336
 20
820.5287483749488
 30
0.0
 11
3051.107909495336
 21
889.5287483749488
 31
0.0
  0
LINE
  5
B63F
330
1E
100
AcDbEntity
  8
0
  6
Continuous
 62
     7
100
AcDbLine
 10
3031.107909495336
 20
862.9787483749488
 30
0.0
 11
3051.107909495336
 21
862.9787483749488
 31
0.0
  0
LINE
  5
B640
330
1E
100
AcDbEntity
  8
0
  6
Continuous
 62
     7
100
AcDbLine
 10
3031.107909495336
 20
862.5287483749488
 30
0.0
 11
3051.107909495336
 21
862.5287483749488
 31
0.0
  0
LINE
  5
B641
330
1E
100
AcDbEntity
  8
0
  6
Continuous
 62
     7
100
AcDbLine
 10
3051.107909495336
 20
847.5287483749488
 30
0.0
 11
3031.107909495336
 21
847.5287483749488
 31
0.0
  0
LINE
  5
B642
330
1E
100
AcDbEntity
  8
0
  6
Continuous
 62
     7
100
AcDbLine
 10
3051.107909495336
 20
847.0787483749488
 30
0.0
 11
3031.107909495336
 21
847.0787483749488
 31
0.0
  0
LINE
  5
B643
330
1E
100
AcDbEntity
  8
0
  6
Continuous
 62
     7
100
AcDbLine
 10
3053.607909495336
 20
822.0287483749487
 30
0.0
 11
3031.107909495336
 21
822.0287483749487
 31
0.0
  0
LINE
  5
B644
330
1E
100
AcDbEntity
  8
0
  6
Continuous
 62
     7
100
AcDbLine
 10
3053.607909495336
 20
820.5287483749488
 30
0.0
 11
3031.107909495336
 21
820.5287483749488
 31
0.0
  0
CIRCLE
  5
B647
330
1E
100
AcDbEntity
  8
0
  6
Continuous
 62
     7
100
AcDbCircle
 10
2916.607909495336
 20
855.0287483749487
 30
0.0
 40
5.15
  0
CIRCLE
  5
B648
330
1E
100
AcDbEntity
  8
0
  6
Continuous
 62
     7
100
AcDbCircle
 10
2916.607909495336
 20
855.0287483749487
 30
0.0
 40
0.75
  0
LINE
  5
B649
330
1E
100
AcDbEntity
  8
0
  6
Continuous
 62
     7
100
AcDbLine
 10
2902.107909495336
 20
889.5287483749488
 30
0.0
 11
2924.607909495336
 21
889.5287483749488
 31
0.0
  0
LINE
  5
B64A
330
1E
100
AcDbEntity
  8
0
  6
Continuous
 62
     7
100
AcDbLine
 10
2902.107909495336
 20
888.0287483749491
 30
0.0
 11
2924.607909495336
 21
888.0287483749487
 31
0.0
  0
LINE
  5
B64B
330
1E
100
AcDbEntity
  8
0
  6
Continuous
 62
     7
100
AcDbLine
 10
2904.607909495336
 20
820.5287483749488
 30
0.0
 11
2904.607909495336
 21
889.5287483749488
 31
0.0
  0
LINE
  5
B64C
330
1E
100
AcDbEntity
  8
0
  6
Continuous
 62
     7
100
AcDbLine
 10
2924.607909495336
 20
862.9787483749488
 30
0.0
 11
2904.607909495336
 21
862.9787483749488
 31
0.0
  0
LINE
  5
B64D
330
1E
100
AcDbEntity
  8
0
  6
Continuous
 62
     7
100
AcDbLine
 10
2924.607909495336
 20
862.5287483749488
 30
0.0
 11
2904.607909495336
 21
862.5287483749488
 31
0.0
  0
LINE
  5
B64E
330
1E
100
AcDbEntity
  8
0
  6
Continuous
 62
     7
100
AcDbLine
 10
2904.607909495336
 20
847.5287483749488
 30
0.0
 11
2924.607909495336
 21
847.5287483749488
 31
0.0
  0
LINE
  5
B64F
330
1E
100
AcDbEntity
  8
0
  6
Continuous
 62
     7
100
AcDbLine
 10
2904.607909495336
 20
847.0787483749488
 30
0.0
 11
2924.607909495336
 21
847.0787483749488
 31
0.0
  0
LINE
  5
B650
330
1E
100
AcDbEntity
  8
0
  6
Continuous
 62
     7
100
AcDbLine
 10
2924.607909495336
 20
820.5287483749488
 30
0.0
 11
2924.607909495336
 21
889.5287483749488
 31
0.0
  0
LINE
  5
B651
330
1E
100
AcDbEntity
  8
0
  6
Continuous
 62
     7
100
AcDbLine
 10
2902.107909495336
 20
822.0287483749491
 30
0.0
 11
2924.607909495336
 21
822.0287483749487
 31
0.0
  0
LINE
  5
B652
330
1E
100
AcDbEntity
  8
0
  6
Continuous
 62
     7
100
AcDbLine
 10
2902.107909495336
 20
820.5287483749488
 30
0.0
 11
2924.607909495336
 21
820.5287483749488
 31
0.0
  0
LINE
  5
B78A
330
1E
100
AcDbEntity
  8
0
100
AcDbLine
 10
3031.107909495336
 20
821.8287483749472
 30
0.0
 11
2924.607909495336
 21
821.8287483749472
 31
0.0
  0
LINE
  5
B78B
330
1E
100
AcDbEntity
  8
0
100
AcDbLine
 10
3031.107909495336
 20
837.5287483749479
 30
0.0
 11
2924.607909495336
 21
837.5287483749479
 31
0.0
  0
LINE
  5
B78C
330
1E
100
AcDbEntity
  8
0
100
AcDbLine
 10
3031.107909495336
 20
838.0287483749478
 30
0.0
 11
2924.607909495336
 21
838.0287483749478
 31
0.0
  0
LINE
  5
B78D
330
1E
100
AcDbEntity
  8
0
100
AcDbLine
 10
3031.107909495336
 20
847.6287483749482
 30
0.0
 11
2924.607909495336
 21
847.6287483749482
 31
0.0
  0
LINE
  5
B78E
330
1E
100
AcDbEntity
  8
0
100
AcDbLine
 10
3031.107909495336
 20
848.1287483749483
 30
0.0
 11
2924.607909495336
 21
848.1287483749483
 31
0.0
  0
LINE
  5
B78F
330
1E
100
AcDbEntity
  8
0
100
AcDbLine
 10
3031.107909495336
 20
861.9287483749475
 30
0.0
 11
2924.607909495336
 21
861.9287483749475
 31
0.0
  0
LINE
  5
B790
330
1E
100
AcDbEntity
  8
0
100
AcDbLine
 10
3031.107909495336
 20
862.4287483749474
 30
0.0
 11
2924.607909495336
 21
862.4287483749474
 31
0.0
  0
LINE
  5
B791
330
1E
100
AcDbEntity
  8
0
100
AcDbLine
 10
3031.107909495336
 20
872.0287483749478
 30
0.0
 11
2924.607909495336
 21
872.0287483749478
 31
0.0
  0
LINE
  5
B792
330
1E
100
AcDbEntity
  8
0
100
AcDbLine
 10
3031.107909495336
 20
872.5287483749479
 30
0.0
 11
2924.607909495336
 21
872.5287483749479
 31
0.0
  0
LINE
  5
B793
330
1E
100
AcDbEntity
  8
0
100
AcDbLine
 10
3031.107909495336
 20
888.2287483749468
 30
0.0
 11
2924.607909495336
 21
888.2287483749468
 31
0.0
  0
LINE
  5
B7A4
330
1E
100
AcDbEntity
  8
0
100
AcDbLine
 10
3031.107909495336
 20
890.0287483749478
 30
0.0
 11
2924.607909495336
 21
890.0287483749478
 31
0.0
  0
LINE
  5
B7A5
330
1E
100
AcDbEntity
  8
0
100
AcDbLine
 10
3031.107909495336
 20
820.0287483749479
 30
0.0
 11
2924.607909495336
 21
820.0287483749496
 31
0.0
  0
LINE
  5
B7A6
330
1E
100
AcDbEntity
  8
0
100
AcDbLine
 10
2924.607909495336
 20
890.0287483749478
 30
0.0
 11
2924.607909495336
 21
820.0287483749496
 31
0.0
  0
LINE
  5
B7A7
330
1E
100
AcDbEntity
  8
0
100
AcDbLine
 10
3031.107909495336
 20
890.0287483749478
 30
0.0
 11
3031.107909495336
 21
820.0287483749479
 31
0.0
  0
ARC
  5
B903
330
1E
100
AcDbEntity
  8
0
  6
Continuous
 62
     7
100
AcDbCircle
 10
3049.103742828669
 20
723.8223532883892
 30
0.0
 40
5.704166666666643
100
AcDbArc
 50
322.1507111678919
 51
37.84928883210811
  0
ARC
  5
B904
330
1E
100
AcDbEntity
  8
0
  6
Continuous
 62
     7
100
AcDbCircle
 10
2906.612076162002
 20
723.8223532883892
 30
0.0
 40
5.704166666666643
100
AcDbArc
 50
142.1507111678919
 51
217.8492888321081
  0
LINE
  5
B905
330
1E
100
AcDbEntity
  8
中心線
 48
0.3
100
AcDbLine
 10
3057.771636193714
 20
723.8223532884396
 30
0.0
 11
3050.607909495336
 21
723.8223532884396
 31
0.0
  0
LINE
  5
B906
330
1E
100
AcDbEntity
  8
中心線
 48
0.3
100
AcDbLine
 10
2897.944182796957
 20
723.8223532884396
 30
0.0
 11
2905.107909495336
 21
723.8223532884396
 31
0.0
  0
LINE
  5
B907
330
1E
100
AcDbEntity
  8
虛線
 48
0.25
100
AcDbLine
 10
3010.534392649632
 20
746.6223532885692
 30
0.0
 11
3009.534392649632
 21
747.6223532885692
 31
0.0
  0
LINE
  5
B908
330
1E
100
AcDbEntity
  8
虛線
 48
0.25
100
AcDbLine
 10
3017.181365305883
 20
746.6223532885692
 30
0.0
 11
3018.181365305883
 21
747.6223532885692
 31
0.0
  0
LINE
  5
B909
330
1E
100
AcDbEntity
  8
虛線
 48
0.25
100
AcDbLine
 10
3010.534392649632
 20
746.6223532885692
 30
0.0
 11
3017.181365305883
 21
746.6223532885687
 31
0.0
  0
LINE
  5
B90A
330
1E
100
AcDbEntity
  8
中心線
 48
0.3
100
AcDbLine
 10
3013.857909495336
 20
749.6879670624194
 30
0.0
 11
3013.857909495336
 21
728.7693269257006
 31
0.0
  0
LINE
  5
B90B
330
1E
100
AcDbEntity
  8
虛線
 48
0.25
100
AcDbLine
 10
3017.857878977757
 20
735.6223532885692
 30
0.0
 11
3017.857878977757
 21
747.2988669604442
 31
0.0
  0
LINE
  5
B90C
330
1E
100
AcDbEntity
  8
虛線
 48
0.25
100
AcDbLine
 10
3009.857878977757
 20
735.6223532885692
 30
0.0
 11
3009.857878977757
 21
747.2988669604442
 31
0.0
  0
LINE
  5
B90D
330
1E
100
AcDbEntity
  8
虛線
 48
0.25
100
AcDbLine
 10
3010.534392649632
 20
746.6223532885692
 30
0.0
 11
3010.534392649632
 21
731.6223532885692
 31
0.0
  0
LINE
  5
B90E
330
1E
100
AcDbEntity
  8
虛線
 48
0.25
100
AcDbLine
 10
3017.181365305883
 20
746.6223532885692
 30
0.0
 11
3017.181365305883
 21
731.6223532885692
 31
0.0
  0
LINE
  5
B90F
330
1E
100
AcDbEntity
  8
虛線
 48
0.25
100
AcDbLine
 10
3009.857878977757
 20
735.6223532885692
 30
0.0
 11
3017.857878977757
 21
735.6223532885692
 31
0.0
  0
LINE
  5
B910
330
1E
100
AcDbEntity
  8
虛線
 48
0.25
100
AcDbLine
 10
3010.534392649632
 20
731.6223532885692
 30
0.0
 11
3017.181365305883
 21
731.6223532885692
 31
0.0
  0
LINE
  5
B911
330
1E
100
AcDbEntity
  8
虛線
 48
0.25
100
AcDbLine
 10
3017.181365305883
 20
731.6223532885692
 30
0.0
 11
3013.857909495336
 21
729.6254195729334
 31
0.0
  0
LINE
  5
B912
330
1E
100
AcDbEntity
  8
虛線
 48
0.25
100
AcDbLine
 10
3010.534453684788
 20
731.6223532885692
 30
0.0
 11
3013.857909495336
 21
729.6254195729334
 31
0.0
  0
LINE
  5
B913
330
1E
100
AcDbEntity
  8
虛線
 48
0.25
100
AcDbLine
 10
2938.534392649632
 20
746.6223532885696
 30
0.0
 11
2937.534392649632
 21
747.6223532885697
 31
0.0
  0
LINE
  5
B914
330
1E
100
AcDbEntity
  8
虛線
 48
0.25
100
AcDbLine
 10
2945.181365305883
 20
746.6223532885696
 30
0.0
 11
2946.181365305882
 21
747.6223532885697
 31
0.0
  0
LINE
  5
B915
330
1E
100
AcDbEntity
  8
虛線
 48
0.25
100
AcDbLine
 10
2938.534392649632
 20
746.6223532885696
 30
0.0
 11
2945.181365305883
 21
746.6223532885692
 31
0.0
  0
LINE
  5
B916
330
1E
100
AcDbEntity
  8
中心線
 48
0.3
100
AcDbLine
 10
2941.857909495336
 20
749.6879670624198
 30
0.0
 11
2941.857909495336
 21
728.7693269257011
 31
0.0
  0
LINE
  5
B917
330
1E
100
AcDbEntity
  8
虛線
 48
0.25
100
AcDbLine
 10
2945.857878977758
 20
735.6223532885697
 30
0.0
 11
2945.857878977758
 21
747.2988669604447
 31
0.0
  0
LINE
  5
B918
330
1E
100
AcDbEntity
  8
虛線
 48
0.25
100
AcDbLine
 10
2937.857878977757
 20
735.6223532885697
 30
0.0
 11
2937.857878977757
 21
747.2988669604447
 31
0.0
  0
LINE
  5
B919
330
1E
100
AcDbEntity
  8
虛線
 48
0.25
100
AcDbLine
 10
2938.534392649632
 20
746.6223532885696
 30
0.0
 11
2938.534392649632
 21
731.6223532885697
 31
0.0
  0
LINE
  5
B91A
330
1E
100
AcDbEntity
  8
虛線
 48
0.25
100
AcDbLine
 10
2945.181365305883
 20
746.6223532885696
 30
0.0
 11
2945.181365305883
 21
731.6223532885697
 31
0.0
  0
LINE
  5
B91B
330
1E
100
AcDbEntity
  8
虛線
 48
0.25
100
AcDbLine
 10
2937.857878977757
 20
735.6223532885697
 30
0.0
 11
2945.857878977758
 21
735.6223532885697
 31
0.0
  0
LINE
  5
B91C
330
1E
100
AcDbEntity
  8
虛線
 48
0.25
100
AcDbLine
 10
2938.534392649632
 20
731.6223532885697
 30
0.0
 11
2945.181365305883
 21
731.6223532885697
 31
0.0
  0
LINE
  5
B91D
330
1E
100
AcDbEntity
  8
虛線
 48
0.25
100
AcDbLine
 10
2945.181365305883
 20
731.6223532885697
 30
0.0
 11
2941.857909495336
 21
729.6254195729338
 31
0.0
  0
LINE
  5
B91E
330
1E
100
AcDbEntity
  8
虛線
 48
0.25
100
AcDbLine
 10
2938.534453684788
 20
731.6223532885697
 30
0.0
 11
2941.857909495336
 21
729.6254195729338
 31
0.0
  0
LINE
  5
B91F
330
1E
100
AcDbEntity
  8
0
100
AcDbLine
 10
2924.607909495336
 20
700.1223532885696
 30
0.0
 11
3031.107909495336
 21
700.1223532885696
 31
0.0
  0
LINE
  5
B920
330
1E
100
AcDbEntity
  8
0
100
AcDbLine
 10
2924.607909495336
 20
746.1223532885696
 30
0.0
 11
3031.107909495336
 21
746.1223532885696
 31
0.0
  0
LINE
  5
B921
330
1E
100
AcDbEntity
  8
0
100
AcDbLine
 10
2924.607909495336
 20
747.6223532885697
 30
0.0
 11
3031.107909495336
 21
747.622353288569
 31
0.0
  0
LINE
  5
B932
330
1E
100
AcDbEntity
  8
0
  6
Continuous
 62
     7
100
AcDbLine
 10
2902.107909495335
 20
699.1223532890799
 30
0.0
 11
2902.107909495336
 21
739.8223532890693
 31
0.0
  0
LINE
  5
B933
330
1E
100
AcDbEntity
  8
0
  6
Continuous
 62
     7
100
AcDbLine
 10
2904.607909495336
 20
699.1223532890694
 30
0.0
 11
2904.607909495336
 21
740.2723532890695
 31
0.0
  0
LINE
  5
B934
330
1E
100
AcDbEntity
  8
0
  6
Continuous
 62
     7
100
AcDbLine
 10
2905.107909495336
 20
708.3223549315694
 30
0.0
 11
2905.107909495336
 21
712.8223516456696
 31
0.0
  0
LINE
  5
B935
330
1E
100
AcDbEntity
  8
0
  6
Continuous
 62
     7
100
AcDbLine
 10
2908.107909495336
 20
713.5723532890692
 30
0.0
 11
2908.107909495336
 21
707.5723532890692
 31
0.0
  0
LINE
  5
B936
330
1E
100
AcDbEntity
  8
0
  6
Continuous
 62
     7
100
AcDbLine
 10
2924.607909495336
 20
699.1223532885692
 30
0.0
 11
2924.607909495336
 21
747.6223532885697
 31
0.0
  0
LINE
  5
B939
330
1E
100
AcDbEntity
  8
0
  6
Continuous
 62
     7
100
AcDbLine
 10
2902.107909495335
 20
699.1223532890799
 30
0.0
 11
3053.607909495336
 21
699.1223532884433
 31
0.0
  0
LINE
  5
B93C
330
1E
100
AcDbEntity
  8
0
  6
Continuous
 62
     7
100
AcDbLine
 10
2924.607909495336
 20
700.1223532890694
 30
0.0
 11
2902.107909495335
 21
700.1223532890694
 31
0.0
  0
LINE
  5
B93D
330
1E
100
AcDbEntity
  8
0
  6
Continuous
 62
     7
100
AcDbLine
 10
3031.107909495336
 20
700.1223532885692
 30
0.0
 11
3053.607909495336
 21
700.1223532885693
 31
0.0
  0
LINE
  5
B94E
330
1E
100
AcDbEntity
  8
0
  6
Continuous
 62
     7
100
AcDbLine
 10
2908.107909495336
 20
707.5723532890692
 30
0.0
 11
2904.607909495336
 21
707.5723532890692
 31
0.0
  0
LINE
  5
B94F
330
1E
100
AcDbEntity
  8
0
  6
Continuous
 62
     7
100
AcDbLine
 10
3047.607909495336
 20
707.5723532885695
 30
0.0
 11
3051.107909495336
 21
707.5723532885695
 31
0.0
  0
LINE
  5
B950
330
1E
100
AcDbEntity
  8
0
  6
Continuous
 62
     7
100
AcDbLine
 10
2905.607909495336
 20
707.8223532885695
 30
0.0
 11
2908.107909495336
 21
707.8223532885695
 31
0.0
  0
LINE
  5
B951
330
1E
100
AcDbEntity
  8
0
  6
Continuous
 62
     7
100
AcDbLine
 10
3047.607909495336
 20
707.8223532885695
 30
0.0
 11
3050.107909495336
 21
707.8223532885695
 31
0.0
  0
LINE
  5
B952
330
1E
100
AcDbEntity
  8
0
  6
Continuous
 62
     7
100
AcDbLine
 10
2905.607909495336
 20
713.3223532885694
 30
0.0
 11
2908.107909495336
 21
713.3223532885694
 31
0.0
  0
LINE
  5
B953
330
1E
100
AcDbEntity
  8
0
  6
Continuous
 62
     7
100
AcDbLine
 10
3047.607909495336
 20
713.3223532885694
 30
0.0
 11
3050.107909495336
 21
713.3223532885694
 31
0.0
  0
LINE
  5
B954
330
1E
100
AcDbEntity
  8
0
  6
Continuous
 62
     7
100
AcDbLine
 10
2908.107909495336
 20
713.5723532890692
 30
0.0
 11
2904.607909495336
 21
713.5723532890692
 31
0.0
  0
LINE
  5
B955
330
1E
100
AcDbEntity
  8
0
  6
Continuous
 62
     7
100
AcDbLine
 10
3047.607909495336
 20
713.5723532885695
 30
0.0
 11
3051.107909495336
 21
713.5723532885695
 31
0.0
  0
LINE
  5
B967
330
1E
100
AcDbEntity
  8
0
  6
Continuous
 62
     7
100
AcDbLine
 10
2902.107909495336
 20
738.3223532890692
 30
0.0
 11
2924.607909495336
 21
738.3223532890692
 31
0.0
  0
LINE
  5
B968
330
1E
100
AcDbEntity
  8
0
  6
Continuous
 62
     7
100
AcDbLine
 10
3031.107909495336
 20
738.3223532885694
 30
0.0
 11
3053.607909495336
 21
738.3223532885694
 31
0.0
  0
LINE
  5
B969
330
1E
100
AcDbEntity
  8
0
  6
Continuous
 62
     7
100
AcDbLine
 10
2902.107909495336
 20
739.8223532890693
 30
0.0
 11
2924.607909495336
 21
739.8223532890693
 31
0.0
  0
LINE
  5
B96A
330
1E
100
AcDbEntity
  8
0
  6
Continuous
 62
     7
100
AcDbLine
 10
3031.107909495336
 20
739.8223532885695
 30
0.0
 11
3053.607909495336
 21
739.8223532885695
 31
0.0
  0
LINE
  5
B96B
330
1E
100
AcDbEntity
  8
0
  6
Continuous
 62
     7
100
AcDbLine
 10
3031.107909495336
 20
699.1223532885378
 30
0.0
 11
3031.107909495336
 21
747.622353288569
 31
0.0
  0
LINE
  5
B96C
330
1E
100
AcDbEntity
  8
0
  6
Continuous
 62
     7
100
AcDbLine
 10
3047.607909495336
 20
713.5723532885695
 30
0.0
 11
3047.607909495336
 21
707.5723532885695
 31
0.0
  0
LINE
  5
B96D
330
1E
100
AcDbEntity
  8
0
  6
Continuous
 62
     7
100
AcDbLine
 10
3050.607909495336
 20
712.8222464232695
 30
0.0
 11
3050.607909495336
 21
708.3224601539691
 31
0.0
  0
LINE
  5
B96E
330
1E
100
AcDbEntity
  8
0
  6
Continuous
 62
     7
100
AcDbLine
 10
3051.107909495336
 20
699.1223532884537
 30
0.0
 11
3051.107909495336
 21
740.2723532885695
 31
0.0
  0
LINE
  5
B96F
330
1E
100
AcDbEntity
  8
0
  6
Continuous
 62
     7
100
AcDbLine
 10
3053.607909495336
 20
699.1223532884433
 30
0.0
 11
3053.607909495336
 21
739.8223532885695
 31
0.0
  0
ARC
  5
B970
330
1E
100
AcDbEntity
  8
0
  6
Continuous
 62
     7
100
AcDbCircle
 10
3050.107909495336
 20
712.8223532885694
 30
0.0
 40
0.5
100
AcDbArc
 50
0.0
 51
90.0
  0
ARC
  5
B971
330
1E
100
AcDbEntity
  8
0
  6
Continuous
 62
     7
100
AcDbCircle
 10
3050.107909495336
 20
708.3223532885694
 30
0.0
 40
0.5
100
AcDbArc
 50
270.0
 51
0.0
  0
ARC
  5
B972
330
1E
100
AcDbEntity
  8
0
  6
Continuous
 62
     7
100
AcDbCircle
 10
2905.607909495336
 20
712.8223532885694
 30
0.0
 40
0.5
100
AcDbArc
 50
90.0
 51
180.0
  0
ARC
  5
B973
330
1E
100
AcDbEntity
  8
0
  6
Continuous
 62
     7
100
AcDbCircle
 10
2905.607909495336
 20
708.3223532885694
 30
0.0
 40
0.5
100
AcDbArc
 50
180.0
 51
270.0
  0
CIRCLE
  5
B974
330
1E
100
AcDbEntity
  8
0
  6
Continuous
 62
     7
100
AcDbCircle
 10
3041.107909495336
 20
728.0223532885697
 30
0.0
 40
2.5
  0
CIRCLE
  5
B975
330
1E
100
AcDbEntity
  8
0
  6
Continuous
 62
     7
100
AcDbCircle
 10
3041.107909495336
 20
728.0223532885697
 30
0.0
 40
1.25
  0
CIRCLE
  5
B976
330
1E
100
AcDbEntity
  8
0
  6
Continuous
 62
     7
100
AcDbCircle
 10
3041.107909495336
 20
728.0223532885697
 30
0.0
 40
3.0
  0
CIRCLE
  5
B977
330
1E
100
AcDbEntity
  8
0
  6
Continuous
 62
     7
100
AcDbCircle
 10
2914.607909495336
 20
728.0223532890691
 30
0.0
 40
1.25
  0
CIRCLE
  5
B978
330
1E
100
AcDbEntity
  8
0
  6
Continuous
 62
     7
100
AcDbCircle
 10
2914.607909495336
 20
728.0223532890691
 30
0.0
 40
2.5
  0
CIRCLE
  5
B979
330
1E
100
AcDbEntity
  8
0
  6
Continuous
 62
     7
100
AcDbCircle
 10
2914.607909495336
 20
728.0223532890691
 30
0.0
 40
3.0
  0
LINE
  5
DAAE
330
1E
100
AcDbEntity
  8
虛線
 48
0.25
100
AcDbLine
 10
2759.183315371369
 20
746.622353288568
 30
0.0
 11
2758.183315371369
 21
747.6223532885681
 31
0.0
  0
LINE
  5
DAAF
330
1E
100
AcDbEntity
  8
虛線
 48
0.25
100
AcDbLine
 10
2765.93331537137
 20
746.6223532885682
 30
0.0
 11
2766.93331537137
 21
747.6223532885682
 31
0.0
  0
LINE
  5
DAB0
330
1E
100
AcDbEntity
  8
虛線
 48
0.25
100
AcDbLine
 10
2759.183315371369
 20
746.622353288568
 30
0.0
 11
2765.933315371369
 21
746.6223532885678
 31
0.0
  0
LINE
  5
DAB1
330
1E
100
AcDbEntity
  8
虛線
 48
0.25
100
AcDbLine
 10
2766.558284853791
 20
735.6223532885682
 30
0.0
 11
2766.558284853791
 21
747.2473227709894
 31
0.0
  0
LINE
  5
DAB2
330
1E
100
AcDbEntity
  8
虛線
 48
0.25
100
AcDbLine
 10
2758.55828485379
 20
735.6223532885682
 30
0.0
 11
2758.55828485379
 21
747.2473838061472
 31
0.0
  0
LINE
  5
DAB3
330
1E
100
AcDbEntity
  8
虛線
 48
0.25
100
AcDbLine
 10
2758.55828485379
 20
735.6223532885682
 30
0.0
 11
2766.558284853791
 21
735.6223532885682
 31
0.0
  0
LINE
  5
DAB4
330
1E
100
AcDbEntity
  8
虛線
 48
0.25
100
AcDbLine
 10
2759.183315371369
 20
731.6223532885683
 30
0.0
 11
2765.933315371369
 21
731.6223532885682
 31
0.0
  0
LINE
  5
DAB5
330
1E
100
AcDbEntity
  8
虛線
 48
0.25
100
AcDbLine
 10
2765.933315371369
 20
731.6223532885682
 30
0.0
 11
2762.558315371369
 21
729.6254195729324
 31
0.0
  0
LINE
  5
DAB6
330
1E
100
AcDbEntity
  8
虛線
 48
0.25
100
AcDbLine
 10
2759.183315371369
 20
731.6223532885683
 30
0.0
 11
2762.558315371369
 21
729.6254195729324
 31
0.0
  0
LINE
  5
DAB7
330
1E
100
AcDbEntity
  8
虛線
 48
0.25
100
AcDbLine
 10
2765.933315371369
 20
746.6223532885678
 30
0.0
 11
2765.933315371369
 21
731.6223532885682
 31
0.0
  0
LINE
  5
DAB8
330
1E
100
AcDbEntity
  8
虛線
 48
0.25
100
AcDbLine
 10
2759.183315371369
 20
746.622353288568
 30
0.0
 11
2759.183315371369
 21
731.6223532885683
 31
0.0
  0
LINE
  5
DAB9
330
1E
100
AcDbEntity
  8
虛線
 48
0.25
100
AcDbLine
 10
2734.18328485379
 20
746.622353288568
 30
0.0
 11
2733.183284853791
 21
747.6223532885681
 31
0.0
  0
LINE
  5
DABA
330
1E
100
AcDbEntity
  8
虛線
 48
0.25
100
AcDbLine
 10
2740.933284853791
 20
746.6223532885682
 30
0.0
 11
2741.933284853791
 21
747.6223532885682
 31
0.0
  0
LINE
  5
DABB
330
1E
100
AcDbEntity
  8
虛線
 48
0.25
100
AcDbLine
 10
2734.183284853791
 20
746.622353288568
 30
0.0
 11
2740.933284853791
 21
746.6223532885678
 31
0.0
  0
LINE
  5
DABC
330
1E
100
AcDbEntity
  8
虛線
 48
0.25
100
AcDbLine
 10
2741.558254336212
 20
735.6223532885682
 30
0.0
 11
2741.558254336212
 21
747.2473227709894
 31
0.0
  0
LINE
  5
DABD
330
1E
100
AcDbEntity
  8
虛線
 48
0.25
100
AcDbLine
 10
2733.558254336211
 20
735.6223532885682
 30
0.0
 11
2733.558254336211
 21
747.2473838061472
 31
0.0
  0
LINE
  5
DABE
330
1E
100
AcDbEntity
  8
虛線
 48
0.25
100
AcDbLine
 10
2733.558254336211
 20
735.6223532885682
 30
0.0
 11
2741.558254336212
 21
735.6223532885682
 31
0.0
  0
LINE
  5
DABF
330
1E
100
AcDbEntity
  8
虛線
 48
0.25
100
AcDbLine
 10
2734.183284853791
 20
731.6223532885683
 30
0.0
 11
2740.93328485379
 21
731.6223532885682
 31
0.0
  0
LINE
  5
DAC0
330
1E
100
AcDbEntity
  8
虛線
 48
0.25
100
AcDbLine
 10
2740.93328485379
 20
731.6223532885682
 30
0.0
 11
2737.55828485379
 21
729.6254195729324
 31
0.0
  0
LINE
  5
DAC1
330
1E
100
AcDbEntity
  8
虛線
 48
0.25
100
AcDbLine
 10
2734.183284853791
 20
731.6223532885683
 30
0.0
 11
2737.55828485379
 21
729.6254195729324
 31
0.0
  0
LINE
  5
DAC2
330
1E
100
AcDbEntity
  8
虛線
 48
0.25
100
AcDbLine
 10
2740.933284853791
 20
746.6223532885678
 30
0.0
 11
2740.93328485379
 21
731.6223532885682
 31
0.0
  0
LINE
  5
DAC3
330
1E
100
AcDbEntity
  8
虛線
 48
0.25
100
AcDbLine
 10
2734.183284853791
 20
746.622353288568
 30
0.0
 11
2734.183284853791
 21
731.6223532885683
 31
0.0
  0
LINE
  5
DAC4
330
1E
100
AcDbEntity
  8
虛線
 48
0.25
100
AcDbLine
 10
2709.183284853791
 20
746.6223532885691
 30
0.0
 11
2708.183284853791
 21
747.6223532885691
 31
0.0
  0
LINE
  5
DAC5
330
1E
100
AcDbEntity
  8
虛線
 48
0.25
100
AcDbLine
 10
2715.933284853792
 20
746.6223532885692
 30
0.0
 11
2716.933284853792
 21
747.6223532885692
 31
0.0
  0
LINE
  5
DAC6
330
1E
100
AcDbEntity
  8
虛線
 48
0.25
100
AcDbLine
 10
2709.183284853791
 20
746.6223532885691
 30
0.0
 11
2715.933284853791
 21
746.6223532885687
 31
0.0
  0
LINE
  5
DAC7
330
1E
100
AcDbEntity
  8
虛線
 48
0.25
100
AcDbLine
 10
2716.558254336213
 20
735.6223532885692
 30
0.0
 11
2716.558254336213
 21
747.2473227709904
 31
0.0
  0
LINE
  5
DAC8
330
1E
100
AcDbEntity
  8
虛線
 48
0.25
100
AcDbLine
 10
2708.558254336212
 20
735.6223532885692
 30
0.0
 11
2708.558254336212
 21
747.2473838061482
 31
0.0
  0
LINE
  5
DAC9
330
1E
100
AcDbEntity
  8
虛線
 48
0.25
100
AcDbLine
 10
2708.558254336212
 20
735.6223532885692
 30
0.0
 11
2716.558254336213
 21
735.6223532885692
 31
0.0
  0
LINE
  5
DACA
330
1E
100
AcDbEntity
  8
虛線
 48
0.25
100
AcDbLine
 10
2709.183284853791
 20
731.6223532885693
 30
0.0
 11
2715.933284853791
 21
731.6223532885692
 31
0.0
  0
LINE
  5
DACB
330
1E
100
AcDbEntity
  8
虛線
 48
0.25
100
AcDbLine
 10
2715.933284853791
 20
731.6223532885692
 30
0.0
 11
2712.558284853791
 21
729.6254195729334
 31
0.0
  0
LINE
  5
DACC
330
1E
100
AcDbEntity
  8
虛線
 48
0.25
100
AcDbLine
 10
2709.183284853791
 20
731.6223532885693
 30
0.0
 11
2712.558284853791
 21
729.6254195729334
 31
0.0
  0
LINE
  5
DACD
330
1E
100
AcDbEntity
  8
虛線
 48
0.25
100
AcDbLine
 10
2715.933284853791
 20
746.6223532885687
 30
0.0
 11
2715.933284853791
 21
731.6223532885692
 31
0.0
  0
LINE
  5
DACE
330
1E
100
AcDbEntity
  8
虛線
 48
0.25
100
AcDbLine
 10
2709.183284853791
 20
746.6223532885691
 30
0.0
 11
2709.183284853791
 21
731.6223532885693
 31
0.0
  0
LINE
  5
DACF
330
1E
100
AcDbEntity
  8
中心線
 48
0.27
100
AcDbLine
 10
2737.558284853791
 20
749.6879670624184
 30
0.0
 11
2737.558284853791
 21
690.814415064487
 31
0.0
  0
LINE
  5
DAD0
330
1E
100
AcDbEntity
  8
中心線
 48
0.27
100
AcDbLine
 10
2762.558315371369
 20
749.6879670624184
 30
0.0
 11
2762.558315371369
 21
728.7693269256997
 31
0.0
  0
LINE
  5
DAD1
330
1E
100
AcDbEntity
  8
中心線
 48
0.27
100
AcDbLine
 10
2712.558284853791
 20
749.6879670624184
 30
0.0
 11
2712.558284853791
 21
728.7693269256997
 31
0.0
  0
LINE
  5
DAD2
330
1E
100
AcDbEntity
  8
0
  6
ByBlock
100
AcDbLine
 10
2771.058284853791
 20
747.6223532885683
 30
0.0
 11
2772.558284853791
 21
746.1223532885683
 31
0.0
  0
LINE
  5
DAD3
330
1E
100
AcDbEntity
  8
0
  6
ByBlock
100
AcDbLine
 10
2772.05828485729
 20
738.3223532890683
 30
0.0
 11
2770.55828485729
 21
739.8223532890683
 31
0.0
  0
LINE
  5
DAD4
330
1E
100
AcDbEntity
  8
0
  6
ByBlock
100
AcDbLine
 10
2755.058284853791
 20
747.6223532885683
 30
0.0
 11
2754.558284853791
 21
747.1223532885683
 31
0.0
  0
LINE
  5
DAD5
330
1E
100
AcDbEntity
  8
0
  6
ByBlock
100
AcDbLine
 10
2771.058284853791
 20
747.6223532885683
 30
0.0
 11
2755.058284853791
 21
747.6223532885683
 31
0.0
  0
LINE
  5
DAD8
330
1E
100
AcDbEntity
  8
0
  6
ByBlock
100
AcDbLine
 10
2755.058284857291
 20
720.0152465078681
 30
0.0
 11
2755.058284857291
 21
722.0294600702682
 31
0.0
  0
LINE
  5
DAD9
330
1E
100
AcDbEntity
  8
0
  6
ByBlock
100
AcDbLine
 10
2754.558284853791
 20
720.2223532890859
 30
0.0
 11
2754.558284853791
 21
721.8223532885685
 31
0.0
  0
LINE
  5
DADA
330
1E
100
AcDbEntity
  8
0
  6
ByBlock
100
AcDbLine
 10
2755.058284857291
 20
722.0294600702682
 30
0.0
 11
2753.365391638491
 21
723.7223532890684
 31
0.0
  0
LINE
  5
DADB
330
1E
100
AcDbEntity
  8
0
  6
ByBlock
100
AcDbLine
 10
2754.558284853791
 20
721.8223532885685
 30
0.0
 11
2753.558284853791
 21
722.8223532885685
 31
0.0
  0
LINE
  5
DADE
330
1E
100
AcDbEntity
  8
0
  6
ByBlock
100
AcDbLine
 10
2749.05828485729
 20
707.1394600702683
 30
0.0
 11
2749.05828485729
 21
714.0152465078681
 31
0.0
  0
LINE
  5
DADF
330
1E
100
AcDbEntity
  8
0
  6
ByBlock
100
AcDbLine
 10
2748.558284853791
 20
706.932353282357
 30
0.0
 11
2748.558284853791
 21
714.2223532880531
 31
0.0
  0
LINE
  5
DAE0
330
1E
100
AcDbEntity
  8
0
  6
ByBlock
100
AcDbLine
 10
2749.05828485729
 20
714.0152465078681
 30
0.0
 11
2755.058284857291
 21
720.0152465078681
 31
0.0
  0
LINE
  5
DAE1
330
1E
100
AcDbEntity
  8
0
  6
ByBlock
100
AcDbLine
 10
2748.558284853791
 20
714.2223532880531
 30
0.0
 11
2754.558284853791
 21
720.2223532890859
 31
0.0
  0
LINE
  5
DAE2
330
1E
100
AcDbEntity
  8
0
  6
ByBlock
100
AcDbLine
 10
2755.058284857291
 20
699.7223532890679
 30
0.0
 11
2755.058284857291
 21
701.1394600702683
 31
0.0
  0
LINE
  5
DAE3
330
1E
100
AcDbEntity
  8
0
  6
ByBlock
100
AcDbLine
 10
2754.558284853791
 20
694.1223532885683
 30
0.0
 11
2754.558284853791
 21
700.9323532899652
 31
0.0
  0
LINE
  5
DAE4
330
1E
100
AcDbEntity
  8
0
  6
ByBlock
100
AcDbLine
 10
2755.058284857291
 20
701.1394600702683
 30
0.0
 11
2749.05828485729
 21
707.1394600702683
 31
0.0
  0
LINE
  5
DAE5
330
1E
100
AcDbEntity
  8
0
  6
ByBlock
100
AcDbLine
 10
2754.558284853791
 20
700.9323532899652
 30
0.0
 11
2748.558284853791
 21
706.932353282357
 31
0.0
  0
LINE
  5
DAE6
330
1E
100
AcDbEntity
  8
0
  6
ByBlock
100
AcDbLine
 10
2754.558284853791
 20
699.1223532885688
 30
0.0
 11
2771.058284853791
 21
699.1223532885684
 31
0.0
  0
LINE
  5
DAE7
330
1E
100
AcDbEntity
  8
0
  6
ByBlock
100
AcDbLine
 10
2772.558284853791
 20
700.6223532885684
 30
0.0
 11
2772.558284853791
 21
746.1223532885683
 31
0.0
  0
LINE
  5
DAE8
330
1E
100
AcDbEntity
  8
0
  6
ByBlock
100
AcDbLine
 10
2772.05828485729
 20
700.1223532890681
 30
0.0
 11
2772.05828485729
 21
738.3223532890683
 31
0.0
  0
LINE
  5
DAE9
330
1E
100
AcDbEntity
  8
0
  6
ByBlock
100
AcDbLine
 10
2744.45828485379
 20
747.6223532885683
 30
0.0
 11
2744.958284853791
 21
747.1223532885683
 31
0.0
  0
LINE
  5
DAEA
330
1E
100
AcDbEntity
  8
0
  6
ByBlock
100
AcDbLine
 10
2730.65828485379
 20
747.6223532885683
 30
0.0
 11
2730.15828485379
 21
747.1223532885683
 31
0.0
  0
LINE
  5
DAEB
330
1E
100
AcDbEntity
  8
0
  6
ByBlock
100
AcDbLine
 10
2744.45828485379
 20
747.6223532885683
 30
0.0
 11
2730.65828485379
 21
747.6223532885683
 31
0.0
  0
LINE
  5
DAEC
330
1E
100
AcDbEntity
  8
0
  6
ByBlock
100
AcDbLine
 10
2720.058284853791
 20
747.6223532885683
 30
0.0
 11
2720.558284853791
 21
747.1223532885683
 31
0.0
  0
LINE
  5
DAED
330
1E
100
AcDbEntity
  8
0
  6
ByBlock
100
AcDbLine
 10
2730.15828485379
 20
747.1223532885683
 30
0.0
 11
2720.558284853791
 21
747.1223532885683
 31
0.0
  0
LINE
  5
DAF0
330
1E
100
AcDbEntity
  8
0
  6
ByBlock
100
AcDbLine
 10
2726.558284853791
 20
714.2223532879526
 30
0.0
 11
2726.558284853791
 21
706.9323532824567
 31
0.0
  0
LINE
  5
DAF1
330
1E
100
AcDbEntity
  8
0
  6
ByBlock
100
AcDbLine
 10
2726.058284857291
 20
707.1394600702683
 30
0.0
 11
2726.058284857291
 21
714.0152465078681
 31
0.0
  0
LINE
  5
DAF2
330
1E
100
AcDbEntity
  8
0
  6
ByBlock
100
AcDbLine
 10
2720.558284853791
 20
720.2223532889851
 30
0.0
 11
2726.558284853791
 21
714.2223532879526
 31
0.0
  0
LINE
  5
DAF3
330
1E
100
AcDbEntity
  8
0
  6
ByBlock
100
AcDbLine
 10
2720.558284853791
 20
721.8223532885685
 30
0.0
 11
2720.558284853791
 21
720.2223532889851
 31
0.0
  0
LINE
  5
DAF4
330
1E
100
AcDbEntity
  8
0
  6
ByBlock
100
AcDbLine
 10
2720.05828485729
 20
720.0152465078681
 30
0.0
 11
2720.05828485729
 21
722.0294600702682
 31
0.0
  0
LINE
  5
DAF5
330
1E
100
AcDbEntity
  8
0
  6
ByBlock
100
AcDbLine
 10
2726.058284857291
 20
714.0152465078681
 30
0.0
 11
2720.05828485729
 21
720.0152465078681
 31
0.0
  0
LINE
  5
DAF6
330
1E
100
AcDbEntity
  8
0
  6
ByBlock
100
AcDbLine
 10
2721.558284853791
 20
722.8223532885685
 30
0.0
 11
2720.558284853791
 21
721.8223532885685
 31
0.0
  0
LINE
  5
DAF7
330
1E
100
AcDbEntity
  8
0
  6
ByBlock
100
AcDbLine
 10
2720.05828485729
 20
722.0294600702682
 30
0.0
 11
2721.751178076091
 21
723.7223532890684
 31
0.0
  0
LINE
  5
DAF8
330
1E
100
AcDbEntity
  8
0
  6
ByBlock
100
AcDbLine
 10
2720.058284857291
 20
699.7223532890679
 30
0.0
 11
2720.05828485729
 21
701.1394600702683
 31
0.0
  0
LINE
  5
DAF9
330
1E
100
AcDbEntity
  8
0
  6
ByBlock
100
AcDbLine
 10
2720.558284853791
 20
700.9323532900671
 30
0.0
 11
2720.558284853791
 21
694.1223532885683
 31
0.0
  0
LINE
  5
DAFA
330
1E
100
AcDbEntity
  8
0
  6
ByBlock
100
AcDbLine
 10
2726.558284853791
 20
706.9323532824567
 30
0.0
 11
2720.558284853791
 21
700.9323532900671
 31
0.0
  0
LINE
  5
DAFB
330
1E
100
AcDbEntity
  8
0
  6
ByBlock
100
AcDbLine
 10
2720.05828485729
 20
701.1394600702683
 30
0.0
 11
2726.058284857291
 21
707.1394600702683
 31
0.0
  0
LINE
  5
DAFC
330
1E
100
AcDbEntity
  8
0
  6
ByBlock
100
AcDbLine
 10
2702.558284853791
 20
735.6223532885685
 30
0.0
 11
2703.058284856999
 21
735.1223532853594
 31
0.0
  0
LINE
  5
DAFD
330
1E
100
AcDbEntity
  8
0
  6
ByBlock
100
AcDbLine
 10
2702.558284853791
 20
735.6223532885685
 30
0.0
 11
2702.558284853791
 21
746.1223532885683
 31
0.0
  0
LINE
  5
DAFE
330
1E
100
AcDbEntity
  8
0
  6
ByBlock
100
AcDbLine
 10
2704.558284857291
 20
739.8223532890683
 30
0.0
 11
2703.058284857291
 21
738.3223532890683
 31
0.0
  0
LINE
  5
DAFF
330
1E
100
AcDbEntity
  8
0
  6
ByBlock
100
AcDbLine
 10
2704.058284853791
 20
747.6223532885683
 30
0.0
 11
2702.558284853791
 21
746.1223532885683
 31
0.0
  0
LINE
  5
DB02
330
1E
100
AcDbEntity
  8
0
  6
ByBlock
100
AcDbLine
 10
2703.058284857291
 20
700.2223532890684
 30
0.0
 11
2703.058284857291
 21
738.3223532890683
 31
0.0
  0
LINE
  5
DB03
330
1E
100
AcDbEntity
  8
0
  6
ByBlock
100
AcDbLine
 10
2703.058284853817
 20
700.1223532885529
 30
0.0
 11
2703.058284856999
 21
735.1223532853594
 31
0.0
  0
LINE
  5
DB04
330
1E
100
AcDbEntity
  8
0
  6
ByBlock
100
AcDbLine
 10
2720.058284853791
 20
747.6223532885683
 30
0.0
 11
2704.058284853791
 21
747.6223532885683
 31
0.0
  0
LINE
  5
DB05
330
1E
100
AcDbEntity
  8
0
  6
ByBlock
100
AcDbLine
 10
2704.058284853726
 20
699.1223532885839
 30
0.0
 11
2720.558284853791
 21
699.1223532890935
 31
0.0
  0
LINE
  5
DB06
330
1E
100
AcDbEntity
  8
0
  6
ByBlock
100
AcDbLine
 10
2754.558284853791
 20
747.1223532885683
 30
0.0
 11
2744.958284853791
 21
747.1223532885683
 31
0.0
  0
LINE
  5
DB07
330
1E
100
AcDbEntity
  8
0
  6
ByBlock
100
AcDbLine
 10
2770.55828485729
 20
739.8223532890683
 30
0.0
 11
2704.558284857291
 21
739.8223532890683
 31
0.0
  0
LINE
  5
DB08
330
1E
100
AcDbEntity
  8
0
  6
ByBlock
100
AcDbLine
 10
2753.365391638491
 20
723.7223532890684
 30
0.0
 11
2721.751178076091
 21
723.7223532890684
 31
0.0
  0
LINE
  5
DB09
330
1E
100
AcDbEntity
  8
0
  6
ByBlock
100
AcDbLine
 10
2753.558284853791
 20
722.8223532885685
 30
0.0
 11
2721.558284853791
 21
722.8223532885685
 31
0.0
  0
CIRCLE
  5
DB0A
330
1E
100
AcDbEntity
  8
指線
 48
0.27
100
AcDbCircle
 10
2711.358284856785
 20
723.8223532883885
 30
0.0
 40
3.5
  0
LINE
  5
DB0B
330
1E
100
AcDbEntity
  8
指線
 48
0.27
100
AcDbLine
 10
2713.126051809752
 20
724.8830134601685
 30
0.0
 11
2712.418945028565
 21
725.5901202413552
 31
0.0
  0
LINE
  5
DB0C
330
1E
100
AcDbEntity
  8
指線
 48
0.27
100
AcDbLine
 10
2710.297624685006
 20
725.5901202413552
 30
0.0
 11
2709.590517903819
 21
724.8830134601685
 31
0.0
  0
LINE
  5
DB0D
330
1E
100
AcDbEntity
  8
指線
 48
0.27
100
AcDbLine
 10
2712.418945028565
 20
722.0545863354223
 30
0.0
 11
2711.358284856785
 21
723.1152465072018
 31
0.0
  0
LINE
  5
DB0E
330
1E
100
AcDbEntity
  8
指線
 48
0.27
100
AcDbLine
 10
2710.297624685005
 20
722.0545863354223
 30
0.0
 11
2711.358284856785
 21
723.1152465072018
 31
0.0
  0
LINE
  5
DB0F
330
1E
100
AcDbEntity
  8
指線
 48
0.27
100
AcDbLine
 10
2709.590517903819
 20
722.7616931166084
 30
0.0
 11
2710.651178075599
 21
723.8223532883885
 31
0.0
  0
LINE
  5
DB10
330
1E
100
AcDbEntity
  8
指線
 48
0.27
100
AcDbLine
 10
2713.126051809752
 20
722.7616931166084
 30
0.0
 11
2712.065391637972
 21
723.8223532883885
 31
0.0
  0
LINE
  5
DB11
330
1E
100
AcDbEntity
  8
指線
 48
0.27
100
AcDbLine
 10
2712.418945028565
 20
722.0545863354223
 30
0.0
 11
2713.126051809752
 21
722.7616931166084
 31
0.0
  0
LINE
  5
DB12
330
1E
100
AcDbEntity
  8
指線
 48
0.27
100
AcDbLine
 10
2709.590517903819
 20
722.7616931166084
 30
0.0
 11
2710.297624685005
 21
722.0545863354223
 31
0.0
  0
LINE
  5
DB13
330
1E
100
AcDbEntity
  8
指線
 48
0.27
100
AcDbLine
 10
2711.358284856785
 20
724.5294600695752
 30
0.0
 11
2710.297624685006
 21
725.5901202413552
 31
0.0
  0
LINE
  5
DB14
330
1E
100
AcDbEntity
  8
指線
 48
0.27
100
AcDbLine
 10
2709.590517903819
 20
724.8830134601685
 30
0.0
 11
2710.651178075599
 21
723.8223532883885
 31
0.0
  0
LINE
  5
DB15
330
1E
100
AcDbEntity
  8
指線
 48
0.27
100
AcDbLine
 10
2712.065391637972
 20
723.8223532883885
 30
0.0
 11
2713.126051809752
 21
724.8830134601685
 31
0.0
  0
LINE
  5
DB16
330
1E
100
AcDbEntity
  8
指線
 48
0.27
100
AcDbLine
 10
2711.358284856785
 20
724.5294600695752
 30
0.0
 11
2712.418945028565
 21
725.5901202413552
 31
0.0
  0
LINE
  5
DB17
330
1E
100
AcDbEntity
  8
指線
 48
0.27
100
AcDbLine
 10
2764.818945028969
 20
722.0545863354227
 30
0.0
 11
2763.758284857189
 21
723.1152465072023
 31
0.0
  0
LINE
  5
DB18
330
1E
100
AcDbEntity
  8
指線
 48
0.27
100
AcDbLine
 10
2765.526051810155
 20
722.7616931166094
 30
0.0
 11
2764.465391638376
 21
723.8223532883885
 31
0.0
  0
CIRCLE
  5
DB19
330
1E
100
AcDbEntity
  8
指線
 48
0.27
100
AcDbCircle
 10
2763.758284857189
 20
723.8223532883885
 30
0.0
 40
3.5
  0
LINE
  5
DB1A
330
1E
100
AcDbEntity
  8
指線
 48
0.27
100
AcDbLine
 10
2765.526051810155
 20
722.7616931166094
 30
0.0
 11
2764.818945028969
 21
722.0545863354227
 31
0.0
  0
LINE
  5
DB1B
330
1E
100
AcDbEntity
  8
指線
 48
0.27
100
AcDbLine
 10
2763.051178076003
 20
723.8223532883885
 30
0.0
 11
2761.990517904223
 21
722.7616931166089
 31
0.0
  0
LINE
  5
DB1C
330
1E
100
AcDbEntity
  8
指線
 48
0.27
100
AcDbLine
 10
2763.758284857189
 20
723.1152465072023
 30
0.0
 11
2762.697624685409
 21
722.0545863354227
 31
0.0
  0
LINE
  5
DB1D
330
1E
100
AcDbEntity
  8
指線
 48
0.27
100
AcDbLine
 10
2762.697624685409
 20
725.5901202413552
 30
0.0
 11
2763.758284857189
 21
724.5294600695752
 31
0.0
  0
LINE
  5
DB1E
330
1E
100
AcDbEntity
  8
指線
 48
0.27
100
AcDbLine
 10
2763.051178076003
 20
723.8223532883885
 30
0.0
 11
2761.990517904223
 21
724.8830134601685
 31
0.0
  0
LINE
  5
DB1F
330
1E
100
AcDbEntity
  8
指線
 48
0.27
100
AcDbLine
 10
2764.818945028969
 20
725.5901202413552
 30
0.0
 11
2765.526051810155
 21
724.8830134601685
 31
0.0
  0
LINE
  5
DB20
330
1E
100
AcDbEntity
  8
指線
 48
0.27
100
AcDbLine
 10
2764.818945028969
 20
725.5901202413552
 30
0.0
 11
2763.758284857189
 21
724.5294600695752
 31
0.0
  0
LINE
  5
DB21
330
1E
100
AcDbEntity
  8
指線
 48
0.27
100
AcDbLine
 10
2765.526051810155
 20
724.8830134601685
 30
0.0
 11
2764.465391638376
 21
723.8223532883885
 31
0.0
  0
LINE
  5
DB22
330
1E
100
AcDbEntity
  8
指線
 48
0.27
100
AcDbLine
 10
2761.990517904223
 20
724.8830134601685
 30
0.0
 11
2762.697624685409
 21
725.5901202413552
 31
0.0
  0
LINE
  5
DB23
330
1E
100
AcDbEntity
  8
指線
 48
0.27
100
AcDbLine
 10
2762.697624685409
 20
722.0545863354227
 30
0.0
 11
2761.990517904223
 21
722.7616931166089
 31
0.0
  0
LINE
  5
DB24
330
1E
100
AcDbEntity
  8
0
  6
ByBlock
100
AcDbLine
 10
2721.11713233889
 20
725.253075107068
 30
0.0
 11
2753.99943737569
 21
725.253075107068
 31
0.0
  0
LINE
  5
DB25
330
1E
100
AcDbEntity
  8
0
  6
ByBlock
100
AcDbLine
 10
2724.52756303929
 20
713.3812007706683
 30
0.0
 11
2718.52756303929
 21
719.3812007706683
 31
0.0
  0
LINE
  5
DB26
330
1E
100
AcDbEntity
  8
0
  6
ByBlock
100
AcDbLine
 10
2718.52756303929
 20
701.7735058074682
 30
0.0
 11
2724.52756303929
 21
707.7735058074681
 31
0.0
  0
LINE
  5
DB27
330
1E
100
AcDbEntity
  8
0
  6
ByBlock
100
AcDbLine
 10
2718.52756303929
 20
722.663505807468
 30
0.0
 11
2721.11713233889
 21
725.253075107068
 31
0.0
  0
LINE
  5
DB28
330
1E
100
AcDbEntity
  8
0
  6
ByBlock
100
AcDbLine
 10
2718.52756303929
 20
719.3812007706683
 30
0.0
 11
2718.52756303929
 21
722.663505807468
 31
0.0
  0
LINE
  5
DB29
330
1E
100
AcDbEntity
  8
0
  6
ByBlock
100
AcDbLine
 10
2718.52756303929
 20
699.7223532890679
 30
0.0
 11
2718.52756303929
 21
701.7735058074682
 31
0.0
  0
LINE
  5
DB2A
330
1E
100
AcDbEntity
  8
0
  6
ByBlock
100
AcDbLine
 10
2718.52756303929
 20
699.7223532890679
 30
0.0
 11
2720.058284857291
 21
699.7223532890679
 31
0.0
  0
LINE
  5
DB2B
330
1E
100
AcDbEntity
  8
0
  6
ByBlock
100
AcDbLine
 10
2724.52756303929
 20
707.7735058074681
 30
0.0
 11
2724.52756303929
 21
713.3812007706683
 31
0.0
  0
LINE
  5
DB2C
330
1E
100
AcDbEntity
  8
0
  6
ByBlock
100
AcDbLine
 10
2750.58900667529
 20
713.3812007706683
 30
0.0
 11
2756.58900667529
 21
719.3812007706683
 31
0.0
  0
LINE
  5
DB2D
330
1E
100
AcDbEntity
  8
0
  6
ByBlock
100
AcDbLine
 10
2756.58900667529
 20
701.7735058074682
 30
0.0
 11
2750.58900667529
 21
707.7735058074681
 31
0.0
  0
LINE
  5
DB2E
330
1E
100
AcDbEntity
  8
0
  6
ByBlock
100
AcDbLine
 10
2750.58900667529
 20
707.7735058074681
 30
0.0
 11
2750.58900667529
 21
713.3812007706683
 31
0.0
  0
LINE
  5
DB2F
330
1E
100
AcDbEntity
  8
0
  6
ByBlock
100
AcDbLine
 10
2756.58900667529
 20
719.3812007706683
 30
0.0
 11
2756.58900667529
 21
722.663505807468
 31
0.0
  0
LINE
  5
DB30
330
1E
100
AcDbEntity
  8
0
  6
ByBlock
100
AcDbLine
 10
2756.58900667529
 20
722.663505807468
 30
0.0
 11
2753.99943737569
 21
725.253075107068
 31
0.0
  0
LINE
  5
DB31
330
1E
100
AcDbEntity
  8
0
  6
ByBlock
100
AcDbLine
 10
2756.58900667529
 20
699.7223532890679
 30
0.0
 11
2756.58900667529
 21
701.7735058074682
 31
0.0
  0
LINE
  5
DB32
330
1E
100
AcDbEntity
  8
0
  6
ByBlock
100
AcDbLine
 10
2755.058284857291
 20
699.7223532890679
 30
0.0
 11
2756.58900667529
 21
699.7223532890679
 31
0.0
  0
LINE
  5
DB33
330
1E
100
AcDbEntity
  8
虛線
 48
0.3
100
AcDbLine
 10
2744.558284853791
 20
722.4223532885671
 30
0.0
 11
2744.558284853791
 21
710.8223532885681
 31
0.0
  0
LINE
  5
DB34
330
1E
100
AcDbEntity
  8
虛線
 48
0.3
100
AcDbLine
 10
2730.558284853791
 20
722.422353288568
 30
0.0
 11
2730.558284853791
 21
710.8223532885681
 31
0.0
  0
LINE
  5
DB35
330
1E
100
AcDbEntity
  8
虛線
 48
0.3
100
AcDbLine
 10
2742.05828485379
 20
710.5223532885684
 30
0.0
 11
2742.058284853791
 21
693.1223532885678
 31
0.0
  0
LINE
  5
DB36
330
1E
100
AcDbEntity
  8
虛線
 48
0.3
100
AcDbLine
 10
2733.058284853791
 20
710.5223532885674
 30
0.0
 11
2733.058284853791
 21
693.1223532885678
 31
0.0
  0
LINE
  5
DB37
330
1E
100
AcDbEntity
  8
虛線
 48
0.3
100
AcDbLine
 10
2730.558284853791
 20
710.8223532885681
 30
0.0
 11
2744.558284853791
 21
710.8223532885681
 31
0.0
  0
LINE
  5
DB38
330
1E
100
AcDbEntity
  8
0
  6
ByBlock
100
AcDbLine
 10
2753.058284853791
 20
692.6223532885683
 30
0.0
 11
2754.558284853791
 21
694.1223532885683
 31
0.0
  0
LINE
  5
DB39
330
1E
100
AcDbEntity
  8
0
  6
ByBlock
100
AcDbLine
 10
2731.058284853791
 20
693.1223532885683
 30
0.0
 11
2731.55828485379
 21
692.6223532885683
 31
0.0
  0
LINE
  5
DB3A
330
1E
100
AcDbEntity
  8
0
  6
ByBlock
100
AcDbLine
 10
2731.55828485379
 20
692.6223532885683
 30
0.0
 11
2743.55828485379
 21
692.6223532885687
 31
0.0
  0
LINE
  5
DB3B
330
1E
100
AcDbEntity
  8
0
  6
ByBlock
100
AcDbLine
 10
2726.55828485379
 20
692.6223532885683
 30
0.0
 11
2727.05828485379
 21
693.1223532885683
 31
0.0
  0
LINE
  5
DB3C
330
1E
100
AcDbEntity
  8
0
  6
ByBlock
100
AcDbLine
 10
2722.058284853791
 20
692.6223532885683
 30
0.0
 11
2726.55828485379
 21
692.6223532885683
 31
0.0
  0
LINE
  5
DB3D
330
1E
100
AcDbEntity
  8
0
  6
ByBlock
100
AcDbLine
 10
2720.558284853791
 20
694.1223532885683
 30
0.0
 11
2722.058284853791
 21
692.6223532885683
 31
0.0
  0
LINE
  5
DB3E
330
1E
100
AcDbEntity
  8
0
  6
ByBlock
100
AcDbLine
 10
2727.05828485379
 20
693.1223532885683
 30
0.0
 11
2731.058284853791
 21
693.1223532885683
 31
0.0
  0
LINE
  5
DB3F
330
1E
100
AcDbEntity
  8
0
  6
ByBlock
100
AcDbLine
 10
2748.55828485379
 20
692.6223532885678
 30
0.0
 11
2753.058284853791
 21
692.6223532885683
 31
0.0
  0
LINE
  5
DB40
330
1E
100
AcDbEntity
  8
0
  6
ByBlock
100
AcDbLine
 10
2744.058284853791
 20
693.1223532885678
 30
0.0
 11
2743.55828485379
 21
692.6223532885687
 31
0.0
  0
LINE
  5
DB41
330
1E
100
AcDbEntity
  8
0
  6
ByBlock
100
AcDbLine
 10
2748.55828485379
 20
692.6223532885678
 30
0.0
 11
2748.058284853791
 21
693.1223532885674
 31
0.0
  0
LINE
  5
DB42
330
1E
100
AcDbEntity
  8
0
  6
ByBlock
100
AcDbLine
 10
2748.058284853791
 20
693.1223532885674
 30
0.0
 11
2744.058284853791
 21
693.1223532885678
 31
0.0
  0
LINE
  5
DB43
330
1E
100
AcDbEntity
  8
虛線
 48
0.3
100
AcDbLine
 10
2744.558284853791
 20
722.422353288568
 30
0.0
 11
2730.558284853791
 21
722.422353288568
 31
0.0
  0
LINE
  5
DB44
330
1E
100
AcDbEntity
  8
虛線
 48
0.3
100
AcDbLine
 10
2742.058284853791
 20
693.1223532885678
 30
0.0
 11
2733.058284853791
 21
693.1223532885678
 31
0.0
  0
LINE
  5
DB45
330
1E
100
AcDbEntity
  8
虛線
 48
0.7
100
AcDbLine
 10
2732.558284139504
 20
692.6223532885687
 30
0.0
 11
2733.058284853791
 21
693.1223532885678
 31
0.0
  0
LINE
  5
DB46
330
1E
100
AcDbEntity
  8
虛線
 48
0.7
100
AcDbLine
 10
2742.05828485379
 20
693.1223532885678
 30
0.0
 11
2742.558285568076
 21
692.6223532885687
 31
0.0
  0
LINE
  5
DB47
330
1E
100
AcDbEntity
  8
虛線
 48
0.3
100
AcDbLine
 10
2742.35828485379
 20
710.8223532885676
 30
0.0
 11
2742.058284853791
 21
710.522353288568
 31
0.0
  0
LINE
  5
DB48
330
1E
100
AcDbEntity
  8
虛線
 48
0.3
100
AcDbLine
 10
2732.758284853791
 20
710.8223532885676
 30
0.0
 11
2733.058284853791
 21
710.522353288568
 31
0.0
  0
LINE
  5
DB49
330
1E
100
AcDbEntity
  8
虛線
 48
0.3
100
AcDbLine
 10
2733.058284853791
 20
710.522353288568
 30
0.0
 11
2742.058284853791
 21
710.522353288568
 31
0.0
  0
LINE
  5
DB4A
330
1E
100
AcDbEntity
  8
虛線
 48
0.7
100
AcDbLine
 10
2730.558284853791
 20
722.422353288568
 30
0.0
 11
2730.327344746115
 21
722.8223532885676
 31
0.0
  0
LINE
  5
DB4B
330
1E
100
AcDbEntity
  8
虛線
 48
0.7
100
AcDbLine
 10
2744.558284853791
 20
722.422353288568
 30
0.0
 11
2744.789224961466
 21
722.8223532885676
 31
0.0
  0
LINE
  5
DB4C
330
1E
100
AcDbEntity
  8
0
 48
0.27
100
AcDbLine
 10
2735.2488505384
 20
735.6224109915138
 30
0.0
 11
2739.867719169183
 21
735.6224109915138
 31
0.0
  0
LINE
  5
DB4D
330
1E
100
AcDbEntity
  8
0
 48
0.27
100
AcDbLine
 10
2739.867720505202
 20
727.6222942506028
 30
0.0
 11
2735.2488505384
 21
727.6222942506028
 31
0.0
  0
ARC
  5
DB4E
330
1E
100
AcDbEntity
  8
0
 48
0.27
100
AcDbCircle
 10
2737.558284853791
 20
731.622353289068
 30
0.0
 40
4.000057702445608
100
AcDbArc
 50
48.59037799889628
 51
311.4096220031896
  0
LINE
  5
DB4F
330
1E
100
AcDbEntity
  8
0
 48
0.27
100
AcDbLine
 10
2735.2488505384
 20
735.6224109915138
 30
0.0
 11
2732.939416223008
 21
731.622353289068
 31
0.0
  0
LINE
  5
DB50
330
1E
100
AcDbEntity
  8
0
 48
0.27
100
AcDbLine
 10
2732.939416223008
 20
731.622353289068
 30
0.0
 11
2735.2488505384
 21
727.6222942506028
 31
0.0
  0
LWPOLYLINE
  5
DB51
330
1E
100
AcDbEntity
  8
0
 48
0.27
100
AcDbPolyline
 90
       17
 70
     0
 43
0.0
 10
2746.510103209614
 20
731.622353289068
 10
2746.543652000571
 20
731.4053128794276
 10
2746.576543469736
 20
731.3424077274903
 10
2746.613114337193
 20
731.3128656597009
 10
2746.647091990409
 20
731.3131729441847
 10
2746.683585368734
 20
731.3433776777446
 10
2746.714929727124
 20
731.4031485274445
 10
2746.744316816652
 20
731.5332234062493
 10
2746.749284137937
 20
731.622353289068
 10
2746.715736683
 20
731.8393923626895
 10
2746.682843877815
 20
731.9022975146268
 10
2746.646273010358
 20
731.9318395824166
 10
2746.612296693162
 20
731.9315322978322
 10
2746.575801978817
 20
731.9013275642728
 10
2746.544458956446
 20
731.8415567145725
 10
2746.515070530899
 20
731.7114818358677
 10
2746.510103209614
 20
731.622353289068
  0
LINE
  5
DB52
330
1E
100
AcDbEntity
  8
0
 48
0.27
100
AcDbLine
 10
2747.302169173758
 20
731.2728117888187
 30
0.0
 11
2747.315343664106
 21
731.622353289068
 31
0.0
  0
LINE
  5
DB53
330
1E
100
AcDbEntity
  8
0
 48
0.27
100
AcDbLine
 10
2747.263152054204
 20
730.9367026307791
 30
0.0
 11
2747.302169173758
 21
731.2728117888187
 31
0.0
  0
LINE
  5
DB54
330
1E
100
AcDbEntity
  8
0
 48
0.27
100
AcDbLine
 10
2747.315343664106
 20
731.622353289068
 30
0.0
 11
2747.302169173758
 21
731.9718947893179
 31
0.0
  0
LINE
  5
DB55
330
1E
100
AcDbEntity
  8
0
 48
0.27
100
AcDbLine
 10
2747.199791319519
 20
730.6269437893538
 30
0.0
 11
2747.263152054204
 21
730.9367026307791
 31
0.0
  0
LINE
  5
DB56
330
1E
100
AcDbEntity
  8
0
 48
0.27
100
AcDbLine
 10
2747.302169173758
 20
731.9718947893179
 30
0.0
 11
2747.263152054204
 21
732.3080026113379
 31
0.0
  0
LINE
  5
DB57
330
1E
100
AcDbEntity
  8
0
 48
0.27
100
AcDbLine
 10
2747.114521197623
 20
730.3554365283107
 30
0.0
 11
2747.199791319519
 21
730.6269437893538
 31
0.0
  0
LINE
  5
DB58
330
1E
100
AcDbEntity
  8
0
 48
0.27
100
AcDbLine
 10
2746.355155651956
 20
729.9840203773574
 30
0.0
 11
2746.357054135959
 21
729.9849489110074
 31
0.0
  0
LINE
  5
DB59
330
1E
100
AcDbEntity
  8
0
 48
0.27
100
AcDbLine
 10
2747.263152054204
 20
732.3080026113379
 30
0.0
 11
2747.199791319519
 21
732.6177627887828
 31
0.0
  0
LINE
  5
DB5A
330
1E
100
AcDbEntity
  8
0
 48
0.27
100
AcDbLine
 10
2747.010620280959
 20
730.1326164973316
 30
0.0
 11
2747.114521197623
 21
730.3554365283107
 31
0.0
  0
LINE
  5
DB5B
330
1E
100
AcDbEntity
  8
0
 48
0.27
100
AcDbLine
 10
2747.199791319519
 20
732.6177627887828
 30
0.0
 11
2747.114521197623
 21
732.8892687138059
 31
0.0
  0
LINE
  5
DB5C
330
1E
100
AcDbEntity
  8
0
 48
0.27
100
AcDbLine
 10
2743.436898491578
 20
729.5857822948078
 30
0.0
 11
2743.678024664488
 21
729.6841868263664
 31
0.0
  0
LINE
  5
DB5D
330
1E
100
AcDbEntity
  8
0
 48
0.27
100
AcDbLine
 10
2743.436898491578
 20
733.6589229473092
 30
0.0
 11
2743.678024664488
 21
733.5605197517707
 31
0.0
  0
LINE
  5
DB5E
330
1E
100
AcDbEntity
  8
0
 48
0.27
100
AcDbLine
 10
2746.892080596381
 20
729.9670475829834
 30
0.0
 11
2747.010620280959
 21
730.1326164973316
 31
0.0
  0
LINE
  5
DB5F
330
1E
100
AcDbEntity
  8
0
 48
0.27
100
AcDbLine
 10
2747.114521197623
 20
732.8892687138059
 30
0.0
 11
2747.010620280959
 21
733.112088744785
 31
0.0
  0
LINE
  5
DB60
330
1E
100
AcDbEntity
  8
0
 48
0.27
100
AcDbLine
 10
2743.678024664488
 20
729.6841868263664
 30
0.0
 11
2743.892951490986
 21
729.6750591397713
 31
0.0
  0
LINE
  5
DB61
330
1E
100
AcDbEntity
  8
0
 48
0.27
100
AcDbLine
 10
2743.678024664488
 20
733.5605197517707
 30
0.0
 11
2743.892951490986
 21
733.5696461023453
 31
0.0
  0
LINE
  5
DB62
330
1E
100
AcDbEntity
  8
0
 48
0.27
100
AcDbLine
 10
2745.512964900471
 20
729.1179883541708
 30
0.0
 11
2746.763457970967
 21
729.8650892389669
 31
0.0
  0
LINE
  5
DB63
330
1E
100
AcDbEntity
  8
0
 48
0.27
100
AcDbLine
 10
2746.763457970967
 20
729.8650892389669
 30
0.0
 11
2746.892080596381
 21
729.9670475829834
 31
0.0
  0
LINE
  5
DB64
330
1E
100
AcDbEntity
  8
0
 48
0.27
100
AcDbLine
 10
2747.010620280959
 20
733.112088744785
 30
0.0
 11
2746.892080596381
 21
733.2776576591331
 31
0.0
  0
LINE
  5
DB65
330
1E
100
AcDbEntity
  8
0
 48
0.27
100
AcDbLine
 10
2745.322332256384
 20
729.06892436641
 30
0.0
 11
2745.512964900471
 21
729.1179883541708
 31
0.0
  0
LINE
  5
DB66
330
1E
100
AcDbEntity
  8
0
 48
0.27
100
AcDbLine
 10
2744.961494709497
 20
729.0968084337055
 30
0.0
 11
2745.322332256384
 21
729.06892436641
 31
0.0
  0
LINE
  5
DB67
330
1E
100
AcDbEntity
  8
0
 48
0.27
100
AcDbLine
 10
2743.892951490986
 20
729.6750591397713
 30
0.0
 11
2744.446906678622
 21
729.3098367762004
 31
0.0
  0
LINE
  5
DB68
330
1E
100
AcDbEntity
  8
0
 48
0.27
100
AcDbLine
 10
2746.629694341735
 20
729.8306626831008
 30
0.0
 11
2746.763457970967
 21
729.8650892389669
 31
0.0
  0
LINE
  5
DB69
330
1E
100
AcDbEntity
  8
0
 48
0.27
100
AcDbLine
 10
2745.512964900471
 20
734.1267182239653
 30
0.0
 11
2746.763457970967
 21
733.3796160031506
 31
0.0
  0
LINE
  5
DB6A
330
1E
100
AcDbEntity
  8
0
 48
0.27
100
AcDbLine
 10
2746.763457970967
 20
733.3796160031506
 30
0.0
 11
2746.892080596381
 21
733.2776576591331
 31
0.0
  0
LINE
  5
DB6B
330
1E
100
AcDbEntity
  8
0
 48
0.27
100
AcDbLine
 10
2745.322332256384
 20
734.1757808757074
 30
0.0
 11
2745.512964900471
 21
734.1267182239653
 31
0.0
  0
LINE
  5
DB6C
330
1E
100
AcDbEntity
  8
0
 48
0.27
100
AcDbLine
 10
2744.961494709497
 20
734.1478981443315
 30
0.0
 11
2745.322332256384
 21
734.1757808757074
 31
0.0
  0
LINE
  5
DB6D
330
1E
100
AcDbEntity
  8
0
 48
0.27
100
AcDbLine
 10
2743.702113099896
 20
729.8195643674498
 30
0.0
 11
2743.842196102243
 21
729.708522425381
 31
0.0
  0
LINE
  5
DB6E
330
1E
100
AcDbEntity
  8
0
 48
0.27
100
AcDbLine
 10
2744.446906678622
 20
729.3098367762004
 30
0.0
 11
2744.772943584084
 21
729.1453353416291
 31
0.0
  0
LINE
  5
DB6F
330
1E
100
AcDbEntity
  8
0
 48
0.27
100
AcDbLine
 10
2744.772943584084
 20
729.1453353416291
 30
0.0
 11
2744.961494709497
 21
729.0968084337055
 31
0.0
  0
LINE
  5
DB70
330
1E
100
AcDbEntity
  8
0
 48
0.27
100
AcDbLine
 10
2743.892951490986
 20
733.5696461023453
 30
0.0
 11
2744.446906678622
 21
733.9348684659171
 31
0.0
  0
LINE
  5
DB71
330
1E
100
AcDbEntity
  8
0
 48
0.27
100
AcDbLine
 10
2743.702113099896
 20
733.4251408746677
 30
0.0
 11
2743.842196102243
 21
733.5361828167361
 31
0.0
  0
LINE
  5
DB72
330
1E
100
AcDbEntity
  8
0
 48
0.27
100
AcDbLine
 10
2745.131698276276
 20
729.1179883541708
 30
0.0
 11
2745.322332256384
 21
729.06892436641
 31
0.0
  0
LINE
  5
DB73
330
1E
100
AcDbEntity
  8
0
 48
0.27
100
AcDbLine
 10
2744.772943584084
 20
734.0993699004875
 30
0.0
 11
2744.961494709497
 21
734.1478981443315
 31
0.0
  0
LINE
  5
DB74
330
1E
100
AcDbEntity
  8
0
 48
0.27
100
AcDbLine
 10
2744.446906678622
 20
733.9348684659171
 30
0.0
 11
2744.772943584084
 21
734.0993699004875
 31
0.0
  0
LINE
  5
DB75
330
1E
100
AcDbEntity
  8
0
 48
0.27
100
AcDbLine
 10
2743.702113099896
 20
729.8195643674498
 30
0.0
 11
2743.573010843384
 21
729.9998856113697
 31
0.0
  0
LINE
  5
DB76
330
1E
100
AcDbEntity
  8
0
 48
0.27
100
AcDbLine
 10
2746.495930712603
 20
729.8650892389669
 30
0.0
 11
2746.629694341735
 21
729.8306626831008
 31
0.0
  0
LINE
  5
DB77
330
1E
100
AcDbEntity
  8
0
 48
0.27
100
AcDbLine
 10
2746.629694341735
 20
733.4140425590167
 30
0.0
 11
2746.763457970967
 21
733.3796160031506
 31
0.0
  0
LINE
  5
DB78
330
1E
100
AcDbEntity
  8
0
 48
0.27
100
AcDbLine
 10
2745.131698276276
 20
734.1267182239653
 30
0.0
 11
2745.322332256384
 21
734.1757808757074
 31
0.0
  0
LINE
  5
DB79
330
1E
100
AcDbEntity
  8
0
 48
0.27
100
AcDbLine
 10
2744.27764099773
 20
733.800694678599
 30
0.0
 11
2744.446906678622
 21
733.9348684659171
 31
0.0
  0
LINE
  5
DB7A
330
1E
100
AcDbEntity
  8
0
 48
0.27
100
AcDbLine
 10
2743.573010843384
 20
733.2448196307478
 30
0.0
 11
2743.702113099896
 21
733.4251408746677
 31
0.0
  0
LINE
  5
DB7B
330
1E
100
AcDbEntity
  8
0
 48
0.27
100
AcDbLine
 10
2743.573010843384
 20
729.9998856113697
 30
0.0
 11
2743.459852646234
 21
730.2425575591359
 31
0.0
  0
LINE
  5
DB7C
330
1E
100
AcDbEntity
  8
0
 48
0.27
100
AcDbLine
 10
2744.948391028183
 20
729.2632925216075
 30
0.0
 11
2745.131698276276
 21
729.1179883541708
 31
0.0
  0
LINE
  5
DB7D
330
1E
100
AcDbEntity
  8
0
 48
0.27
100
AcDbLine
 10
2743.459852646234
 20
733.0021476829815
 30
0.0
 11
2743.573010843384
 21
733.2448196307478
 31
0.0
  0
LINE
  5
DB7E
330
1E
100
AcDbEntity
  8
0
 48
0.27
100
AcDbLine
 10
2746.36730675117
 20
729.9670475829834
 30
0.0
 11
2746.495930712603
 21
729.8650892389669
 31
0.0
  0
LINE
  5
DB7F
330
1E
100
AcDbEntity
  8
0
 48
0.27
100
AcDbLine
 10
2744.948391028183
 20
733.981412720509
 30
0.0
 11
2745.131698276276
 21
734.1267182239653
 31
0.0
  0
LINE
  5
DB80
330
1E
100
AcDbEntity
  8
0
 48
0.27
100
AcDbLine
 10
2746.495930712603
 20
733.3796160031506
 30
0.0
 11
2746.629694341735
 21
733.4140425590167
 31
0.0
  0
LINE
  5
DB81
330
1E
100
AcDbEntity
  8
0
 48
0.27
100
AcDbLine
 10
2743.459852646234
 20
730.2425575591359
 30
0.0
 11
2743.366985916285
 21
730.5382547930685
 31
0.0
  0
LINE
  5
DB82
330
1E
100
AcDbEntity
  8
0
 48
0.27
100
AcDbLine
 10
2743.366985916285
 20
732.7064504490485
 30
0.0
 11
2743.459852646234
 21
733.0021476829815
 31
0.0
  0
LINE
  5
DB83
330
1E
100
AcDbEntity
  8
0
 48
0.27
100
AcDbLine
 10
2744.948391028183
 20
729.2632925216075
 30
0.0
 11
2744.779454008187
 21
729.4992549783664
 31
0.0
  0
LINE
  5
DB84
330
1E
100
AcDbEntity
  8
0
 48
0.27
100
AcDbLine
 10
2743.366985916285
 20
730.5382547930685
 30
0.0
 11
2743.297980498331
 21
730.8756131296368
 31
0.0
  0
LINE
  5
DB85
330
1E
100
AcDbEntity
  8
0
 48
0.27
100
AcDbLine
 10
2746.36730675117
 20
733.2776576591331
 30
0.0
 11
2746.495930712603
 21
733.3796160031506
 31
0.0
  0
LINE
  5
DB86
330
1E
100
AcDbEntity
  8
0
 48
0.27
100
AcDbLine
 10
2746.36730675117
 20
729.9670475829834
 30
0.0
 11
2746.248767066592
 21
730.1326164973316
 31
0.0
  0
LINE
  5
DB87
330
1E
100
AcDbEntity
  8
0
 48
0.27
100
AcDbLine
 10
2744.779454008187
 20
733.7454502637501
 30
0.0
 11
2744.948391028183
 21
733.981412720509
 31
0.0
  0
LINE
  5
DB88
330
1E
100
AcDbEntity
  8
0
 48
0.27
100
AcDbLine
 10
2743.297980498331
 20
732.3690921124807
 30
0.0
 11
2743.366985916285
 21
732.7064504490485
 31
0.0
  0
LINE
  5
DB89
330
1E
100
AcDbEntity
  8
0
 48
0.27
100
AcDbLine
 10
2743.297980498331
 20
730.8756131296368
 30
0.0
 11
2743.25548571953
 21
731.2416678334535
 31
0.0
  0
LINE
  5
DB8A
330
1E
100
AcDbEntity
  8
0
 48
0.27
100
AcDbLine
 10
2743.25548571953
 20
732.0030374086636
 30
0.0
 11
2743.297980498331
 21
732.3690921124807
 31
0.0
  0
LINE
  5
DB8B
330
1E
100
AcDbEntity
  8
0
 48
0.27
100
AcDbLine
 10
2743.25548571953
 20
731.2416678334535
 30
0.0
 11
2743.241138203865
 21
731.622353289068
 31
0.0
  0
LINE
  5
DB8C
330
1E
100
AcDbEntity
  8
0
 48
0.27
100
AcDbLine
 10
2743.241138203865
 20
731.622353289068
 30
0.0
 11
2743.25548571953
 21
732.0030374086636
 31
0.0
  0
LINE
  5
DB8D
330
1E
100
AcDbEntity
  8
0
 48
0.27
100
AcDbLine
 10
2744.779454008187
 20
729.4992549783664
 30
0.0
 11
2744.631378935816
 21
729.8168068227105
 31
0.0
  0
LINE
  5
DB8E
330
1E
100
AcDbEntity
  8
0
 48
0.27
100
AcDbLine
 10
2746.248767066592
 20
733.112088744785
 30
0.0
 11
2746.36730675117
 21
733.2776576591331
 31
0.0
  0
LINE
  5
DB8F
330
1E
100
AcDbEntity
  8
0
 48
0.27
100
AcDbLine
 10
2746.248767066592
 20
730.1326164973316
 30
0.0
 11
2746.144866149928
 21
730.3554365283107
 31
0.0
  0
LINE
  5
DB90
330
1E
100
AcDbEntity
  8
0
 48
0.27
100
AcDbLine
 10
2744.631378935816
 20
733.4278997554265
 30
0.0
 11
2744.779454008187
 21
733.7454502637501
 31
0.0
  0
LINE
  5
DB91
330
1E
100
AcDbEntity
  8
0
 48
0.27
100
AcDbLine
 10
2746.144866149928
 20
732.8892687138059
 30
0.0
 11
2746.248767066592
 21
733.112088744785
 31
0.0
  0
LINE
  5
DB92
330
1E
100
AcDbEntity
  8
0
 48
0.27
100
AcDbLine
 10
2744.631378935816
 20
729.8168068227105
 30
0.0
 11
2744.509857255223
 21
730.2037435145457
 31
0.0
  0
LINE
  5
DB93
330
1E
100
AcDbEntity
  8
0
 48
0.27
100
AcDbLine
 10
2746.144866149928
 20
730.3554365283107
 30
0.0
 11
2746.059597364051
 21
730.6269437893538
 31
0.0
  0
LINE
  5
DB94
330
1E
100
AcDbEntity
  8
0
 48
0.27
100
AcDbLine
 10
2744.509857255223
 20
733.0409617274713
 30
0.0
 11
2744.631378935816
 21
733.4278997554265
 31
0.0
  0
LINE
  5
DB95
330
1E
100
AcDbEntity
  8
0
 48
0.27
100
AcDbLine
 10
2746.059597364051
 20
732.6177627887828
 30
0.0
 11
2746.144866149928
 21
732.8892687138059
 31
0.0
  0
LINE
  5
DB96
330
1E
100
AcDbEntity
  8
0
 48
0.27
100
AcDbLine
 10
2744.509857255223
 20
730.2037435145457
 30
0.0
 11
2744.419558355145
 21
730.6451978266241
 31
0.0
  0
LINE
  5
DB97
330
1E
100
AcDbEntity
  8
0
 48
0.27
100
AcDbLine
 10
2746.059597364051
 20
730.6269437893538
 30
0.0
 11
2745.996236629366
 21
730.9367026307791
 31
0.0
  0
LINE
  5
DB98
330
1E
100
AcDbEntity
  8
0
 48
0.27
100
AcDbLine
 10
2744.419558355145
 20
732.599507415493
 30
0.0
 11
2744.509857255223
 21
733.0409617274713
 31
0.0
  0
LINE
  5
DB99
330
1E
100
AcDbEntity
  8
0
 48
0.27
100
AcDbLine
 10
2745.996236629366
 20
732.3080026113379
 30
0.0
 11
2746.059597364051
 21
732.6177627887828
 31
0.0
  0
LINE
  5
DB9A
330
1E
100
AcDbEntity
  8
0
 48
0.27
100
AcDbLine
 10
2744.419558355145
 20
730.6451978266241
 30
0.0
 11
2744.363953214932
 21
731.1242036446692
 31
0.0
  0
LINE
  5
DB9B
330
1E
100
AcDbEntity
  8
0
 48
0.27
100
AcDbLine
 10
2745.996236629366
 20
730.9367026307791
 30
0.0
 11
2745.957218173793
 21
731.2728117888187
 31
0.0
  0
LINE
  5
DB9C
330
1E
100
AcDbEntity
  8
0
 48
0.27
100
AcDbLine
 10
2744.363953214932
 20
732.1205015974483
 30
0.0
 11
2744.419558355145
 21
732.599507415493
 31
0.0
  0
LINE
  5
DB9D
330
1E
100
AcDbEntity
  8
0
 48
0.27
100
AcDbLine
 10
2745.957218173793
 20
731.9718947893179
 30
0.0
 11
2745.996236629366
 21
732.3080026113379
 31
0.0
  0
LINE
  5
DB9E
330
1E
100
AcDbEntity
  8
0
 48
0.27
100
AcDbLine
 10
2744.363953214932
 20
731.1242036446692
 30
0.0
 11
2744.345176793939
 21
731.622353289068
 31
0.0
  0
LINE
  5
DB9F
330
1E
100
AcDbEntity
  8
0
 48
0.27
100
AcDbLine
 10
2745.957218173793
 20
731.2728117888187
 30
0.0
 11
2745.944043683446
 21
731.622353289068
 31
0.0
  0
LINE
  5
DBA0
330
1E
100
AcDbEntity
  8
0
 48
0.27
100
AcDbLine
 10
2745.944043683446
 20
731.622353289068
 30
0.0
 11
2745.957218173793
 21
731.9718947893179
 31
0.0
  0
LINE
  5
DBA1
330
1E
100
AcDbEntity
  8
0
 48
0.27
100
AcDbLine
 10
2744.345176793939
 20
731.622353289068
 30
0.0
 11
2744.363953214932
 21
732.1205015974483
 31
0.0
  0
LINE
  5
DBA2
330
1E
100
AcDbEntity
  8
0
 48
0.27
100
AcDbLine
 10
2743.842196102243
 20
729.708522425381
 30
0.0
 11
2743.892951490986
 21
729.6750591397713
 31
0.0
  0
LINE
  5
DBA3
330
1E
100
AcDbEntity
  8
0
 48
0.27
100
AcDbLine
 10
2743.629670103279
 20
729.6862402887309
 30
0.0
 11
2743.678024664488
 21
729.6841868263664
 31
0.0
  0
LINE
  5
DBA4
330
1E
100
AcDbEntity
  8
0
 48
0.27
100
AcDbLine
 10
2743.842196102243
 20
733.5361828167361
 30
0.0
 11
2743.892951490986
 21
733.5696461023453
 31
0.0
  0
LINE
  5
DBA5
330
1E
100
AcDbEntity
  8
0
 48
0.27
100
AcDbLine
 10
2740.445078750045
 20
728.6223090102193
 30
0.0
 11
2739.867720505202
 21
727.6222942506028
 31
0.0
  0
LINE
  5
DBA6
330
1E
100
AcDbEntity
  8
0
 48
0.27
100
AcDbLine
 10
2738.859809869166
 20
728.6223090102193
 30
0.0
 11
2741.873922435505
 21
728.6223090102193
 31
0.0
  0
LINE
  5
DBA7
330
1E
100
AcDbEntity
  8
0
 48
0.27
100
AcDbLine
 10
2741.936822243364
 20
734.3377051282709
 30
0.0
 11
2741.873922435505
 21
734.6223962318977
 31
0.0
  0
LINE
  5
DBA8
330
1E
100
AcDbEntity
  8
0
 48
0.27
100
AcDbLine
 10
2741.873922435505
 20
728.6223090102193
 30
0.0
 11
2741.936822243364
 21
728.9070001138461
 31
0.0
  0
LINE
  5
DBA9
330
1E
100
AcDbEntity
  8
0
 48
0.27
100
AcDbLine
 10
2738.859809869166
 20
734.6223962318977
 30
0.0
 11
2741.873922435505
 21
734.6223962318977
 31
0.0
  0
LINE
  5
DBAA
330
1E
100
AcDbEntity
  8
0
 48
0.27
100
AcDbLine
 10
2741.211085649725
 20
728.6223090102193
 30
0.0
 11
2741.435062673687
 21
728.6799542526019
 31
0.0
  0
LINE
  5
DBAB
330
1E
100
AcDbEntity
  8
0
 48
0.27
100
AcDbLine
 10
2741.211085649725
 20
734.6223962318977
 30
0.0
 11
2741.435062673687
 21
734.5647509895152
 31
0.0
  0
LINE
  5
DBAC
330
1E
100
AcDbEntity
  8
0
 48
0.27
100
AcDbLine
 10
2740.987108625762
 20
728.6799542526019
 30
0.0
 11
2741.211085649725
 21
728.6223090102193
 31
0.0
  0
LINE
  5
DBAD
330
1E
100
AcDbEntity
  8
0
 48
0.27
100
AcDbLine
 10
2740.987108625762
 20
734.5647509895152
 30
0.0
 11
2741.211085649725
 21
734.6223962318977
 31
0.0
  0
LINE
  5
DBAE
330
1E
100
AcDbEntity
  8
0
 48
0.27
100
AcDbLine
 10
2740.771739576711
 20
728.8506735229057
 30
0.0
 11
2740.987108625762
 21
728.6799542526019
 31
0.0
  0
LINE
  5
DBAF
330
1E
100
AcDbEntity
  8
0
 48
0.27
100
AcDbLine
 10
2740.771739576711
 20
734.3940317192109
 30
0.0
 11
2740.987108625762
 21
734.5647509895152
 31
0.0
  0
LINE
  5
DBB0
330
1E
100
AcDbEntity
  8
0
 48
0.27
100
AcDbLine
 10
2738.196973083387
 20
731.622353289068
 30
0.0
 11
2738.859809869166
 21
734.6223962318977
 31
0.0
  0
LINE
  5
DBB1
330
1E
100
AcDbEntity
  8
0
 48
0.27
100
AcDbLine
 10
2738.196973083387
 20
731.622353289068
 30
0.0
 11
2739.885412078165
 21
731.622353289068
 31
0.0
  0
LINE
  5
DBB2
330
1E
100
AcDbEntity
  8
0
 48
0.27
100
AcDbLine
 10
2738.859809869166
 20
728.6223090102193
 30
0.0
 11
2738.196973083387
 21
731.622353289068
 31
0.0
  0
LINE
  5
DBB3
330
1E
100
AcDbEntity
  8
0
 48
0.27
100
AcDbLine
 10
2740.771739576711
 20
728.8506735229057
 30
0.0
 11
2740.573253808827
 21
729.1279069645074
 31
0.0
  0
LINE
  5
DBB4
330
1E
100
AcDbEntity
  8
0
 48
0.27
100
AcDbLine
 10
2740.573253808827
 20
734.1167982776096
 30
0.0
 11
2740.771739576711
 21
734.3940317192109
 31
0.0
  0
LINE
  5
DBB5
330
1E
100
AcDbEntity
  8
0
 48
0.27
100
AcDbLine
 10
2740.573253808827
 20
729.1279069645074
 30
0.0
 11
2740.399279994431
 21
729.5010011561475
 31
0.0
  0
LINE
  5
DBB6
330
1E
100
AcDbEntity
  8
0
 48
0.27
100
AcDbLine
 10
2740.399279994431
 20
733.7437040859695
 30
0.0
 11
2740.573253808827
 21
734.1167982776096
 31
0.0
  0
LINE
  5
DBB7
330
1E
100
AcDbEntity
  8
0
 48
0.27
100
AcDbLine
 10
2740.548248863945
 20
728.6223090102193
 30
0.0
 11
2739.885412078165
 21
731.622353289068
 31
0.0
  0
LINE
  5
DBB8
330
1E
100
AcDbEntity
  8
0
 48
0.27
100
AcDbLine
 10
2739.885412078165
 20
731.622353289068
 30
0.0
 11
2740.548248863945
 21
734.6223962318977
 31
0.0
  0
LINE
  5
DBB9
330
1E
100
AcDbEntity
  8
0
 48
0.27
100
AcDbLine
 10
2740.399279994431
 20
729.5010011561475
 30
0.0
 11
2740.25650224026
 21
729.9556179343981
 31
0.0
  0
LINE
  5
DBBA
330
1E
100
AcDbEntity
  8
0
 48
0.27
100
AcDbLine
 10
2740.25650224026
 20
733.2890873077194
 30
0.0
 11
2740.399279994431
 21
733.7437040859695
 31
0.0
  0
LINE
  5
DBBB
330
1E
100
AcDbEntity
  8
0
 48
0.27
100
AcDbLine
 10
2740.25650224026
 20
729.9556179343981
 30
0.0
 11
2740.150410251325
 21
730.4742861695126
 31
0.0
  0
LINE
  5
DBBC
330
1E
100
AcDbEntity
  8
0
 48
0.27
100
AcDbLine
 10
2740.150410251325
 20
732.770420408624
 30
0.0
 11
2740.25650224026
 21
733.2890873077194
 31
0.0
  0
LINE
  5
DBBD
330
1E
100
AcDbEntity
  8
0
 48
0.27
100
AcDbLine
 10
2740.150410251325
 20
730.4742861695126
 30
0.0
 11
2740.085078887583
 21
731.0370737833355
 31
0.0
  0
LINE
  5
DBBE
330
1E
100
AcDbEntity
  8
0
 48
0.27
100
AcDbLine
 10
2740.085078887583
 20
732.2076327947016
 30
0.0
 11
2740.150410251325
 21
732.770420408624
 31
0.0
  0
LINE
  5
DBBF
330
1E
100
AcDbEntity
  8
0
 48
0.27
100
AcDbLine
 10
2740.085078887583
 20
731.0370737833355
 30
0.0
 11
2740.063018530169
 21
731.622353289068
 31
0.0
  0
LINE
  5
DBC0
330
1E
100
AcDbEntity
  8
0
 48
0.27
100
AcDbLine
 10
2740.063018530169
 20
731.622353289068
 30
0.0
 11
2740.085078887583
 21
732.2076327947016
 31
0.0
  0
LINE
  5
DBC1
330
1E
100
AcDbEntity
  8
0
 48
0.27
100
AcDbLine
 10
2741.435062673687
 20
728.6799542526019
 30
0.0
 11
2743.436898491578
 21
729.5857822948078
 31
0.0
  0
LINE
  5
DBC2
330
1E
100
AcDbEntity
  8
0
 48
0.27
100
AcDbLine
 10
2741.435062673687
 20
734.5647509895152
 30
0.0
 11
2743.436898491578
 21
733.6589229473092
 31
0.0
  0
LINE
  5
DBC3
330
1E
100
AcDbEntity
  8
0
 48
0.27
100
AcDbLine
 10
2740.445078750045
 20
734.6223962318977
 30
0.0
 11
2739.867719169183
 21
735.6224109915138
 31
0.0
  0
LINE
  5
DBC4
330
1E
100
AcDbEntity
  8
中心線
 48
0.25
100
AcDbLine
 10
2748.292839822279
 20
731.622353289068
 30
0.0
 11
2731.925299521823
 21
731.622353289068
 31
0.0
  0
LINE
  5
DBC5
330
1E
100
AcDbEntity
  8
0
  6
Continuous
 62
     7
100
AcDbLine
 10
2730.058284853791
 20
740.2647267067684
 30
0.0
 11
2729.608284853791
 21
739.8147267067684
 31
0.0
  0
LINE
  5
DBC6
330
1E
100
AcDbEntity
  8
0
  6
Continuous
 62
     7
100
AcDbLine
 10
2730.058284853791
 20
740.2647267067684
 30
0.0
 11
2745.05828485379
 21
740.2647267067684
 31
0.0
  0
LINE
  5
DBC7
330
1E
100
AcDbEntity
  8
0
  6
Continuous
 62
     7
100
AcDbLine
 10
2745.508284853791
 20
739.8147267067684
 30
0.0
 11
2745.05828485379
 21
740.2647267067684
 31
0.0
  0
LINE
  5
DBE4
330
1E
100
AcDbEntity
  8
中心線
 48
0.8
100
AcDbLine
 10
2977.857909495336
 20
894.0287483749479
 30
0.0
 11
2977.857909495334
 21
816.0287483749488
 31
0.0
  0
LINE
  5
DBE5
330
1E
100
AcDbEntity
  8
中心線
 48
0.8
100
AcDbLine
 10
3035.107909495336
 20
855.0287483749478
 30
0.0
 11
2920.607909495336
 21
855.0287483749487
 31
0.0
  0
ARC
  5
DC1F
330
1E
100
AcDbEntity
  8
標註線
 62
     1
100
AcDbCircle
 10
2941.857909495336
 20
830.0287483749478
 30
0.0
 40
4.0
100
AcDbArc
 50
169.9999999988309
 51
100.0000000011691
  0
ARC
  5
DC20
330
1E
100
AcDbEntity
  8
標註線
 62
     1
100
AcDbCircle
 10
2941.857909495336
 20
855.0287483749478
 30
0.0
 40
4.0
100
AcDbArc
 50
169.9999999988309
 51
100.0000000011691
  0
LINE
  5
DC21
330
1E
100
AcDbEntity
  8
中心線
100
AcDbLine
 10
2946.857909495336
 20
830.0287483749478
 30
0.0
 11
2936.857909495336
 21
830.0287483749478
 31
0.0
  0
CIRCLE
  5
DC22
330
1E
100
AcDbEntity
  8
0
100
AcDbCircle
 10
2941.857909495336
 20
830.0287483749478
 30
0.0
 40
3.375
  0
LINE
  5
DC23
330
1E
100
AcDbEntity
  8
中心線
100
AcDbLine
 10
2941.857909495336
 20
825.0287483749479
 30
0.0
 11
2941.857909495336
 21
835.0287483749479
 31
0.0
  0
ARC
  5
DC24
330
1E
100
AcDbEntity
  8
標註線
 62
     1
100
AcDbCircle
 10
2941.857909495336
 20
880.0287483749478
 30
0.0
 40
4.0
100
AcDbArc
 50
169.9999999988309
 51
100.0000000011691
  0
CIRCLE
  5
DC25
330
1E
100
AcDbEntity
  8
0
100
AcDbCircle
 10
2941.857909495336
 20
880.0287483749478
 30
0.0
 40
3.375
  0
LINE
  5
DC26
330
1E
100
AcDbEntity
  8
中心線
100
AcDbLine
 10
2946.857909495336
 20
880.0287483749478
 30
0.0
 11
2936.857909495336
 21
880.0287483749478
 31
0.0
  0
LINE
  5
DC27
330
1E
100
AcDbEntity
  8
中心線
100
AcDbLine
 10
2941.857909495336
 20
875.0287483749479
 30
0.0
 11
2941.857909495336
 21
885.0287483749479
 31
0.0
  0
CIRCLE
  5
DC28
330
1E
100
AcDbEntity
  8
0
100
AcDbCircle
 10
2941.857909495336
 20
855.0287483749478
 30
0.0
 40
3.375
  0
LINE
  5
DC29
330
1E
100
AcDbEntity
  8
中心線
100
AcDbLine
 10
2941.857909495336
 20
850.0287483749479
 30
0.0
 11
2941.857909495336
 21
860.0287483749479
 31
0.0
  0
ARC
  5
DC3A
330
1E
100
AcDbEntity
  8
標註線
 62
     1
100
AcDbCircle
 10
3013.857909495336
 20
830.0287483749478
 30
0.0
 40
4.0
100
AcDbArc
 50
169.9999999988309
 51
100.0000000011691
  0
ARC
  5
DC3B
330
1E
100
AcDbEntity
  8
標註線
 62
     1
100
AcDbCircle
 10
3013.857909495336
 20
855.0287483749478
 30
0.0
 40
4.0
100
AcDbArc
 50
169.9999999988309
 51
100.0000000011691
  0
LINE
  5
DC3C
330
1E
100
AcDbEntity
  8
中心線
100
AcDbLine
 10
3018.857909495336
 20
830.0287483749478
 30
0.0
 11
3008.857909495336
 21
830.0287483749478
 31
0.0
  0
CIRCLE
  5
DC3D
330
1E
100
AcDbEntity
  8
0
100
AcDbCircle
 10
3013.857909495336
 20
830.0287483749478
 30
0.0
 40
3.375
  0
LINE
  5
DC3E
330
1E
100
AcDbEntity
  8
中心線
100
AcDbLine
 10
3013.857909495336
 20
825.0287483749479
 30
0.0
 11
3013.857909495336
 21
835.0287483749479
 31
0.0
  0
ARC
  5
DC3F
330
1E
100
AcDbEntity
  8
標註線
 62
     1
100
AcDbCircle
 10
3013.857909495336
 20
880.0287483749478
 30
0.0
 40
4.0
100
AcDbArc
 50
169.9999999988309
 51
100.0000000011691
  0
CIRCLE
  5
DC40
330
1E
100
AcDbEntity
  8
0
100
AcDbCircle
 10
3013.857909495336
 20
880.0287483749478
 30
0.0
 40
3.375
  0
LINE
  5
DC41
330
1E
100
AcDbEntity
  8
中心線
100
AcDbLine
 10
3018.857909495336
 20
880.0287483749478
 30
0.0
 11
3008.857909495336
 21
880.0287483749478
 31
0.0
  0
LINE
  5
DC42
330
1E
100
AcDbEntity
  8
中心線
100
AcDbLine
 10
3013.857909495336
 20
875.0287483749479
 30
0.0
 11
3013.857909495336
 21
885.0287483749479
 31
0.0
  0
CIRCLE
  5
DC43
330
1E
100
AcDbEntity
  8
0
100
AcDbCircle
 10
3013.857909495336
 20
855.0287483749478
 30
0.0
 40
3.375
  0
LINE
  5
DC44
330
1E
100
AcDbEntity
  8
中心線
100
AcDbLine
 10
3013.857909495336
 20
850.0287483749479
 30
0.0
 11
3013.857909495336
 21
860.0287483749479
 31
0.0
  0
LINE
  5
DC45
330
1E
100
AcDbEntity
  8
中心線
 48
0.3
100
AcDbLine
 10
2897.857909495336
 20
859.5287483749485
 30
0.0
 11
2897.857909495336
 21
864.2756658806751
 31
0.0
  0
ARC
  5
DC46
330
1E
100
AcDbEntity
  8
0
 48
0.27
100
AcDbCircle
 10
2897.857909495336
 20
855.0287483749487
 30
0.0
 40
6.999999999999772
100
AcDbArc
 50
52.61680158213356
 51
168.4886855202643
  0
ARC
  5
DC47
330
1E
100
AcDbEntity
  8
0
 48
0.27
100
AcDbCircle
 10
2897.857909495336
 20
855.0287483749487
 30
0.0
 40
4.499999999999772
100
AcDbArc
 50
80.62614127020806
 51
117.2660444507199
  0
LINE
  5
DC48
330
1E
100
AcDbEntity
  8
中心線
 48
0.3
100
AcDbLine
 10
2897.857909495336
 20
845.7818308692225
 30
0.0
 11
2897.857909495336
 21
850.5287483749491
 31
0.0
  0
LINE
  5
DC49
330
1E
100
AcDbEntity
  8
中心線
 48
0.3
100
AcDbLine
 10
2888.61099198961
 20
855.0287483749487
 30
0.0
 11
2890.746856672851
 21
855.0287483749487
 31
0.0
  0
ARC
  5
DC4A
330
1E
100
AcDbEntity
  8
0
 48
0.27
100
AcDbCircle
 10
2897.857909495336
 20
855.0287483749487
 30
0.0
 40
6.999999999999772
100
AcDbArc
 50
247.7663088126418
 51
307.3831984178665
  0
ARC
  5
DC4B
330
1E
100
AcDbEntity
  8
0
 48
0.27
100
AcDbCircle
 10
2897.857909495336
 20
855.0287483749487
 30
0.0
 40
4.499999999999772
100
AcDbArc
 50
255.2895278042575
 51
279.3738587297919
  0
ARC
  5
DC4D
330
1E
100
AcDbEntity
  8
0
  6
Continuous
100
AcDbCircle
 10
2895.387595806943
 20
856.575629482417
 30
0.0
 40
6.971504732179473
100
AcDbArc
 50
230.7213499979145
 51
264.2786500020961
  0
ARC
  5
DC4E
330
1E
100
AcDbEntity
  8
0
  6
Continuous
100
AcDbCircle
 10
2890.851110428832
 20
845.6235849570733
 30
0.0
 40
6.971504732179473
100
AcDbArc
 50
50.72134999791451
 51
84.27865000208308
  0
LINE
  5
DC4F
330
1E
100
AcDbEntity
  8
0
  6
Continuous
100
AcDbLine
 10
2890.730028369213
 20
853.2196411347399
 30
0.0
 11
2896.30795120777
 21
850.9091898451387
 31
0.0
  0
LINE
  5
DC50
330
1E
100
AcDbEntity
  8
0
  6
Continuous
100
AcDbLine
 10
2889.930755028004
 20
851.2900245943514
 30
0.0
 11
2895.508677866562
 21
848.97957330475
 31
0.0
  0
ARC
  5
DC51
330
1E
100
AcDbEntity
  8
0
  6
Continuous
100
AcDbCircle
 10
2891.596179750241
 20
846.7053605569114
 30
0.0
 40
2.860349020536762
100
AcDbArc
 50
331.4135141737281
 51
16.41351417374012
  0
ARC
  5
DC52
330
1E
100
AcDbEntity
  8
0
  6
Continuous
100
AcDbCircle
 10
2896.264785600832
 20
846.7805889448593
 30
0.0
 40
2.059673609817604
100
AcDbArc
 50
89.15209883494572
 51
159.1520988349398
  0
LINE
  5
DC53
330
1E
100
AcDbEntity
  8
0
  6
Continuous
100
AcDbLine
 10
2889.905340220428
 20
849.3504833314867
 30
0.0
 11
2894.155186069979
 21
847.5901395426072
 31
0.0
  0
ARC
  5
DC54
330
1E
100
AcDbEntity
  8
0
  6
Continuous
100
AcDbCircle
 10
2891.089197721577
 20
846.9153593890636
 30
0.0
 40
2.860349020536762
100
AcDbArc
 50
118.5864858262542
 51
163.5864858262599
  0
LINE
  5
DC55
330
1E
100
AcDbEntity
  8
0
  6
Continuous
100
AcDbLine
 10
2891.963895473603
 20
843.1927822437266
 30
0.0
 11
2894.107840379137
 21
845.33672714926
 31
0.0
  0
LINE
  5
DC56
330
1E
100
AcDbEntity
  8
0
  6
Continuous
100
AcDbLine
 10
2888.345415495336
 20
844.6916057259006
 30
0.0
 11
2888.345415495336
 21
847.7236016882866
 31
0.0
  0
LINE
  5
DC57
330
1E
100
AcDbEntity
  8
0
  6
Continuous
100
AcDbLine
 10
2888.345415495336
 20
844.6916057259006
 30
0.0
 11
2891.963895473603
 21
843.1927822437266
 31
0.0
  0
LINE
  5
DC58
330
1E
100
AcDbEntity
  8
0
  6
Continuous
100
AcDbLine
 10
2888.345415495336
 20
847.7236016882866
 30
0.0
 11
2894.107840379137
 21
845.33672714926
 31
0.0
  0
ARC
  5
DC59
330
1E
100
AcDbEntity
  8
0
  6
Continuous
100
AcDbCircle
 10
2887.841189369192
 20
850.2697567479593
 30
0.0
 40
2.059673609817605
100
AcDbArc
 50
335.8479011650642
 51
45.8479011650646
  0
ARC
  5
DC5A
330
1E
100
AcDbEntity
  8
0
  6
Continuous
100
AcDbCircle
 10
2890.640301287832
 20
853.0030207979589
 30
0.0
 40
1.854133729915247
100
AcDbArc
 50
214.6327799989322
 51
280.3672200010575
  0
ARC
  5
DC5B
330
1E
100
AcDbEntity
  8
0
  6
Continuous
100
AcDbCircle
 10
2890.020482109385
 20
851.5066449311325
 30
0.0
 40
1.854133729915247
100
AcDbArc
 50
34.63277999893215
 51
100.3672200010575
  0
LINE
  5
DC5C
330
1E
100
AcDbEntity
  8
0
  6
Continuous
100
AcDbLine
 10
2889.114699365272
 20
851.9493496848268
 30
0.0
 11
2889.686776633787
 21
853.3304663852025
 31
0.0
  0
LINE
  5
DC5D
330
1E
100
AcDbEntity
  8
0
  6
Continuous
100
AcDbLine
 10
2890.974007085471
 20
851.1791992104949
 30
0.0
 11
2891.546084353987
 21
852.5603159108706
 31
0.0
  0
ARC
  5
DC5E
330
1E
100
AcDbEntity
  8
0
  6
Continuous
100
AcDbCircle
 10
2906.31284947497
 20
855.0287483749491
 30
0.0
 40
7.96743397963368
100
AcDbArc
 50
163.2213499979083
 51
196.7786500020917
  0
LINE
  5
DC5F
330
1E
100
AcDbEntity
  8
0
  6
Continuous
100
AcDbLine
 10
2898.345415495336
 20
851.5787482753562
 30
0.0
 11
2898.345415495336
 21
858.4787484745421
 31
0.0
  0
LINE
  5
DC60
330
1E
100
AcDbEntity
  8
0
  6
Continuous
100
AcDbLine
 10
2898.684668037445
 20
852.7287485741348
 30
0.0
 11
2902.107909495336
 21
852.7287485741348
 31
0.0
  0
LINE
  5
DC61
330
1E
100
AcDbEntity
  8
0
  6
Continuous
100
AcDbLine
 10
2898.684668037445
 20
850.4287483749489
 30
0.0
 11
2902.107909495336
 21
850.4287483749489
 31
0.0
  0
ARC
  5
DC62
330
1E
100
AcDbEntity
  8
0
  6
Continuous
100
AcDbCircle
 10
2900.464425472382
 20
851.5787482753562
 30
0.0
 40
2.119009977045996
100
AcDbArc
 50
147.1327799989424
 51
212.8672200010575
  0
ARC
  5
DC63
330
1E
100
AcDbEntity
  8
0
  6
Continuous
100
AcDbCircle
 10
2895.598404947943
 20
849.1961936415314
 30
0.0
 40
1.854133729915247
100
AcDbArc
 50
34.63277999893215
 51
100.3672200010575
  0
LINE
  5
DC64
330
1E
100
AcDbEntity
  8
0
  6
Continuous
100
AcDbLine
 10
2896.019311383605
 20
851.028748374949
 30
0.0
 11
2898.418037583351
 21
851.0287483749491
 31
0.0
  0
LINE
  5
DC65
330
1E
100
AcDbEntity
  8
0
  6
Continuous
100
AcDbLine
 10
2894.692621881788
 20
849.6388985286193
 30
0.0
 11
2895.264699150303
 21
851.0200152289954
 31
0.0
  0
ARC
  5
DC66
330
1E
100
AcDbEntity
  8
0
  6
Continuous
100
AcDbCircle
 10
2896.218224126389
 20
850.6925695083577
 30
0.0
 40
1.854133729915247
100
AcDbArc
 50
214.6327799989322
 51
280.3672200010575
  0
LINE
  5
DC67
330
1E
100
AcDbEntity
  8
0
  6
Continuous
100
AcDbLine
 10
2896.551887349941
 20
848.8687052750172
 30
0.0
 11
2897.124007243307
 21
850.2499248808844
 31
0.0
  0
LINE
  5
DC68
330
1E
100
AcDbEntity
  8
0
  6
Continuous
100
AcDbLine
 10
2898.684668037445
 20
859.628748374949
 30
0.0
 11
2902.107909495336
 21
859.628748374949
 31
0.0
  0
LINE
  5
DC69
330
1E
100
AcDbEntity
  8
0
  6
Continuous
100
AcDbLine
 10
2898.684668037445
 20
857.3287481757631
 30
0.0
 11
2902.107909495336
 21
857.3287481757631
 31
0.0
  0
LINE
  5
DC6A
330
1E
100
AcDbEntity
  8
0
  6
Continuous
100
AcDbLine
 10
2894.746856672851
 20
859.0287483749492
 30
0.0
 11
2898.418037583351
 21
859.0287483749492
 31
0.0
  0
ARC
  5
DC6B
330
1E
100
AcDbEntity
  8
0
  6
Continuous
100
AcDbCircle
 10
2900.464425472382
 20
858.4787484745421
 30
0.0
 40
2.119009977045996
100
AcDbArc
 50
147.1327799989424
 51
212.8672200010575
  0
ARC
  5
DC6C
330
1E
100
AcDbEntity
  8
0
  6
Continuous
100
AcDbCircle
 10
2894.746856672851
 20
855.0287483749491
 30
0.0
 40
4.0
100
AcDbArc
 50
90.0
 51
210.8352048940846
  0
LINE
  5
DC6D
330
1E
100
AcDbEntity
  8
0
 48
0.27
100
AcDbLine
 10
2837.857909495336
 20
872.0287483749487
 30
0.0
 11
2902.107909495336
 21
872.0287483749485
 31
0.0
  0
LINE
  5
DC6E
330
1E
100
AcDbEntity
  8
0
 48
0.27
100
AcDbLine
 10
2837.857909495336
 20
838.0287483749487
 30
0.0
 11
2902.107909495336
 21
838.0287483749487
 31
0.0
  0
LINE
  5
DC6F
330
1E
100
AcDbEntity
  8
0
 48
0.27
100
AcDbLine
 10
2837.857909495336
 20
872.0287483749487
 30
0.0
 11
2837.857909495336
 21
838.0287483749487
 31
0.0
  0
CIRCLE
  5
DC70
330
1E
100
AcDbEntity
  8
0
 48
0.27
100
AcDbCircle
 10
2857.857909495336
 20
855.0287483749487
 30
0.0
 40
4.499999999999772
  0
CIRCLE
  5
DC71
330
1E
100
AcDbEntity
  8
0
 48
0.27
100
AcDbCircle
 10
2857.857909495336
 20
855.0287483749487
 30
0.0
 40
6.999999999999772
  0
LINE
  5
DC72
330
1E
100
AcDbEntity
  8
中心線
 48
0.3
100
AcDbLine
 10
2848.610991989611
 20
855.0287483749487
 30
0.0
 11
2867.104827001063
 21
855.0287483749487
 31
0.0
  0
LINE
  5
DC73
330
1E
100
AcDbEntity
  8
中心線
 48
0.3
100
AcDbLine
 10
2857.857909495336
 20
845.7818308692223
 30
0.0
 11
2857.857909495336
 21
864.2756658806749
 31
0.0
  0
LINE
  5
DC74
330
1E
100
AcDbEntity
  8
0
 48
0.27
100
AcDbLine
 10
3117.857909495337
 20
838.0287483749487
 30
0.0
 11
3117.857909495337
 21
872.0287483749487
 31
0.0
  0
LINE
  5
DC75
330
1E
100
AcDbEntity
  8
0
 48
0.27
100
AcDbLine
 10
3053.607909495336
 20
838.0287483749487
 30
0.0
 11
3117.857909495337
 21
838.0287483749487
 31
0.0
  0
LINE
  5
DC76
330
1E
100
AcDbEntity
  8
0
 48
0.27
100
AcDbLine
 10
3053.607909495336
 20
872.0287483749485
 30
0.0
 11
3117.857909495337
 21
872.0287483749487
 31
0.0
  0
ARC
  5
DC77
330
1E
100
AcDbEntity
  8
0
 48
0.27
100
AcDbCircle
 10
3057.857909495336
 20
855.0287483749487
 30
0.0
 40
4.499999999999772
100
AcDbArc
 50
199.1881364537126
 51
160.8118635462874
  0
ARC
  5
DC78
330
1E
100
AcDbEntity
  8
0
 48
0.27
100
AcDbCircle
 10
3057.857909495336
 20
855.0287483749487
 30
0.0
 40
6.999999999999772
100
AcDbArc
 50
232.6168015821335
 51
127.3831984178664
  0
CIRCLE
  5
DC79
330
1E
100
AcDbEntity
  8
0
 48
0.27
100
AcDbCircle
 10
3097.857909495336
 20
855.0287483749487
 30
0.0
 40
4.499999999999772
  0
CIRCLE
  5
DC7A
330
1E
100
AcDbEntity
  8
0
 48
0.27
100
AcDbCircle
 10
3097.857909495336
 20
855.0287483749487
 30
0.0
 40
6.999999999999772
  0
LINE
  5
DC7B
330
1E
100
AcDbEntity
  8
中心線
 48
0.3
100
AcDbLine
 10
3053.607909495336
 20
855.0287483749487
 30
0.0
 11
3067.104827001062
 21
855.0287483749487
 31
0.0
  0
LINE
  5
DC7C
330
1E
100
AcDbEntity
  8
中心線
 48
0.3
100
AcDbLine
 10
3057.857909495336
 20
845.7818308692223
 30
0.0
 11
3057.857909495336
 21
864.2756658806749
 31
0.0
  0
LINE
  5
DC7D
330
1E
100
AcDbEntity
  8
中心線
 48
0.3
100
AcDbLine
 10
3088.61099198961
 20
855.0287483749487
 30
0.0
 11
3107.104827001062
 21
855.0287483749487
 31
0.0
  0
LINE
  5
DC7E
330
1E
100
AcDbEntity
  8
中心線
 48
0.3
100
AcDbLine
 10
3097.857909495336
 20
845.7818308692223
 30
0.0
 11
3097.857909495336
 21
864.2756658806749
 31
0.0
  0
LINE
  5
DC7F
330
1E
100
AcDbEntity
  8
0
  6
Continuous
 62
     7
100
AcDbLine
 10
2900.996248764241
 20
722.8223532885565
 30
0.0
 11
2837.857909495336
 21
722.8223532885567
 31
0.0
  0
LINE
  5
DC80
330
1E
100
AcDbEntity
  8
0
  6
Continuous
 62
     7
100
AcDbLine
 10
2901.270024368751
 20
721.8223532885564
 30
0.0
 11
2871.864097902927
 21
721.8223532885567
 31
0.0
  0
LINE
  5
DC8F
330
1E
100
AcDbEntity
  8
虛線
 48
0.3
100
AcDbLine
 10
2890.857909495336
 20
722.4223532885562
 30
0.0
 11
2890.857909495336
 21
710.822353288557
 31
0.0
  0
LINE
  5
DC90
330
1E
100
AcDbEntity
  8
虛線
 48
0.3
100
AcDbLine
 10
2893.357909495336
 20
710.5223532885575
 30
0.0
 11
2893.357909495336
 21
693.1223532885565
 31
0.0
  0
LINE
  5
DC91
330
1E
100
AcDbEntity
  8
虛線
 48
0.3
100
AcDbLine
 10
2902.357909495336
 20
699.1223532890659
 30
0.0
 11
2902.357909495336
 21
693.1223532885567
 31
0.0
  0
LINE
  5
DC92
330
1E
100
AcDbEntity
  8
虛線
 48
0.3
100
AcDbLine
 10
2902.107909495336
 20
710.822353288557
 30
0.0
 11
2890.857909495336
 21
710.822353288557
 31
0.0
  0
LINE
  5
DC93
330
1E
100
AcDbEntity
  8
虛線
 48
0.3
100
AcDbLine
 10
2890.857909495336
 20
722.4223532885567
 30
0.0
 11
2901.082382014802
 21
722.4223532885567
 31
0.0
  0
LINE
  5
DC94
330
1E
100
AcDbEntity
  8
虛線
 48
0.3
100
AcDbLine
 10
2893.357909495336
 20
693.1223532885565
 30
0.0
 11
2902.357909495336
 21
693.1223532885565
 31
0.0
  0
LINE
  5
DC95
330
1E
100
AcDbEntity
  8
虛線
 48
0.7
100
AcDbLine
 10
2902.857910209624
 20
692.6223532885574
 30
0.0
 11
2902.357909495336
 21
693.1223532885567
 31
0.0
  0
LINE
  5
DC96
330
1E
100
AcDbEntity
  8
虛線
 48
0.7
100
AcDbLine
 10
2893.357909495336
 20
693.1223532885567
 30
0.0
 11
2892.85790878105
 21
692.6223532885574
 31
0.0
  0
LINE
  5
DC97
330
1E
100
AcDbEntity
  8
虛線
 48
0.3
100
AcDbLine
 10
2893.057909495336
 20
710.8223532885567
 30
0.0
 11
2893.357909495336
 21
710.5223532885568
 31
0.0
  0
LINE
  5
DC98
330
1E
100
AcDbEntity
  8
虛線
 48
0.3
100
AcDbLine
 10
2902.107909495336
 20
710.5223532885568
 30
0.0
 11
2893.357909495336
 21
710.5223532885568
 31
0.0
  0
LINE
  5
DC99
330
1E
100
AcDbEntity
  8
虛線
 48
0.7
100
AcDbLine
 10
2890.857909495336
 20
722.4223532885567
 30
0.0
 11
2890.62696938766
 21
722.8223532885567
 31
0.0
  0
LINE
  5
DC9A
330
1E
100
AcDbEntity
  8
中心線
 48
0.25
100
AcDbLine
 10
2897.857909495336
 20
690.6223532885571
 30
0.0
 11
2897.857909495336
 21
724.8223532885565
 31
0.0
  0
LINE
  5
DC9B
330
1E
100
AcDbEntity
  8
0
100
AcDbLine
 10
2850.857909495336
 20
722.4223532885562
 30
0.0
 11
2850.857909495336
 21
710.822353288557
 31
0.0
  0
LINE
  5
DC9C
330
1E
100
AcDbEntity
  8
0
100
AcDbLine
 10
2864.857909495336
 20
722.4223532885567
 30
0.0
 11
2864.857909495336
 21
710.822353288557
 31
0.0
  0
LINE
  5
DC9D
330
1E
100
AcDbEntity
  8
0
100
AcDbLine
 10
2853.357909495336
 20
710.5223532885575
 30
0.0
 11
2853.357909495336
 21
693.1223532885565
 31
0.0
  0
LINE
  5
DC9E
330
1E
100
AcDbEntity
  8
0
100
AcDbLine
 10
2862.357909495336
 20
710.5223532885566
 30
0.0
 11
2862.357909495336
 21
693.1223532885567
 31
0.0
  0
LINE
  5
DC9F
330
1E
100
AcDbEntity
  8
0
100
AcDbLine
 10
2864.857909495336
 20
710.822353288557
 30
0.0
 11
2850.857909495336
 21
710.822353288557
 31
0.0
  0
LINE
  5
DCA0
330
1E
100
AcDbEntity
  8
0
100
AcDbLine
 10
2850.857909495336
 20
722.4223532885567
 30
0.0
 11
2864.857909495336
 21
722.4223532885567
 31
0.0
  0
LINE
  5
DCA1
330
1E
100
AcDbEntity
  8
0
100
AcDbLine
 10
2853.357909495336
 20
693.1223532885565
 30
0.0
 11
2862.357909495336
 21
693.1223532885565
 31
0.0
  0
LINE
  5
DCA2
330
1E
100
AcDbEntity
  8
0
100
AcDbLine
 10
2862.857910209623
 20
692.6223532885574
 30
0.0
 11
2862.357909495336
 21
693.1223532885567
 31
0.0
  0
LINE
  5
DCA3
330
1E
100
AcDbEntity
  8
0
100
AcDbLine
 10
2853.357909495336
 20
693.1223532885567
 30
0.0
 11
2852.85790878105
 21
692.6223532885574
 31
0.0
  0
LINE
  5
DCA4
330
1E
100
AcDbEntity
  8
0
100
AcDbLine
 10
2853.057909495336
 20
710.8223532885567
 30
0.0
 11
2853.357909495336
 21
710.5223532885568
 31
0.0
  0
LINE
  5
DCA5
330
1E
100
AcDbEntity
  8
0
100
AcDbLine
 10
2862.657909495336
 20
710.8223532885567
 30
0.0
 11
2862.357909495336
 21
710.5223532885568
 31
0.0
  0
LINE
  5
DCA6
330
1E
100
AcDbEntity
  8
0
100
AcDbLine
 10
2862.357909495336
 20
710.5223532885568
 30
0.0
 11
2853.357909495336
 21
710.5223532885568
 31
0.0
  0
LINE
  5
DCA7
330
1E
100
AcDbEntity
  8
0
100
AcDbLine
 10
2864.857909495336
 20
722.4223532885567
 30
0.0
 11
2865.088849603012
 21
722.8223532885567
 31
0.0
  0
LINE
  5
DCA8
330
1E
100
AcDbEntity
  8
0
100
AcDbLine
 10
2850.857909495336
 20
722.4223532885567
 30
0.0
 11
2850.62696938766
 21
722.8223532885567
 31
0.0
  0
LINE
  5
DCA9
330
1E
100
AcDbEntity
  8
中心線
 48
0.25
100
AcDbLine
 10
2857.857909495336
 20
690.6223532885571
 30
0.0
 11
2857.857909495336
 21
724.8223532885565
 31
0.0
  0
LINE
  5
DCAA
330
1E
100
AcDbEntity
  8
0
  6
Continuous
 62
     7
100
AcDbLine
 10
2837.857909495336
 20
692.6223532885565
 30
0.0
 11
2837.857909495336
 21
722.8223532885567
 31
0.0
  0
LINE
  5
DCAB
330
1E
100
AcDbEntity
  8
0
100
AcDbLine
 10
2872.333329827918
 20
722.8223532885566
 30
0.0
 11
2869.993244387597
 21
717.8352982403152
 31
0.0
  0
LINE
  5
DCAC
330
1E
100
AcDbEntity
  8
0
100
AcDbLine
 10
2869.993244387597
 20
717.8352982403152
 30
0.0
 11
2872.92162872652
 21
711.0529812118588
 31
0.0
  0
LINE
  5
DCAD
330
1E
100
AcDbEntity
  8
0
100
AcDbLine
 10
2872.92162872652
 20
711.0529812118588
 30
0.0
 11
2869.993244387597
 21
704.6276311560145
 31
0.0
  0
LINE
  5
DCAE
330
1E
100
AcDbEntity
  8
0
100
AcDbLine
 10
2869.993244387597
 20
704.6276311560145
 30
0.0
 11
2872.635939161871
 21
698.2022811001693
 31
0.0
  0
LINE
  5
DCAF
330
1E
100
AcDbEntity
  8
0
100
AcDbLine
 10
2872.635939161871
 20
698.2022811001693
 30
0.0
 11
2870.707480519295
 21
692.6223532885552
 31
0.0
  0
LINE
  5
DCB0
330
1E
100
AcDbEntity
  8
0
  6
Continuous
 62
     7
100
AcDbLine
 10
3117.857909495337
 20
692.6223532885565
 30
0.0
 11
2837.857909495336
 21
692.6223532885551
 31
0.0
  0
LINE
  5
DCB1
330
1E
100
AcDbEntity
  8
0
  6
Continuous
 62
     7
100
AcDbLine
 10
3117.857909495336
 20
694.122353288556
 30
0.0
 11
2871.225890086861
 21
694.1223532885564
 31
0.0
  0
LINE
  5
DCB2
330
1E
100
AcDbEntity
  8
虛線
 48
0.3
100
AcDbLine
 10
2942.357909495336
 20
699.122353288797
 30
0.0
 11
2942.357909495336
 21
693.1223532885567
 31
0.0
  0
LINE
  5
DCB3
330
1E
100
AcDbEntity
  8
虛線
 48
0.3
100
AcDbLine
 10
2933.357909495336
 20
699.1223532888348
 30
0.0
 11
2933.357909495336
 21
693.1223532885569
 31
0.0
  0
LINE
  5
DCB4
330
1E
100
AcDbEntity
  8
虛線
 48
0.3
100
AcDbLine
 10
2942.357909495336
 20
693.1223532885567
 30
0.0
 11
2933.357909495336
 21
693.1223532885567
 31
0.0
  0
LINE
  5
DCB5
330
1E
100
AcDbEntity
  8
虛線
 48
0.7
100
AcDbLine
 10
2932.857908781049
 20
692.6223532885576
 30
0.0
 11
2933.357909495336
 21
693.1223532885569
 31
0.0
  0
LINE
  5
DCB6
330
1E
100
AcDbEntity
  8
虛線
 48
0.7
100
AcDbLine
 10
2942.357909495336
 20
693.1223532885569
 30
0.0
 11
2942.857910209621
 21
692.6223532885576
 31
0.0
  0
LINE
  5
DCB7
330
1E
100
AcDbEntity
  8
中心線
 48
0.25
100
AcDbLine
 10
2937.857909495336
 20
690.6223532885574
 30
0.0
 11
2937.857909495336
 21
699.1223532889842
 31
0.0
  0
LINE
  5
DCB8
330
1E
100
AcDbEntity
  8
虛線
 48
0.3
100
AcDbLine
 10
2982.357909495336
 20
699.122353288797
 30
0.0
 11
2982.357909495336
 21
693.1223532885567
 31
0.0
  0
LINE
  5
DCB9
330
1E
100
AcDbEntity
  8
虛線
 48
0.3
100
AcDbLine
 10
2973.357909495336
 20
699.1223532888348
 30
0.0
 11
2973.357909495336
 21
693.1223532885569
 31
0.0
  0
LINE
  5
DCBA
330
1E
100
AcDbEntity
  8
虛線
 48
0.3
100
AcDbLine
 10
2982.357909495336
 20
693.1223532885567
 30
0.0
 11
2973.357909495336
 21
693.1223532885567
 31
0.0
  0
LINE
  5
DCBB
330
1E
100
AcDbEntity
  8
虛線
 48
0.7
100
AcDbLine
 10
2972.857908781049
 20
692.6223532885576
 30
0.0
 11
2973.357909495336
 21
693.1223532885569
 31
0.0
  0
LINE
  5
DCBC
330
1E
100
AcDbEntity
  8
虛線
 48
0.7
100
AcDbLine
 10
2982.357909495336
 20
693.1223532885569
 30
0.0
 11
2982.857910209622
 21
692.6223532885576
 31
0.0
  0
LINE
  5
DCBD
330
1E
100
AcDbEntity
  8
中心線
 48
0.25
100
AcDbLine
 10
2977.857909495336
 20
690.6223532885574
 30
0.0
 11
2977.857909495336
 21
699.1223532889842
 31
0.0
  0
LINE
  5
DCBE
330
1E
100
AcDbEntity
  8
虛線
 48
0.3
100
AcDbLine
 10
3022.357909495336
 20
699.122353288797
 30
0.0
 11
3022.357909495336
 21
693.1223532885567
 31
0.0
  0
LINE
  5
DCBF
330
1E
100
AcDbEntity
  8
虛線
 48
0.3
100
AcDbLine
 10
3013.357909495336
 20
699.1223532888348
 30
0.0
 11
3013.357909495336
 21
693.1223532885569
 31
0.0
  0
LINE
  5
DCC0
330
1E
100
AcDbEntity
  8
虛線
 48
0.3
100
AcDbLine
 10
3022.357909495336
 20
693.1223532885567
 30
0.0
 11
3013.357909495336
 21
693.1223532885567
 31
0.0
  0
LINE
  5
DCC1
330
1E
100
AcDbEntity
  8
虛線
 48
0.7
100
AcDbLine
 10
3012.857908781049
 20
692.6223532885576
 30
0.0
 11
3013.357909495336
 21
693.1223532885569
 31
0.0
  0
LINE
  5
DCC2
330
1E
100
AcDbEntity
  8
虛線
 48
0.7
100
AcDbLine
 10
3022.357909495336
 20
693.1223532885569
 30
0.0
 11
3022.857910209622
 21
692.6223532885576
 31
0.0
  0
LINE
  5
DCC3
330
1E
100
AcDbEntity
  8
中心線
 48
0.25
100
AcDbLine
 10
3017.857909495337
 20
690.6223532885574
 30
0.0
 11
3017.857909495337
 21
699.1223532889842
 31
0.0
  0
LINE
  5
DCC4
330
1E
100
AcDbEntity
  8
虛線
 48
0.3
100
AcDbLine
 10
3053.357909495336
 20
699.1223532884312
 30
0.0
 11
3053.357909495336
 21
693.1223532885567
 31
0.0
  0
LINE
  5
DCC5
330
1E
100
AcDbEntity
  8
虛線
 48
0.3
100
AcDbLine
 10
3062.357909495336
 20
693.1223532885565
 30
0.0
 11
3053.357909495336
 21
693.1223532885565
 31
0.0
  0
LINE
  5
DCC6
330
1E
100
AcDbEntity
  8
虛線
 48
0.7
100
AcDbLine
 10
3052.857908781049
 20
692.6223532885574
 30
0.0
 11
3053.357909495336
 21
693.1223532885567
 31
0.0
  0
LINE
  5
DCC7
330
1E
100
AcDbEntity
  8
虛線
 48
0.7
100
AcDbLine
 10
3062.357909495336
 20
693.1223532885567
 30
0.0
 11
3062.857910209622
 21
692.6223532885574
 31
0.0
  0
LINE
  5
DCC8
330
1E
100
AcDbEntity
  8
虛線
 48
0.3
100
AcDbLine
 10
3064.857909495336
 20
722.4223532885562
 30
0.0
 11
3064.857909495336
 21
710.822353288557
 31
0.0
  0
LINE
  5
DCC9
330
1E
100
AcDbEntity
  8
虛線
 48
0.3
100
AcDbLine
 10
3062.357909495336
 20
710.5223532885575
 30
0.0
 11
3062.357909495336
 21
693.1223532885565
 31
0.0
  0
LINE
  5
DCCA
330
1E
100
AcDbEntity
  8
虛線
 48
0.3
100
AcDbLine
 10
3062.657909495336
 20
710.8223532885567
 30
0.0
 11
3062.357909495336
 21
710.5223532885568
 31
0.0
  0
LINE
  5
DCCB
330
1E
100
AcDbEntity
  8
虛線
 48
0.7
100
AcDbLine
 10
3064.857909495336
 20
722.4223532885567
 30
0.0
 11
3065.088849603012
 21
722.8223532885567
 31
0.0
  0
LINE
  5
DCCC
330
1E
100
AcDbEntity
  8
中心線
 48
0.25
100
AcDbLine
 10
3057.857909495336
 20
690.6223532885571
 30
0.0
 11
3057.857909495336
 21
724.8223532885565
 31
0.0
  0
LINE
  5
DCCD
330
1E
100
AcDbEntity
  8
0
  6
Continuous
 62
     7
100
AcDbLine
 10
3117.857909495337
 20
692.6223532885565
 30
0.0
 11
3117.857909495337
 21
722.8223532885567
 31
0.0
  0
LINE
  5
DCCE
330
1E
100
AcDbEntity
  8
虛線
 48
0.3
100
AcDbLine
 10
3104.857909495336
 20
722.4223532885562
 30
0.0
 11
3104.857909495336
 21
710.822353288557
 31
0.0
  0
LINE
  5
DCCF
330
1E
100
AcDbEntity
  8
虛線
 48
0.3
100
AcDbLine
 10
3090.857909495336
 20
722.4223532885567
 30
0.0
 11
3090.857909495336
 21
710.822353288557
 31
0.0
  0
LINE
  5
DCD0
330
1E
100
AcDbEntity
  8
虛線
 48
0.3
100
AcDbLine
 10
3102.357909495336
 20
710.5223532885575
 30
0.0
 11
3102.357909495336
 21
693.1223532885565
 31
0.0
  0
LINE
  5
DCD1
330
1E
100
AcDbEntity
  8
虛線
 48
0.3
100
AcDbLine
 10
3093.357909495336
 20
710.5223532885566
 30
0.0
 11
3093.357909495336
 21
693.1223532885567
 31
0.0
  0
LINE
  5
DCD2
330
1E
100
AcDbEntity
  8
虛線
 48
0.3
100
AcDbLine
 10
3090.857909495336
 20
710.822353288557
 30
0.0
 11
3104.857909495336
 21
710.822353288557
 31
0.0
  0
LINE
  5
DCD3
330
1E
100
AcDbEntity
  8
虛線
 48
0.3
100
AcDbLine
 10
3104.857909495336
 20
722.4223532885567
 30
0.0
 11
3090.857909495336
 21
722.4223532885567
 31
0.0
  0
LINE
  5
DCD4
330
1E
100
AcDbEntity
  8
虛線
 48
0.3
100
AcDbLine
 10
3102.357909495336
 20
693.1223532885565
 30
0.0
 11
3093.357909495336
 21
693.1223532885565
 31
0.0
  0
LINE
  5
DCD5
330
1E
100
AcDbEntity
  8
虛線
 48
0.7
100
AcDbLine
 10
3092.857908781049
 20
692.6223532885574
 30
0.0
 11
3093.357909495336
 21
693.1223532885567
 31
0.0
  0
LINE
  5
DCD6
330
1E
100
AcDbEntity
  8
虛線
 48
0.7
100
AcDbLine
 10
3102.357909495336
 20
693.1223532885567
 30
0.0
 11
3102.857910209622
 21
692.6223532885574
 31
0.0
  0
LINE
  5
DCD7
330
1E
100
AcDbEntity
  8
虛線
 48
0.3
100
AcDbLine
 10
3102.657909495336
 20
710.8223532885567
 30
0.0
 11
3102.357909495336
 21
710.5223532885568
 31
0.0
  0
LINE
  5
DCD8
330
1E
100
AcDbEntity
  8
虛線
 48
0.3
100
AcDbLine
 10
3093.057909495336
 20
710.8223532885567
 30
0.0
 11
3093.357909495336
 21
710.5223532885568
 31
0.0
  0
LINE
  5
DCD9
330
1E
100
AcDbEntity
  8
虛線
 48
0.3
100
AcDbLine
 10
3093.357909495336
 20
710.5223532885568
 30
0.0
 11
3102.357909495336
 21
710.5223532885568
 31
0.0
  0
LINE
  5
DCDA
330
1E
100
AcDbEntity
  8
虛線
 48
0.7
100
AcDbLine
 10
3090.857909495336
 20
722.4223532885567
 30
0.0
 11
3090.62696938766
 21
722.8223532885567
 31
0.0
  0
LINE
  5
DCDB
330
1E
100
AcDbEntity
  8
虛線
 48
0.7
100
AcDbLine
 10
3104.857909495336
 20
722.4223532885567
 30
0.0
 11
3105.088849603012
 21
722.8223532885567
 31
0.0
  0
LINE
  5
DCDC
330
1E
100
AcDbEntity
  8
中心線
 48
0.25
100
AcDbLine
 10
3097.857909495336
 20
690.6223532885571
 30
0.0
 11
3097.857909495336
 21
724.8223532885565
 31
0.0
  0
LINE
  5
DCDD
330
1E
100
AcDbEntity
  8
0
  6
Continuous
 62
     7
100
AcDbLine
 10
3117.857909495337
 20
722.8223532885567
 30
0.0
 11
3054.71957022643
 21
722.822353288557
 31
0.0
  0
LINE
  5
DCDE
330
1E
100
AcDbEntity
  8
虛線
 48
0.3
100
AcDbLine
 10
3064.857909495336
 20
722.4223532885567
 30
0.0
 11
3054.63343697587
 21
722.4223532885567
 31
0.0
  0
LINE
  5
DCDF
330
1E
100
AcDbEntity
  8
0
  6
Continuous
 62
     7
100
AcDbLine
 10
3117.857909495337
 20
721.8223532885529
 30
0.0
 11
3054.44579462192
 21
721.8223532885538
 31
0.0
  0
LINE
  5
DCE6
330
1E
100
AcDbEntity
  8
虛線
 48
0.3
100
AcDbLine
 10
3053.607909495336
 20
710.5223532885568
 30
0.0
 11
3062.357909495336
 21
710.5223532885568
 31
0.0
  0
LINE
  5
DCE7
330
1E
100
AcDbEntity
  8
虛線
 48
0.3
100
AcDbLine
 10
3053.607909495336
 20
710.822353288557
 30
0.0
 11
3064.857909495336
 21
710.822353288557
 31
0.0
  0
LINE
  5
DCF3
330
1E
100
AcDbEntity
  8
中心線
 48
0.27
100
AcDbLine
 10
2887.107911254352
 20
731.6223532891258
 30
0.0
 11
2902.41237936889
 21
731.6223532891258
 31
0.0
  0
ARC
  5
DCF4
330
1E
100
AcDbEntity
  8
0
 48
0.27
100
AcDbCircle
 10
2901.299526495336
 20
729.6223726202258
 30
0.0
 40
2.954110999999976
100
AcDbArc
 50
137.3885930045096
 51
222.6114069976016
  0
ARC
  5
DCF5
330
1E
100
AcDbEntity
  8
0
 48
0.27
100
AcDbCircle
 10
2901.299527495336
 20
733.6223726202258
 30
0.0
 40
2.954111999999976
100
AcDbArc
 50
137.3885980021923
 51
222.6114019999052
  0
LWPOLYLINE
  5
DCF6
330
1E
100
AcDbEntity
  8
0
 48
0.27
100
AcDbPolyline
 90
       31
 70
     0
 43
0.0
 10
2891.016698495336
 20
731.6223726202259
 10
2890.983880495335
 20
731.8326276202258
 10
2890.939733495335
 20
731.9381146202259
 10
2890.876700495336
 20
732.0358936202258
 10
2890.797224495335
 20
732.1200066202258
 10
2890.705733495336
 20
732.1858796202259
 10
2890.607813495336
 20
732.2311606202259
 10
2890.475177495336
 20
732.2601016202258
 10
2890.352168495336
 20
732.2574426202258
 10
2890.245244495336
 20
732.2319366202257
 10
2890.129039495336
 20
732.1761686202258
 10
2890.018469495336
 20
732.0866796202258
 10
2889.930239495336
 20
731.9721296202258
 10
2889.873605495336
 20
731.8522906202258
 10
2889.845754495335
 20
731.7486346202258
 10
2889.834133495336
 20
731.6223726202259
 10
2889.866951495335
 20
731.4121176202259
 10
2889.911099495336
 20
731.3066296202257
 10
2889.974131495335
 20
731.2088516202258
 10
2890.053607495336
 20
731.1247386202258
 10
2890.145098495335
 20
731.0588656202257
 10
2890.243018495336
 20
731.0135846202258
 10
2890.375654495336
 20
730.9846426202256
 10
2890.498663495336
 20
730.9873026202258
 10
2890.605587495335
 20
731.0128076202259
 10
2890.721792495336
 20
731.0685756202258
 10
2890.832362495336
 20
731.1580656202258
 10
2890.920592495336
 20
731.2726146202257
 10
2890.977226495336
 20
731.3924536202257
 10
2891.005078495336
 20
731.4961106202258
 10
2891.016698495336
 20
731.6223726202259
  0
ARC
  5
DCF7
330
1E
100
AcDbEntity
  8
0
 48
0.27
100
AcDbCircle
 10
2894.597075495335
 20
731.6223726202259
 30
0.0
 40
3.999999999999968
100
AcDbArc
 50
90.0
 51
131.4096219995944
  0
ARC
  5
DCF8
330
1E
100
AcDbEntity
  8
0
 48
0.27
100
AcDbCircle
 10
2894.597075495335
 20
731.6223726202259
 30
0.0
 40
3.999999999999968
100
AcDbArc
 50
228.5903779972994
 51
270.0
  0
LINE
  5
DCF9
330
1E
100
AcDbEntity
  8
0
 48
0.27
100
AcDbLine
 10
2902.107909495336
 20
735.6223726202259
 30
0.0
 11
2894.597075495335
 21
735.6223726202259
 31
0.0
  0
LINE
  5
DCFA
330
1E
100
AcDbEntity
  8
0
 48
0.27
100
AcDbLine
 10
2899.125411495335
 20
731.6223726202259
 30
0.0
 11
2902.107909495336
 21
731.6223726202259
 31
0.0
  0
LINE
  5
DCFB
330
1E
100
AcDbEntity
  8
0
 48
0.27
100
AcDbLine
 10
2894.597075495335
 20
727.6223726202259
 30
0.0
 11
2902.107909495336
 21
727.6223726202256
 31
0.0
  0
LINE
  5
DCFC
330
1E
100
AcDbEntity
  8
0
 48
0.27
100
AcDbLine
 10
2898.345415495336
 20
735.6223726202259
 30
0.0
 11
2898.345415495336
 21
727.6223726202259
 31
0.0
  0
LINE
  5
DCFD
330
1E
100
AcDbEntity
  8
0
 48
0.27
100
AcDbLine
 10
2891.069638495336
 20
734.6223726202258
 30
0.0
 11
2894.969414495335
 21
734.6223726202258
 31
0.0
  0
LINE
  5
DCFE
330
1E
100
AcDbEntity
  8
0
 48
0.27
100
AcDbLine
 10
2890.823245495336
 20
729.0842996202258
 30
0.0
 11
2891.069638495336
 21
728.6223726202258
 31
0.0
  0
LINE
  5
DCFF
330
1E
100
AcDbEntity
  8
0
 48
0.27
100
AcDbLine
 10
2891.069638495336
 20
734.6223726202258
 30
0.0
 11
2890.823245495336
 21
734.1604456202258
 31
0.0
  0
LINE
  5
DD00
330
1E
100
AcDbEntity
  8
0
 48
0.27
100
AcDbLine
 10
2895.870256495335
 20
731.6223726202259
 30
0.0
 11
2896.569620495336
 21
731.6223726202259
 31
0.0
  0
LINE
  5
DD01
330
1E
100
AcDbEntity
  8
0
 48
0.27
100
AcDbLine
 10
2894.969414495335
 20
734.6223726202258
 30
0.0
 11
2896.569620495336
 21
731.6223726202259
 31
0.0
  0
LINE
  5
DD02
330
1E
100
AcDbEntity
  8
0
 48
0.27
100
AcDbLine
 10
2894.969414495335
 20
728.6223726202258
 30
0.0
 11
2891.069638495336
 21
728.6223726202258
 31
0.0
  0
LINE
  5
DD03
330
1E
100
AcDbEntity
  8
0
 48
0.27
100
AcDbLine
 10
2896.569620495336
 20
731.6223726202259
 30
0.0
 11
2894.969414495335
 21
728.6223726202258
 31
0.0
  0
LINE
  5
DD04
330
1E
100
AcDbEntity
  8
0
 48
0.27
100
AcDbLine
 10
2891.190717495336
 20
734.1519066202258
 30
0.0
 11
2891.609184495335
 21
734.3940106202258
 31
0.0
  0
LINE
  5
DD05
330
1E
100
AcDbEntity
  8
0
 48
0.27
100
AcDbLine
 10
2891.190717495336
 20
729.0928376202259
 30
0.0
 11
2891.609184495335
 21
728.8507336202258
 31
0.0
  0
LINE
  5
DD06
330
1E
100
AcDbEntity
  8
0
 48
0.27
100
AcDbLine
 10
2891.609184495335
 20
734.3940106202258
 30
0.0
 11
2892.129124495335
 21
734.5647286202258
 31
0.0
  0
LINE
  5
DD07
330
1E
100
AcDbEntity
  8
0
 48
0.27
100
AcDbLine
 10
2891.609184495335
 20
728.8507336202258
 30
0.0
 11
2892.129124495335
 21
728.6800166202258
 31
0.0
  0
LINE
  5
DD08
330
1E
100
AcDbEntity
  8
0
 48
0.27
100
AcDbLine
 10
2892.129124495335
 20
734.5647286202258
 30
0.0
 11
2892.669844495335
 21
734.6223726202258
 31
0.0
  0
LINE
  5
DD09
330
1E
100
AcDbEntity
  8
0
 48
0.27
100
AcDbLine
 10
2892.129124495335
 20
728.6800166202258
 30
0.0
 11
2892.669844495335
 21
728.6223726202258
 31
0.0
  0
LINE
  5
DD0A
330
1E
100
AcDbEntity
  8
0
 48
0.27
100
AcDbLine
 10
2892.669844495335
 20
734.6223726202258
 30
0.0
 11
2893.210564495336
 21
734.5647286202258
 31
0.0
  0
LINE
  5
DD0B
330
1E
100
AcDbEntity
  8
0
 48
0.27
100
AcDbLine
 10
2892.669844495335
 20
728.6223726202258
 30
0.0
 11
2893.210564495336
 21
728.6800166202258
 31
0.0
  0
LINE
  5
DD0C
330
1E
100
AcDbEntity
  8
0
 48
0.27
100
AcDbLine
 10
2893.210564495336
 20
734.5647286202258
 30
0.0
 11
2893.730504495336
 21
734.3940106202258
 31
0.0
  0
LINE
  5
DD0D
330
1E
100
AcDbEntity
  8
0
 48
0.27
100
AcDbLine
 10
2893.210564495336
 20
728.6800166202258
 30
0.0
 11
2893.730504495336
 21
728.8507336202258
 31
0.0
  0
LINE
  5
DD0E
330
1E
100
AcDbEntity
  8
0
 48
0.27
100
AcDbLine
 10
2893.730504495336
 20
734.3940106202258
 30
0.0
 11
2894.209684495336
 21
734.1167816202258
 31
0.0
  0
LINE
  5
DD0F
330
1E
100
AcDbEntity
  8
0
 48
0.27
100
AcDbLine
 10
2893.730504495336
 20
728.8507336202258
 30
0.0
 11
2894.209684495336
 21
729.127963620226
 31
0.0
  0
LINE
  5
DD10
330
1E
100
AcDbEntity
  8
0
 48
0.27
100
AcDbLine
 10
2894.209684495336
 20
734.1167816202258
 30
0.0
 11
2894.629688495335
 21
733.7436926202258
 31
0.0
  0
LINE
  5
DD11
330
1E
100
AcDbEntity
  8
0
 48
0.27
100
AcDbLine
 10
2894.209684495336
 20
729.127963620226
 30
0.0
 11
2894.629688495335
 21
729.5010516202258
 31
0.0
  0
LINE
  5
DD12
330
1E
100
AcDbEntity
  8
0
 48
0.27
100
AcDbLine
 10
2894.270050495336
 20
734.6223726202258
 30
0.0
 11
2895.870256495335
 21
731.6223726202259
 31
0.0
  0
LINE
  5
DD13
330
1E
100
AcDbEntity
  8
0
 48
0.27
100
AcDbLine
 10
2895.870256495335
 20
731.6223726202259
 30
0.0
 11
2894.270050495336
 21
728.6223726202258
 31
0.0
  0
LINE
  5
DD14
330
1E
100
AcDbEntity
  8
0
 48
0.27
100
AcDbLine
 10
2894.629688495335
 20
733.7436926202258
 30
0.0
 11
2894.974377495336
 21
733.2890826202258
 31
0.0
  0
LINE
  5
DD15
330
1E
100
AcDbEntity
  8
0
 48
0.27
100
AcDbLine
 10
2894.974377495336
 20
729.9556616202258
 30
0.0
 11
2894.629688495335
 21
729.5010516202258
 31
0.0
  0
LINE
  5
DD16
330
1E
100
AcDbEntity
  8
0
 48
0.27
100
AcDbLine
 10
2894.974377495336
 20
733.2890826202258
 30
0.0
 11
2895.230504495336
 21
732.7704226202258
 31
0.0
  0
LINE
  5
DD17
330
1E
100
AcDbEntity
  8
0
 48
0.27
100
AcDbLine
 10
2895.230504495336
 20
730.4743216202259
 30
0.0
 11
2894.974377495336
 21
729.9556616202258
 31
0.0
  0
LINE
  5
DD18
330
1E
100
AcDbEntity
  8
0
 48
0.27
100
AcDbLine
 10
2895.230504495336
 20
732.7704226202258
 30
0.0
 11
2895.388226495335
 21
732.207643620226
 31
0.0
  0
LINE
  5
DD19
330
1E
100
AcDbEntity
  8
0
 48
0.27
100
AcDbLine
 10
2895.388226495335
 20
731.0371016202259
 30
0.0
 11
2895.230504495336
 21
730.4743216202259
 31
0.0
  0
LINE
  5
DD1A
330
1E
100
AcDbEntity
  8
0
 48
0.27
100
AcDbLine
 10
2895.388226495335
 20
732.207643620226
 30
0.0
 11
2895.441482495336
 21
731.6223726202259
 31
0.0
  0
LINE
  5
DD1B
330
1E
100
AcDbEntity
  8
0
 48
0.27
100
AcDbLine
 10
2895.441482495336
 20
731.6223726202259
 30
0.0
 11
2895.388226495335
 21
731.0371016202259
 31
0.0
  0
LINE
  5
DD1C
330
1E
100
AcDbEntity
  8
0
 48
0.27
100
AcDbLine
 10
2889.765947495336
 20
733.2625996202257
 30
0.0
 11
2889.768918495336
 21
733.2609846202258
 31
0.0
  0
LINE
  5
DD1D
330
1E
100
AcDbEntity
  8
0
 48
0.27
100
AcDbLine
 10
2889.765947495336
 20
729.9821446202258
 30
0.0
 11
2889.768918495336
 21
729.9837606202259
 31
0.0
  0
LINE
  5
DD1E
330
1E
100
AcDbEntity
  8
0
 48
0.27
100
AcDbLine
 10
2888.653237495336
 20
732.1205146202258
 30
0.0
 11
2888.607909495336
 21
731.6223726202259
 31
0.0
  0
LINE
  5
DD1F
330
1E
100
AcDbEntity
  8
0
 48
0.27
100
AcDbLine
 10
2888.787479495336
 20
732.5995126202258
 30
0.0
 11
2888.653237495336
 21
732.1205146202258
 31
0.0
  0
LINE
  5
DD20
330
1E
100
AcDbEntity
  8
0
 48
0.27
100
AcDbLine
 10
2888.607909495336
 20
731.6223726202259
 30
0.0
 11
2888.653237495336
 21
731.124230620226
 31
0.0
  0
LINE
  5
DD21
330
1E
100
AcDbEntity
  8
0
 48
0.27
100
AcDbLine
 10
2889.005476495336
 20
733.0409606202258
 30
0.0
 11
2888.787479495336
 21
732.5995126202258
 31
0.0
  0
LINE
  5
DD22
330
1E
100
AcDbEntity
  8
0
 48
0.27
100
AcDbLine
 10
2888.653237495336
 20
731.124230620226
 30
0.0
 11
2888.787479495336
 21
730.6452316202258
 31
0.0
  0
LINE
  5
DD23
330
1E
100
AcDbEntity
  8
0
 48
0.27
100
AcDbLine
 10
2889.298852495335
 20
733.427892620226
 30
0.0
 11
2889.005476495336
 21
733.0409606202258
 31
0.0
  0
LINE
  5
DD24
330
1E
100
AcDbEntity
  8
0
 48
0.27
100
AcDbLine
 10
2888.787479495336
 20
730.6452316202258
 30
0.0
 11
2889.005476495336
 21
730.2037846202258
 31
0.0
  0
LINE
  5
DD25
330
1E
100
AcDbEntity
  8
0
 48
0.27
100
AcDbLine
 10
2889.298852495335
 20
733.427892620226
 30
0.0
 11
2889.656330495336
 21
733.7454396202258
 31
0.0
  0
LINE
  5
DD26
330
1E
100
AcDbEntity
  8
0
 48
0.27
100
AcDbLine
 10
2889.005476495336
 20
730.2037846202258
 30
0.0
 11
2889.298852495335
 21
729.8168526202257
 31
0.0
  0
LINE
  5
DD27
330
1E
100
AcDbEntity
  8
0
 48
0.27
100
AcDbLine
 10
2888.801940495336
 20
731.9719086202257
 30
0.0
 11
2888.770134495336
 21
731.6223726202259
 31
0.0
  0
LINE
  5
DD28
330
1E
100
AcDbEntity
  8
0
 48
0.27
100
AcDbLine
 10
2888.896135495335
 20
732.3080126202257
 30
0.0
 11
2888.801940495336
 21
731.9719086202257
 31
0.0
  0
LINE
  5
DD29
330
1E
100
AcDbEntity
  8
0
 48
0.27
100
AcDbLine
 10
2888.770134495336
 20
731.6223726202259
 30
0.0
 11
2888.801940495336
 21
731.2728366202259
 31
0.0
  0
LINE
  5
DD2A
330
1E
100
AcDbEntity
  8
0
 48
0.27
100
AcDbLine
 10
2889.049099495336
 20
732.6177676202258
 30
0.0
 11
2888.896135495335
 21
732.3080126202257
 31
0.0
  0
LINE
  5
DD2B
330
1E
100
AcDbEntity
  8
0
 48
0.27
100
AcDbLine
 10
2888.801940495336
 20
731.2728366202259
 30
0.0
 11
2888.896135495335
 21
730.9367326202259
 31
0.0
  0
LINE
  5
DD2C
330
1E
100
AcDbEntity
  8
0
 48
0.27
100
AcDbLine
 10
2889.656330495336
 20
733.7454396202258
 30
0.0
 11
2890.064175495336
 21
733.9813986202259
 31
0.0
  0
LINE
  5
DD2D
330
1E
100
AcDbEntity
  8
0
 48
0.27
100
AcDbLine
 10
2889.298852495335
 20
729.8168526202257
 30
0.0
 11
2889.656330495336
 21
729.4993056202258
 31
0.0
  0
LINE
  5
DD2E
330
1E
100
AcDbEntity
  8
0
 48
0.27
100
AcDbLine
 10
2889.254955495336
 20
732.8892696202258
 30
0.0
 11
2889.049099495336
 21
732.6177676202258
 31
0.0
  0
LINE
  5
DD2F
330
1E
100
AcDbEntity
  8
0
 48
0.27
100
AcDbLine
 10
2888.896135495335
 20
730.9367326202259
 30
0.0
 11
2889.049099495336
 21
730.6269776202259
 31
0.0
  0
LINE
  5
DD30
330
1E
100
AcDbEntity
  8
0
 48
0.27
100
AcDbLine
 10
2890.064175495336
 20
733.9813986202259
 30
0.0
 11
2890.506712495336
 21
734.1267006202258
 31
0.0
  0
LINE
  5
DD31
330
1E
100
AcDbEntity
  8
0
 48
0.27
100
AcDbLine
 10
2889.656330495336
 20
729.4993056202258
 30
0.0
 11
2890.064175495336
 21
729.2633466202257
 31
0.0
  0
LINE
  5
DD32
330
1E
100
AcDbEntity
  8
0
 48
0.27
100
AcDbLine
 10
2889.254955495336
 20
732.8892696202258
 30
0.0
 11
2889.505790495336
 21
733.1120866202259
 31
0.0
  0
LINE
  5
DD33
330
1E
100
AcDbEntity
  8
0
 48
0.27
100
AcDbLine
 10
2889.049099495336
 20
730.6269776202259
 30
0.0
 11
2889.254955495336
 21
730.355474620226
 31
0.0
  0
LINE
  5
DD34
330
1E
100
AcDbEntity
  8
0
 48
0.27
100
AcDbLine
 10
2890.506712495336
 20
734.1267006202258
 30
0.0
 11
2890.966935495336
 21
734.1757636202258
 31
0.0
  0
LINE
  5
DD35
330
1E
100
AcDbEntity
  8
0
 48
0.27
100
AcDbLine
 10
2890.064175495336
 20
729.2633466202257
 30
0.0
 11
2890.506712495336
 21
729.1180436202258
 31
0.0
  0
LINE
  5
DD36
330
1E
100
AcDbEntity
  8
0
 48
0.27
100
AcDbLine
 10
2889.505790495336
 20
733.1120866202259
 30
0.0
 11
2889.791967495336
 21
733.2776536202259
 31
0.0
  0
LINE
  5
DD37
330
1E
100
AcDbEntity
  8
0
 48
0.27
100
AcDbLine
 10
2889.254955495336
 20
730.355474620226
 30
0.0
 11
2889.505790495336
 21
730.1326586202257
 31
0.0
  0
LINE
  5
DD38
330
1E
100
AcDbEntity
  8
0
 48
0.27
100
AcDbLine
 10
2891.571594495335
 20
734.0993536202258
 30
0.0
 11
2892.009298495335
 21
733.9556376202258
 31
0.0
  0
LINE
  5
DD39
330
1E
100
AcDbEntity
  8
0
 48
0.27
100
AcDbLine
 10
2889.791967495336
 20
733.2776536202259
 30
0.0
 11
2890.102486495336
 21
733.3796096202259
 31
0.0
  0
LINE
  5
DD3A
330
1E
100
AcDbEntity
  8
0
 48
0.27
100
AcDbLine
 10
2889.505790495336
 20
730.1326586202257
 30
0.0
 11
2889.791967495336
 21
729.9670906202258
 31
0.0
  0
LINE
  5
DD3B
330
1E
100
AcDbEntity
  8
0
 48
0.27
100
AcDbLine
 10
2891.427158495336
 20
734.1267006202258
 30
0.0
 11
2891.571594495335
 21
734.0993536202258
 31
0.0
  0
LINE
  5
DD3C
330
1E
100
AcDbEntity
  8
0
 48
0.27
100
AcDbLine
 10
2890.966935495336
 20
734.1757636202258
 30
0.0
 11
2891.427158495336
 21
734.1267006202258
 31
0.0
  0
LINE
  5
DD3D
330
1E
100
AcDbEntity
  8
0
 48
0.27
100
AcDbLine
 10
2890.506712495336
 20
729.1180436202258
 30
0.0
 11
2890.966935495336
 21
729.0689816202259
 31
0.0
  0
LINE
  5
DD3E
330
1E
100
AcDbEntity
  8
0
 48
0.27
100
AcDbLine
 10
2892.009298495335
 20
733.9556376202258
 30
0.0
 11
2892.412689495336
 21
733.7222556202259
 31
0.0
  0
LINE
  5
DD3F
330
1E
100
AcDbEntity
  8
0
 48
0.27
100
AcDbLine
 10
2891.571594495335
 20
729.1453916202258
 30
0.0
 11
2892.009298495335
 21
729.2891076202258
 31
0.0
  0
LINE
  5
DD40
330
1E
100
AcDbEntity
  8
0
 48
0.27
100
AcDbLine
 10
2892.412689495336
 20
733.7222556202259
 30
0.0
 11
2892.766264495336
 21
733.408176620226
 31
0.0
  0
LINE
  5
DD41
330
1E
100
AcDbEntity
  8
0
 48
0.27
100
AcDbLine
 10
2892.009298495335
 20
729.2891076202258
 30
0.0
 11
2892.412689495336
 21
729.522489620226
 31
0.0
  0
LINE
  5
DD42
330
1E
100
AcDbEntity
  8
0
 48
0.27
100
AcDbLine
 10
2890.102486495336
 20
733.3796096202259
 30
0.0
 11
2890.425416495336
 21
733.4140356202258
 31
0.0
  0
LINE
  5
DD43
330
1E
100
AcDbEntity
  8
0
 48
0.27
100
AcDbLine
 10
2889.791967495336
 20
729.9670906202258
 30
0.0
 11
2890.102486495336
 21
729.8651346202259
 31
0.0
  0
LINE
  5
DD44
330
1E
100
AcDbEntity
  8
0
 48
0.27
100
AcDbLine
 10
2891.427158495336
 20
734.1267006202258
 30
0.0
 11
2891.869695495336
 21
733.9813986202259
 31
0.0
  0
LINE
  5
DD45
330
1E
100
AcDbEntity
  8
0
 48
0.27
100
AcDbLine
 10
2891.427158495336
 20
729.1180436202258
 30
0.0
 11
2891.571594495335
 21
729.1453916202258
 31
0.0
  0
LINE
  5
DD46
330
1E
100
AcDbEntity
  8
0
 48
0.27
100
AcDbLine
 10
2890.966935495336
 20
729.0689816202259
 30
0.0
 11
2891.427158495336
 21
729.1180436202258
 31
0.0
  0
LINE
  5
DD47
330
1E
100
AcDbEntity
  8
0
 48
0.27
100
AcDbLine
 10
2892.766264495336
 20
733.408176620226
 30
0.0
 11
2893.056435495336
 21
733.0254696202257
 31
0.0
  0
LINE
  5
DD48
330
1E
100
AcDbEntity
  8
0
 48
0.27
100
AcDbLine
 10
2892.412689495336
 20
729.522489620226
 30
0.0
 11
2892.766264495336
 21
729.8365686202258
 31
0.0
  0
LINE
  5
DD49
330
1E
100
AcDbEntity
  8
0
 48
0.27
100
AcDbLine
 10
2890.425416495336
 20
733.4140356202258
 30
0.0
 11
2890.748345495336
 21
733.3796096202259
 31
0.0
  0
LINE
  5
DD4A
330
1E
100
AcDbEntity
  8
0
 48
0.27
100
AcDbLine
 10
2890.102486495336
 20
729.8651346202259
 30
0.0
 11
2890.425416495336
 21
729.8307086202259
 31
0.0
  0
LINE
  5
DD4B
330
1E
100
AcDbEntity
  8
0
 48
0.27
100
AcDbLine
 10
2891.869695495336
 20
733.9813986202259
 30
0.0
 11
2892.277539495335
 21
733.7454396202258
 31
0.0
  0
LINE
  5
DD4C
330
1E
100
AcDbEntity
  8
0
 48
0.27
100
AcDbLine
 10
2891.427158495336
 20
729.1180436202258
 30
0.0
 11
2891.869695495336
 21
729.2633466202257
 31
0.0
  0
LINE
  5
DD4D
330
1E
100
AcDbEntity
  8
0
 48
0.27
100
AcDbLine
 10
2893.056435495336
 20
733.0254696202257
 30
0.0
 11
2893.272052495336
 21
732.5888426202259
 31
0.0
  0
LINE
  5
DD4E
330
1E
100
AcDbEntity
  8
0
 48
0.27
100
AcDbLine
 10
2893.056435495336
 20
730.2192756202259
 30
0.0
 11
2892.766264495336
 21
729.8365686202258
 31
0.0
  0
LINE
  5
DD4F
330
1E
100
AcDbEntity
  8
0
 48
0.27
100
AcDbLine
 10
2893.272052495336
 20
732.5888426202259
 30
0.0
 11
2893.404828495336
 21
732.1150746202258
 31
0.0
  0
LINE
  5
DD50
330
1E
100
AcDbEntity
  8
0
 48
0.27
100
AcDbLine
 10
2893.272052495336
 20
730.6559026202258
 30
0.0
 11
2893.056435495336
 21
730.2192756202259
 31
0.0
  0
LINE
  5
DD51
330
1E
100
AcDbEntity
  8
0
 48
0.27
100
AcDbLine
 10
2892.277539495335
 20
733.7454396202258
 30
0.0
 11
2892.635018495335
 21
733.427892620226
 31
0.0
  0
LINE
  5
DD52
330
1E
100
AcDbEntity
  8
0
 48
0.27
100
AcDbLine
 10
2891.869695495336
 20
729.2633466202257
 30
0.0
 11
2892.277539495335
 21
729.4993056202258
 31
0.0
  0
LINE
  5
DD53
330
1E
100
AcDbEntity
  8
0
 48
0.27
100
AcDbLine
 10
2893.404828495336
 20
732.1150746202258
 30
0.0
 11
2893.449661495336
 21
731.6223726202259
 31
0.0
  0
LINE
  5
DD54
330
1E
100
AcDbEntity
  8
0
 48
0.27
100
AcDbLine
 10
2893.404828495336
 20
731.1296706202258
 30
0.0
 11
2893.272052495336
 21
730.6559026202258
 31
0.0
  0
LINE
  5
DD55
330
1E
100
AcDbEntity
  8
0
 48
0.27
100
AcDbLine
 10
2890.748345495336
 20
733.3796096202259
 30
0.0
 11
2891.058864495336
 21
733.2776536202259
 31
0.0
  0
LINE
  5
DD56
330
1E
100
AcDbEntity
  8
0
 48
0.27
100
AcDbLine
 10
2890.425416495336
 20
729.8307086202259
 30
0.0
 11
2890.748345495336
 21
729.8651346202259
 31
0.0
  0
LINE
  5
DD57
330
1E
100
AcDbEntity
  8
0
 48
0.27
100
AcDbLine
 10
2893.449661495336
 20
731.6223726202259
 30
0.0
 11
2893.404828495336
 21
731.1296706202258
 31
0.0
  0
LINE
  5
DD58
330
1E
100
AcDbEntity
  8
0
 48
0.27
100
AcDbLine
 10
2892.635018495335
 20
733.427892620226
 30
0.0
 11
2892.928393495336
 21
733.0409606202258
 31
0.0
  0
LINE
  5
DD59
330
1E
100
AcDbEntity
  8
0
 48
0.27
100
AcDbLine
 10
2892.277539495335
 20
729.4993056202258
 30
0.0
 11
2892.635018495335
 21
729.8168526202257
 31
0.0
  0
LINE
  5
DD5A
330
1E
100
AcDbEntity
  8
0
 48
0.27
100
AcDbLine
 10
2891.058864495336
 20
733.2776536202259
 30
0.0
 11
2891.345041495336
 21
733.1120866202259
 31
0.0
  0
LINE
  5
DD5B
330
1E
100
AcDbEntity
  8
0
 48
0.27
100
AcDbLine
 10
2890.748345495336
 20
729.8651346202259
 30
0.0
 11
2891.058864495336
 21
729.9670906202258
 31
0.0
  0
LINE
  5
DD5C
330
1E
100
AcDbEntity
  8
0
 48
0.27
100
AcDbLine
 10
2892.928393495336
 20
733.0409606202258
 30
0.0
 11
2893.146390495335
 21
732.5995126202258
 31
0.0
  0
LINE
  5
DD5D
330
1E
100
AcDbEntity
  8
0
 48
0.27
100
AcDbLine
 10
2892.928393495336
 20
730.2037846202258
 30
0.0
 11
2892.635018495335
 21
729.8168526202257
 31
0.0
  0
LINE
  5
DD5E
330
1E
100
AcDbEntity
  8
0
 48
0.27
100
AcDbLine
 10
2893.146390495335
 20
732.5995126202258
 30
0.0
 11
2893.280633495336
 21
732.1205146202258
 31
0.0
  0
LINE
  5
DD5F
330
1E
100
AcDbEntity
  8
0
 48
0.27
100
AcDbLine
 10
2893.146390495335
 20
730.6452316202258
 30
0.0
 11
2892.928393495336
 21
730.2037846202258
 31
0.0
  0
LINE
  5
DD60
330
1E
100
AcDbEntity
  8
0
 48
0.27
100
AcDbLine
 10
2891.345041495336
 20
733.1120866202259
 30
0.0
 11
2891.595876495336
 21
732.8892696202258
 31
0.0
  0
LINE
  5
DD61
330
1E
100
AcDbEntity
  8
0
 48
0.27
100
AcDbLine
 10
2891.058864495336
 20
729.9670906202258
 30
0.0
 11
2891.345041495336
 21
730.1326586202257
 31
0.0
  0
LINE
  5
DD62
330
1E
100
AcDbEntity
  8
0
 48
0.27
100
AcDbLine
 10
2893.280633495336
 20
732.1205146202258
 30
0.0
 11
2893.325961495336
 21
731.6223726202259
 31
0.0
  0
LINE
  5
DD63
330
1E
100
AcDbEntity
  8
0
 48
0.27
100
AcDbLine
 10
2893.280633495336
 20
731.124230620226
 30
0.0
 11
2893.146390495335
 21
730.6452316202258
 31
0.0
  0
LINE
  5
DD64
330
1E
100
AcDbEntity
  8
0
 48
0.27
100
AcDbLine
 10
2893.325961495336
 20
731.6223726202259
 30
0.0
 11
2893.280633495336
 21
731.124230620226
 31
0.0
  0
LINE
  5
DD65
330
1E
100
AcDbEntity
  8
0
 48
0.27
100
AcDbLine
 10
2891.595876495336
 20
732.8892696202258
 30
0.0
 11
2891.801732495336
 21
732.6177676202258
 31
0.0
  0
LINE
  5
DD66
330
1E
100
AcDbEntity
  8
0
 48
0.27
100
AcDbLine
 10
2891.345041495336
 20
730.1326586202257
 30
0.0
 11
2891.595876495336
 21
730.355474620226
 31
0.0
  0
LINE
  5
DD67
330
1E
100
AcDbEntity
  8
0
 48
0.27
100
AcDbLine
 10
2891.801732495336
 20
732.6177676202258
 30
0.0
 11
2891.954696495336
 21
732.3080126202257
 31
0.0
  0
LINE
  5
DD68
330
1E
100
AcDbEntity
  8
0
 48
0.27
100
AcDbLine
 10
2891.801732495336
 20
730.6269776202259
 30
0.0
 11
2891.595876495336
 21
730.355474620226
 31
0.0
  0
LINE
  5
DD69
330
1E
100
AcDbEntity
  8
0
 48
0.27
100
AcDbLine
 10
2891.954696495336
 20
732.3080126202257
 30
0.0
 11
2892.048891495336
 21
731.9719086202257
 31
0.0
  0
LINE
  5
DD6A
330
1E
100
AcDbEntity
  8
0
 48
0.27
100
AcDbLine
 10
2891.954696495336
 20
730.9367326202259
 30
0.0
 11
2891.801732495336
 21
730.6269776202259
 31
0.0
  0
LINE
  5
DD6B
330
1E
100
AcDbEntity
  8
0
 48
0.27
100
AcDbLine
 10
2892.048891495336
 20
731.9719086202257
 30
0.0
 11
2892.080697495336
 21
731.6223726202259
 31
0.0
  0
LINE
  5
DD6C
330
1E
100
AcDbEntity
  8
0
 48
0.27
100
AcDbLine
 10
2892.048891495336
 20
731.2728366202259
 30
0.0
 11
2891.954696495336
 21
730.9367326202259
 31
0.0
  0
LINE
  5
DD6D
330
1E
100
AcDbEntity
  8
0
 48
0.27
100
AcDbLine
 10
2892.080697495336
 20
731.6223726202259
 30
0.0
 11
2892.048891495336
 21
731.2728366202259
 31
0.0
  0
POINT
  5
DD6E
330
1E
100
AcDbEntity
  8
0
100
AcDbPoint
 10
2888.607909495336
 20
731.6223726202259
 30
0.0
1001
pntflag
1000
endpoint
  0
MTEXT
  5
DD8F
330
1E
100
AcDbEntity
  8
0
100
AcDbMText
 10
2711.472056416315
 20
675.181152761198
 30
0.0
 40
7.800000159341863
 41
100.6095
 71
     1
 72
     5
  1
\A1;{\fTimes New Roman|b0|i0|c0|p18;RGH35HA\PC : 7440 kgf\PC\fProxy 1|b0|i0|c0|p0;\H0.7x;\S^ 0;\fTimes New Roman|b0|i0|c0|p18;\H1.429x;: 14470 kgf}
 73
     1
 44
1.0
1001
ACAD
1000
MTEXTBEGIN
1070
    73
1070
     1
1070
    44
1040
1.0
1070
    74
1070
     0
1000
MTEXTEND
  0
LINE
  5
DD91
330
1E
100
AcDbEntity
  8
0
  6
ByBlock
100
AcDbLine
 10
2703.058284853817
 20
700.1223532885529
 30
0.0
 11
2704.058284853726
 21
699.1223532885839
 31
0.0
  0
LINE
  5
DD93
330
1E
100
AcDbEntity
  8
0
  6
ByBlock
100
AcDbLine
 10
2771.058284853791
 20
699.1223532885684
 30
0.0
 11
2772.558284853791
 21
700.6223532885684
 31
0.0
  0
LINE
  5
EAA1
330
1E
100
AcDbEntity
  8
0
100
AcDbLine
 10
3117.857909495337
 20
720.2223532890859
 30
0.0
 11
3053.607909495336
 21
720.2223532890859
 31
0.0
  0
LINE
  5
EAA2
330
1E
100
AcDbEntity
  8
0
100
AcDbLine
 10
3117.857909495337
 20
714.2223532880531
 30
0.0
 11
3053.607909495336
 21
714.2223532880531
 31
0.0
  0
LINE
  5
EAA3
330
1E
100
AcDbEntity
  8
0
100
AcDbLine
 10
3117.857909495337
 20
706.932353282357
 30
0.0
 11
3053.607909495336
 21
706.932353282357
 31
0.0
  0
LINE
  5
EAA4
330
1E
100
AcDbEntity
  8
0
100
AcDbLine
 10
3117.857909495337
 20
700.9323532899652
 30
0.0
 11
3053.607909495336
 21
700.9323532899652
 31
0.0
  0
LINE
  5
EAA5
330
1E
100
AcDbEntity
  8
0
100
AcDbLine
 10
2902.107909495335
 20
720.2223532890859
 30
0.0
 11
2871.11332682319
 21
720.2223532890859
 31
0.0
  0
LINE
  5
EAA7
330
1E
100
AcDbEntity
  8
0
100
AcDbLine
 10
2902.107909495335
 20
714.2223532880531
 30
0.0
 11
2871.553196741815
 21
714.2223532880531
 31
0.0
  0
LINE
  5
EAA8
330
1E
100
AcDbEntity
  8
0
100
AcDbLine
 10
2902.107909495335
 20
706.932353282357
 30
0.0
 11
2871.043632634415
 21
706.932353282357
 31
0.0
  0
LINE
  5
EAA9
330
1E
100
AcDbEntity
  8
0
100
AcDbLine
 10
2902.107909495335
 20
700.9323532899652
 30
0.0
 11
2871.513082438633
 21
700.9323532899652
 31
0.0
  0
LINE
  5
EAD9
330
1E
100
AcDbEntity
  8
中心線
 48
0.27
100
AcDbLine
 10
2911.007909495336
 20
728.0223532890691
 30
0.0
 11
2918.207909495336
 21
728.0223532890691
 31
0.0
  0
LINE
  5
EADA
330
1E
100
AcDbEntity
  8
中心線
 48
0.27
100
AcDbLine
 10
2914.607909495336
 20
724.4223532890692
 30
0.0
 11
2914.607909495336
 21
731.6223532890689
 31
0.0
  0
LINE
  5
EAE4
330
1E
100
AcDbEntity
  8
中心線
 48
0.27
100
AcDbLine
 10
3037.507909495336
 20
728.0223532885697
 30
0.0
 11
3044.707909495336
 21
728.0223532885697
 31
0.0
  0
LINE
  5
EAE5
330
1E
100
AcDbEntity
  8
中心線
 48
0.27
100
AcDbLine
 10
3041.107909495336
 20
724.4223532885698
 30
0.0
 11
3041.107909495336
 21
731.6223532885697
 31
0.0
  0
ENDSEC
  0
SECTION
  2
OBJECTS
  0
DICTIONARY
  5
C
330
0
100
AcDbDictionary
281
     1
  3
ACAD_COLOR
350
3D97
  3
ACAD_GROUP
350
D
  3
ACAD_LAYOUT
350
19
  3
ACAD_MATERIAL
350
3D96
  3
ACAD_MLINESTYLE
350
16
  3
ACAD_PLOTSETTINGS
350
18
  3
ACAD_PLOTSTYLENAME
350
E
  3
ACAD_TABLESTYLE
350
E7A3
  3
ACDBHEADERROUNDTRIPXREC
350
EAF1
  3
AcDbVariableDictionary
350
3E63
  0
DICTIONARY
  5
43C2
330
2
100
AcDbDictionary
280
     1
281
     1
  3
ACAD_LAYERSTATES
360
43C3
  0
DICTIONARY
  5
3D1E
330
1E
100
AcDbDictionary
280
     1
281
     1
  3
ACAD_LAYOUTSELFREF
360
3D92
  3
ACAD_SORTENTS
360
EAA6
  0
DICTIONARY
  5
3D20
330
1A
100
AcDbDictionary
280
     1
281
     1
  3
ACAD_LAYOUTSELFREF
360
3D91
  0
DICTIONARY
  5
69B8
330
69B7
100
AcDbDictionary
280
     1
281
     1
  3
ACAD_SORTENTS
360
69B9
  0
DICTIONARY
  5
69CC
330
69CB
100
AcDbDictionary
280
     1
281
     1
  3
ACAD_SORTENTS
360
69CD
  0
DICTIONARY
  5
3D97
102
{ACAD_REACTORS
330
C
102
}
330
C
100
AcDbDictionary
281
     1
  0
DICTIONARY
  5
D
102
{ACAD_REACTORS
330
C
102
}
330
C
100
AcDbDictionary
281
     1
  3
*A1
350
4143
  3
*A10
350
4378
  3
*A11
350
43BF
  3
*A12
350
423A
  3
*A13
350
414C
  3
*A14
350
579E
  3
*A15
350
4235
  3
*A16
350
437C
  3
*A17
350
414F
  3
*A18
350
437E
  3
*A19
350
4149
  3
*A2
350
4241
  3
*A20
350
4239
  3
*A21
350
4237
  3
*A22
350
423C
  3
*A23
350
43B6
  3
*A24
350
423B
  3
*A25
350
43B8
  3
*A26
350
576A
  3
*A27
350
4240
  3
*A28
350
423E
  3
*A29
350
4374
  3
*A3
350
43BB
  3
*A30
350
4373
  3
*A31
350
43BD
  3
*A32
350
4236
  3
*A33
350
4377
  3
*A34
350
4145
  3
*A35
350
437A
  3
*A36
350
4379
  3
*A37
350
43C1
  3
*A38
350
423D
  3
*A39
350
437D
  3
*A4
350
414D
  3
*A40
350
4146
  3
*A41
350
437F
  3
*A42
350
414B
  3
*A43
350
4375
  3
*A44
350
43B7
  3
*A45
350
414E
  3
*A46
350
43B9
  3
*A47
350
57D9
  3
*A48
350
437B
  3
*A49
350
43BC
  3
*A5
350
4144
  3
*A50
350
43BE
  3
*A51
350
4238
  3
*A52
350
43B5
  3
*A53
350
43C0
  3
*A54
350
4148
  3
*A55
350
423F
  3
*A56
350
43BA
  3
*A6
350
414A
  3
*A7
350
5691
  3
*A8
350
4376
  3
*A9
350
4147
  0
DICTIONARY
  5
19
102
{ACAD_REACTORS
330
C
102
}
330
C
100
AcDbDictionary
281
     1
  3
Model
350
21
  3
配置1
350
1D
  0
DICTIONARY
  5
3D96
102
{ACAD_REACTORS
330
C
102
}
330
C
100
AcDbDictionary
281
     1
  0
DICTIONARY
  5
16
102
{ACAD_REACTORS
330
C
102
}
330
C
100
AcDbDictionary
281
     1
  3
Standard
350
17
  0
DICTIONARY
  5
18
102
{ACAD_REACTORS
330
C
102
}
330
C
100
AcDbDictionary
281
     1
  3
LANSRO
350
4150
  0
ACDBDICTIONARYWDFLT
  5
E
102
{ACAD_REACTORS
330
C
102
}
330
C
100
AcDbDictionary
281
     1
  3
Normal
350
F
100
AcDbDictionaryWithDefault
340
F
  0
DICTIONARY
  5
E7A3
102
{ACAD_REACTORS
330
C
102
}
330
C
100
AcDbDictionary
281
     1
  3
Standard
350
E7A4
  0
DICTIONARY
  5
EAF1
102
{ACAD_REACTORS
330
C
102
}
330
C
100
AcDbDictionary
281
     1
  3
COLORDICT
350
EAF3
  3
MATERIALDICT
350
EAF2
  0
DICTIONARY
  5
3E63
102
{ACAD_REACTORS
330
C
102
}
330
C
100
AcDbDictionary
281
     1
  3
CTABLESTYLE
350
E8F8
  3
DIMASSOC
350
3E64
  3
PROJECTNAME
350
3E65
  0
DICTIONARY
  5
43C3
102
{ACAD_REACTORS
330
43C2
102
}
330
43C2
100
AcDbDictionary
281
     1
  0
XRECORD
  5
3D92
102
{ACAD_REACTORS
330
3D1E
102
}
330
3D1E
100
AcDbXrecord
280
     1
340
1E
  0
SORTENTSTABLE
  5
EAA6
102
{ACAD_REACTORS
330
3D1E
102
}
330
3D1E
100
AcDbSortentsTable
330
1E
331
DCB9
  5
DCB9
331
DCF8
  5
DCF8
331
DBB4
  5
DBB4
331
DC43
  5
DC43
331
DB3E
  5
DB3E
331
DB7D
  5
DB7D
331
DC7A
  5
DC7A
331
DD00
  5
DD00
331
DD3F
  5
DD3F
331
DCC1
  5
DCC1
331
DB85
  5
DB85
331
DBBC
  5
DBBC
331
DB46
  5
DB46
331
DC4B
  5
DC4B
331
DD08
  5
DD08
331
DD47
  5
DD47
331
DCC9
  5
DCC9
331
DB8D
  5
DB8D
331
DBC4
  5
DBC4
331
DB4E
  5
DB4E
331
DC53
  5
DC53
331
DD10
  5
DD10
331
DC92
  5
DC92
331
DD4F
  5
DD4F
331
DB56
  5
DB56
331
DBE4
  5
DBE4
331
DAC0
  5
DAC0
331
B64B
  5
B64B
331
B912
  5
B912
331
B969
  5
B969
331
B971
  5
B971
331
DAC8
  5
DAC8
331
B91A
  5
B91A
331
DB07
  5
DB07
331
DB0F
  5
DB0F
331
B979
  5
B979
331
B78B
  5
B78B
331
DAD0
  5
DAD0
331
DB17
  5
DB17
331
B932
  5
B932
331
DAD8
  5
DAD8
331
DD55
  5
DD55
331
DD5D
  5
DD5D
331
EAA4
  5
EAAB
331
DD65
  5
DD65
331
DD6D
  5
DD6D
331
DCD1
  5
DCD1
331
DD18
  5
DD18
331
DC5B
  5
DC5B
331
DB1F
  5
DB1F
331
DB5E
  5
DB5E
331
DB95
  5
DB95
331
DC9A
  5
DC9A
331
DCA2
  5
DCA2
331
DCD9
  5
DCD9
331
DC24
  5
DC24
331
DC63
  5
DC63
331
DD20
  5
DD20
331
DB27
  5
DB27
331
DB66
  5
DB66
331
DB9D
  5
DB9D
331
DD28
  5
DD28
331
DCAA
  5
DCAA
331
DBA5
  5
DBA5
331
DB2F
  5
DB2F
331
DB6E
  5
DB6E
331
DC6B
  5
DC6B
331
DD30
  5
DD30
331
DC73
  5
DC73
331
DCB2
  5
DCB2
331
DB76
  5
DB76
331
DBAD
  5
DBAD
331
DB37
  5
DB37
331
DC3C
  5
DC3C
331
B793
  5
B793
331
DAE0
  5
DAE0
331
B634
  5
B634
331
DAE8
  5
DAE8
331
DAB1
  5
DAB1
331
DAF0
  5
DAF0
331
B63C
  5
B63C
331
B903
  5
B903
331
B952
  5
B952
331
DAB9
  5
DAB9
331
B644
  5
B644
331
B90B
  5
B90B
331
DAF8
  5
DAF8
331
DCF9
  5
DCF9
331
DD38
  5
DD38
331
DC44
  5
DC44
331
DC7B
  5
DC7B
331
DB7E
  5
DB7E
331
DBB5
  5
DBB5
331
DCBA
  5
DCBA
331
DB3F
  5
DB3F
331
DD01
  5
DD01
331
DD40
  5
DD40
331
DB47
  5
DB47
331
DB86
  5
DB86
331
DBBD
  5
DBBD
331
DCC2
  5
DCC2
331
DCCA
  5
DCCA
331
DBC5
  5
DBC5
331
DC54
  5
DC54
331
DD09
  5
DD09
331
DB4F
  5
DB4F
331
DB8E
  5
DB8E
331
DD48
  5
DD48
331
DD11
  5
DD11
331
DC93
  5
DC93
331
DBE5
  5
DBE5
331
DB57
  5
DB57
331
B913
  5
B913
331
B96A
  5
B96A
331
B64C
  5
B64C
331
DAC1
  5
DAC1
331
DAC9
  5
DAC9
331
DB08
  5
DB08
331
B91B
  5
B91B
331
B972
  5
B972
331
B78C
  5
B78C
331
DAD1
  5
DAD1
331
DB10
  5
DB10
331
DAD9
  5
DAD9
331
B933
  5
B933
331
DD56
  5
DD56
331
EAA5
  5
EAA2
331
DD5E
  5
DD5E
331
DD66
  5
DD66
331
DD6E
  5
DD6E
331
DB18
  5
DB18
331
DD19
  5
DD19
331
DC9B
  5
DC9B
331
DCD2
  5
DCD2
331
DB96
  5
DB96
331
DB20
  5
DB20
331
DB5F
  5
DB5F
331
DC5C
  5
DC5C
331
DD21
  5
DD21
331
DC64
  5
DC64
331
DCA3
  5
DCA3
331
DB67
  5
DB67
331
DB9E
  5
DB9E
331
DB28
  5
DB28
331
DC25
  5
DC25
331
DCDA
  5
DCDA
331
DD29
  5
DD29
331
DC6C
  5
DC6C
331
DB30
  5
DB30
331
DB6F
  5
DB6F
331
DBA6
  5
DBA6
331
DCAB
  5
DCAB
331
DCB3
  5
DCB3
331
DC3D
  5
DC3D
331
DC74
  5
DC74
331
DB77
  5
DB77
331
DBAE
  5
DBAE
331
DD31
  5
DD31
331
DAE1
  5
DAE1
331
B635
  5
B635
331
B7A4
  5
B7A4
331
DAE9
  5
DAE9
331
DAF1
  5
DAF1
331
B904
  5
B904
331
B953
  5
B953
331
B63D
  5
B63D
331
DAB2
  5
DAB2
331
DABA
  5
DABA
331
B90C
  5
B90C
331
DAF9
  5
DAF9
331
DB38
  5
DB38
331
DD39
  5
DD39
331
DCBB
  5
DCBB
331
DCFA
  5
DCFA
331
DBB6
  5
DBB6
331
DC45
  5
DC45
331
DB40
  5
DB40
331
DB7F
  5
DB7F
331
DC7C
  5
DC7C
331
DD02
  5
DD02
331
DD41
  5
DD41
331
DCC3
  5
DCC3
331
DB87
  5
DB87
331
DBBE
  5
DBBE
331
DB48
  5
DB48
331
DC4D
  5
DC4D
331
DD0A
  5
DD0A
331
DD49
  5
DD49
331
DC55
  5
DC55
331
DB8F
  5
DB8F
331
DBC6
  5
DBC6
331
DCCB
  5
DCCB
331
DB50
  5
DB50
331
DD12
  5
DD12
331
DC94
  5
DC94
331
DAC2
  5
DAC2
331
B64D
  5
B64D
331
B914
  5
B914
331
B96B
  5
B96B
331
B973
  5
B973
331
DACA
  5
DACA
331
B91C
  5
B91C
331
DB09
  5
DB09
331
DB11
  5
DB11
331
B78D
  5
B78D
331
DAD2
  5
DAD2
331
DADA
  5
DADA
331
B934
  5
B934
331
DD57
  5
DD57
331
DD5F
  5
DD5F
331
DD67
  5
DD67
331
DB58
  5
DB58
331
DB19
  5
DB19
331
DCD3
  5
DCD3
331
DD1A
  5
DD1A
331
DC5D
  5
DC5D
331
DB21
  5
DB21
331
DB60
  5
DB60
331
DB97
  5
DB97
331
DC9C
  5
DC9C
331
DD22
  5
DD22
331
DCA4
  5
DCA4
331
DCDB
  5
DCDB
331
DB9F
  5
DB9F
331
DC26
  5
DC26
331
DB29
  5
DB29
331
DB68
  5
DB68
331
DC65
  5
DC65
331
DD2A
  5
DD2A
331
DCAC
  5
DCAC
331
DBA7
  5
DBA7
331
DB31
  5
DB31
331
DB70
  5
DB70
331
DC6D
  5
DC6D
331
DCF3
  5
DCF3
331
DD32
  5
DD32
331
DC75
  5
DC75
331
DCB4
  5
DCB4
331
DBAF
  5
DBAF
331
DC3E
  5
DC3E
331
DAE2
  5
DAE2
331
B93C
  5
B93C
331
B62E
  5
B62E
331
B636
  5
B636
331
B7A5
  5
B7A5
331
DAEA
  5
DAEA
331
B954
  5
B954
331
DAB3
  5
DAB3
331
B63E
  5
B63E
331
B905
  5
B905
331
DAF2
  5
DAF2
331
DABB
  5
DABB
331
B90D
  5
B90D
331
DAFA
  5
DAFA
331
DD8F
  5
DD8F
331
DB78
  5
DB78
331
DB39
  5
DB39
331
DCFB
  5
DCFB
331
DD3A
  5
DD3A
331
DC46
  5
DC46
331
DC7D
  5
DC7D
331
DB41
  5
DB41
331
DB80
  5
DB80
331
DBB7
  5
DBB7
331
DCBC
  5
DCBC
331
DCC4
  5
DCC4
331
DC4E
  5
DC4E
331
DD03
  5
DD03
331
DD42
  5
DD42
331
DB49
  5
DB49
331
DB88
  5
DB88
331
DBBF
  5
DBBF
331
DD4A
  5
DD4A
331
DCCC
  5
DCCC
331
DBC7
  5
DBC7
331
DB51
  5
DB51
331
DC56
  5
DC56
331
DD0B
  5
DD0B
331
DD13
  5
DD13
331
DC95
  5
DC95
331
DB02
  5
DB02
331
B915
  5
B915
331
B96C
  5
B96C
331
B64E
  5
B64E
331
DAC3
  5
DAC3
331
DACB
  5
DACB
331
DB0A
  5
DB0A
331
B91D
  5
B91D
331
B974
  5
B974
331
B78E
  5
B78E
331
DAD3
  5
DAD3
331
DB12
  5
DB12
331
A28F
  5
A28F
331
DADB
  5
DADB
331
B935
  5
B935
331
DD50
  5
DD50
331
DD58
  5
DD58
331
EAA7
  5
EAA5
331
DD60
  5
DD60
331
DD68
  5
DD68
331
DB90
  5
DB90
331
DB1A
  5
DB1A
331
DB59
  5
DB59
331
DD1B
  5
DD1B
331
DC5E
  5
DC5E
331
DC9D
  5
DC9D
331
DB98
  5
DB98
331
DC1F
  5
DC1F
331
DCD4
  5
DCD4
331
DB22
  5
DB22
331
DB61
  5
DB61
331
DD23
  5
DD23
331
DC66
  5
DC66
331
DCA5
  5
DCA5
331
DB69
  5
DB69
331
DBA0
  5
DBA0
331
DB2A
  5
DB2A
331
DC27
  5
DC27
331
DCDC
  5
DCDC
331
DD2B
  5
DD2B
331
DC6E
  5
DC6E
331
DB32
  5
DB32
331
DB71
  5
DB71
331
DBA8
  5
DBA8
331
DCAD
  5
DCAD
331
DD33
  5
DD33
331
DCB5
  5
DCB5
331
DCF4
  5
DCF4
331
DC3F
  5
DC3F
331
DC76
  5
DC76
331
B93D
  5
B93D
331
B62F
  5
B62F
331
DAE3
  5
DAE3
331
DAEB
  5
DAEB
331
B637
  5
B637
331
B7A6
  5
B7A6
331
DAF3
  5
DAF3
331
B906
  5
B906
331
B955
  5
B955
331
B63F
  5
B63F
331
DAB4
  5
DAB4
331
DABC
  5
DABC
331
B647
  5
B647
331
B90E
  5
B90E
331
DAFB
  5
DAFB
331
DBB0
  5
DBB0
331
DB3A
  5
DB3A
331
DB79
  5
DB79
331
DD3B
  5
DD3B
331
DCBD
  5
DCBD
331
DCFC
  5
DCFC
331
DBB8
  5
DBB8
331
DC47
  5
DC47
331
DB42
  5
DB42
331
DB81
  5
DB81
331
DC7E
  5
DC7E
331
DD04
  5
DD04
331
DD43
  5
DD43
331
DCC5
  5
DCC5
331
DB89
  5
DB89
331
DBC0
  5
DBC0
331
DB4A
  5
DB4A
331
DC4F
  5
DC4F
331
DD0C
  5
DD0C
331
DD4B
  5
DD4B
331
DB52
  5
DB52
331
DC57
  5
DC57
331
DCCD
  5
DCCD
331
DD14
  5
DD14
331
DC96
  5
DC96
331
B96D
  5
B96D
331
DAC4
  5
DAC4
331
B64F
  5
B64F
331
B916
  5
B916
331
DB03
  5
DB03
331
B975
  5
B975
331
DACC
  5
DACC
331
B91E
  5
B91E
331
DB0B
  5
DB0B
331
DB13
  5
DB13
331
A290
  5
A290
331
B78F
  5
B78F
331
DAD4
  5
DAD4
331
B936
  5
B936
331
DD51
  5
DD51
331
DD59
  5
DD59
331
DD61
  5
DD61
331
EAA8
  5
EAA9
331
DD69
  5
DD69
331
DB5A
  5
DB5A
331
DB91
  5
DB91
331
DB1B
  5
DB1B
331
DCD5
  5
DCD5
331
DD1C
  5
DD1C
331
DC20
  5
DC20
331
DC5F
  5
DC5F
331
DB23
  5
DB23
331
DB62
  5
DB62
331
DB99
  5
DB99
331
DC9E
  5
DC9E
331
DD24
  5
DD24
331
DCA6
  5
DCA6
331
DCDD
  5
DCDD
331
DBA1
  5
DBA1
331
DC28
  5
DC28
331
DB2B
  5
DB2B
331
DB6A
  5
DB6A
331
DC67
  5
DC67
331
DD2C
  5
DD2C
331
DC6F
  5
DC6F
331
DBA9
  5
DBA9
331
DCAE
  5
DCAE
331
DB33
  5
DB33
331
DB72
  5
DB72
331
DCF5
  5
DCF5
331
DD34
  5
DD34
331
DC77
  5
DC77
331
DCB6
  5
DCB6
331
DAE4
  5
DAE4
331
B630
  5
B630
331
DAEC
  5
DAEC
331
B7A7
  5
B7A7
331
B94E
  5
B94E
331
DAB5
  5
DAB5
331
B640
  5
B640
331
B907
  5
B907
331
DAF4
  5
DAF4
331
DAFC
  5
DAFC
331
DABD
  5
DABD
331
B90F
  5
B90F
331
DD91
  5
DD91
331
DB7A
  5
DB7A
331
DBB1
  5
DBB1
331
DB3B
  5
DB3B
331
DC40
  5
DC40
331
DCFD
  5
DCFD
331
DD3C
  5
DD3C
331
DC48
  5
DC48
331
DC7F
  5
DC7F
331
DB43
  5
DB43
331
DB82
  5
DB82
331
DBB9
  5
DBB9
331
DCBE
  5
DCBE
331
DD44
  5
DD44
331
DCC6
  5
DCC6
331
DBC1
  5
DBC1
331
DC50
  5
DC50
331
DD05
  5
DD05
331
DB4B
  5
DB4B
331
DB8A
  5
DB8A
331
DD4C
  5
DD4C
331
DCCE
  5
DCCE
331
DD0D
  5
DD0D
331
DB53
  5
DB53
331
DC8F
  5
DC8F
331
DD15
  5
DD15
331
DC97
  5
DC97
331
B648
  5
B648
331
DB04
  5
DB04
331
B917
  5
B917
331
B96E
  5
B96E
331
B650
  5
B650
331
DAC5
  5
DAC5
331
DACD
  5
DACD
331
DB0C
  5
DB0C
331
B91F
  5
B91F
331
B976
  5
B976
331
DAD5
  5
DAD5
331
DB14
  5
DB14
331
DD52
  5
DD52
331
EAA1
  5
EAA1
331
DD5A
  5
DD5A
331
EAA9
  5
EAAC
331
DD62
  5
DD62
331
DD6A
  5
DD6A
331
DB92
  5
DB92
331
DB1C
  5
DB1C
331
DB5B
  5
DB5B
331
DC58
  5
DC58
331
DD1D
  5
DD1D
331
DC60
  5
DC60
331
DC9F
  5
DC9F
331
DB63
  5
DB63
331
DB9A
  5
DB9A
331
DB24
  5
DB24
331
DC21
  5
DC21
331
DCD6
  5
DCD6
331
DCDE
  5
DCDE
331
DD25
  5
DD25
331
DC68
  5
DC68
331
DCA7
  5
DCA7
331
DB6B
  5
DB6B
331
DBA2
  5
DBA2
331
DB2C
  5
DB2C
331
DC29
  5
DC29
331
DCE6
  5
DCE6
331
DD2D
  5
DD2D
331
DC70
  5
DC70
331
DB34
  5
DB34
331
DB73
  5
DB73
331
DBAA
  5
DBAA
331
DCAF
  5
DCAF
331
DD35
  5
DD35
331
DCB7
  5
DCB7
331
DCF6
  5
DCF6
331
B790
  5
B790
331
B631
  5
B631
331
DAE5
  5
DAE5
331
DAED
  5
DAED
331
B94F
  5
B94F
331
DAAE
  5
DAAE
331
DAF5
  5
DAF5
331
B908
  5
B908
331
B641
  5
B641
331
DAB6
  5
DAB6
331
DABE
  5
DABE
331
DAFD
  5
DAFD
331
B967
  5
B967
331
DBB2
  5
DBB2
331
DC41
  5
DC41
331
DB3C
  5
DB3C
331
DB7B
  5
DB7B
331
DC78
  5
DC78
331
DD3D
  5
DD3D
331
DC80
  5
DC80
331
DCBF
  5
DCBF
331
DBBA
  5
DBBA
331
DC49
  5
DC49
331
DCFE
  5
DCFE
331
DB44
  5
DB44
331
DB83
  5
DB83
331
DD06
  5
DD06
331
DD45
  5
DD45
331
DCC7
  5
DCC7
331
DB8B
  5
DB8B
331
DBC2
  5
DBC2
331
DB4C
  5
DB4C
331
DC51
  5
DC51
331
DD0E
  5
DD0E
331
DD4D
  5
DD4D
331
DB54
  5
DB54
331
DC90
  5
DC90
331
DCCF
  5
DCCF
331
DD16
  5
DD16
331
B649
  5
B649
331
B910
  5
B910
331
B96F
  5
B96F
331
DAC6
  5
DAC6
331
B651
  5
B651
331
B918
  5
B918
331
DB05
  5
DB05
331
DB0D
  5
DB0D
331
B977
  5
B977
331
DACE
  5
DACE
331
B920
  5
B920
331
DB15
  5
DB15
331
DADE
  5
DADE
331
DD53
  5
DD53
331
DD5B
  5
DD5B
331
EAA2
  5
EAA4
331
DD63
  5
DD63
331
DD6B
  5
DD6B
331
DC59
  5
DC59
331
DB5C
  5
DB5C
331
DB93
  5
DB93
331
DC98
  5
DC98
331
DB1D
  5
DB1D
331
DCD7
  5
DCD7
331
DD1E
  5
DD1E
331
DC22
  5
DC22
331
DC61
  5
DC61
331
DB25
  5
DB25
331
DB64
  5
DB64
331
DB9B
  5
DB9B
331
DCA0
  5
DCA0
331
DD26
  5
DD26
331
DCA8
  5
DCA8
331
DCDF
  5
DCDF
331
DBA3
  5
DBA3
331
DB2D
  5
DB2D
331
DB6C
  5
DB6C
331
DC69
  5
DC69
331
DD2E
  5
DD2E
331
DC71
  5
DC71
331
DCB0
  5
DCB0
331
DB74
  5
DB74
331
DBAB
  5
DBAB
331
DB35
  5
DB35
331
DC3A
  5
DC3A
331
DCE7
  5
DCE7
331
DCF7
  5
DCF7
331
DD36
  5
DD36
331
B791
  5
B791
331
DAE6
  5
DAE6
331
B632
  5
B632
331
DAAF
  5
DAAF
331
B63A
  5
B63A
331
B950
  5
B950
331
DAB7
  5
DAB7
331
B642
  5
B642
331
B909
  5
B909
331
DAF6
  5
DAF6
331
DAFE
  5
DAFE
331
DABF
  5
DABF
331
DD93
  5
DD93
331
DC79
  5
DC79
331
DCB8
  5
DCB8
331
DB7C
  5
DB7C
331
DBB3
  5
DBB3
331
DB3D
  5
DB3D
331
DC42
  5
DC42
331
DCFF
  5
DCFF
331
DD3E
  5
DD3E
331
DC4A
  5
DC4A
331
DB45
  5
DB45
331
DB84
  5
DB84
331
DBBB
  5
DBBB
331
DCC0
  5
DCC0
331
DD46
  5
DD46
331
DCC8
  5
DCC8
331
DBC3
  5
DBC3
331
DC52
  5
DC52
331
DD07
  5
DD07
331
DB4D
  5
DB4D
331
DB8C
  5
DB8C
331
DD4E
  5
DD4E
331
DC91
  5
DC91
331
DB55
  5
DB55
331
DD0F
  5
DD0F
331
DD17
  5
DD17
331
B911
  5
B911
331
B968
  5
B968
331
B64A
  5
B64A
331
DB06
  5
DB06
331
B919
  5
B919
331
B970
  5
B970
331
B652
  5
B652
331
DAC7
  5
DAC7
331
DACF
  5
DACF
331
DB0E
  5
DB0E
331
B78A
  5
B78A
331
B921
  5
B921
331
B978
  5
B978
331
DB16
  5
DB16
331
DADF
  5
DADF
331
DD54
  5
DD54
331
EAA3
  5
EAA8
331
DD5C
  5
DD5C
331
DD64
  5
DD64
331
DD6C
  5
DD6C
331
DC99
  5
DC99
331
DCD0
  5
DCD0
331
DB94
  5
DB94
331
DB1E
  5
DB1E
331
DB5D
  5
DB5D
331
DC5A
  5
DC5A
331
DD1F
  5
DD1F
331
DC62
  5
DC62
331
DCA1
  5
DCA1
331
DB65
  5
DB65
331
DB9C
  5
DB9C
331
DB26
  5
DB26
331
DC23
  5
DC23
331
DCD8
  5
DCD8
331
DD27
  5
DD27
331
DC6A
  5
DC6A
331
DB6D
  5
DB6D
331
DBA4
  5
DBA4
331
DCA9
  5
DCA9
331
DB2E
  5
DB2E
331
DD2F
  5
DD2F
331
DC3B
  5
DC3B
331
DC72
  5
DC72
331
DB36
  5
DB36
331
DB75
  5
DB75
331
DBAC
  5
DBAC
331
DCB1
  5
DCB1
331
DD37
  5
DD37
331
B792
  5
B792
331
B939
  5
B939
331
B633
  5
B633
331
DAE7
  5
DAE7
331
B951
  5
B951
331
B63B
  5
B63B
331
DAB0
  5
DAB0
331
DAB8
  5
DAB8
331
B90A
  5
B90A
331
DAF7
  5
DAF7
331
B643
  5
B643
331
DAFF
  5
DAFF
  0
XRECORD
  5
3D91
102
{ACAD_REACTORS
330
3D20
102
}
330
3D20
100
AcDbXrecord
280
     1
340
1A
  0
SORTENTSTABLE
  5
69B9
102
{ACAD_REACTORS
330
69B8
102
}
330
69B8
100
AcDbSortentsTable
330
69B7
  0
SORTENTSTABLE
  5
69CD
102
{ACAD_REACTORS
330
69CC
102
}
330
69CC
100
AcDbSortentsTable
330
69CB
  0
GROUP
  5
4143
102
{ACAD_REACTORS
330
D
102
}
330
D
100
AcDbGroup
300

 70
     1
 71
     1
  0
GROUP
  5
4378
102
{ACAD_REACTORS
330
D
102
}
330
D
100
AcDbGroup
300

 70
     1
 71
     1
  0
GROUP
  5
43BF
102
{ACAD_REACTORS
330
D
102
}
330
D
100
AcDbGroup
300

 70
     1
 71
     1
  0
GROUP
  5
423A
102
{ACAD_REACTORS
330
D
102
}
330
D
100
AcDbGroup
300

 70
     1
 71
     1
  0
GROUP
  5
414C
102
{ACAD_REACTORS
330
D
102
}
330
D
100
AcDbGroup
300

 70
     1
 71
     1
  0
GROUP
  5
579E
102
{ACAD_REACTORS
330
D
102
}
330
D
100
AcDbGroup
300

 70
     1
 71
     1
  0
GROUP
  5
4235
102
{ACAD_REACTORS
330
D
102
}
330
D
100
AcDbGroup
300

 70
     1
 71
     1
  0
GROUP
  5
437C
102
{ACAD_REACTORS
330
D
102
}
330
D
100
AcDbGroup
300

 70
     1
 71
     1
  0
GROUP
  5
414F
102
{ACAD_REACTORS
330
D
102
}
330
D
100
AcDbGroup
300

 70
     1
 71
     1
  0
GROUP
  5
437E
102
{ACAD_REACTORS
330
D
102
}
330
D
100
AcDbGroup
300

 70
     1
 71
     1
  0
GROUP
  5
4149
102
{ACAD_REACTORS
330
D
102
}
330
D
100
AcDbGroup
300

 70
     1
 71
     1
  0
GROUP
  5
4241
102
{ACAD_REACTORS
330
D
102
}
330
D
100
AcDbGroup
300

 70
     1
 71
     1
  0
GROUP
  5
4239
102
{ACAD_REACTORS
330
D
102
}
330
D
100
AcDbGroup
300

 70
     1
 71
     1
  0
GROUP
  5
4237
102
{ACAD_REACTORS
330
D
102
}
330
D
100
AcDbGroup
300

 70
     1
 71
     1
  0
GROUP
  5
423C
102
{ACAD_REACTORS
330
D
102
}
330
D
100
AcDbGroup
300

 70
     1
 71
     1
  0
GROUP
  5
43B6
102
{ACAD_REACTORS
330
D
102
}
330
D
100
AcDbGroup
300

 70
     1
 71
     1
  0
GROUP
  5
423B
102
{ACAD_REACTORS
330
D
102
}
330
D
100
AcDbGroup
300

 70
     1
 71
     1
  0
GROUP
  5
43B8
102
{ACAD_REACTORS
330
D
102
}
330
D
100
AcDbGroup
300

 70
     1
 71
     1
  0
GROUP
  5
576A
102
{ACAD_REACTORS
330
D
102
}
330
D
100
AcDbGroup
300

 70
     1
 71
     1
  0
GROUP
  5
4240
102
{ACAD_REACTORS
330
D
102
}
330
D
100
AcDbGroup
300

 70
     1
 71
     1
  0
GROUP
  5
423E
102
{ACAD_REACTORS
330
D
102
}
330
D
100
AcDbGroup
300

 70
     1
 71
     1
  0
GROUP
  5
4374
102
{ACAD_REACTORS
330
D
102
}
330
D
100
AcDbGroup
300

 70
     1
 71
     1
  0
GROUP
  5
43BB
102
{ACAD_REACTORS
330
D
102
}
330
D
100
AcDbGroup
300

 70
     1
 71
     1
  0
GROUP
  5
4373
102
{ACAD_REACTORS
330
D
102
}
330
D
100
AcDbGroup
300

 70
     1
 71
     1
  0
GROUP
  5
43BD
102
{ACAD_REACTORS
330
D
102
}
330
D
100
AcDbGroup
300

 70
     1
 71
     1
  0
GROUP
  5
4236
102
{ACAD_REACTORS
330
D
102
}
330
D
100
AcDbGroup
300

 70
     1
 71
     1
  0
GROUP
  5
4377
102
{ACAD_REACTORS
330
D
102
}
330
D
100
AcDbGroup
300

 70
     1
 71
     1
  0
GROUP
  5
4145
102
{ACAD_REACTORS
330
D
102
}
330
D
100
AcDbGroup
300

 70
     1
 71
     1
  0
GROUP
  5
437A
102
{ACAD_REACTORS
330
D
102
}
330
D
100
AcDbGroup
300

 70
     1
 71
     1
  0
GROUP
  5
4379
102
{ACAD_REACTORS
330
D
102
}
330
D
100
AcDbGroup
300

 70
     1
 71
     1
  0
GROUP
  5
43C1
102
{ACAD_REACTORS
330
D
102
}
330
D
100
AcDbGroup
300

 70
     1
 71
     1
  0
GROUP
  5
423D
102
{ACAD_REACTORS
330
D
102
}
330
D
100
AcDbGroup
300

 70
     1
 71
     1
  0
GROUP
  5
437D
102
{ACAD_REACTORS
330
D
102
}
330
D
100
AcDbGroup
300

 70
     1
 71
     1
  0
GROUP
  5
414D
102
{ACAD_REACTORS
330
D
102
}
330
D
100
AcDbGroup
300

 70
     1
 71
     1
  0
GROUP
  5
4146
102
{ACAD_REACTORS
330
D
102
}
330
D
100
AcDbGroup
300

 70
     1
 71
     1
  0
GROUP
  5
437F
102
{ACAD_REACTORS
330
D
102
}
330
D
100
AcDbGroup
300

 70
     1
 71
     1
  0
GROUP
  5
414B
102
{ACAD_REACTORS
330
D
102
}
330
D
100
AcDbGroup
300

 70
     1
 71
     1
  0
GROUP
  5
4375
102
{ACAD_REACTORS
330
D
102
}
330
D
100
AcDbGroup
300

 70
     1
 71
     1
  0
GROUP
  5
43B7
102
{ACAD_REACTORS
330
D
102
}
330
D
100
AcDbGroup
300

 70
     1
 71
     1
  0
GROUP
  5
414E
102
{ACAD_REACTORS
330
D
102
}
330
D
100
AcDbGroup
300

 70
     1
 71
     1
  0
GROUP
  5
43B9
102
{ACAD_REACTORS
330
D
102
}
330
D
100
AcDbGroup
300

 70
     1
 71
     1
  0
GROUP
  5
57D9
102
{ACAD_REACTORS
330
D
102
}
330
D
100
AcDbGroup
300

 70
     1
 71
     1
  0
GROUP
  5
437B
102
{ACAD_REACTORS
330
D
102
}
330
D
100
AcDbGroup
300

 70
     1
 71
     1
  0
GROUP
  5
43BC
102
{ACAD_REACTORS
330
D
102
}
330
D
100
AcDbGroup
300

 70
     1
 71
     1
  0
GROUP
  5
4144
102
{ACAD_REACTORS
330
D
102
}
330
D
100
AcDbGroup
300

 70
     1
 71
     1
  0
GROUP
  5
43BE
102
{ACAD_REACTORS
330
D
102
}
330
D
100
AcDbGroup
300

 70
     1
 71
     1
  0
GROUP
  5
4238
102
{ACAD_REACTORS
330
D
102
}
330
D
100
AcDbGroup
300

 70
     1
 71
     1
  0
GROUP
  5
43B5
102
{ACAD_REACTORS
330
D
102
}
330
D
100
AcDbGroup
300

 70
     1
 71
     1
  0
GROUP
  5
43C0
102
{ACAD_REACTORS
330
D
102
}
330
D
100
AcDbGroup
300

 70
     1
 71
     1
  0
GROUP
  5
4148
102
{ACAD_REACTORS
330
D
102
}
330
D
100
AcDbGroup
300

 70
     1
 71
     1
  0
GROUP
  5
423F
102
{ACAD_REACTORS
330
D
102
}
330
D
100
AcDbGroup
300

 70
     1
 71
     1
  0
GROUP
  5
43BA
102
{ACAD_REACTORS
330
D
102
}
330
D
100
AcDbGroup
300

 70
     1
 71
     1
  0
GROUP
  5
414A
102
{ACAD_REACTORS
330
D
102
}
330
D
100
AcDbGroup
300

 70
     1
 71
     1
  0
GROUP
  5
5691
102
{ACAD_REACTORS
330
D
102
}
330
D
100
AcDbGroup
300

 70
     1
 71
     1
  0
GROUP
  5
4376
102
{ACAD_REACTORS
330
D
102
}
330
D
100
AcDbGroup
300

 70
     1
 71
     1
  0
GROUP
  5
4147
102
{ACAD_REACTORS
330
D
102
}
330
D
100
AcDbGroup
300

 70
     1
 71
     1
  0
LAYOUT
  5
21
102
{ACAD_XDICTIONARY
360
EAF6
102
}
102
{ACAD_REACTORS
330
19
102
}
330
19
100
AcDbPlotSettings
  1

  2
HP 2200
  4

  6

 40
0.0
 41
0.0
 42
0.0
 43
0.0
 44
0.0
 45
0.0
 46
0.0
 47
0.0
 48
0.0
 49
0.0
140
0.0
141
0.0
142
1.0
143
1.0
 70
  1712
 72
     0
 73
     0
 74
     0
  7
AAA.ctb
 75
     0
147
1.0
148
0.0
149
0.0
100
AcDbLayout
  1
Model
 70
     1
 71
     0
 10
0.0
 20
0.0
 11
12.0
 21
9.0
 12
0.0
 22
0.0
 32
0.0
 14
0.0
 24
0.0
 34
0.0
 15
0.0
 25
0.0
 35
0.0
146
0.0
 13
0.0
 23
0.0
 33
0.0
 16
1.0
 26
0.0
 36
0.0
 17
0.0
 27
1.0
 37
0.0
 76
     0
330
1E
  0
LAYOUT
  5
1D
102
{ACAD_XDICTIONARY
360
EAF4
102
}
102
{ACAD_REACTORS
330
19
102
}
330
19
100
AcDbPlotSettings
  1

  2
HP 2200
  4

  6

 40
0.0
 41
0.0
 42
0.0
 43
0.0
 44
0.0
 45
0.0
 46
0.0
 47
0.0
 48
0.0
 49
0.0
140
0.0
141
0.0
142
1.0
143
1.0
 70
   688
 72
     0
 73
     0
 74
     5
  7
AAA.ctb
 75
    16
147
1.0
148
0.0
149
0.0
100
AcDbLayout
  1
配置1
 70
     0
 71
     1
 10
0.0
 20
0.0
 11
12.0
 21
9.0
 12
0.0
 22
0.0
 32
0.0
 14
1.000000000000000E+20
 24
1.000000000000000E+20
 34
1.000000000000000E+20
 15
-1.000000000000000E+20
 25
-1.000000000000000E+20
 35
-1.000000000000000E+20
146
0.0
 13
0.0
 23
0.0
 33
0.0
 16
1.0
 26
0.0
 36
0.0
 17
0.0
 27
1.0
 37
0.0
 76
     0
330
1A
  0
MLINESTYLE
  5
17
102
{ACAD_REACTORS
330
16
102
}
330
16
100
AcDbMlineStyle
  2
STANDARD
 70
     0
  3

 62
   256
 51
90.0
 52
90.0
 71
     2
 49
0.5
 62
   256
  6
BYLAYER
 49
-0.5
 62
   256
  6
BYLAYER
  0
PLOTSETTINGS
  5
4150
102
{ACAD_XDICTIONARY
360
EAF8
102
}
102
{ACAD_REACTORS
330
18
102
}
330
18
100
AcDbPlotSettings
  1
LANSRO
  2
\\1260\HP2200
  4
A4
  6

 40
6.043083190917968
 41
6.762742042541503
 42
7.736419677734375
 43
5.027069091796875
 44
209.9733276367187
 45
296.9683227539062
 46
5.15
 47
0.0
 48
0.0
 49
0.0
140
0.0
141
0.0
142
1.0
143
0.8829829263240881
 70
  1716
 72
     1
 73
     1
 74
     0
  7
AAA.ctb
 75
     0
147
1.132524729739748
148
-132.297014905803
149
-71.78507365635891
  0
ACDBPLACEHOLDER
  5
F
102
{ACAD_REACTORS
330
E
102
}
330
E
  0
ACAD_PROXY_OBJECT
  5
E7A4
102
{ACAD_REACTORS
330
E7A3
102
}
330
E7A3
100
AcDbProxyObject
 90
      499
 91
      514
 95
   983063
 70
     0
 93
     1841
310
4214DD185B99185C9928B81E85EB51B8AE3F2E07A17AD46E2B8FC02B5E8DC0F42B1CFD028000000C1008070000C3001FDFF8000000C1003FBFF000000182007F7FE00000030400FEFFC00000060801FDFF8000000C1003FBFF00000018200000000000000681FA0B0000001820100E000186003FBFF000000182007F7FE000
310
00030400FEFFC00000060801FDFF8000000C1003FBFF000000182007F7FE000000304000AD7A3703D0AC73F4160000003040201C00030C007F7FE00000030400FEFFC00000060801FDFF8000000C1003FBFF000000182007F7FE00000030400FEFFC00000060807F
340
11
340
11
340
11
 94
        0
1001
ACAD
1000
AcRTDxfName
1000
TABLESTYLE
  0
XRECORD
  5
EAF3
102
{ACAD_REACTORS
330
EAF1
102
}
330
EAF1
100
AcDbXrecord
280
     1
340
3D97
  0
XRECORD
  5
EAF2
102
{ACAD_REACTORS
330
EAF1
102
}
330
EAF1
100
AcDbXrecord
280
     1
340
3D96
  0
DICTIONARYVAR
  5
E8F8
102
{ACAD_REACTORS
330
3E63
102
}
330
3E63
100
DictionaryVariables
280
     0
  1
STANDARD
  0
DICTIONARYVAR
  5
3E64
102
{ACAD_REACTORS
330
3E63
102
}
330
3E63
100
DictionaryVariables
280
     0
  1
1
  0
DICTIONARYVAR
  5
3E65
102
{ACAD_REACTORS
330
3E63
102
}
330
3E63
100
DictionaryVariables
280
     0
  1

  0
DICTIONARY
  5
EAF6
330
21
100
AcDbDictionary
280
     1
281
     1
  3
ACAD_XREC_ROUNDTRIP
360
EAF7
  0
DICTIONARY
  5
EAF4
330
1D
100
AcDbDictionary
280
     1
281
     1
  3
ACAD_XREC_ROUNDTRIP
360
EAF5
  0
DICTIONARY
  5
EAF8
330
4150
100
AcDbDictionary
280
     1
281
     1
  3
ACAD_XREC_ROUNDTRIP
360
EAF9
  0
XRECORD
  5
EAF7
102
{ACAD_REACTORS
330
EAF6
102
}
330
EAF6
100
AcDbXrecord
280
     1
102
SHADEPLOT
 70
     0
102
SHADEPLOTRESLEVEL
 70
     2
102
SHADEPLOTCUSTOMDPI
 70
   300
  0
XRECORD
  5
EAF5
102
{ACAD_REACTORS
330
EAF4
102
}
330
EAF4
100
AcDbXrecord
280
     1
102
SHADEPLOT
 70
     0
102
SHADEPLOTRESLEVEL
 70
     2
102
SHADEPLOTCUSTOMDPI
 70
   300
  0
XRECORD
  5
EAF9
102
{ACAD_REACTORS
330
EAF8
102
}
330
EAF8
100
AcDbXrecord
280
     1
102
SHADEPLOT
 70
     0
102
SHADEPLOTRESLEVEL
 70
     2
102
SHADEPLOTCUSTOMDPI
 70
   300
  0
ENDSEC
  0
EOF
