  0
SECTION
  2
HEADER
  9
$ACADVER
  1
AC1015
  9
$ACADMAINTVER
 70
    20
  9
$DWGCODEPAGE
  3
ANSI_950
  9
$INSBASE
 10
0.0
 20
0.0
 30
0.0
  9
$EXTMIN
 10
1293.482420414165
 20
-248.9692298923205
 30
0.0
  9
$EXTMAX
 10
1948.216875021521
 20
77.80943319167329
 30
0.0
  9
$LIMMIN
 10
-10.0
 20
-15.0
  9
$LIMMAX
 10
120.0
 20
90.0
  9
$ORTHOMODE
 70
     1
  9
$REGENMODE
 70
     0
  9
$FILLMODE
 70
     1
  9
$QTEXTMODE
 70
     0
  9
$MIRRTEXT
 70
     0
  9
$LTSCALE
 40
3.0
  9
$ATTMODE
 70
     1
  9
$TEXTSIZE
 40
3.0
  9
$TRACEWID
 40
1.0
  9
$TEXTSTYLE
  7
STANDARD
  9
$CLAYER
  8
0
  9
$CELTYPE
  6
ByLayer
  9
$CECOLOR
 62
   256
  9
$CELTSCALE
 40
1.0
  9
$DISPSILH
 70
     0
  9
$DIMSCALE
 40
1.0
  9
$DIMASZ
 40
3.0
  9
$DIMEXO
 40
1.0
  9
$DIMDLI
 40
6.0
  9
$DIMRND
 40
0.0
  9
$DIMDLE
 40
0.0
  9
$DIMEXE
 40
1.0
  9
$DIMTP
 40
0.0
  9
$DIMTM
 40
0.0
  9
$DIMTXT
 40
3.0
  9
$DIMCEN
 40
1.5
  9
$DIMTSZ
 40
0.0
  9
$DIMTOL
 70
     0
  9
$DIMLIM
 70
     0
  9
$DIMTIH
 70
     1
  9
$DIMTOH
 70
     1
  9
$DIMSE1
 70
     0
  9
$DIMSE2
 70
     0
  9
$DIMTAD
 70
     0
  9
$DIMZIN
 70
     0
  9
$DIMBLK
  1

  9
$DIMASO
 70
     1
  9
$DIMSHO
 70
     0
  9
$DIMPOST
  1

  9
$DIMAPOST
  1

  9
$DIMALT
 70
     0
  9
$DIMALTD
 70
     2
  9
$DIMALTF
 40
25.4
  9
$DIMLFAC
 40
1.0
  9
$DIMTOFL
 70
     1
  9
$DIMTVP
 40
0.0
  9
$DIMTIX
 70
     0
  9
$DIMSOXD
 70
     0
  9
$DIMSAH
 70
     0
  9
$DIMBLK1
  1

  9
$DIMBLK2
  1

  9
$DIMSTYLE
  2
Standard
  9
$DIMCLRD
 70
     0
  9
$DIMCLRE
 70
     0
  9
$DIMCLRT
 70
     0
  9
$DIMTFAC
 40
1.0
  9
$DIMGAP
 40
0.09
  9
$DIMJUST
 70
     0
  9
$DIMSD1
 70
     0
  9
$DIMSD2
 70
     0
  9
$DIMTOLJ
 70
     1
  9
$DIMTZIN
 70
     0
  9
$DIMALTZ
 70
     0
  9
$DIMALTTZ
 70
     0
  9
$DIMUPT
 70
     0
  9
$DIMDEC
 70
     4
  9
$DIMTDEC
 70
     8
  9
$DIMALTU
 70
     2
  9
$DIMALTTD
 70
     2
  9
$DIMTXSTY
  7
STANDARD
  9
$DIMAUNIT
 70
     0
  9
$DIMADEC
 70
     0
  9
$DIMALTRND
 40
0.0
  9
$DIMAZIN
 70
     0
  9
$DIMDSEP
 70
    46
  9
$DIMATFIT
 70
     3
  9
$DIMFRAC
 70
     0
  9
$DIMLDRBLK
  1

  9
$DIMLUNIT
 70
     2
  9
$DIMLWD
 70
    -2
  9
$DIMLWE
 70
    -2
  9
$DIMTMOVE
 70
     2
  9
$LUNITS
 70
     2
  9
$LUPREC
 70
     4
  9
$SKETCHINC
 40
0.5
  9
$FILLETRAD
 40
0.0
  9
$AUNITS
 70
     0
  9
$AUPREC
 70
     0
  9
$MENU
  1
ACAD
  9
$ELEVATION
 40
0.0
  9
$PELEVATION
 40
0.0
  9
$THICKNESS
 40
0.0
  9
$LIMCHECK
 70
     0
  9
$CHAMFERA
 40
0.0
  9
$CHAMFERB
 40
0.0
  9
$CHAMFERC
 40
0.0
  9
$CHAMFERD
 40
0.0
  9
$SKPOLY
 70
     0
  9
$TDCREATE
 40
2444975.333333334
  9
$TDUCREATE
 40
2444975.000000000
  9
$TDUPDATE
 40
2454042.442257454
  9
$TDUUPDATE
 40
2454042.108924120
  9
$TDINDWG
 40
0.3150517593
  9
$TDUSRTIMER
 40
0.0000000000
  9
$USRTIMER
 70
     0
  9
$ANGBASE
 50
0.0
  9
$ANGDIR
 70
     0
  9
$PDMODE
 70
     0
  9
$PDSIZE
 40
0.001
  9
$PLINEWID
 40
0.0
  9
$SPLFRAME
 70
     0
  9
$SPLINETYPE
 70
     6
  9
$SPLINESEGS
 70
  8000
  9
$HANDSEED
  5
EAD0
  9
$SURFTAB1
 70
     6
  9
$SURFTAB2
 70
     6
  9
$SURFTYPE
 70
     6
  9
$SURFU
 70
     6
  9
$SURFV
 70
     6
  9
$UCSBASE
  2

  9
$UCSNAME
  2

  9
$UCSORG
 10
0.0
 20
0.0
 30
0.0
  9
$UCSXDIR
 10
1.0
 20
0.0
 30
0.0
  9
$UCSYDIR
 10
0.0
 20
1.0
 30
0.0
  9
$UCSORTHOREF
  2

  9
$UCSORTHOVIEW
 70
     0
  9
$UCSORGTOP
 10
0.0
 20
0.0
 30
0.0
  9
$UCSORGBOTTOM
 10
0.0
 20
0.0
 30
0.0
  9
$UCSORGLEFT
 10
0.0
 20
0.0
 30
0.0
  9
$UCSORGRIGHT
 10
0.0
 20
0.0
 30
0.0
  9
$UCSORGFRONT
 10
0.0
 20
0.0
 30
0.0
  9
$UCSORGBACK
 10
0.0
 20
0.0
 30
0.0
  9
$PUCSBASE
  2

  9
$PUCSNAME
  2

  9
$PUCSORG
 10
0.0
 20
0.0
 30
0.0
  9
$PUCSXDIR
 10
1.0
 20
0.0
 30
0.0
  9
$PUCSYDIR
 10
0.0
 20
1.0
 30
0.0
  9
$PUCSORTHOREF
  2

  9
$PUCSORTHOVIEW
 70
     0
  9
$PUCSORGTOP
 10
0.0
 20
0.0
 30
0.0
  9
$PUCSORGBOTTOM
 10
0.0
 20
0.0
 30
0.0
  9
$PUCSORGLEFT
 10
0.0
 20
0.0
 30
0.0
  9
$PUCSORGRIGHT
 10
0.0
 20
0.0
 30
0.0
  9
$PUCSORGFRONT
 10
0.0
 20
0.0
 30
0.0
  9
$PUCSORGBACK
 10
0.0
 20
0.0
 30
0.0
  9
$USERI1
 70
     0
  9
$USERI2
 70
     0
  9
$USERI3
 70
     0
  9
$USERI4
 70
     0
  9
$USERI5
 70
     0
  9
$USERR1
 40
0.0
  9
$USERR2
 40
0.0
  9
$USERR3
 40
0.0
  9
$USERR4
 40
0.0
  9
$USERR5
 40
0.0
  9
$WORLDVIEW
 70
     1
  9
$SHADEDGE
 70
     3
  9
$SHADEDIF
 70
    70
  9
$TILEMODE
 70
     1
  9
$MAXACTVP
 70
    48
  9
$PINSBASE
 10
0.0
 20
0.0
 30
0.0
  9
$PLIMCHECK
 70
     0
  9
$PEXTMIN
 10
1.000000000000000E+20
 20
1.000000000000000E+20
 30
1.000000000000000E+20
  9
$PEXTMAX
 10
-1.000000000000000E+20
 20
-1.000000000000000E+20
 30
-1.000000000000000E+20
  9
$PLIMMIN
 10
0.0
 20
0.0
  9
$PLIMMAX
 10
12.0
 20
9.0
  9
$UNITMODE
 70
     0
  9
$VISRETAIN
 70
     1
  9
$PLINEGEN
 70
     0
  9
$PSLTSCALE
 70
     0
  9
$TREEDEPTH
 70
  3020
  9
$CMLSTYLE
  2
Standard
  9
$CMLJUST
 70
     0
  9
$CMLSCALE
 40
1.0
  9
$PROXYGRAPHICS
 70
     1
  9
$MEASUREMENT
 70
     0
  9
$CELWEIGHT
370
    -1
  9
$ENDCAPS
280
     0
  9
$JOINSTYLE
280
     0
  9
$LWDISPLAY
290
     0
  9
$INSUNITS
 70
     0
  9
$HYPERLINKBASE
  1

  9
$STYLESHEET
  1

  9
$XEDIT
290
     1
  9
$CEPSNTYPE
380
     0
  9
$PSTYLEMODE
290
     1
  9
$FINGERPRINTGUID
  2
{77095E5F-9CE7-11D7-970D-0040F4541FA8}
  9
$VERSIONGUID
  2
{FF7935C2-5C78-4CFF-8FAA-AA2CAB82F7C9}
  9
$EXTNAMES
290
     1
  9
$PSVPSCALE
 40
0.0
  9
$OLESTARTUP
290
     0
  0
ENDSEC
  0
SECTION
  2
CLASSES
  0
CLASS
  1
ACDBDICTIONARYWDFLT
  2
AcDbDictionaryWithDefault
  3
ObjectDBX Classes
 90
        0
280
     0
281
     0
  0
CLASS
  1
ACDBPLACEHOLDER
  2
AcDbPlaceHolder
  3
ObjectDBX Classes
 90
        0
280
     0
281
     0
  0
CLASS
  1
LAYOUT
  2
AcDbLayout
  3
ObjectDBX Classes
 90
        0
280
     0
281
     0
  0
CLASS
  1
LONG_TRANSACTION
  2
AcDbLongTransaction
  3
ObjectDBX Classes
 90
    32768
280
     0
281
     0
  0
CLASS
  1
LWPOLYLINE
  2
AcDbPolyline
  3
ObjectDBX Classes
 90
        0
280
     0
281
     1
  0
CLASS
  1
HATCH
  2
AcDbHatch
  3
ObjectDBX Classes
 90
    32768
280
     0
281
     1
  0
CLASS
  1
XRECORD
  2
AcDbXrecord
  3
ObjectDBX Classes
 90
        0
280
     0
281
     0
  0
CLASS
  1
LONG_TRANSACTION
  2
AcDbLongTransaction
  3
ObjectDBX Classes
 90
    32768
280
     0
281
     0
  0
CLASS
  1
LWPOLYLINE
  2
AcDbPolyline
  3
ObjectDBX Classes
 90
        0
280
     0
281
     1
  0
CLASS
  1
HATCH
  2
AcDbHatch
  3
ObjectDBX Classes
 90
    32768
280
     0
281
     1
  0
CLASS
  1
XRECORD
  2
AcDbXrecord
  3
ObjectDBX Classes
 90
        0
280
     0
281
     0
  0
CLASS
  1
DICTIONARYVAR
  2
AcDbDictionaryVar
  3
ObjectDBX Classes
 90
        0
280
     0
281
     0
  0
CLASS
  1
PLOTSETTINGS
  2
AcDbPlotSettings
  3
ObjectDBX Classes
 90
        0
280
     0
281
     0
  0
CLASS
  1
SORTENTSTABLE
  2
AcDbSortentsTable
  3
ObjectDBX Classes
 90
        0
280
     0
281
     0
  0
CLASS
  1
TABLESTYLE
  2
AcDbTableStyle
  3
ObjectDBX Classes
 90
     2047
280
     0
281
     0
  0
ENDSEC
  0
SECTION
  2
TABLES
  0
TABLE
  2
VPORT
  5
8
330
0
100
AcDbSymbolTable
 70
     4
  0
VPORT
  5
EAC6
330
8
100
AcDbSymbolTableRecord
100
AcDbViewportTableRecord
  2
*Active
 70
     0
 10
0.0
 20
0.0
 11
1.0
 21
1.0
 12
1663.126188350704
 22
-78.22598764778661
 13
457.9999999999997
 23
1082.0
 14
10.0
 24
10.0
 15
10.0
 25
10.0
 16
0.0
 26
0.0
 36
1.0
 17
0.0
 27
0.0
 37
0.0
 40
390.2843894882512
 41
1.530456852791878
 42
1.0
 43
0.0
 44
0.0
 50
0.0
 51
0.0
 71
     0
 72
  2000
 73
     1
 74
     1
 75
     0
 76
     0
 77
     0
 78
     0
281
     0
 65
     1
110
0.0
120
0.0
130
0.0
111
1.0
121
0.0
131
0.0
112
0.0
122
1.0
132
0.0
 79
     0
146
0.0
  0
ENDTAB
  0
TABLE
  2
LTYPE
  5
5
330
0
100
AcDbSymbolTable
 70
     6
  0
LTYPE
  5
13
330
5
100
AcDbSymbolTableRecord
100
AcDbLinetypeTableRecord
  2
ByBlock
 70
     0
  3

 72
    65
 73
     0
 40
0.0
  0
LTYPE
  5
14
330
5
100
AcDbSymbolTableRecord
100
AcDbLinetypeTableRecord
  2
ByLayer
 70
     0
  3

 72
    65
 73
     0
 40
0.0
  0
LTYPE
  5
15
330
5
100
AcDbSymbolTableRecord
100
AcDbLinetypeTableRecord
  2
CONTINUOUS
 70
     0
  3
連續線 ________________________
 72
    65
 73
     0
 40
0.0
  0
LTYPE
  5
225
330
5
100
AcDbSymbolTableRecord
100
AcDbLinetypeTableRecord
  2
BYBLOCK
 70
     0
  3
Solid line
 72
    65
 73
     0
 40
0.0
  0
LTYPE
  5
226
330
5
100
AcDbSymbolTableRecord
100
AcDbLinetypeTableRecord
  2
BYLAYER
 70
     0
  3
Solid line
 72
    65
 73
     0
 40
0.0
  0
LTYPE
  5
413C
330
5
100
AcDbSymbolTableRecord
100
AcDbLinetypeTableRecord
  2
CENTER2
 70
     0
  3
Center (.5x) ___ _ ___ _ ___ _ ___ _ ___ _ ___
 72
    65
 73
     4
 40
28.575
 49
19.05
 74
     0
 49
-3.174999999999999
 74
     0
 49
3.174999999999999
 74
     0
 49
-3.174999999999999
 74
     0
  0
LTYPE
  5
413D
330
5
100
AcDbSymbolTableRecord
100
AcDbLinetypeTableRecord
  2
DASHED2
 70
     0
  3
Dashed (.5x) _ _ _ _ _ _ _ _ _ _ _ _ _ _ _ _ _
 72
    65
 73
     2
 40
9.524999999999998
 49
6.349999999999999
 74
     0
 49
-3.174999999999999
 74
     0
  0
LTYPE
  5
69DC
330
5
100
AcDbSymbolTableRecord
100
AcDbLinetypeTableRecord
  2
DASHED
 70
     0
  3
__ __ __ __ __ __ __ __ __ __ __ __ __ __ __
 72
    65
 73
     2
 40
4.0
 49
3.0
 74
     0
 49
-1.0
 74
     0
  0
ENDTAB
  0
TABLE
  2
LAYER
  5
2
102
{ACAD_XDICTIONARY
360
43C2
102
}
330
0
100
AcDbSymbolTable
 70
     7
  0
LAYER
  5
10
330
2
100
AcDbSymbolTableRecord
100
AcDbLayerTableRecord
  2
0
 70
     0
 62
     7
  6
CONTINUOUS
370
    -3
390
F
  0
LAYER
  5
413E
330
2
100
AcDbSymbolTableRecord
100
AcDbLayerTableRecord
  2
指線
 70
     0
 62
     3
  6
CONTINUOUS
370
    15
390
F
  0
LAYER
  5
413F
330
2
100
AcDbSymbolTableRecord
100
AcDbLayerTableRecord
  2
中心線
 70
     0
 62
     4
  6
CENTER2
370
    20
390
F
  0
LAYER
  5
4140
330
2
100
AcDbSymbolTableRecord
100
AcDbLayerTableRecord
  2
虛線
 70
     0
 62
     6
  6
DASHED2
290
     0
370
    -3
390
F
  0
LAYER
  5
43B4
330
2
100
AcDbSymbolTableRecord
100
AcDbLayerTableRecord
  2
建構線
 70
     0
 62
     1
  6
CONTINUOUS
370
    -3
390
F
  0
LAYER
  5
69DF
330
2
100
AcDbSymbolTableRecord
100
AcDbLayerTableRecord
  2
標註線
 70
     0
 62
     3
  6
CONTINUOUS
370
    13
390
F
  0
LAYER
  5
C701
330
2
100
AcDbSymbolTableRecord
100
AcDbLayerTableRecord
  2
Defpoints
 70
     0
 62
     7
  6
CONTINUOUS
290
     0
370
    -3
390
F
  0
ENDTAB
  0
TABLE
  2
STYLE
  5
3
330
0
100
AcDbSymbolTable
 70
     1
  0
STYLE
  5
11
330
3
100
AcDbSymbolTableRecord
100
AcDbTextStyleTableRecord
  2
STANDARD
 70
     0
 40
0.0
 41
1.0
 50
0.0
 71
     0
 42
3.0
  3

  4

  0
ENDTAB
  0
TABLE
  2
VIEW
  5
6
330
0
100
AcDbSymbolTable
 70
     0
  0
ENDTAB
  0
TABLE
  2
UCS
  5
7
330
0
100
AcDbSymbolTable
 70
     0
  0
ENDTAB
  0
TABLE
  2
APPID
  5
9
330
0
100
AcDbSymbolTable
 70
     4
  0
APPID
  5
12
330
9
100
AcDbSymbolTableRecord
100
AcDbRegAppTableRecord
  2
ACAD
 70
     0
  0
APPID
  5
230
330
9
100
AcDbSymbolTableRecord
100
AcDbRegAppTableRecord
  2
TCAD
 70
     0
  0
APPID
  5
4142
330
9
100
AcDbSymbolTableRecord
100
AcDbRegAppTableRecord
  2
CONTENTBLOCKICON
 70
     0
  0
APPID
  5
5D91
330
9
100
AcDbSymbolTableRecord
100
AcDbRegAppTableRecord
  2
pntflag
 70
     0
  0
ENDTAB
  0
TABLE
  2
DIMSTYLE
  5
A
330
0
100
AcDbSymbolTable
 70
     1
100
AcDbDimStyleTable
 71
     1
340
3C9D
  0
DIMSTYLE
105
3C9D
330
A
100
AcDbSymbolTableRecord
100
AcDbDimStyleTableRecord
  2
Standard
 70
     0
340
11
  0
ENDTAB
  0
TABLE
  2
BLOCK_RECORD
  5
1
330
0
100
AcDbSymbolTable
 70
     2
  0
BLOCK_RECORD
  5
1E
102
{ACAD_XDICTIONARY
360
3D1E
102
}
330
1
100
AcDbSymbolTableRecord
100
AcDbBlockTableRecord
  2
*Model_Space
340
21
  0
BLOCK_RECORD
  5
1A
102
{ACAD_XDICTIONARY
360
3D20
102
}
330
1
100
AcDbSymbolTableRecord
100
AcDbBlockTableRecord
  2
*Paper_Space
340
1D
  0
BLOCK_RECORD
  5
69B7
102
{ACAD_XDICTIONARY
360
69B8
102
}
330
1
100
AcDbSymbolTableRecord
100
AcDbBlockTableRecord
  2
A$C51E2538E
340
0
  0
BLOCK_RECORD
  5
69CB
102
{ACAD_XDICTIONARY
360
69CC
102
}
330
1
100
AcDbSymbolTableRecord
100
AcDbBlockTableRecord
  2
A$C3310154B
340
0
  0
ENDTAB
  0
ENDSEC
  0
SECTION
  2
BLOCKS
  0
BLOCK
  5
254
330
1E
100
AcDbEntity
  8
0
100
AcDbBlockBegin
  2
*Model_Space
 70
     0
 10
0.0
 20
0.0
 30
0.0
  3
*Model_Space
  1

  0
ENDBLK
  5
255
330
1E
100
AcDbEntity
  8
0
100
AcDbBlockEnd
  0
BLOCK
  5
252
330
1A
100
AcDbEntity
 67
     1
  8
0
100
AcDbBlockBegin
  2
*Paper_Space
 70
     0
 10
0.0
 20
0.0
 30
0.0
  3
*Paper_Space
  1

  0
ENDBLK
  5
253
330
1A
100
AcDbEntity
 67
     1
  8
0
100
AcDbBlockEnd
  0
BLOCK
  5
69BA
330
69B7
100
AcDbEntity
  8
0
 62
     1
 48
0.27
100
AcDbBlockBegin
  2
A$C51E2538E
 70
     0
 10
0.0
 20
0.0
 30
0.0
  3
A$C51E2538E
  1

  0
LINE
  5
69BB
330
69B7
100
AcDbEntity
  8
虛線
 48
0.25
100
AcDbLine
 10
9.230939415452212
 20
1.99838789798423
 30
0.0
 11
2.230939415459943
 21
1.998387897983548
 31
0.0
  0
LINE
  5
69BC
330
69B7
100
AcDbEntity
  8
虛線
 48
0.25
100
AcDbLine
 10
9.230939415453576
 20
15.79841841556197
 30
0.0
 11
9.230939415452212
 21
1.99838789798423
 31
0.0
  0
LINE
  5
69BD
330
69B7
100
AcDbEntity
  8
虛線
 48
0.25
100
AcDbLine
 10
0.2309394154581241
 20
24.698418415562
 30
0.0
 11
0.2309394154590336
 21
16.09842604495623
 31
0.0
  0
LINE
  5
69BE
330
69B7
100
AcDbEntity
  8
虛線
 48
0.25
100
AcDbLine
 10
2.230939415453576
 20
15.79841841556191
 30
0.0
 11
2.230939415459943
 21
1.998387897983576
 31
0.0
  0
LINE
  5
69BF
330
69B7
100
AcDbEntity
  8
虛線
 48
0.25
100
AcDbLine
 10
0.2309394154590336
 20
16.09835738040544
 30
0.0
 11
11.23093941545221
 21
16.09835738040573
 31
0.0
  0
LINE
  5
69C0
330
69B7
100
AcDbEntity
  8
中心線
 48
0.25
100
AcDbLine
 10
5.730939415455679
 20
27.09841841556201
 30
0.0
 11
5.730939415449938
 21
0.0
 31
0.0
  0
LINE
  5
69C1
330
69B7
100
AcDbEntity
  8
虛線
 48
0.25
100
AcDbLine
 10
2.230939415459943
 20
1.998387897983548
 30
0.0
 11
1.730939415460852
 21
1.498387897984002
 31
0.0
  0
LINE
  5
69C2
330
69B7
100
AcDbEntity
  8
虛線
 48
0.25
100
AcDbLine
 10
9.230939415452212
 20
1.99838789798423
 30
0.0
 11
9.730939415451302
 21
1.498387897984287
 31
0.0
  0
LINE
  5
69C3
330
69B7
100
AcDbEntity
  8
虛線
 48
0.25
100
AcDbLine
 10
11.23093941545358
 20
24.698418415562
 30
0.0
 11
11.23093941545221
 21
16.09835738040573
 31
0.0
  0
LINE
  5
69C4
330
69B7
100
AcDbEntity
  8
虛線
 48
0.25
100
AcDbLine
 10
0.2309394154535767
 20
24.698418415562
 30
0.0
 11
11.23093941545358
 21
24.698418415562
 31
0.0
  0
LINE
  5
69C5
330
69B7
100
AcDbEntity
  8
虛線
 48
0.25
100
AcDbLine
 10
2.230939415453576
 20
15.79841841556197
 30
0.0
 11
9.230939415453576
 21
15.79841841556197
 31
0.0
  0
LINE
  5
69C6
330
69B7
100
AcDbEntity
  8
虛線
 48
0.25
100
AcDbLine
 10
1.930939415453394
 20
16.09841841556192
 30
0.0
 11
2.230939415453576
 21
15.79841841556191
 31
0.0
  0
LINE
  5
69C7
330
69B7
100
AcDbEntity
  8
虛線
 48
0.25
100
AcDbLine
 10
0.2309394154535767
 20
24.698418415562
 30
0.0
 11
-0.0000006922223292
 21
25.09841841556204
 31
0.0
  0
LINE
  5
69C8
330
69B7
100
AcDbEntity
  8
虛線
 48
0.25
100
AcDbLine
 10
9.230939415453576
 20
15.79841841556197
 30
0.0
 11
9.530939415453758
 21
16.09841841556198
 31
0.0
  0
LINE
  5
69C9
330
69B7
100
AcDbEntity
  8
虛線
 48
0.25
100
AcDbLine
 10
11.23093941545358
 20
24.698418415562
 30
0.0
 11
11.46187952312948
 21
25.09841841556204
 31
0.0
  0
ENDBLK
  5
69CA
330
69B7
100
AcDbEntity
  8
0
 62
     1
 48
0.27
100
AcDbBlockEnd
  0
BLOCK
  5
69CE
330
69CB
100
AcDbEntity
  8
0
 62
     1
 48
0.27
100
AcDbBlockBegin
  2
A$C3310154B
 70
     0
 10
0.0
 20
0.0
 30
0.0
  3
A$C3310154B
  1

  0
LINE
  5
69CF
330
69CB
100
AcDbEntity
  8
虛線
 48
0.2
100
AcDbLine
 10
0.4999707651827521
 20
12.80115016654724
 30
0.0
 11
0.4999707651836616
 21
5.30113016654775
 31
0.0
  0
LINE
  5
69D0
330
69CB
100
AcDbEntity
  8
虛線
 48
0.2
100
AcDbLine
 10
6.499970765181842
 20
12.80111016654831
 30
0.0
 11
6.499970765183661
 21
5.301130166548432
 31
0.0
  0
LINE
  5
69D1
330
69CB
100
AcDbEntity
  8
虛線
 48
0.2
100
AcDbLine
 10
6.499970765183661
 20
5.301130166548432
 30
0.0
 11
0.4999707651836616
 21
5.30113016654775
 31
0.0
  0
LINE
  5
69D2
330
69CB
100
AcDbEntity
  8
中心線
 48
0.25
100
AcDbLine
 10
3.49999076518344
 20
15.30112016654811
 30
0.0
 11
3.499990765177699
 21
0.000000166540076
 31
0.0
  0
LINE
  5
69D3
330
69CB
100
AcDbEntity
  8
虛線
 48
0.2
100
AcDbLine
 10
5.999980765182044
 20
12.30112016654846
 30
0.0
 11
5.999980765187501
 21
2.30113016655747
 31
0.0
  0
LINE
  5
69D4
330
69CB
100
AcDbEntity
  8
虛線
 48
0.2
100
AcDbLine
 10
1.000000765181994
 20
12.30112016654812
 30
0.0
 11
1.000000765187905
 21
2.301130166554685
 31
0.0
  0
LINE
  5
69D5
330
69CB
100
AcDbEntity
  8
虛線
 48
0.2
100
AcDbLine
 10
5.999980765187501
 20
2.30113016655747
 30
0.0
 11
1.000000765187905
 21
2.301130166554685
 31
0.0
  0
LINE
  5
69D6
330
69CB
100
AcDbEntity
  8
虛線
 48
0.2
100
AcDbLine
 10
5.999980765182499
 20
12.3011201665484
 30
0.0
 11
1.000000765181994
 21
12.30112016654817
 31
0.0
  0
LINE
  5
69D7
330
69CB
100
AcDbEntity
  8
虛線
 48
0.2
100
AcDbLine
 10
5.999980765182044
 20
12.3011201665484
 30
0.0
 11
6.999980765182499
 21
13.30112016654863
 31
0.0
  0
LINE
  5
69D8
330
69CB
100
AcDbEntity
  8
虛線
 48
0.2
100
AcDbLine
 10
5.999980765187956
 20
2.301130166557413
 30
0.0
 11
3.499990765183611
 21
0.801130166544965
 31
0.0
  0
LINE
  5
69D9
330
69CB
100
AcDbEntity
  8
虛線
 48
0.2
100
AcDbLine
 10
1.000000765187905
 20
2.30113016657259
 30
0.0
 11
3.499990765178154
 21
0.801130166544965
 31
0.0
  0
LINE
  5
69DA
330
69CB
100
AcDbEntity
  8
虛線
 48
0.2
100
AcDbLine
 10
1.00000076518495
 20
12.30112016654834
 30
0.0
 11
0.0000007651844385
 21
13.30112016654854
 31
0.0
  0
ENDBLK
  5
69DB
330
69CB
100
AcDbEntity
  8
0
 62
     1
 48
0.27
100
AcDbBlockEnd
  0
ENDSEC
  0
SECTION
  2
ENTITIES
  0
LINE
  5
A2B1
330
1E
100
AcDbEntity
  8
0
  6
Continuous
 62
     7
100
AcDbLine
 10
1856.466875251744
 20
35.30941411807328
 30
0.0
 11
1830.966875251743
 21
35.30941411807328
 31
0.0
  0
LINE
  5
A2B2
330
1E
100
AcDbEntity
  8
0
  6
Continuous
 62
     7
100
AcDbLine
 10
1856.466875251744
 20
34.50942011867335
 30
0.0
 11
1830.966875251743
 21
34.50942011867335
 31
0.0
  0
LINE
  5
A2B3
330
1E
100
AcDbEntity
  8
0
  6
Continuous
 62
     7
100
AcDbLine
 10
1856.466875251744
 20
11.10940811747332
 30
0.0
 11
1830.966875251743
 21
11.10940811747332
 31
0.0
  0
LINE
  5
A2B4
330
1E
100
AcDbEntity
  8
0
  6
Continuous
 62
     7
100
AcDbLine
 10
1856.466875251744
 20
10.30941411807328
 30
0.0
 11
1830.966875251743
 21
10.30941411807328
 31
0.0
  0
LINE
  5
A2B5
330
1E
100
AcDbEntity
  8
0
  6
Continuous
 62
     7
100
AcDbLine
 10
1679.966875251744
 20
10.30941411807328
 30
0.0
 11
1705.466875251743
 21
10.30941411807328
 31
0.0
  0
LINE
  5
A2B6
330
1E
100
AcDbEntity
  8
0
  6
Continuous
 62
     7
100
AcDbLine
 10
1679.966875251744
 20
11.10940811747332
 30
0.0
 11
1705.466875251743
 21
11.10940811747332
 31
0.0
  0
LINE
  5
A2B7
330
1E
100
AcDbEntity
  8
0
  6
Continuous
 62
     7
100
AcDbLine
 10
1679.966875251744
 20
34.50942011867335
 30
0.0
 11
1705.466875251743
 21
34.50942011867335
 31
0.0
  0
LINE
  5
A2B8
330
1E
100
AcDbEntity
  8
0
  6
Continuous
 62
     7
100
AcDbLine
 10
1679.966875251744
 20
35.30941411807328
 30
0.0
 11
1705.466875251743
 21
35.30941411807328
 31
0.0
  0
CIRCLE
  5
C03D
330
1E
100
AcDbEntity
  8
0
  6
Continuous
 62
     7
100
AcDbCircle
 10
1692.966875021521
 20
22.80941411807328
 30
0.0
 40
5.15
  0
CIRCLE
  5
C03E
330
1E
100
AcDbEntity
  8
0
  6
Continuous
 62
     7
100
AcDbCircle
 10
1692.966875021521
 20
22.80941411807328
 30
0.0
 40
0.75
  0
CIRCLE
  5
C03F
330
1E
100
AcDbEntity
  8
0
  6
Continuous
 62
     7
100
AcDbCircle
 10
1843.466875021521
 20
22.80941411807328
 30
0.0
 40
5.15
  0
CIRCLE
  5
C040
330
1E
100
AcDbEntity
  8
0
  6
Continuous
 62
     7
100
AcDbCircle
 10
1843.466875021521
 20
22.80941411807328
 30
0.0
 40
0.75
  0
CIRCLE
  5
C041
330
1E
100
AcDbEntity
  8
0
  6
Continuous
 62
     7
100
AcDbCircle
 10
1843.466875021521
 20
-139.7493424341266
 30
0.0
 40
4.767386812599999
  0
CIRCLE
  5
C042
330
1E
100
AcDbEntity
  8
0
  6
Continuous
 62
     7
100
AcDbCircle
 10
1843.466875021521
 20
-139.7493424341266
 30
0.0
 40
4.2499867444
  0
CIRCLE
  5
C043
330
1E
100
AcDbEntity
  8
0
  6
Continuous
 62
     7
100
AcDbCircle
 10
1843.466875021521
 20
-139.7493424341266
 30
0.0
 40
3.918292304999999
  0
CIRCLE
  5
C044
330
1E
100
AcDbEntity
  8
0
  6
Continuous
 62
     7
100
AcDbCircle
 10
1843.466875021521
 20
-139.7493424341266
 30
0.0
 40
0.75
  0
CIRCLE
  5
C045
330
1E
100
AcDbEntity
  8
0
  6
Continuous
 62
     7
100
AcDbCircle
 10
1692.966875021521
 20
-139.7493424341266
 30
0.0
 40
4.2499867446
  0
CIRCLE
  5
C046
330
1E
100
AcDbEntity
  8
0
  6
Continuous
 62
     7
100
AcDbCircle
 10
1692.966875021521
 20
-139.7493424341266
 30
0.0
 40
3.918292304999999
  0
CIRCLE
  5
C047
330
1E
100
AcDbEntity
  8
0
  6
Continuous
 62
     7
100
AcDbCircle
 10
1692.966875021521
 20
-139.7493424341266
 30
0.0
 40
4.767386812599999
  0
CIRCLE
  5
C048
330
1E
100
AcDbEntity
  8
0
  6
Continuous
 62
     7
100
AcDbCircle
 10
1692.966875021521
 20
-139.7493424341266
 30
0.0
 40
0.75
  0
LINE
  5
C07C
330
1E
100
AcDbEntity
  8
0
  6
Continuous
 62
     7
100
AcDbLine
 10
1860.06687502152
 20
-26.09060495532663
 30
0.0
 11
1860.06687502152
 21
71.70943319167339
 31
0.0
  0
LINE
  5
C07D
330
1E
100
AcDbEntity
  8
0
  6
Continuous
 62
     7
100
AcDbLine
 10
1856.466875021521
 20
-26.09060495532663
 30
0.0
 11
1856.466875021521
 21
71.70943319167339
 31
0.0
  0
LINE
  5
C07E
330
1E
100
AcDbEntity
  8
0
  6
Continuous
 62
     7
100
AcDbLine
 10
1830.966875021521
 20
-27.19060495532676
 30
0.0
 11
1830.966875021521
 21
72.80943319167329
 31
0.0
  0
LINE
  5
C07F
330
1E
100
AcDbEntity
  8
0
  6
Continuous
 62
     7
100
AcDbLine
 10
1830.966875021521
 20
72.80943319167329
 30
0.0
 11
1705.46687502152
 21
72.80943319167329
 31
0.0
  0
LINE
  5
C080
330
1E
100
AcDbEntity
  8
0
  6
Continuous
 62
     7
100
AcDbLine
 10
1676.36687502152
 20
71.70943319167339
 30
0.0
 11
1705.46687502152
 21
71.70943319167339
 31
0.0
  0
LINE
  5
C081
330
1E
100
AcDbEntity
  8
0
  6
Continuous
 62
     7
100
AcDbLine
 10
1860.06687502152
 20
71.70943319167339
 30
0.0
 11
1830.966875021521
 21
71.70943319167339
 31
0.0
  0
LINE
  5
C082
330
1E
100
AcDbEntity
  8
0
  6
Continuous
 62
     7
100
AcDbLine
 10
1830.966875021521
 20
70.80947515327341
 30
0.0
 11
1705.46687502152
 21
70.80947515327341
 31
0.0
  0
LINE
  5
C083
330
1E
100
AcDbEntity
  8
0
  6
Continuous
 62
     7
100
AcDbLine
 10
1676.36687502152
 20
69.70943319167338
 30
0.0
 11
1705.46687502152
 21
69.70943319167338
 31
0.0
  0
LINE
  5
C084
330
1E
100
AcDbEntity
  8
0
  6
Continuous
 62
     7
100
AcDbLine
 10
1860.06687502152
 20
69.70943319167338
 30
0.0
 11
1830.966875021521
 21
69.70943319167338
 31
0.0
  0
LINE
  5
C085
330
1E
100
AcDbEntity
  8
0
  6
Continuous
 62
     7
100
AcDbLine
 10
1860.06687502152
 20
49.30941411807328
 30
0.0
 11
1948.216875021521
 21
49.30941411807328
 31
0.0
  0
LINE
  5
C086
330
1E
100
AcDbEntity
  8
0
  6
Continuous
 62
     7
100
AcDbLine
 10
1588.216875021521
 20
49.30941411807328
 30
0.0
 11
1676.366875021521
 21
49.30941411807328
 31
0.0
  0
LINE
  5
C08B
330
1E
100
AcDbEntity
  8
0
  6
Continuous
 62
     7
100
AcDbLine
 10
1830.966875021521
 20
47.60951635207334
 30
0.0
 11
1705.46687502152
 21
47.60951635207334
 31
0.0
  0
LINE
  5
C08C
330
1E
100
AcDbEntity
  8
0
  6
Continuous
 62
     7
100
AcDbLine
 10
1830.966875021521
 20
46.80951520767337
 30
0.0
 11
1705.46687502152
 21
46.80951520767337
 31
0.0
  0
LINE
  5
C08D
330
1E
100
AcDbEntity
  8
0
  6
Continuous
 62
     7
100
AcDbLine
 10
1830.966875021521
 20
34.8094408210734
 30
0.0
 11
1705.46687502152
 21
34.8094408210734
 31
0.0
  0
LINE
  5
C08E
330
1E
100
AcDbEntity
  8
0
  6
Continuous
 62
     7
100
AcDbLine
 10
1830.966875021521
 20
34.00945398167335
 30
0.0
 11
1705.46687502152
 21
34.00945398167335
 31
0.0
  0
LINE
  5
C08F
330
1E
100
AcDbEntity
  8
0
  6
Continuous
 62
     7
100
AcDbLine
 10
1830.966875021521
 20
11.60937425447332
 30
0.0
 11
1705.46687502152
 21
11.60937425447332
 31
0.0
  0
LINE
  5
C090
330
1E
100
AcDbEntity
  8
0
  6
Continuous
 62
     7
100
AcDbLine
 10
1830.966875021521
 20
10.80936246067335
 30
0.0
 11
1705.46687502152
 21
10.80936246067335
 31
0.0
  0
LINE
  5
C091
330
1E
100
AcDbEntity
  8
0
  6
Continuous
 62
     7
100
AcDbLine
 10
1830.966875021521
 20
-1.19066726212668
 30
0.0
 11
1705.46687502152
 21
-1.19066726212668
 31
0.0
  0
LINE
  5
C092
330
1E
100
AcDbEntity
  8
0
  6
Continuous
 62
     7
100
AcDbLine
 10
1830.966875021521
 20
-1.990684936926754
 30
0.0
 11
1705.46687502152
 21
-1.990684936926754
 31
0.0
  0
LINE
  5
C097
330
1E
100
AcDbEntity
  8
0
  6
Continuous
 62
     7
100
AcDbLine
 10
1676.366875021521
 20
-3.690585881926836
 30
0.0
 11
1588.216875021521
 21
-3.690585881926836
 31
0.0
  0
LINE
  5
C098
330
1E
100
AcDbEntity
  8
0
  6
Continuous
 62
     7
100
AcDbLine
 10
1948.21687502152
 20
-3.690585881926836
 30
0.0
 11
1860.06687502152
 21
-3.690585881926836
 31
0.0
  0
LINE
  5
C099
330
1E
100
AcDbEntity
  8
0
  6
Continuous
 62
     7
100
AcDbLine
 10
1676.36687502152
 20
-24.09060495532663
 30
0.0
 11
1705.46687502152
 21
-24.09060495532663
 31
0.0
  0
LINE
  5
C09A
330
1E
100
AcDbEntity
  8
0
  6
Continuous
 62
     7
100
AcDbLine
 10
1860.06687502152
 20
-24.09060495532663
 30
0.0
 11
1830.966875021521
 21
-24.09060495532663
 31
0.0
  0
LINE
  5
C09B
330
1E
100
AcDbEntity
  8
0
  6
Continuous
 62
     7
100
AcDbLine
 10
1830.966875021521
 20
-25.19065073172669
 30
0.0
 11
1705.46687502152
 21
-25.19065073172669
 31
0.0
  0
LINE
  5
C09C
330
1E
100
AcDbEntity
  8
0
  6
Continuous
 62
     7
100
AcDbLine
 10
1676.36687502152
 20
-26.09060495532663
 30
0.0
 11
1705.46687502152
 21
-26.09060495532663
 31
0.0
  0
LINE
  5
C09D
330
1E
100
AcDbEntity
  8
0
  6
Continuous
 62
     7
100
AcDbLine
 10
1860.06687502152
 20
-26.09060495532663
 30
0.0
 11
1830.966875021521
 21
-26.09060495532663
 31
0.0
  0
LINE
  5
C09E
330
1E
100
AcDbEntity
  8
0
  6
Continuous
 62
     7
100
AcDbLine
 10
1830.966875021521
 20
-27.19060495532676
 30
0.0
 11
1705.46687502152
 21
-27.19060495532676
 31
0.0
  0
LINE
  5
C09F
330
1E
100
AcDbEntity
  8
0
  6
Continuous
 62
     7
100
AcDbLine
 10
1705.46687502152
 20
72.80943319167329
 30
0.0
 11
1705.46687502152
 21
-27.19060495532676
 31
0.0
  0
LINE
  5
C0A0
330
1E
100
AcDbEntity
  8
0
  6
Continuous
 62
     7
100
AcDbLine
 10
1679.96687502152
 20
-26.09060495532663
 30
0.0
 11
1679.96687502152
 21
71.70943319167339
 31
0.0
  0
LINE
  5
C0A1
330
1E
100
AcDbEntity
  8
0
  6
Continuous
 62
     7
100
AcDbLine
 10
1676.36687502152
 20
71.70943319167339
 30
0.0
 11
1676.36687502152
 21
-26.09060495532663
 31
0.0
  0
LINE
  5
C0A2
330
1E
100
AcDbEntity
  8
0
  6
Continuous
 62
     7
100
AcDbLine
 10
1860.06687502152
 20
-182.2493424341266
 30
0.0
 11
1860.06687502152
 21
-123.4493304341267
 31
0.0
  0
LINE
  5
C0A3
330
1E
100
AcDbEntity
  8
0
  6
Continuous
 62
     7
100
AcDbLine
 10
1856.466875021521
 20
-182.2493424341266
 30
0.0
 11
1856.466875021521
 21
-122.6493424341265
 31
0.0
  0
LINE
  5
C0A4
330
1E
100
AcDbEntity
  8
0
  6
Continuous
 62
     7
100
AcDbLine
 10
1850.466875021521
 20
-162.6749737635266
 30
0.0
 11
1850.46687502152
 21
-170.6749737635266
 31
0.0
  0
LINE
  5
C0A5
330
1E
100
AcDbEntity
  8
0
  6
Continuous
 62
     7
100
AcDbLine
 10
1830.966875021521
 20
-182.2493424341266
 30
0.0
 11
1830.966875021521
 21
-112.2493088909268
 31
0.0
  0
LINE
  5
C0A6
330
1E
100
AcDbEntity
  8
0
  6
Continuous
 62
     7
100
AcDbLine
 10
1830.966875021521
 20
-112.2493152489266
 30
0.0
 11
1705.46687502152
 21
-112.2493152489266
 31
0.0
  0
LINE
  5
C0A7
330
1E
100
AcDbEntity
  8
0
  6
Continuous
 62
     7
100
AcDbLine
 10
1830.966875021521
 20
-114.2492542137265
 30
0.0
 11
1705.46687502152
 21
-114.2492542137265
 31
0.0
  0
LINE
  5
C0A8
330
1E
100
AcDbEntity
  8
0
  6
Continuous
 62
     7
100
AcDbLine
 10
1679.96687502152
 20
-122.6493424341265
 30
0.0
 11
1705.46687502152
 21
-122.6493424341265
 31
0.0
  0
LINE
  5
C0A9
330
1E
100
AcDbEntity
  8
0
  6
Continuous
 62
     7
100
AcDbLine
 10
1856.466875021521
 20
-122.6493424341265
 30
0.0
 11
1830.966875021521
 21
-122.6493424341265
 31
0.0
  0
LINE
  5
C0AA
330
1E
100
AcDbEntity
  8
0
  6
Continuous
 62
     7
100
AcDbLine
 10
1676.36687502152
 20
-123.4493304341267
 30
0.0
 11
1705.46687502152
 21
-123.4493304341267
 31
0.0
  0
LINE
  5
C0AB
330
1E
100
AcDbEntity
  8
0
  6
Continuous
 62
     7
100
AcDbLine
 10
1860.06687502152
 20
-123.4493304341267
 30
0.0
 11
1830.966875021521
 21
-123.4493304341267
 31
0.0
  0
LINE
  5
C0AC
330
1E
100
AcDbEntity
  8
0
  6
Continuous
 62
     7
100
AcDbLine
 10
1676.36687502152
 20
-125.4493304341267
 30
0.0
 11
1705.46687502152
 21
-125.4493304341267
 31
0.0
  0
LINE
  5
C0AD
330
1E
100
AcDbEntity
  8
0
  6
Continuous
 62
     7
100
AcDbLine
 10
1860.06687502152
 20
-125.4493304341267
 30
0.0
 11
1830.966875021521
 21
-125.4493304341267
 31
0.0
  0
LINE
  5
C0AE
330
1E
100
AcDbEntity
  8
0
  6
Continuous
 62
     7
100
AcDbLine
 10
1860.06687502152
 20
-148.2493114341268
 30
0.0
 11
1948.216875021521
 21
-148.2493114341268
 31
0.0
  0
LINE
  5
C0AF
330
1E
100
AcDbEntity
  8
0
  6
Continuous
 62
     7
100
AcDbLine
 10
1588.216875021521
 20
-148.2493114341266
 30
0.0
 11
1676.36687502152
 21
-148.2493114341268
 31
0.0
  0
LINE
  5
C0C6
330
1E
100
AcDbEntity
  8
0
  6
Continuous
 62
     7
100
AcDbLine
 10
1685.96687502152
 20
-162.6749737635266
 30
0.0
 11
1679.96687502152
 21
-162.6749737635266
 31
0.0
  0
LINE
  5
C0C7
330
1E
100
AcDbEntity
  8
0
  6
Continuous
 62
     7
100
AcDbLine
 10
1856.466875021521
 20
-162.6749737635266
 30
0.0
 11
1850.466875021521
 21
-162.6749737635266
 31
0.0
  0
LINE
  5
C0C8
330
1E
100
AcDbEntity
  8
0
  6
Continuous
 62
     7
100
AcDbLine
 10
1850.46687502152
 20
-170.6749737635266
 30
0.0
 11
1856.466875021521
 21
-170.6749737635266
 31
0.0
  0
LINE
  5
C0C9
330
1E
100
AcDbEntity
  8
0
  6
Continuous
 62
     7
100
AcDbLine
 10
1679.96687502152
 20
-170.6749737635266
 30
0.0
 11
1685.96687502152
 21
-170.6749737635266
 31
0.0
  0
LINE
  5
C0D8
330
1E
100
AcDbEntity
  8
0
  6
Continuous
 62
     7
100
AcDbLine
 10
1676.36687502152
 20
-180.2493424341266
 30
0.0
 11
1860.06687502152
 21
-180.2493424341266
 31
0.0
  0
LINE
  5
C0DF
330
1E
100
AcDbEntity
  8
0
  6
Continuous
 62
     7
100
AcDbLine
 10
1676.36687502152
 20
-182.2493424341266
 30
0.0
 11
1860.06687502152
 21
-182.2493424341266
 31
0.0
  0
LINE
  5
C0E0
330
1E
100
AcDbEntity
  8
0
  6
Continuous
 62
     7
100
AcDbLine
 10
1643.003558121019
 20
-190.2493424341267
 30
0.0
 11
1948.216875021521
 21
-190.2493424341266
 31
0.0
  0
LINE
  5
C0E1
330
1E
100
AcDbEntity
  8
0
  6
Continuous
 62
     7
100
AcDbLine
 10
1588.216875021521
 20
-192.2493424341269
 30
0.0
 11
1948.21687502152
 21
-192.2493424341267
 31
0.0
  0
LINE
  5
C0E2
330
1E
100
AcDbEntity
  8
0
  6
Continuous
 62
     7
100
AcDbLine
 10
1705.46687502152
 20
-112.2493088909268
 30
0.0
 11
1705.46687502152
 21
-182.2493424341266
 31
0.0
  0
LINE
  5
C0E3
330
1E
100
AcDbEntity
  8
0
  6
Continuous
 62
     7
100
AcDbLine
 10
1685.96687502152
 20
-170.6749737635266
 30
0.0
 11
1685.96687502152
 21
-162.6749737635266
 31
0.0
  0
LINE
  5
C0E4
330
1E
100
AcDbEntity
  8
0
  6
Continuous
 62
     7
100
AcDbLine
 10
1679.96687502152
 20
-122.6493424341265
 30
0.0
 11
1679.96687502152
 21
-182.2493424341266
 31
0.0
  0
LINE
  5
C0E5
330
1E
100
AcDbEntity
  8
0
  6
Continuous
 62
     7
100
AcDbLine
 10
1676.36687502152
 20
-123.4493304341267
 30
0.0
 11
1676.36687502152
 21
-182.2493424341266
 31
0.0
  0
LINE
  5
C0E6
330
1E
100
AcDbEntity
  8
0
  6
Continuous
 62
     7
100
AcDbLine
 10
1474.780288028953
 20
-112.2493088909268
 30
0.0
 11
1476.780240981153
 21
-114.2492542137265
 31
0.0
  0
LINE
  5
C0E7
330
1E
100
AcDbEntity
  8
0
  6
Continuous
 62
     7
100
AcDbLine
 10
1473.680240981153
 20
-123.4493304341267
 30
0.0
 11
1475.680240981153
 21
-125.4493304341267
 31
0.0
  0
LINE
  5
C0E9
330
1E
100
AcDbEntity
  8
0
  6
Continuous
 62
     7
100
AcDbLine
 10
1475.680240981153
 20
-180.2493424341266
 30
0.0
 11
1473.680240981153
 21
-182.2493424341266
 31
0.0
  0
LINE
  5
C0EA
330
1E
100
AcDbEntity
  8
0
  6
Continuous
 62
     7
100
AcDbLine
 10
1376.775974478617
 20
-114.2492542137265
 30
0.0
 11
1376.775974478617
 21
-129.7493152489264
 31
0.0
  0
LINE
  5
C0EC
330
1E
100
AcDbEntity
  8
0
  6
Continuous
 62
     7
100
AcDbLine
 10
1377.775974478617
 20
-130.7493152489264
 30
0.0
 11
1377.775974478616
 21
-180.2493424341266
 31
0.0
  0
LINE
  5
C0ED
330
1E
100
AcDbEntity
  8
0
  6
Continuous
 62
     7
100
AcDbLine
 10
1475.680240981153
 20
-125.4493304341267
 30
0.0
 11
1475.680240981153
 21
-180.2493424341266
 31
0.0
  0
LINE
  5
C0EE
330
1E
100
AcDbEntity
  8
0
  6
Continuous
 62
     7
100
AcDbLine
 10
1378.780157057753
 20
-112.2492961753266
 30
0.0
 11
1401.980115858953
 21
-112.2492961753266
 31
0.0
  0
LINE
  5
C0EF
330
1E
100
AcDbEntity
  8
0
  6
Continuous
 62
     7
100
AcDbLine
 10
1415.580182043953
 20
-112.2492999901267
 30
0.0
 11
1437.980261771153
 21
-112.2492999901267
 31
0.0
  0
LINE
  5
C0F0
330
1E
100
AcDbEntity
  8
0
  6
Continuous
 62
     7
100
AcDbLine
 10
1451.580329227753
 20
-112.2493088909268
 30
0.0
 11
1474.780288028953
 21
-112.2493088909268
 31
0.0
  0
LINE
  5
C0F1
330
1E
100
AcDbEntity
  8
0
  6
Continuous
 62
     7
100
AcDbLine
 10
1402.780117003353
 20
-113.0492992271265
 30
0.0
 11
1414.780191390153
 21
-113.0492992271265
 31
0.0
  0
LINE
  5
C0F2
330
1E
100
AcDbEntity
  8
0
  6
Continuous
 62
     7
100
AcDbLine
 10
1438.780264505153
 20
-113.0493055849265
 30
0.0
 11
1450.780295658153
 21
-113.0493055849265
 31
0.0
  0
LINE
  5
C0F4
330
1E
100
AcDbEntity
  8
0
  6
Continuous
 62
     7
100
AcDbLine
 10
1437.980261771153
 20
-112.2492999901267
 30
0.0
 11
1438.780264505153
 21
-113.0493055849265
 31
0.0
  0
LINE
  5
C0F5
330
1E
100
AcDbEntity
  8
0
  6
Continuous
 62
     7
100
AcDbLine
 10
1439.278107729885
 20
-122.6493424341265
 30
0.0
 11
1440.078101729285
 21
-123.4493304341267
 31
0.0
  0
LINE
  5
C0F9
330
1E
100
AcDbEntity
  8
0
  6
Continuous
 62
     7
100
AcDbLine
 10
1439.278107729885
 20
-122.6493424341265
 30
0.0
 11
1414.278107729885
 21
-122.6493424341265
 31
0.0
  0
LINE
  5
C0FA
330
1E
100
AcDbEntity
  8
0
  6
Continuous
 62
     7
100
AcDbLine
 10
1379.880202834153
 20
-123.4493304341267
 30
0.0
 11
1473.680240981153
 21
-123.4493304341267
 31
0.0
  0
LINE
  5
C110
330
1E
100
AcDbEntity
  8
0
  6
Continuous
 62
     7
100
AcDbLine
 10
1376.775974478617
 20
-129.7493152489264
 30
0.0
 11
1377.775974478617
 21
-130.7493152489264
 31
0.0
  0
LINE
  5
C11C
330
1E
100
AcDbEntity
  8
0
  6
Continuous
 62
     7
100
AcDbLine
 10
1401.980115858953
 20
-112.2492961753266
 30
0.0
 11
1402.780117003353
 21
-113.0492992271265
 31
0.0
  0
LINE
  5
C137
330
1E
100
AcDbEntity
  8
0
  6
Continuous
 62
     7
100
AcDbLine
 10
1450.780295658153
 20
-113.0493055849265
 30
0.0
 11
1451.580329227753
 21
-112.2493088909268
 31
0.0
  0
LINE
  5
C155
330
1E
100
AcDbEntity
  8
0
  6
Continuous
 62
     7
100
AcDbLine
 10
1453.278107729884
 20
-182.2493424341266
 30
0.0
 11
1473.776012625617
 21
-182.2493424341266
 31
0.0
  0
LINE
  5
C156
330
1E
100
AcDbEntity
  8
0
  6
Continuous
 62
     7
100
AcDbLine
 10
1379.775974478616
 20
-182.2493424341266
 30
0.0
 11
1400.278107729885
 21
-182.2493424341267
 31
0.0
  0
LINE
  5
C163
330
1E
100
AcDbEntity
  8
0
  6
Continuous
 62
     7
100
AcDbLine
 10
1413.478113730485
 20
-123.4493304341267
 30
0.0
 11
1414.278107729885
 21
-122.6493424341265
 31
0.0
  0
LINE
  5
C164
330
1E
100
AcDbEntity
  8
0
  6
Continuous
 62
     7
100
AcDbLine
 10
1414.780191390153
 20
-113.0492992271265
 30
0.0
 11
1415.580182043953
 21
-112.2492999901267
 31
0.0
  0
LINE
  5
C16C
330
1E
100
AcDbEntity
  8
0
  6
Continuous
 62
     7
100
AcDbLine
 10
1377.880202834153
 20
-180.2493424341266
 30
0.0
 11
1377.880202834153
 21
-125.4493304341267
 31
0.0
  0
LINE
  5
C16D
330
1E
100
AcDbEntity
  8
0
  6
Continuous
 62
     7
100
AcDbLine
 10
1476.776012625617
 20
-179.2493424341266
 30
0.0
 11
1476.776012625617
 21
-114.2492542137268
 31
0.0
  0
LINE
  5
C16E
330
1E
100
AcDbEntity
  8
0
  6
Continuous
 62
     7
100
AcDbLine
 10
1379.880202834153
 20
-182.2493424341266
 30
0.0
 11
1377.880202834153
 21
-180.2493424341266
 31
0.0
  0
LINE
  5
C170
330
1E
100
AcDbEntity
  8
0
  6
Continuous
 62
     7
100
AcDbLine
 10
1377.880202834153
 20
-125.4493304341267
 30
0.0
 11
1379.880202834153
 21
-123.4493304341267
 31
0.0
  0
LINE
  5
C171
330
1E
100
AcDbEntity
  8
0
  6
Continuous
 62
     7
100
AcDbLine
 10
1376.780202834153
 20
-114.2492542137265
 30
0.0
 11
1378.780157057753
 21
-112.2492961753266
 31
0.0
  0
ARC
  5
C176
330
1E
100
AcDbEntity
  8
0
100
AcDbCircle
 10
1859.445881946954
 20
-146.9350514359439
 30
0.0
 40
2.258017748891656
100
AcDbArc
 50
0.9276427879959022
 51
74.03697783117156
  0
ARC
  5
C177
330
1E
100
AcDbEntity
  8
0
100
AcDbCircle
 10
1859.445881946954
 20
-149.5635714323102
 30
0.0
 40
2.258017748891656
100
AcDbArc
 50
285.9630221688284
 51
359.0723572120041
  0
LINE
  5
C178
330
1E
100
AcDbEntity
  8
0
100
AcDbLine
 10
1861.70360375552
 20
-146.8984947752765
 30
0.0
 11
1861.70360375552
 21
-149.6001280929786
 31
0.0
  0
LINE
  5
C179
330
1E
100
AcDbEntity
  8
中心線
100
AcDbLine
 10
1863.368453941557
 20
-148.2493114341271
 30
0.0
 11
1852.723228413628
 21
-148.2493114341271
 31
0.0
  0
LINE
  5
C17B
330
1E
100
AcDbEntity
  8
0
100
AcDbLine
 10
1852.10360375552
 20
-165.324157104674
 30
0.0
 11
1852.10360375552
 21
-168.0257904223781
 31
0.0
  0
ARC
  5
C17C
330
1E
100
AcDbEntity
  8
0
100
AcDbCircle
 10
1849.845881946954
 20
-167.9892337617097
 30
0.0
 40
2.258017748891656
100
AcDbArc
 50
285.9630221688284
 51
359.0723572120041
  0
ARC
  5
C17D
330
1E
100
AcDbEntity
  8
0
100
AcDbCircle
 10
1849.845881946954
 20
-165.3607137653434
 30
0.0
 40
2.258017748891656
100
AcDbArc
 50
0.9276427879959022
 51
74.03697783117156
  0
LINE
  5
C17E
330
1E
100
AcDbEntity
  8
中心線
100
AcDbLine
 10
1673.065296101484
 20
-148.2493114341268
 30
0.0
 11
1683.710521629413
 21
-148.2493114341268
 31
0.0
  0
LINE
  5
C17F
330
1E
100
AcDbEntity
  8
0
100
AcDbLine
 10
1674.730146287522
 20
-146.8984947752765
 30
0.0
 11
1674.730146287522
 21
-149.6001280929784
 31
0.0
  0
ARC
  5
C180
330
1E
100
AcDbEntity
  8
0
100
AcDbCircle
 10
1676.987868096087
 20
-149.5635714323102
 30
0.0
 40
2.258017748891656
100
AcDbArc
 50
180.9276427879959
 51
254.0369778311716
  0
ARC
  5
C181
330
1E
100
AcDbEntity
  8
0
100
AcDbCircle
 10
1676.987868096087
 20
-146.9350514359437
 30
0.0
 40
2.258017748891656
100
AcDbArc
 50
105.9630221688284
 51
179.0723572120041
  0
ARC
  5
C183
330
1E
100
AcDbEntity
  8
0
100
AcDbCircle
 10
1686.587868096086
 20
-165.3607137653432
 30
0.0
 40
2.258017748891656
100
AcDbArc
 50
105.9630221688284
 51
179.0723572120041
  0
LINE
  5
C184
330
1E
100
AcDbEntity
  8
0
100
AcDbLine
 10
1684.330146287521
 20
-165.3241571046737
 30
0.0
 11
1684.330146287521
 21
-168.0257904223779
 31
0.0
  0
ARC
  5
C185
330
1E
100
AcDbEntity
  8
0
100
AcDbCircle
 10
1686.587868096086
 20
-167.9892337617097
 30
0.0
 40
2.258017748891656
100
AcDbArc
 50
180.9276427879959
 51
254.0369778311716
  0
LINE
  5
C18D
330
1E
100
AcDbEntity
  8
中心線
 48
0.27
100
AcDbLine
 10
1805.716875021521
 20
-110.2493152489264
 30
0.0
 11
1805.716875021521
 21
-139.7833392489267
 31
0.0
  0
LINE
  5
C196
330
1E
100
AcDbEntity
  8
中心線
 48
0.27
100
AcDbLine
 10
1730.716875021521
 20
-110.2493152489264
 30
0.0
 11
1730.716875021521
 21
-139.7833392489267
 31
0.0
  0
CIRCLE
  5
C19E
330
1E
100
AcDbEntity
  8
0
100
AcDbCircle
 10
1805.716875021521
 20
-14.69058325112655
 30
0.0
 40
5.125
  0
ARC
  5
C19F
330
1E
100
AcDbEntity
  8
標註線
 62
     1
100
AcDbCircle
 10
1805.716875021521
 20
-14.69058325112655
 30
0.0
 40
6.0
100
AcDbArc
 50
180.0
 51
90.0
  0
LINE
  5
C1A0
330
1E
100
AcDbEntity
  8
中心線
100
AcDbLine
 10
1805.716875021521
 20
-22.2858544398373
 30
0.0
 11
1805.716875021521
 21
-6.972395941273134
 31
0.0
  0
LINE
  5
C1A1
330
1E
100
AcDbEntity
  8
中心線
100
AcDbLine
 10
1797.962087364312
 20
-14.69058325112655
 30
0.0
 11
1813.151199020287
 21
-14.69058325112655
 31
0.0
  0
CIRCLE
  5
C1A2
330
1E
100
AcDbEntity
  8
0
100
AcDbCircle
 10
1805.71687502152
 20
22.80941337747333
 30
0.0
 40
5.125
  0
ARC
  5
C1A3
330
1E
100
AcDbEntity
  8
標註線
 62
     1
100
AcDbCircle
 10
1805.71687502152
 20
22.80941337747333
 30
0.0
 40
6.0
100
AcDbArc
 50
180.0
 51
90.0
  0
LINE
  5
C1A4
330
1E
100
AcDbEntity
  8
中心線
100
AcDbLine
 10
1805.716875021521
 20
15.21414218876259
 30
0.0
 11
1805.716875021521
 21
30.52760068732664
 31
0.0
  0
CIRCLE
  5
C1A5
330
1E
100
AcDbEntity
  8
0
100
AcDbCircle
 10
1805.716875021521
 20
60.30941674887333
 30
0.0
 40
5.125
  0
ARC
  5
C1A6
330
1E
100
AcDbEntity
  8
標註線
 62
     1
100
AcDbCircle
 10
1805.716875021521
 20
60.30941674887333
 30
0.0
 40
6.0
100
AcDbArc
 50
180.0
 51
90.0
  0
LINE
  5
C1A7
330
1E
100
AcDbEntity
  8
中心線
100
AcDbLine
 10
1805.716875021521
 20
52.71414556016271
 30
0.0
 11
1805.716875021521
 21
68.02760405872675
 31
0.0
  0
LINE
  5
C1A8
330
1E
100
AcDbEntity
  8
中心線
100
AcDbLine
 10
1797.962087364312
 20
60.30941674887333
 30
0.0
 11
1813.151199020287
 21
60.30941674887333
 31
0.0
  0
CIRCLE
  5
C1A9
330
1E
100
AcDbEntity
  8
0
100
AcDbCircle
 10
1730.716875021521
 20
60.30941082947333
 30
0.0
 40
5.125
  0
ARC
  5
C1AA
330
1E
100
AcDbEntity
  8
標註線
 62
     1
100
AcDbCircle
 10
1730.716875021521
 20
60.30941082947333
 30
0.0
 40
6.0
100
AcDbArc
 50
180.0
 51
90.0
  0
LINE
  5
C1AB
330
1E
100
AcDbEntity
  8
中心線
100
AcDbLine
 10
1730.716875021521
 20
52.71413964076259
 30
0.0
 11
1730.716875021521
 21
68.02759813932675
 31
0.0
  0
LINE
  5
C1AC
330
1E
100
AcDbEntity
  8
中心線
100
AcDbLine
 10
1722.962087364312
 20
60.30941082947333
 30
0.0
 11
1738.151199020287
 21
60.30941082947333
 31
0.0
  0
CIRCLE
  5
C1AD
330
1E
100
AcDbEntity
  8
0
100
AcDbCircle
 10
1730.716875021521
 20
22.80941337747333
 30
0.0
 40
5.125
  0
ARC
  5
C1AE
330
1E
100
AcDbEntity
  8
標註線
 62
     1
100
AcDbCircle
 10
1730.716875021521
 20
22.80941337747333
 30
0.0
 40
6.0
100
AcDbArc
 50
180.0
 51
90.0
  0
LINE
  5
C1AF
330
1E
100
AcDbEntity
  8
中心線
100
AcDbLine
 10
1730.716875021521
 20
15.21414218876271
 30
0.0
 11
1730.716875021521
 21
30.52760068732676
 31
0.0
  0
CIRCLE
  5
C1B0
330
1E
100
AcDbEntity
  8
0
100
AcDbCircle
 10
1730.716875021521
 20
-14.69058325112655
 30
0.0
 40
5.125
  0
ARC
  5
C1B1
330
1E
100
AcDbEntity
  8
標註線
 62
     1
100
AcDbCircle
 10
1730.716875021521
 20
-14.69058325112655
 30
0.0
 40
6.0
100
AcDbArc
 50
180.0
 51
90.0
  0
LINE
  5
C1B2
330
1E
100
AcDbEntity
  8
中心線
100
AcDbLine
 10
1730.716875021521
 20
-22.2858544398373
 30
0.0
 11
1730.716875021521
 21
-6.972395941273134
 31
0.0
  0
LINE
  5
C1B3
330
1E
100
AcDbEntity
  8
中心線
100
AcDbLine
 10
1722.962087364312
 20
-14.69058325112655
 30
0.0
 11
1738.151199020287
 21
-14.69058325112655
 31
0.0
  0
LINE
  5
C1E3
330
1E
100
AcDbEntity
  8
0
100
AcDbLine
 10
1588.216875021521
 20
-148.2493114341266
 30
0.0
 11
1588.216875021521
 21
-192.2493424341269
 31
0.0
  0
LINE
  5
C1E4
330
1E
100
AcDbEntity
  8
中心線
 48
0.27
100
AcDbLine
 10
1678.216875021521
 20
-194.1006720079608
 30
0.0
 11
1678.216875021521
 21
-182.2493424341266
 31
0.0
  0
LINE
  5
C1E5
330
1E
100
AcDbEntity
  8
中心線
 48
0.27
100
AcDbLine
 10
1738.216875021521
 20
-194.1006720079608
 30
0.0
 11
1738.216875021521
 21
-182.2493424341266
 31
0.0
  0
LINE
  5
C1E6
330
1E
100
AcDbEntity
  8
中心線
 48
0.27
100
AcDbLine
 10
1798.216875021521
 20
-194.1006720079608
 30
0.0
 11
1798.216875021521
 21
-182.2493424341266
 31
0.0
  0
LINE
  5
C1E7
330
1E
100
AcDbEntity
  8
中心線
 48
0.27
100
AcDbLine
 10
1858.21687502152
 20
-194.1006720079608
 30
0.0
 11
1858.21687502152
 21
-182.2493424341266
 31
0.0
  0
LINE
  5
C1E8
330
1E
100
AcDbEntity
  8
中心線
 48
0.27
100
AcDbLine
 10
1918.216875021521
 20
-194.1006720079608
 30
0.0
 11
1918.216875021521
 21
-145.7888003708719
 31
0.0
  0
LINE
  5
C1E9
330
1E
100
AcDbEntity
  8
0
100
AcDbLine
 10
1948.21687502152
 20
-192.2493424341267
 30
0.0
 11
1948.216875021521
 21
-148.2493114341268
 31
0.0
  0
LINE
  5
C1EA
330
1E
100
AcDbEntity
  8
0
100
AcDbLine
 10
1948.21687502152
 20
-3.690585881926836
 30
0.0
 11
1948.216875021521
 21
49.30941411807328
 31
0.0
  0
LINE
  5
C1EB
330
1E
100
AcDbEntity
  8
0
100
AcDbLine
 10
1588.216875021521
 20
49.30941411807328
 30
0.0
 11
1588.216875021521
 21
-3.690585881926836
 31
0.0
  0
LINE
  5
C1EC
330
1E
100
AcDbEntity
  8
中心線
 48
0.27
100
AcDbLine
 10
1918.216875021521
 20
6.741344114559865
 30
0.0
 11
1918.216875021521
 21
38.87748412158669
 31
0.0
  0
CIRCLE
  5
C1ED
330
1E
100
AcDbEntity
  8
0
100
AcDbCircle
 10
1918.216875021521
 20
22.80941411807339
 30
0.0
 40
11.50000000000022
  0
CIRCLE
  5
C1EE
330
1E
100
AcDbEntity
  8
0
100
AcDbCircle
 10
1918.216875021521
 20
22.80941411807328
 30
0.0
 40
8.000000000000227
  0
LINE
  5
C1EF
330
1E
100
AcDbEntity
  8
中心線
 48
0.27
100
AcDbLine
 10
1902.498805018007
 20
22.80941411807328
 30
0.0
 11
1933.934945025034
 21
22.80941411807328
 31
0.0
  0
LINE
  5
C1F0
330
1E
100
AcDbEntity
  8
中心線
 48
0.27
100
AcDbLine
 10
1618.216875021521
 20
6.741344114559865
 30
0.0
 11
1618.216875021521
 21
38.87748412158669
 31
0.0
  0
CIRCLE
  5
C1F1
330
1E
100
AcDbEntity
  8
0
100
AcDbCircle
 10
1618.216875021521
 20
22.80941411807339
 30
0.0
 40
11.50000000000022
  0
CIRCLE
  5
C1F2
330
1E
100
AcDbEntity
  8
0
100
AcDbCircle
 10
1618.216875021521
 20
22.80941411807328
 30
0.0
 40
8.000000000000227
  0
LINE
  5
C1F3
330
1E
100
AcDbEntity
  8
中心線
 48
0.27
100
AcDbLine
 10
1602.498805018007
 20
22.80941411807328
 30
0.0
 11
1633.934945025034
 21
22.80941411807328
 31
0.0
  0
LINE
  5
C1F4
330
1E
100
AcDbEntity
  8
中心線
100
AcDbLine
 10
1863.368453941557
 20
61.3094331916734
 30
0.0
 11
1852.723228413628
 21
61.3094331916734
 31
0.0
  0
LINE
  5
C1F5
330
1E
100
AcDbEntity
  8
0
100
AcDbLine
 10
1861.70360375552
 20
62.66024985052388
 30
0.0
 11
1861.70360375552
 21
59.95861653282202
 31
0.0
  0
ARC
  5
C1F6
330
1E
100
AcDbEntity
  8
0
100
AcDbCircle
 10
1859.445881946954
 20
59.99517319349013
 30
0.0
 40
2.258017748891656
100
AcDbArc
 50
285.9630221688284
 51
359.0723572120041
  0
ARC
  5
C1F7
330
1E
100
AcDbEntity
  8
0
100
AcDbCircle
 10
1859.445881946954
 20
62.62369318985668
 30
0.0
 40
2.258017748891656
100
AcDbArc
 50
0.9276427879959022
 51
74.03697783117156
  0
ARC
  5
C1FC
330
1E
100
AcDbEntity
  8
0
100
AcDbCircle
 10
1859.445881946954
 20
-17.00486643491013
 30
0.0
 40
2.258017748891656
100
AcDbArc
 50
285.9630221688284
 51
359.0723572120041
  0
ARC
  5
C1FD
330
1E
100
AcDbEntity
  8
0
100
AcDbCircle
 10
1859.445881946954
 20
-14.3763464385438
 30
0.0
 40
2.258017748891656
100
AcDbArc
 50
0.9276427879959022
 51
74.03697783117156
  0
LINE
  5
C1FE
330
1E
100
AcDbEntity
  8
0
100
AcDbLine
 10
1861.70360375552
 20
-17.04142309557755
 30
0.0
 11
1861.70360375552
 21
-14.33978977787546
 31
0.0
  0
LINE
  5
C1FF
330
1E
100
AcDbEntity
  8
中心線
100
AcDbLine
 10
1863.368453941557
 20
-15.69060643672696
 30
0.0
 11
1852.723228413628
 21
-15.69060643672696
 31
0.0
  0
ARC
  5
C204
330
1E
100
AcDbEntity
  8
0
100
AcDbCircle
 10
1676.987868096087
 20
-17.00486643491035
 30
0.0
 40
2.258017748891656
100
AcDbArc
 50
180.9276427879959
 51
254.0369778311716
  0
LINE
  5
C205
330
1E
100
AcDbEntity
  8
中心線
100
AcDbLine
 10
1673.065296101484
 20
-15.69060643672696
 30
0.0
 11
1683.710521629413
 21
-15.69060643672696
 31
0.0
  0
LINE
  5
C206
330
1E
100
AcDbEntity
  8
0
100
AcDbLine
 10
1674.730146287522
 20
-17.04142309557755
 30
0.0
 11
1674.730146287522
 21
-14.33978977787569
 31
0.0
  0
ARC
  5
C207
330
1E
100
AcDbEntity
  8
0
100
AcDbCircle
 10
1676.987868096087
 20
-14.3763464385438
 30
0.0
 40
2.258017748891656
100
AcDbArc
 50
105.9630221688284
 51
179.0723572120041
  0
ARC
  5
C210
330
1E
100
AcDbEntity
  8
0
100
AcDbCircle
 10
1676.987868096087
 20
62.62369318985657
 30
0.0
 40
2.258017748891656
100
AcDbArc
 50
105.9630221688284
 51
179.0723572120041
  0
ARC
  5
C211
330
1E
100
AcDbEntity
  8
0
100
AcDbCircle
 10
1676.987868096087
 20
59.99517319349002
 30
0.0
 40
2.258017748891656
100
AcDbArc
 50
180.9276427879959
 51
254.0369778311716
  0
LINE
  5
C212
330
1E
100
AcDbEntity
  8
0
100
AcDbLine
 10
1674.730146287522
 20
62.66024985052377
 30
0.0
 11
1674.730146287522
 21
59.9586165328219
 31
0.0
  0
LINE
  5
C213
330
1E
100
AcDbEntity
  8
中心線
100
AcDbLine
 10
1673.065296101484
 20
61.3094331916734
 30
0.0
 11
1683.710521629413
 21
61.3094331916734
 31
0.0
  0
POINT
  5
C216
330
1E
100
AcDbEntity
  8
0
100
AcDbPoint
 10
1662.794992521521
 20
-134.2492925859956
 30
0.0
1001
pntflag
1000
endpoint
  0
LINE
  5
C217
330
1E
100
AcDbEntity
  8
0
 48
0.27
100
AcDbLine
 10
1667.135977521521
 20
-134.2492925859956
 30
0.0
 11
1667.096220021521
 21
-134.6862125859954
 31
0.0
  0
LINE
  5
C218
330
1E
100
AcDbEntity
  8
0
 48
0.27
100
AcDbLine
 10
1667.096220021521
 20
-134.6862125859954
 30
0.0
 11
1666.978476271521
 21
-135.1063425859956
 31
0.0
  0
LINE
  5
C219
330
1E
100
AcDbEntity
  8
0
 48
0.27
100
AcDbLine
 10
1667.096220021521
 20
-133.8123725859955
 30
0.0
 11
1667.135977521521
 21
-134.2492925859956
 31
0.0
  0
LINE
  5
C21A
330
1E
100
AcDbEntity
  8
0
 48
0.27
100
AcDbLine
 10
1666.978476271521
 20
-135.1063425859956
 30
0.0
 11
1666.787271271521
 21
-135.4935363359955
 31
0.0
  0
LINE
  5
C21B
330
1E
100
AcDbEntity
  8
0
 48
0.27
100
AcDbLine
 10
1666.978476271521
 20
-133.3922425859955
 30
0.0
 11
1667.096220021521
 21
-133.8123725859955
 31
0.0
  0
LINE
  5
C21C
330
1E
100
AcDbEntity
  8
0
 48
0.27
100
AcDbLine
 10
1666.787271271521
 20
-135.4935363359955
 30
0.0
 11
1666.52995127152
 21
-135.8329150859954
 31
0.0
  0
LINE
  5
C21D
330
1E
100
AcDbEntity
  8
0
 48
0.27
100
AcDbLine
 10
1666.787271271521
 20
-133.0050488359957
 30
0.0
 11
1666.978476271521
 21
-133.3922425859955
 31
0.0
  0
LINE
  5
C21E
330
1E
100
AcDbEntity
  8
0
 48
0.27
100
AcDbLine
 10
1666.216407521521
 20
-136.1114350859955
 30
0.0
 11
1666.52995127152
 21
-135.8329150859954
 31
0.0
  0
LINE
  5
C21F
330
1E
100
AcDbEntity
  8
0
 48
0.27
100
AcDbLine
 10
1666.52995127152
 20
-132.6656713359955
 30
0.0
 11
1666.787271271521
 21
-133.0050488359957
 31
0.0
  0
LINE
  5
C220
330
1E
100
AcDbEntity
  8
0
 48
0.27
100
AcDbLine
 10
1668.69255752152
 20
-134.2492925859956
 30
0.0
 11
1668.635897521521
 21
-134.8719700859956
 31
0.0
  0
LINE
  5
C221
330
1E
100
AcDbEntity
  8
0
 48
0.27
100
AcDbLine
 10
1668.635897521521
 20
-134.8719700859956
 30
0.0
 11
1668.468093771521
 21
-135.4707188359955
 31
0.0
  0
LINE
  5
C222
330
1E
100
AcDbEntity
  8
0
 48
0.27
100
AcDbLine
 10
1668.635897521521
 20
-133.6266150859956
 30
0.0
 11
1668.69255752152
 21
-134.2492925859956
 31
0.0
  0
LINE
  5
C223
330
1E
100
AcDbEntity
  8
0
 48
0.27
100
AcDbLine
 10
1665.858686271521
 20
-136.3183950859954
 30
0.0
 11
1666.216407521521
 21
-136.1114350859955
 31
0.0
  0
LINE
  5
C224
330
1E
100
AcDbEntity
  8
0
 48
0.27
100
AcDbLine
 10
1666.216407521521
 20
-132.3871500859954
 30
0.0
 11
1666.52995127152
 21
-132.6656713359955
 31
0.0
  0
LINE
  5
C225
330
1E
100
AcDbEntity
  8
0
 48
0.27
100
AcDbLine
 10
1668.468093771521
 20
-135.4707188359955
 30
0.0
 11
1668.195597521521
 21
-136.0225275859955
 31
0.0
  0
LINE
  5
C226
330
1E
100
AcDbEntity
  8
0
 48
0.27
100
AcDbLine
 10
1668.468093771521
 20
-133.0278675859954
 30
0.0
 11
1668.635897521521
 21
-133.6266150859956
 31
0.0
  0
LINE
  5
C227
330
1E
100
AcDbEntity
  8
0
 48
0.27
100
AcDbLine
 10
1668.195597521521
 20
-136.0225275859955
 30
0.0
 11
1667.82887877152
 21
-136.5061925859954
 31
0.0
  0
LINE
  5
C228
330
1E
100
AcDbEntity
  8
0
 48
0.27
100
AcDbLine
 10
1668.195597521521
 20
-132.4760575859954
 30
0.0
 11
1668.468093771521
 21
-133.0278675859954
 31
0.0
  0
LINE
  5
C229
330
1E
100
AcDbEntity
  8
0
 48
0.27
100
AcDbLine
 10
1665.470537521521
 20
-136.4458400859955
 30
0.0
 11
1665.858686271521
 21
-136.3183950859954
 31
0.0
  0
LINE
  5
C22A
330
1E
100
AcDbEntity
  8
0
 48
0.27
100
AcDbLine
 10
1665.858686271521
 20
-132.1801913359957
 30
0.0
 11
1666.216407521521
 21
-132.3871500859954
 31
0.0
  0
LINE
  5
C22B
330
1E
100
AcDbEntity
  8
0
 48
0.27
100
AcDbLine
 10
1667.382030021521
 20
-136.9031263359954
 30
0.0
 11
1667.82887877152
 21
-136.5061925859954
 31
0.0
  0
LINE
  5
C22C
330
1E
100
AcDbEntity
  8
0
 48
0.27
100
AcDbLine
 10
1667.82887877152
 20
-131.9923925859955
 30
0.0
 11
1668.195597521521
 21
-132.4760575859954
 31
0.0
  0
LINE
  5
C22D
330
1E
100
AcDbEntity
  8
0
 48
0.27
100
AcDbLine
 10
1668.847182521521
 20
-134.2492925859956
 30
0.0
 11
1668.79114127152
 21
-134.8651700859955
 31
0.0
  0
LINE
  5
C22E
330
1E
100
AcDbEntity
  8
0
 48
0.27
100
AcDbLine
 10
1665.066876271521
 20
-136.4888725859955
 30
0.0
 11
1665.470537521521
 21
-136.4458400859955
 31
0.0
  0
LINE
  5
C22F
330
1E
100
AcDbEntity
  8
0
 48
0.27
100
AcDbLine
 10
1665.470537521521
 20
-132.0527463359956
 30
0.0
 11
1665.858686271521
 21
-132.1801913359957
 31
0.0
  0
LINE
  5
C230
330
1E
100
AcDbEntity
  8
0
 48
0.27
100
AcDbLine
 10
1668.79114127152
 20
-134.8651700859955
 30
0.0
 11
1668.625171271521
 21
-135.4573800859955
 31
0.0
  0
LINE
  5
C231
330
1E
100
AcDbEntity
  8
0
 48
0.27
100
AcDbLine
 10
1668.79114127152
 20
-133.6334150859954
 30
0.0
 11
1668.847182521521
 21
-134.2492925859956
 31
0.0
  0
LINE
  5
C232
330
1E
100
AcDbEntity
  8
0
 48
0.27
100
AcDbLine
 10
1666.872225021521
 20
-137.1980750859954
 30
0.0
 11
1667.382030021521
 21
-136.9031263359954
 31
0.0
  0
LINE
  5
C233
330
1E
100
AcDbEntity
  8
0
 48
0.27
100
AcDbLine
 10
1667.382030021521
 20
-131.5954588359955
 30
0.0
 11
1667.82887877152
 21
-131.9923925859955
 31
0.0
  0
LINE
  5
C234
330
1E
100
AcDbEntity
  8
0
 48
0.27
100
AcDbLine
 10
1668.625171271521
 20
-135.4573800859955
 30
0.0
 11
1668.355650021521
 21
-136.0031638359955
 31
0.0
  0
LINE
  5
C235
330
1E
100
AcDbEntity
  8
0
 48
0.27
100
AcDbLine
 10
1668.625171271521
 20
-133.0412050859954
 30
0.0
 11
1668.79114127152
 21
-133.6334150859954
 31
0.0
  0
LINE
  5
C236
330
1E
100
AcDbEntity
  8
0
 48
0.27
100
AcDbLine
 10
1668.355650021521
 20
-136.0031638359955
 30
0.0
 11
1667.992936271521
 21
-136.4815475859955
 31
0.0
  0
LINE
  5
C237
330
1E
100
AcDbEntity
  8
0
 48
0.27
100
AcDbLine
 10
1668.355650021521
 20
-132.4954213359956
 30
0.0
 11
1668.625171271521
 21
-133.0412050859954
 31
0.0
  0
LINE
  5
C238
330
1E
100
AcDbEntity
  8
0
 48
0.27
100
AcDbLine
 10
1666.319053771521
 20
-137.3797038359955
 30
0.0
 11
1666.872225021521
 21
-137.1980750859954
 31
0.0
  0
LINE
  5
C239
330
1E
100
AcDbEntity
  8
0
 48
0.27
100
AcDbLine
 10
1666.872225021521
 20
-131.3005100859955
 30
0.0
 11
1667.382030021521
 21
-131.5954588359955
 31
0.0
  0
LINE
  5
C23A
330
1E
100
AcDbEntity
  8
0
 48
0.27
100
AcDbLine
 10
1664.663213771521
 20
-136.4458400859955
 30
0.0
 11
1665.066876271521
 21
-136.4888725859955
 31
0.0
  0
LINE
  5
C23B
330
1E
100
AcDbEntity
  8
0
 48
0.27
100
AcDbLine
 10
1665.066876271521
 20
-132.0097138359956
 30
0.0
 11
1665.470537521521
 21
-132.0527463359956
 31
0.0
  0
LINE
  5
C23C
330
1E
100
AcDbEntity
  8
0
 48
0.27
100
AcDbLine
 10
1667.55096752152
 20
-136.8741463359956
 30
0.0
 11
1667.992936271521
 21
-136.4815475859955
 31
0.0
  0
LINE
  5
C23D
330
1E
100
AcDbEntity
  8
0
 48
0.27
100
AcDbLine
 10
1667.992936271521
 20
-132.0170375859957
 30
0.0
 11
1668.355650021521
 21
-132.4954213359956
 31
0.0
  0
LINE
  5
C23E
330
1E
100
AcDbEntity
  8
0
 48
0.27
100
AcDbLine
 10
1665.743775021521
 20
-137.4410313359954
 30
0.0
 11
1666.319053771521
 21
-137.3797038359955
 31
0.0
  0
LINE
  5
C23F
330
1E
100
AcDbEntity
  8
0
 48
0.27
100
AcDbLine
 10
1666.319053771521
 20
-137.3797038359955
 30
0.0
 11
1666.499598771521
 21
-137.3455188359955
 31
0.0
  0
LINE
  5
C240
330
1E
100
AcDbEntity
  8
0
 48
0.27
100
AcDbLine
 10
1666.319053771521
 20
-131.1188825859956
 30
0.0
 11
1666.872225021521
 21
-131.3005100859955
 31
0.0
  0
LINE
  5
C241
330
1E
100
AcDbEntity
  8
0
 48
0.27
100
AcDbLine
 10
1664.275065021521
 20
-136.3183950859954
 30
0.0
 11
1664.663213771521
 21
-136.4458400859955
 31
0.0
  0
LINE
  5
C242
330
1E
100
AcDbEntity
  8
0
 48
0.27
100
AcDbLine
 10
1664.663213771521
 20
-132.0527463359956
 30
0.0
 11
1665.066876271521
 21
-132.0097138359956
 31
0.0
  0
LINE
  5
C243
330
1E
100
AcDbEntity
  8
0
 48
0.27
100
AcDbLine
 10
1667.046728771521
 20
-137.1658738359956
 30
0.0
 11
1667.55096752152
 21
-136.8741463359956
 31
0.0
  0
LINE
  5
C244
330
1E
100
AcDbEntity
  8
0
 48
0.27
100
AcDbLine
 10
1667.55096752152
 20
-131.6244388359955
 30
0.0
 11
1667.992936271521
 21
-132.0170375859957
 31
0.0
  0
LINE
  5
C245
330
1E
100
AcDbEntity
  8
0
 48
0.27
100
AcDbLine
 10
1666.499598771521
 20
-137.3455188359955
 30
0.0
 11
1667.046728771521
 21
-137.1658738359956
 31
0.0
  0
LINE
  5
C246
330
1E
100
AcDbEntity
  8
0
 48
0.27
100
AcDbLine
 10
1667.046728771521
 20
-131.3327113359955
 30
0.0
 11
1667.55096752152
 21
-131.6244388359955
 31
0.0
  0
LINE
  5
C247
330
1E
100
AcDbEntity
  8
0
 48
0.27
100
AcDbLine
 10
1665.168496271521
 20
-137.3797038359955
 30
0.0
 11
1665.743775021521
 21
-137.4410313359954
 31
0.0
  0
LINE
  5
C248
330
1E
100
AcDbEntity
  8
0
 48
0.27
100
AcDbLine
 10
1665.743775021521
 20
-131.0575538359955
 30
0.0
 11
1666.319053771521
 21
-131.1188825859956
 31
0.0
  0
LINE
  5
C249
330
1E
100
AcDbEntity
  8
0
 48
0.27
100
AcDbLine
 10
1666.319053771521
 20
-131.1188825859956
 30
0.0
 11
1666.499598771521
 21
-131.1530663359956
 31
0.0
  0
LINE
  5
C24A
330
1E
100
AcDbEntity
  8
0
 48
0.27
100
AcDbLine
 10
1663.917343771521
 20
-136.1114350859955
 30
0.0
 11
1664.275065021521
 21
-136.3183950859954
 31
0.0
  0
LINE
  5
C24B
330
1E
100
AcDbEntity
  8
0
 48
0.27
100
AcDbLine
 10
1664.275065021521
 20
-132.1801913359957
 30
0.0
 11
1664.663213771521
 21
-132.0527463359956
 31
0.0
  0
LINE
  5
C24C
330
1E
100
AcDbEntity
  8
0
 48
0.27
100
AcDbLine
 10
1666.499598771521
 20
-131.1530663359956
 30
0.0
 11
1667.046728771521
 21
-131.3327113359955
 31
0.0
  0
LINE
  5
C24D
330
1E
100
AcDbEntity
  8
0
 48
0.27
100
AcDbLine
 10
1663.603800021521
 20
-135.8329150859954
 30
0.0
 11
1663.917343771521
 21
-136.1114350859955
 31
0.0
  0
LINE
  5
C24E
330
1E
100
AcDbEntity
  8
0
 48
0.27
100
AcDbLine
 10
1663.917343771521
 20
-132.3871500859954
 30
0.0
 11
1664.275065021521
 21
-132.1801913359957
 31
0.0
  0
LINE
  5
C24F
330
1E
100
AcDbEntity
  8
0
 48
0.27
100
AcDbLine
 10
1664.615325021521
 20
-137.1980750859954
 30
0.0
 11
1665.168496271521
 21
-137.3797038359955
 31
0.0
  0
LINE
  5
C250
330
1E
100
AcDbEntity
  8
0
 48
0.27
100
AcDbLine
 10
1665.168496271521
 20
-131.1188825859956
 30
0.0
 11
1665.743775021521
 21
-131.0575538359955
 31
0.0
  0
LINE
  5
C251
330
1E
100
AcDbEntity
  8
0
 48
0.27
100
AcDbLine
 10
1663.346480021521
 20
-135.4935363359955
 30
0.0
 11
1663.603800021521
 21
-135.8329150859954
 31
0.0
  0
LINE
  5
C252
330
1E
100
AcDbEntity
  8
0
 48
0.27
100
AcDbLine
 10
1663.603800021521
 20
-132.6656713359955
 30
0.0
 11
1663.917343771521
 21
-132.3871500859954
 31
0.0
  0
LINE
  5
C253
330
1E
100
AcDbEntity
  8
0
 48
0.27
100
AcDbLine
 10
1664.105518771521
 20
-136.9031263359954
 30
0.0
 11
1664.615325021521
 21
-137.1980750859954
 31
0.0
  0
LINE
  5
C254
330
1E
100
AcDbEntity
  8
0
 48
0.27
100
AcDbLine
 10
1664.615325021521
 20
-131.3005100859955
 30
0.0
 11
1665.168496271521
 21
-131.1188825859956
 31
0.0
  0
LINE
  5
C255
330
1E
100
AcDbEntity
  8
0
 48
0.27
100
AcDbLine
 10
1663.155275021521
 20
-135.1063425859956
 30
0.0
 11
1663.346480021521
 21
-135.4935363359955
 31
0.0
  0
LINE
  5
C256
330
1E
100
AcDbEntity
  8
0
 48
0.27
100
AcDbLine
 10
1663.603800021521
 20
-132.6656713359955
 30
0.0
 11
1663.346480021521
 21
-133.0050488359957
 31
0.0
  0
LINE
  5
C257
330
1E
100
AcDbEntity
  8
0
 48
0.27
100
AcDbLine
 10
1663.658671271521
 20
-136.5061925859954
 30
0.0
 11
1664.105518771521
 21
-136.9031263359954
 31
0.0
  0
LINE
  5
C258
330
1E
100
AcDbEntity
  8
0
 48
0.27
100
AcDbLine
 10
1664.105518771521
 20
-131.5954588359955
 30
0.0
 11
1664.615325021521
 21
-131.3005100859955
 31
0.0
  0
LINE
  5
C259
330
1E
100
AcDbEntity
  8
0
 48
0.27
100
AcDbLine
 10
1663.037531271521
 20
-134.6862125859954
 30
0.0
 11
1663.155275021521
 21
-135.1063425859956
 31
0.0
  0
LINE
  5
C25A
330
1E
100
AcDbEntity
  8
0
 48
0.27
100
AcDbLine
 10
1663.346480021521
 20
-133.0050488359957
 30
0.0
 11
1663.155275021521
 21
-133.3922425859955
 31
0.0
  0
LINE
  5
C25B
330
1E
100
AcDbEntity
  8
0
 48
0.27
100
AcDbLine
 10
1662.997773771521
 20
-134.2492925859956
 30
0.0
 11
1663.037531271521
 21
-134.6862125859954
 31
0.0
  0
LINE
  5
C25C
330
1E
100
AcDbEntity
  8
0
 48
0.27
100
AcDbLine
 10
1663.155275021521
 20
-133.3922425859955
 30
0.0
 11
1663.037531271521
 21
-133.8123725859955
 31
0.0
  0
LINE
  5
C25D
330
1E
100
AcDbEntity
  8
0
 48
0.27
100
AcDbLine
 10
1663.037531271521
 20
-133.8123725859955
 30
0.0
 11
1662.997773771521
 21
-134.2492925859956
 31
0.0
  0
LINE
  5
C25E
330
1E
100
AcDbEntity
  8
0
 48
0.27
100
AcDbLine
 10
1663.291951271521
 20
-136.0225275859955
 30
0.0
 11
1663.658671271521
 21
-136.5061925859954
 31
0.0
  0
LINE
  5
C25F
330
1E
100
AcDbEntity
  8
0
 48
0.27
100
AcDbLine
 10
1663.658671271521
 20
-131.9923925859955
 30
0.0
 11
1664.105518771521
 21
-131.5954588359955
 31
0.0
  0
LINE
  5
C260
330
1E
100
AcDbEntity
  8
0
 48
0.27
100
AcDbLine
 10
1663.019455021521
 20
-135.4707188359955
 30
0.0
 11
1663.291951271521
 21
-136.0225275859955
 31
0.0
  0
LINE
  5
C261
330
1E
100
AcDbEntity
  8
0
 48
0.27
100
AcDbLine
 10
1663.658671271521
 20
-131.9923925859955
 30
0.0
 11
1663.291951271521
 21
-132.4760575859954
 31
0.0
  0
LINE
  5
C262
330
1E
100
AcDbEntity
  8
0
 48
0.27
100
AcDbLine
 10
1662.851652521521
 20
-134.8719700859956
 30
0.0
 11
1663.019455021521
 21
-135.4707188359955
 31
0.0
  0
LINE
  5
C263
330
1E
100
AcDbEntity
  8
0
 48
0.27
100
AcDbLine
 10
1663.291951271521
 20
-132.4760575859954
 30
0.0
 11
1663.019455021521
 21
-133.0278675859954
 31
0.0
  0
LINE
  5
C264
330
1E
100
AcDbEntity
  8
0
 48
0.27
100
AcDbLine
 10
1662.794992521521
 20
-134.2492925859956
 30
0.0
 11
1662.851652521521
 21
-134.8719700859956
 31
0.0
  0
LINE
  5
C265
330
1E
100
AcDbEntity
  8
0
 48
0.27
100
AcDbLine
 10
1663.019455021521
 20
-133.0278675859954
 30
0.0
 11
1662.851652521521
 21
-133.6266150859956
 31
0.0
  0
LINE
  5
C266
330
1E
100
AcDbEntity
  8
0
 48
0.27
100
AcDbLine
 10
1662.851652521521
 20
-133.6266150859956
 30
0.0
 11
1662.794992521521
 21
-134.2492925859956
 31
0.0
  0
LINE
  5
C267
330
1E
100
AcDbEntity
  8
0
 48
0.27
100
AcDbLine
 10
1664.242540021521
 20
-136.2995775859954
 30
0.0
 11
1664.246253771521
 21
-136.2975575859955
 31
0.0
  0
LINE
  5
C268
330
1E
100
AcDbEntity
  8
0
 48
0.27
100
AcDbLine
 10
1664.242540021521
 20
-132.1990088359955
 30
0.0
 11
1664.246253771521
 21
-132.2010275859957
 31
0.0
  0
LINE
  5
C269
330
1E
100
AcDbEntity
  8
0
 48
0.27
100
AcDbLine
 10
1671.336958771521
 20
-134.2492925859956
 30
0.0
 11
1671.270388771521
 21
-134.9808813359955
 31
0.0
  0
LINE
  5
C26A
330
1E
100
AcDbEntity
  8
0
 48
0.27
100
AcDbLine
 10
1671.270388771521
 20
-133.5177038359954
 30
0.0
 11
1671.336958771521
 21
-134.2492925859956
 31
0.0
  0
LINE
  5
C26B
330
1E
100
AcDbEntity
  8
0
 48
0.27
100
AcDbLine
 10
1671.270388771521
 20
-134.9808813359955
 30
0.0
 11
1671.073236271521
 21
-135.6843563359955
 31
0.0
  0
LINE
  5
C26C
330
1E
100
AcDbEntity
  8
0
 48
0.27
100
AcDbLine
 10
1671.073236271521
 20
-132.8142300859956
 30
0.0
 11
1671.270388771521
 21
-133.5177038359954
 31
0.0
  0
LINE
  5
C26D
330
1E
100
AcDbEntity
  8
0
 48
0.27
100
AcDbLine
 10
1671.073236271521
 20
-135.6843563359955
 30
0.0
 11
1670.753077521521
 21
-136.3326813359956
 31
0.0
  0
LINE
  5
C26E
330
1E
100
AcDbEntity
  8
0
 48
0.27
100
AcDbLine
 10
1670.753077521521
 20
-132.1659050859955
 30
0.0
 11
1671.073236271521
 21
-132.8142300859956
 31
0.0
  0
LINE
  5
C26F
330
1E
100
AcDbEntity
  8
0
 48
0.27
100
AcDbLine
 10
1670.753077521521
 20
-136.3326813359956
 30
0.0
 11
1670.322216271521
 21
-136.9009438359956
 31
0.0
  0
LINE
  5
C270
330
1E
100
AcDbEntity
  8
0
 48
0.27
100
AcDbLine
 10
1670.322216271521
 20
-131.5976425859956
 30
0.0
 11
1670.753077521521
 21
-132.1659050859955
 31
0.0
  0
LINE
  5
C271
330
1E
100
AcDbEntity
  8
0
 48
0.27
100
AcDbLine
 10
1671.872926271521
 20
-134.2492925859956
 30
0.0
 11
1669.872668771521
 21
-137.9992925859956
 31
0.0
  0
LINE
  5
C272
330
1E
100
AcDbEntity
  8
0
 48
0.27
100
AcDbLine
 10
1669.872668771521
 20
-130.4992925859956
 30
0.0
 11
1671.872926271521
 21
-134.2492925859956
 31
0.0
  0
LINE
  5
C273
330
1E
100
AcDbEntity
  8
0
 48
0.27
100
AcDbLine
 10
1669.797211271521
 20
-137.3673038359954
 30
0.0
 11
1670.322216271521
 21
-136.9009438359956
 31
0.0
  0
LINE
  5
C274
330
1E
100
AcDbEntity
  8
0
 48
0.27
100
AcDbLine
 10
1669.797211271521
 20
-131.1312813359954
 30
0.0
 11
1670.322216271521
 21
-131.5976425859956
 31
0.0
  0
LINE
  5
C275
330
1E
100
AcDbEntity
  8
0
 48
0.27
100
AcDbLine
 10
1669.198236271521
 20
-137.7138413359955
 30
0.0
 11
1669.797211271521
 21
-137.3673038359954
 31
0.0
  0
LINE
  5
C276
330
1E
100
AcDbEntity
  8
0
 48
0.27
100
AcDbLine
 10
1669.198236271521
 20
-130.7847450859956
 30
0.0
 11
1669.797211271521
 21
-131.1312813359954
 31
0.0
  0
LINE
  5
C277
330
1E
100
AcDbEntity
  8
0
 48
0.27
100
AcDbLine
 10
1668.548311271521
 20
-137.9272375859955
 30
0.0
 11
1669.198236271521
 21
-137.7138413359955
 31
0.0
  0
LINE
  5
C278
330
1E
100
AcDbEntity
  8
0
 48
0.27
100
AcDbLine
 10
1668.548311271521
 20
-130.5713475859957
 30
0.0
 11
1669.198236271521
 21
-130.7847450859956
 31
0.0
  0
LINE
  5
C279
330
1E
100
AcDbEntity
  8
0
 48
0.27
100
AcDbLine
 10
1667.872411271521
 20
-137.9992925859956
 30
0.0
 11
1668.548311271521
 21
-137.9272375859955
 31
0.0
  0
LINE
  5
C27A
330
1E
100
AcDbEntity
  8
0
 48
0.27
100
AcDbLine
 10
1667.872411271521
 20
-130.4992925859956
 30
0.0
 11
1668.548311271521
 21
-130.5713475859957
 31
0.0
  0
LINE
  5
C27B
330
1E
100
AcDbEntity
  8
0
 48
0.27
100
AcDbLine
 10
1667.19651127152
 20
-137.9272375859955
 30
0.0
 11
1667.872411271521
 21
-137.9992925859956
 31
0.0
  0
LINE
  5
C27C
330
1E
100
AcDbEntity
  8
0
 48
0.27
100
AcDbLine
 10
1667.19651127152
 20
-130.5713475859957
 30
0.0
 11
1667.872411271521
 21
-130.4992925859956
 31
0.0
  0
LINE
  5
C27D
330
1E
100
AcDbEntity
  8
0
 48
0.27
100
AcDbLine
 10
1666.546586271521
 20
-137.7138413359955
 30
0.0
 11
1667.19651127152
 21
-137.9272375859955
 31
0.0
  0
LINE
  5
C27E
330
1E
100
AcDbEntity
  8
0
 48
0.27
100
AcDbLine
 10
1666.546586271521
 20
-130.7847450859956
 30
0.0
 11
1667.19651127152
 21
-130.5713475859957
 31
0.0
  0
LINE
  5
C27F
330
1E
100
AcDbEntity
  8
0
 48
0.27
100
AcDbLine
 10
1666.023502521521
 20
-137.4112113359954
 30
0.0
 11
1666.546586271521
 21
-137.7138413359955
 31
0.0
  0
LINE
  5
C280
330
1E
100
AcDbEntity
  8
0
 48
0.27
100
AcDbLine
 10
1666.023502521521
 20
-131.0873750859955
 30
0.0
 11
1666.546586271521
 21
-130.7847450859956
 31
0.0
  0
LINE
  5
C281
330
1E
100
AcDbEntity
  8
0
 48
0.27
100
AcDbLine
 10
1672.74713127152
 20
-134.2492925859956
 30
0.0
 11
1670.746873771521
 21
-137.9992925859956
 31
0.0
  0
LINE
  5
C282
330
1E
100
AcDbEntity
  8
0
 48
0.27
100
AcDbLine
 10
1670.746873771521
 20
-137.9992925859956
 30
0.0
 11
1665.872153771521
 21
-137.9992925859956
 31
0.0
  0
LINE
  5
C283
330
1E
100
AcDbEntity
  8
0
 48
0.27
100
AcDbLine
 10
1670.746873771521
 20
-130.4992925859956
 30
0.0
 11
1672.74713127152
 21
-134.2492925859956
 31
0.0
  0
LINE
  5
C284
330
1E
100
AcDbEntity
  8
0
 48
0.27
100
AcDbLine
 10
1671.872926271521
 20
-134.2492925859956
 30
0.0
 11
1672.74713127152
 21
-134.2492925859956
 31
0.0
  0
LINE
  5
C285
330
1E
100
AcDbEntity
  8
0
 48
0.27
100
AcDbLine
 10
1665.872153771521
 20
-130.4992925859956
 30
0.0
 11
1665.56416252152
 21
-131.0767013359955
 31
0.0
  0
LINE
  5
C286
330
1E
100
AcDbEntity
  8
0
 48
0.27
100
AcDbLine
 10
1665.56416252152
 20
-137.4218838359954
 30
0.0
 11
1665.872153771521
 21
-137.9992925859956
 31
0.0
  0
LINE
  5
C287
330
1E
100
AcDbEntity
  8
0
 48
0.27
100
AcDbLine
 10
1665.872153771521
 20
-130.4992925859956
 30
0.0
 11
1670.746873771521
 21
-130.4992925859956
 31
0.0
  0
ARC
  5
C288
330
1E
100
AcDbEntity
  8
0
 48
0.27
100
AcDbCircle
 10
1670.281450021521
 20
-134.2492925859956
 30
0.0
 40
4.99999999999996
100
AcDbArc
 50
228.5903779972973
 51
270.0
  0
LWPOLYLINE
  5
C289
330
1E
100
AcDbEntity
  8
0
 48
0.27
100
AcDbPolyline
 90
       31
 70
     0
 43
0.0
 10
1665.805978771521
 20
-134.2492925859956
 10
1665.764956271521
 20
-133.9864738359956
 10
1665.709772521521
 20
-133.8546150859956
 10
1665.630981271521
 20
-133.7323913359956
 10
1665.531636271521
 20
-133.6272500859955
 10
1665.417272521521
 20
-133.5449088359955
 10
1665.294872521521
 20
-133.4883075859956
 10
1665.129077521521
 20
-133.4521313359956
 10
1664.975316271521
 20
-133.4554550859956
 10
1664.84166127152
 20
-133.4873375859956
 10
1664.696405021521
 20
-133.5570475859956
 10
1664.558192521521
 20
-133.6689088359956
 10
1664.447905021521
 20
-133.8120963359956
 10
1664.37711252152
 20
-133.9618950859954
 10
1664.342298771521
 20
-134.0914650859956
 10
1664.32777252152
 20
-134.2492925859956
 10
1664.368795021521
 20
-134.5121113359955
 10
1664.423980021521
 20
-134.6439713359955
 10
1664.502770021521
 20
-134.7661938359955
 10
1664.602115021521
 20
-134.8713350859956
 10
1664.716478771521
 20
-134.9536763359956
 10
1664.838878771521
 20
-135.0102775859956
 10
1665.004673771521
 20
-135.0464550859956
 10
1665.158435021521
 20
-135.0431300859955
 10
1665.292090021521
 20
-135.0112488359955
 10
1665.43734627152
 20
-134.9415388359956
 10
1665.575558771521
 20
-134.8296763359956
 10
1665.685846271521
 20
-134.6864900859956
 10
1665.756638771521
 20
-134.5366913359955
 10
1665.791453771521
 20
-134.4071200859954
 10
1665.805978771521
 20
-134.2492925859956
  0
ARC
  5
C28A
330
1E
100
AcDbEntity
  8
0
 48
0.27
100
AcDbCircle
 10
1670.281450021521
 20
-134.2492925859956
 30
0.0
 40
4.99999999999996
100
AcDbArc
 50
90.0
 51
131.4096219996015
  0
LINE
  5
C28B
330
1E
100
AcDbEntity
  8
0
 48
0.27
100
AcDbLine
 10
1676.36687502152
 20
-129.2492925859956
 30
0.0
 11
1670.281450021521
 21
-129.2492925859956
 31
0.0
  0
LINE
  5
C28C
330
1E
100
AcDbEntity
  8
0
 48
0.27
100
AcDbLine
 10
1670.281450021521
 20
-139.2492925859956
 30
0.0
 11
1676.36687502152
 21
-139.2492925859956
 31
0.0
  0
LINE
  5
C28D
330
1E
100
AcDbEntity
  8
中心線
 48
0.27
100
AcDbLine
 10
1661.29499252152
 20
-134.2492925859956
 30
0.0
 11
1677.365071132319
 21
-134.2493167498705
 31
0.0
  0
LINE
  5
C28F
330
1E
100
AcDbEntity
  8
0
100
AcDbLine
 10
1674.96687502152
 20
-139.2492925859956
 30
0.0
 11
1674.96687502152
 21
-129.2492925859956
 31
0.0
  0
LINE
  5
C290
330
1E
100
AcDbEntity
  8
虛線
 48
0.27
100
AcDbLine
 10
1909.716875021521
 20
-192.2493424341267
 30
0.0
 11
1910.216875021521
 21
-191.7493424341264
 31
0.0
  0
LINE
  5
C291
330
1E
100
AcDbEntity
  8
虛線
 48
0.27
100
AcDbLine
 10
1926.716875021521
 20
-192.2493424341267
 30
0.0
 11
1926.21687502152
 21
-191.7493424341264
 31
0.0
  0
LINE
  5
C292
330
1E
100
AcDbEntity
  8
虛線
 48
0.27
100
AcDbLine
 10
1910.216875021521
 20
-191.7493424341264
 30
0.0
 11
1926.21687502152
 21
-191.7493424341264
 31
0.0
  0
LINE
  5
C293
330
1E
100
AcDbEntity
  8
虛線
 48
0.27
100
AcDbLine
 10
1906.485934913845
 20
-148.2493424341269
 30
0.0
 11
1906.716875021521
 21
-148.6493424341265
 31
0.0
  0
LINE
  5
C294
330
1E
100
AcDbEntity
  8
虛線
 48
0.27
100
AcDbLine
 10
1929.716875021521
 20
-148.6493424341265
 30
0.0
 11
1929.947815129196
 21
-148.2493424341269
 31
0.0
  0
LINE
  5
C295
330
1E
100
AcDbEntity
  8
虛線
 48
0.27
100
AcDbLine
 10
1929.716875021521
 20
-148.6493424341265
 30
0.0
 11
1906.716875021521
 21
-148.6493424341265
 31
0.0
  0
LINE
  5
C296
330
1E
100
AcDbEntity
  8
虛線
 48
0.27
100
AcDbLine
 10
1926.21687502152
 20
-168.7493424341266
 30
0.0
 11
1926.716875021521
 21
-168.2493424341267
 31
0.0
  0
LINE
  5
C297
330
1E
100
AcDbEntity
  8
虛線
 48
0.27
100
AcDbLine
 10
1909.716875021521
 20
-168.2493424341267
 30
0.0
 11
1910.216875021521
 21
-168.7493424341266
 31
0.0
  0
LINE
  5
C298
330
1E
100
AcDbEntity
  8
虛線
 48
0.27
100
AcDbLine
 10
1926.21687502152
 20
-168.7493424341266
 30
0.0
 11
1910.216875021521
 21
-168.7493424341266
 31
0.0
  0
LINE
  5
C299
330
1E
100
AcDbEntity
  8
虛線
 48
0.27
100
AcDbLine
 10
1929.716875021521
 20
-168.2493424341267
 30
0.0
 11
1906.716875021521
 21
-168.2493424341267
 31
0.0
  0
LINE
  5
C29A
330
1E
100
AcDbEntity
  8
虛線
 48
0.27
100
AcDbLine
 10
1929.716875021521
 20
-168.2493424341267
 30
0.0
 11
1929.716875021521
 21
-148.6493424341265
 31
0.0
  0
LINE
  5
C29B
330
1E
100
AcDbEntity
  8
虛線
 48
0.27
100
AcDbLine
 10
1906.716875021521
 20
-168.2493424341267
 30
0.0
 11
1906.716875021521
 21
-148.6493424341265
 31
0.0
  0
LINE
  5
C29C
330
1E
100
AcDbEntity
  8
虛線
 48
0.27
100
AcDbLine
 10
1910.216875021521
 20
-191.7493424341264
 30
0.0
 11
1910.216875021521
 21
-168.7493424341266
 31
0.0
  0
LINE
  5
C29D
330
1E
100
AcDbEntity
  8
虛線
 48
0.27
100
AcDbLine
 10
1926.21687502152
 20
-191.7493424341264
 30
0.0
 11
1926.21687502152
 21
-168.7493424341266
 31
0.0
  0
POINT
  5
C29E
330
1E
100
AcDbEntity
  8
0
100
AcDbPoint
 10
1438.975908774777
 20
-134.2488502813435
 30
0.0
1001
pntflag
1000
endpoint
  0
LINE
  5
C29F
330
1E
100
AcDbEntity
  8
中心線
 48
0.27
100
AcDbLine
 10
1440.475908774777
 20
-134.2488502813435
 30
0.0
 11
1418.717260102832
 21
-134.2488502813435
 31
0.0
  0
LINE
  5
C2A0
330
1E
100
AcDbEntity
  8
0
 48
0.27
100
AcDbLine
 10
1434.634536949392
 20
-131.8565978814624
 30
0.0
 11
1434.697980270113
 21
-131.8147693778521
 31
0.0
  0
LINE
  5
C2A1
330
1E
100
AcDbEntity
  8
0
 48
0.27
100
AcDbLine
 10
1434.368883282903
 20
-136.6689566202512
 30
0.0
 11
1434.429325612497
 21
-136.67152341118
 31
0.0
  0
LINE
  5
C2A2
330
1E
100
AcDbEntity
  8
0
 48
0.27
100
AcDbLine
 10
1434.634536949392
 20
-136.641104351225
 30
0.0
 11
1434.697980270113
 21
-136.6829328548353
 31
0.0
  0
LINE
  5
C2A3
330
1E
100
AcDbEntity
  8
0
 48
0.27
100
AcDbLine
 10
1435.263253744388
 20
-134.2488502813435
 30
0.0
 11
1435.286723932058
 21
-133.6261738783566
 31
0.0
  0
LINE
  5
C2A4
330
1E
100
AcDbEntity
  8
0
 48
0.27
100
AcDbLine
 10
1437.261808525897
 20
-134.2488502813435
 30
0.0
 11
1437.278276401272
 21
-133.8119297088778
 31
0.0
  0
LINE
  5
C2A5
330
1E
100
AcDbEntity
  8
0
 48
0.27
100
AcDbLine
 10
1437.278276401272
 20
-134.6857708538093
 30
0.0
 11
1437.261808525897
 21
-134.2488502813435
 31
0.0
  0
LINE
  5
C2A6
330
1E
100
AcDbEntity
  8
0
 48
0.27
100
AcDbLine
 10
1435.286723932058
 20
-134.8715283543308
 30
0.0
 11
1435.263253744388
 21
-134.2488502813435
 31
0.0
  0
LINE
  5
C2A7
330
1E
100
AcDbEntity
  8
0
 48
0.27
100
AcDbLine
 10
1437.278276401272
 20
-133.8119297088778
 30
0.0
 11
1437.327048767167
 21
-133.3918009919664
 31
0.0
  0
LINE
  5
C2A8
330
1E
100
AcDbEntity
  8
0
 48
0.27
100
AcDbLine
 10
1435.286723932058
 20
-133.6261738783566
 30
0.0
 11
1435.356229354665
 21
-133.0274252431156
 31
0.0
  0
LINE
  5
C2A9
330
1E
100
AcDbEntity
  8
0
 48
0.27
100
AcDbLine
 10
1437.327048767167
 20
-135.1059012407211
 30
0.0
 11
1437.278276401272
 21
-134.6857708538093
 31
0.0
  0
LINE
  5
C2AA
330
1E
100
AcDbEntity
  8
0
 48
0.27
100
AcDbLine
 10
1435.356229354665
 20
-135.4702769895718
 30
0.0
 11
1435.286723932058
 21
-134.8715283543308
 31
0.0
  0
LINE
  5
C2AB
330
1E
100
AcDbEntity
  8
0
 48
0.27
100
AcDbLine
 10
1437.327048767167
 20
-133.3918009919664
 30
0.0
 11
1437.406248543019
 21
-133.0046063556799
 31
0.0
  0
LINE
  5
C2AC
330
1E
100
AcDbEntity
  8
0
 48
0.27
100
AcDbLine
 10
1435.356229354665
 20
-133.0274252431156
 30
0.0
 11
1435.469101351515
 21
-132.4756153133385
 31
0.0
  0
LINE
  5
C2AD
330
1E
100
AcDbEntity
  8
0
 48
0.27
100
AcDbLine
 10
1437.406248543019
 20
-135.4930942070073
 30
0.0
 11
1437.327048767167
 21
-135.1059012407211
 31
0.0
  0
LINE
  5
C2AE
330
1E
100
AcDbEntity
  8
0
 48
0.27
100
AcDbLine
 10
1435.469101351515
 20
-136.0220869194741
 30
0.0
 11
1435.356229354665
 21
-135.4702769895718
 31
0.0
  0
LINE
  5
C2AF
330
1E
100
AcDbEntity
  8
0
 48
0.27
100
AcDbLine
 10
1437.406248543019
 20
-133.0046063556799
 30
0.0
 11
1437.512832987818
 21
-132.6652288451289
 31
0.0
  0
LINE
  5
C2B0
330
1E
100
AcDbEntity
  8
0
 48
0.27
100
AcDbLine
 10
1435.469101351515
 20
-132.4756153133385
 30
0.0
 11
1435.621001261007
 21
-131.9919497555661
 31
0.0
  0
LINE
  5
C2B1
330
1E
100
AcDbEntity
  8
0
 48
0.27
100
AcDbLine
 10
1437.512832987818
 20
-135.8324733875586
 30
0.0
 11
1437.406248543019
 21
-135.4930942070073
 31
0.0
  0
LINE
  5
C2B2
330
1E
100
AcDbEntity
  8
0
 48
0.27
100
AcDbLine
 10
1435.621001261007
 20
-136.5057508071209
 30
0.0
 11
1435.469101351515
 21
-136.0220869194741
 31
0.0
  0
LINE
  5
C2B3
330
1E
100
AcDbEntity
  8
0
 48
0.27
100
AcDbLine
 10
1437.512832987818
 20
-132.6652288451289
 30
0.0
 11
1437.642707260132
 21
-132.3867078242408
 31
0.0
  0
LINE
  5
C2B4
330
1E
100
AcDbEntity
  8
0
 48
0.27
100
AcDbLine
 10
1435.621001261007
 20
-131.9919497555661
 30
0.0
 11
1435.806092431417
 21
-131.5950173461535
 31
0.0
  0
LINE
  5
C2B5
330
1E
100
AcDbEntity
  8
0
 48
0.27
100
AcDbLine
 10
1437.642707260132
 20
-136.1109944084467
 30
0.0
 11
1437.512832987818
 21
-135.8324733875586
 31
0.0
  0
LINE
  5
C2B6
330
1E
100
AcDbEntity
  8
0
 48
0.27
100
AcDbLine
 10
1437.642707260132
 20
-132.3867078242408
 30
0.0
 11
1437.790879728377
 21
-132.1797496668039
 31
0.0
  0
LINE
  5
C2B7
330
1E
100
AcDbEntity
  8
0
 48
0.27
100
AcDbLine
 10
1435.806092431417
 20
-136.9026848865339
 30
0.0
 11
1435.621001261007
 21
-136.5057508071209
 31
0.0
  0
LINE
  5
C2B8
330
1E
100
AcDbEntity
  8
0
 48
0.27
100
AcDbLine
 10
1433.883225414549
 20
-134.2488502813435
 30
0.0
 11
1433.901159550418
 21
-133.7730019962519
 31
0.0
  0
LINE
  5
C2B9
330
1E
100
AcDbEntity
  8
0
 48
0.27
100
AcDbLine
 10
1433.901159550418
 20
-134.7247002364356
 30
0.0
 11
1433.883225414549
 21
-134.2488502813435
 31
0.0
  0
LINE
  5
C2BA
330
1E
100
AcDbEntity
  8
0
 48
0.27
100
AcDbLine
 10
1433.901159550418
 20
-133.7730019962519
 30
0.0
 11
1433.954277257664
 21
-133.3154402170892
 31
0.0
  0
LINE
  5
C2BB
330
1E
100
AcDbEntity
  8
0
 48
0.27
100
AcDbLine
 10
1429.910633129501
 20
-134.2488502813435
 30
0.0
 11
1429.938208178481
 21
-133.5172614529183
 31
0.0
  0
LINE
  5
C2BC
330
1E
100
AcDbEntity
  8
0
 48
0.27
100
AcDbLine
 10
1429.938208178481
 20
-134.9804391098939
 30
0.0
 11
1429.910633129501
 21
-134.2488502813435
 31
0.0
  0
LINE
  5
C2BD
330
1E
100
AcDbEntity
  8
0
 48
0.27
100
AcDbLine
 10
1433.954277257664
 20
-135.1822620155983
 30
0.0
 11
1433.901159550418
 21
-134.7247002364356
 31
0.0
  0
LINE
  5
C2BE
330
1E
100
AcDbEntity
  8
0
 48
0.27
100
AcDbLine
 10
1433.954277257664
 20
-133.3154402170892
 30
0.0
 11
1434.040532785819
 21
-132.8937483795416
 31
0.0
  0
LINE
  5
C2BF
330
1E
100
AcDbEntity
  8
0
 48
0.27
100
AcDbLine
 10
1435.806092431417
 20
-131.5950173461535
 30
0.0
 11
1436.017260660182
 21
-131.3000685300221
 31
0.0
  0
LINE
  5
C2C0
330
1E
100
AcDbEntity
  8
0
 48
0.27
100
AcDbLine
 10
1437.790879728377
 20
-136.3179525658838
 30
0.0
 11
1437.642707260132
 21
-136.1109944084467
 31
0.0
  0
LINE
  5
C2C1
330
1E
100
AcDbEntity
  8
0
 48
0.27
100
AcDbLine
 10
1437.790879728377
 20
-132.1797496668039
 30
0.0
 11
1437.951657360852
 21
-132.0523035752703
 31
0.0
  0
LINE
  5
C2C2
330
1E
100
AcDbEntity
  8
0
 48
0.27
100
AcDbLine
 10
1429.938208178481
 20
-133.5172614529183
 30
0.0
 11
1430.019871205118
 21
-132.813787083563
 31
0.0
  0
LINE
  5
C2C3
330
1E
100
AcDbEntity
  8
0
 48
0.27
100
AcDbLine
 10
1430.019871205118
 20
-135.6839134791241
 30
0.0
 11
1429.938208178481
 21
-134.9804391098939
 31
0.0
  0
LINE
  5
C2C4
330
1E
100
AcDbEntity
  8
0
 48
0.27
100
AcDbLine
 10
1434.040532785819
 20
-135.6039538531458
 30
0.0
 11
1433.954277257664
 21
-135.1822620155983
 31
0.0
  0
LINE
  5
C2C5
330
1E
100
AcDbEntity
  8
0
 48
0.27
100
AcDbLine
 10
1436.017260660182
 20
-137.1976337026654
 30
0.0
 11
1435.806092431417
 21
-136.9026848865339
 31
0.0
  0
LINE
  5
C2C6
330
1E
100
AcDbEntity
  8
0
 48
0.27
100
AcDbLine
 10
1434.040532785819
 20
-132.8937483795416
 30
0.0
 11
1434.156614523705
 21
-132.5241321690657
 31
0.0
  0
LINE
  5
C2C7
330
1E
100
AcDbEntity
  8
0
 48
0.27
100
AcDbLine
 10
1430.019871205118
 20
-132.813787083563
 30
0.0
 11
1430.152484278265
 21
-132.1654628121678
 31
0.0
  0
LINE
  5
C2C8
330
1E
100
AcDbEntity
  8
0
 48
0.27
100
AcDbLine
 10
1430.152484278265
 20
-136.3322394205197
 30
0.0
 11
1430.019871205118
 21
-135.6839134791241
 31
0.0
  0
LINE
  5
C2C9
330
1E
100
AcDbEntity
  8
0
 48
0.27
100
AcDbLine
 10
1434.156614523705
 20
-135.9735700636217
 30
0.0
 11
1434.040532785819
 21
-135.6039538531458
 31
0.0
  0
LINE
  5
C2CA
330
1E
100
AcDbEntity
  8
0
 48
0.27
100
AcDbLine
 10
1437.951657360852
 20
-132.0523035752703
 30
0.0
 11
1438.118859485274
 21
-132.0092710012088
 31
0.0
  0
LINE
  5
C2CB
330
1E
100
AcDbEntity
  8
0
 48
0.27
100
AcDbLine
 10
1436.017260660182
 20
-131.3000685300221
 30
0.0
 11
1436.246391414947
 21
-131.1184392708151
 31
0.0
  0
LINE
  5
C2CC
330
1E
100
AcDbEntity
  8
0
 48
0.27
100
AcDbLine
 10
1437.790879728377
 20
-136.3179525658838
 30
0.0
 11
1437.951657360852
 21
-136.4453986574172
 31
0.0
  0
LINE
  5
C2CD
330
1E
100
AcDbEntity
  8
0
 48
0.27
100
AcDbLine
 10
1434.156614523705
 20
-132.5241321690657
 30
0.0
 11
1434.298060229701
 21
-132.2207966101587
 31
0.0
  0
LINE
  5
C2CE
330
1E
100
AcDbEntity
  8
0
 48
0.27
100
AcDbLine
 10
1436.017260660182
 20
-137.1976337026654
 30
0.0
 11
1436.246391414947
 21
-137.3792612918723
 31
0.0
  0
LINE
  5
C2CF
330
1E
100
AcDbEntity
  8
0
 48
0.27
100
AcDbLine
 10
1434.298060229701
 20
-136.2769056225288
 30
0.0
 11
1434.156614523705
 21
-135.9735700636217
 31
0.0
  0
LINE
  5
C2D0
330
1E
100
AcDbEntity
  8
0
 48
0.27
100
AcDbLine
 10
1430.152484278265
 20
-132.1654628121678
 30
0.0
 11
1430.330953896444
 21
-131.5972000368929
 31
0.0
  0
LINE
  5
C2D1
330
1E
100
AcDbEntity
  8
0
 48
0.27
100
AcDbLine
 10
1430.330953896444
 20
-136.9005021957946
 30
0.0
 11
1430.152484278265
 21
-136.3322394205197
 31
0.0
  0
LINE
  5
C2D2
330
1E
100
AcDbEntity
  8
0
 48
0.27
100
AcDbLine
 10
1434.298060229701
 20
-132.2207966101587
 30
0.0
 11
1434.4594357224
 21
-131.9953983067671
 31
0.0
  0
LINE
  5
C2D3
330
1E
100
AcDbEntity
  8
0
 48
0.27
100
AcDbLine
 10
1435.178835216915
 20
-131.5259628237463
 30
0.0
 11
1435.390414265874
 21
-131.358248008988
 31
0.0
  0
LINE
  5
C2D4
330
1E
100
AcDbEntity
  8
0
 48
0.27
100
AcDbLine
 10
1436.246391414947
 20
-131.1184392708151
 30
0.0
 11
1436.484680452617
 21
-131.0571118408234
 31
0.0
  0
LINE
  5
C2D5
330
1E
100
AcDbEntity
  8
0
 48
0.27
100
AcDbLine
 10
1438.118859485274
 20
-132.0092710012088
 30
0.0
 11
1438.286061609822
 21
-132.0523035752703
 31
0.0
  0
LINE
  5
C2D6
330
1E
100
AcDbEntity
  8
0
 48
0.27
100
AcDbLine
 10
1437.951657360852
 20
-136.4453986574172
 30
0.0
 11
1438.118859485274
 21
-136.4884312314786
 31
0.0
  0
LINE
  5
C2D7
330
1E
100
AcDbEntity
  8
0
 48
0.27
100
AcDbLine
 10
1434.4594357224
 20
-136.5023039259204
 30
0.0
 11
1434.298060229701
 21
-136.2769056225288
 31
0.0
  0
LINE
  5
C2D8
330
1E
100
AcDbEntity
  8
0
 48
0.27
100
AcDbLine
 10
1429.688628267051
 20
-134.2488502813435
 30
0.0
 11
1430.517162297166
 21
-130.4988506988436
 31
0.0
  0
LINE
  5
C2D9
330
1E
100
AcDbEntity
  8
0
 48
0.27
100
AcDbLine
 10
1430.517162297166
 20
-137.9988515338439
 30
0.0
 11
1429.688628267051
 21
-134.2488502813435
 31
0.0
  0
LINE
  5
C2DA
330
1E
100
AcDbEntity
  8
0
 48
0.27
100
AcDbLine
 10
1435.390414265874
 20
-131.358248008988
 30
0.0
 11
1435.797954518683
 21
-131.1526241820238
 31
0.0
  0
LINE
  5
C2DB
330
1E
100
AcDbEntity
  8
0
 48
0.27
100
AcDbLine
 10
1435.797954518683
 20
-131.1526241820238
 30
0.0
 11
1436.033640025543
 21
-131.0919647522687
 31
0.0
  0
LINE
  5
C2DC
330
1E
100
AcDbEntity
  8
0
 48
0.27
100
AcDbLine
 10
1436.246391414947
 20
-137.3792612918723
 30
0.0
 11
1436.484680452617
 21
-137.4405903918641
 31
0.0
  0
LINE
  5
C2DD
330
1E
100
AcDbEntity
  8
0
 48
0.27
100
AcDbLine
 10
1430.330953896444
 20
-131.5972000368929
 30
0.0
 11
1430.548418027386
 21
-131.1308390248857
 31
0.0
  0
LINE
  5
C2DE
330
1E
100
AcDbEntity
  8
0
 48
0.27
100
AcDbLine
 10
1430.548418027386
 20
-137.3668632078018
 30
0.0
 11
1430.330953896444
 21
-136.9005021957946
 31
0.0
  0
LINE
  5
C2DF
330
1E
100
AcDbEntity
  8
0
 48
0.27
100
AcDbLine
 10
1434.4594357224
 20
-131.9953983067671
 30
0.0
 11
1434.634536949392
 21
-131.8565978814624
 31
0.0
  0
LINE
  5
C2E0
330
1E
100
AcDbEntity
  8
0
 48
0.27
100
AcDbLine
 10
1434.697980270113
 20
-131.8147693778521
 30
0.0
 11
1435.390414265874
 21
-131.358248008988
 31
0.0
  0
LINE
  5
C2E1
330
1E
100
AcDbEntity
  8
0
 48
0.27
100
AcDbLine
 10
1435.797954518683
 20
-137.3450780506637
 30
0.0
 11
1436.033640025543
 21
-137.4057358105435
 31
0.0
  0
LINE
  5
C2E2
330
1E
100
AcDbEntity
  8
0
 48
0.27
100
AcDbLine
 10
1435.390414265874
 20
-137.1394542236994
 30
0.0
 11
1435.797954518683
 21
-137.3450780506637
 31
0.0
  0
LINE
  5
C2E3
330
1E
100
AcDbEntity
  8
0
 48
0.27
100
AcDbLine
 10
1434.4594357224
 20
-136.5023039259204
 30
0.0
 11
1434.634536949392
 21
-136.641104351225
 31
0.0
  0
LINE
  5
C2E4
330
1E
100
AcDbEntity
  8
0
 48
0.27
100
AcDbLine
 10
1436.033640025543
 20
-131.0919647522687
 30
0.0
 11
1436.484680452617
 21
-131.0571118408234
 31
0.0
  0
LINE
  5
C2E5
330
1E
100
AcDbEntity
  8
0
 48
0.27
100
AcDbLine
 10
1436.484680452617
 20
-131.0571118408234
 30
0.0
 11
1436.722967820285
 21
-131.1184392708151
 31
0.0
  0
LINE
  5
C2E6
330
1E
100
AcDbEntity
  8
0
 48
0.27
100
AcDbLine
 10
1438.286061609822
 20
-132.0523035752703
 30
0.0
 11
1438.446837572297
 21
-132.1797496668039
 31
0.0
  0
LINE
  5
C2E7
330
1E
100
AcDbEntity
  8
0
 48
0.27
100
AcDbLine
 10
1436.722967820285
 20
-131.1184392708151
 30
0.0
 11
1438.286061609822
 21
-132.0523035752703
 31
0.0
  0
LINE
  5
C2E8
330
1E
100
AcDbEntity
  8
0
 48
0.27
100
AcDbLine
 10
1438.118859485274
 20
-136.4884312314786
 30
0.0
 11
1438.286061609822
 21
-136.4453986574172
 31
0.0
  0
LINE
  5
C2E9
330
1E
100
AcDbEntity
  8
0
 48
0.27
100
AcDbLine
 10
1434.697980270113
 20
-136.6829328548353
 30
0.0
 11
1435.390414265874
 21
-137.1394542236994
 31
0.0
  0
LINE
  5
C2EA
330
1E
100
AcDbEntity
  8
0
 48
0.27
100
AcDbLine
 10
1436.033640025543
 20
-137.4057358105435
 30
0.0
 11
1436.484680452617
 21
-137.4405903918641
 31
0.0
  0
LINE
  5
C2EB
330
1E
100
AcDbEntity
  8
0
 48
0.27
100
AcDbLine
 10
1436.484680452617
 20
-137.4405903918641
 30
0.0
 11
1436.722967820285
 21
-137.3792612918723
 31
0.0
  0
LINE
  5
C2EC
330
1E
100
AcDbEntity
  8
0
 48
0.27
100
AcDbLine
 10
1430.548418027386
 20
-131.1308390248857
 30
0.0
 11
1430.796521658194
 21
-130.784302221889
 31
0.0
  0
LINE
  5
C2ED
330
1E
100
AcDbEntity
  8
0
 48
0.27
100
AcDbLine
 10
1430.796521658194
 20
-137.7134000107985
 30
0.0
 11
1430.548418027386
 21
-137.3668632078018
 31
0.0
  0
LINE
  5
C2EE
330
1E
100
AcDbEntity
  8
0
 48
0.27
100
AcDbLine
 10
1428.406643999209
 20
-137.9988515338439
 30
0.0
 11
1427.578109969094
 21
-134.2488502813435
 31
0.0
  0
LINE
  5
C2EF
330
1E
100
AcDbEntity
  8
0
 48
0.27
100
AcDbLine
 10
1427.578109969094
 20
-134.2488502813435
 30
0.0
 11
1429.688628267051
 21
-134.2488502813435
 31
0.0
  0
LINE
  5
C2F0
330
1E
100
AcDbEntity
  8
0
 48
0.27
100
AcDbLine
 10
1427.578109969094
 20
-134.2488502813435
 30
0.0
 11
1428.406643999209
 21
-130.4988506988436
 31
0.0
  0
LINE
  5
C2F1
330
1E
100
AcDbEntity
  8
0
 48
0.27
100
AcDbLine
 10
1438.595010040542
 20
-132.3867078242408
 30
0.0
 11
1438.446837572297
 21
-132.1797496668039
 31
0.0
  0
LINE
  5
C2F2
330
1E
100
AcDbEntity
  8
0
 48
0.27
100
AcDbLine
 10
1438.286061609822
 20
-136.4453986574172
 30
0.0
 11
1438.446837572297
 21
-136.3179525658838
 31
0.0
  0
LINE
  5
C2F3
330
1E
100
AcDbEntity
  8
0
 48
0.27
100
AcDbLine
 10
1436.722967820285
 20
-137.3792612918723
 30
0.0
 11
1438.286061609822
 21
-136.4453986574172
 31
0.0
  0
LINE
  5
C2F4
330
1E
100
AcDbEntity
  8
0
 48
0.27
100
AcDbLine
 10
1434.429325612497
 20
-131.8261771515071
 30
0.0
 11
1434.697980270113
 21
-131.8147693778521
 31
0.0
  0
LINE
  5
C2F5
330
1E
100
AcDbEntity
  8
0
 48
0.27
100
AcDbLine
 10
1434.429325612497
 20
-136.67152341118
 30
0.0
 11
1434.697980270113
 21
-136.6829328548353
 31
0.0
  0
LINE
  5
C2F6
330
1E
100
AcDbEntity
  8
0
 48
0.27
100
AcDbLine
 10
1430.796521658194
 20
-130.784302221889
 30
0.0
 11
1431.065729086027
 21
-130.5709062123769
 31
0.0
  0
LINE
  5
C2F7
330
1E
100
AcDbEntity
  8
0
 48
0.27
100
AcDbLine
 10
1430.796521658194
 20
-137.7134000107985
 30
0.0
 11
1431.065729086027
 21
-137.9267960203105
 31
0.0
  0
LINE
  5
C2F8
330
1E
100
AcDbEntity
  8
0
 48
0.27
100
AcDbLine
 10
1438.724884312855
 20
-132.6652288451289
 30
0.0
 11
1438.595010040542
 21
-132.3867078242408
 31
0.0
  0
LINE
  5
C2F9
330
1E
100
AcDbEntity
  8
0
 48
0.27
100
AcDbLine
 10
1438.446837572297
 20
-136.3179525658838
 30
0.0
 11
1438.595010040542
 21
-136.1109944084467
 31
0.0
  0
LINE
  5
C2FA
330
1E
100
AcDbEntity
  8
0
 48
0.27
100
AcDbLine
 10
1434.127922244288
 20
-131.7031749314658
 30
0.0
 11
1434.429325612497
 21
-131.8261771515071
 31
0.0
  0
LINE
  5
C2FB
330
1E
100
AcDbEntity
  8
0
 48
0.27
100
AcDbLine
 10
1434.127922244288
 20
-136.7945273012217
 30
0.0
 11
1434.429325612497
 21
-136.67152341118
 31
0.0
  0
LINE
  5
C2FC
330
1E
100
AcDbEntity
  8
0
 48
0.27
100
AcDbLine
 10
1438.831470427655
 20
-133.0046063556799
 30
0.0
 11
1438.724884312855
 21
-132.6652288451289
 31
0.0
  0
LINE
  5
C2FD
330
1E
100
AcDbEntity
  8
0
 48
0.27
100
AcDbLine
 10
1438.595010040542
 20
-136.1109944084467
 30
0.0
 11
1438.724884312855
 21
-135.8324733875586
 31
0.0
  0
LINE
  5
C2FE
330
1E
100
AcDbEntity
  8
0
 48
0.27
100
AcDbLine
 10
1431.065729086027
 20
-130.5709062123769
 30
0.0
 11
1431.345696327281
 21
-130.4988506988436
 31
0.0
  0
LINE
  5
C2FF
330
1E
100
AcDbEntity
  8
0
 48
0.27
100
AcDbLine
 10
1431.065729086027
 20
-137.9267960203105
 30
0.0
 11
1431.345696327281
 21
-137.9988515338439
 31
0.0
  0
LINE
  5
C300
330
1E
100
AcDbEntity
  8
0
 48
0.27
100
AcDbLine
 10
1438.910670203507
 20
-133.3918009919664
 30
0.0
 11
1438.831470427655
 21
-133.0046063556799
 31
0.0
  0
LINE
  5
C301
330
1E
100
AcDbEntity
  8
0
 48
0.27
100
AcDbLine
 10
1437.775691073465
 20
-136.2967368789657
 30
0.0
 11
1437.778064144237
 21
-136.2955762286469
 31
0.0
  0
LINE
  5
C302
330
1E
100
AcDbEntity
  8
0
 48
0.27
100
AcDbLine
 10
1438.724884312855
 20
-135.8324733875586
 30
0.0
 11
1438.831470427655
 21
-135.4930942070073
 31
0.0
  0
LINE
  5
C303
330
1E
100
AcDbEntity
  8
0
 48
0.27
100
AcDbLine
 10
1438.959440899401
 20
-133.8119297088778
 30
0.0
 11
1438.910670203507
 21
-133.3918009919664
 31
0.0
  0
LINE
  5
C304
330
1E
100
AcDbEntity
  8
0
 48
0.27
100
AcDbLine
 10
1438.831470427655
 20
-135.4930942070073
 30
0.0
 11
1438.910670203507
 21
-135.1059012407211
 31
0.0
  0
LINE
  5
C305
330
1E
100
AcDbEntity
  8
0
 48
0.27
100
AcDbLine
 10
1431.625663568536
 20
-130.5709062123769
 30
0.0
 11
1434.127922244288
 21
-131.7031749314658
 31
0.0
  0
LINE
  5
C306
330
1E
100
AcDbEntity
  8
0
 48
0.27
100
AcDbLine
 10
1431.345696327281
 20
-130.4988506988436
 30
0.0
 11
1431.625663568536
 21
-130.5709062123769
 31
0.0
  0
LINE
  5
C307
330
1E
100
AcDbEntity
  8
0
 48
0.27
100
AcDbLine
 10
1431.345696327281
 20
-137.9988515338439
 30
0.0
 11
1431.625663568536
 21
-137.9267960203105
 31
0.0
  0
LINE
  5
C308
330
1E
100
AcDbEntity
  8
0
 48
0.27
100
AcDbLine
 10
1438.975908774777
 20
-134.2488502813435
 30
0.0
 11
1438.959440899401
 21
-133.8119297088778
 31
0.0
  0
LINE
  5
C309
330
1E
100
AcDbEntity
  8
0
 48
0.27
100
AcDbLine
 10
1438.910670203507
 20
-135.1059012407211
 30
0.0
 11
1438.959440899401
 21
-134.6857708538093
 31
0.0
  0
LINE
  5
C30A
330
1E
100
AcDbEntity
  8
0
 48
0.27
100
AcDbLine
 10
1438.959440899401
 20
-134.6857708538093
 30
0.0
 11
1438.975908774777
 21
-134.2488502813435
 31
0.0
  0
LINE
  5
C30B
330
1E
100
AcDbEntity
  8
0
 48
0.27
100
AcDbLine
 10
1431.625663568536
 20
-137.9267960203105
 30
0.0
 11
1434.127922244288
 21
-136.7945273012217
 31
0.0
  0
LINE
  5
C30C
330
1E
100
AcDbEntity
  8
0
 48
0.27
100
AcDbLine
 10
1428.406643999209
 20
-130.4988506988436
 30
0.0
 11
1432.174230357397
 21
-130.4988506988436
 31
0.0
  0
LINE
  5
C30D
330
1E
100
AcDbEntity
  8
0
 48
0.27
100
AcDbLine
 10
1432.174230357397
 20
-137.9988515338439
 30
0.0
 11
1432.252853983026
 21
-137.6429927877905
 31
0.0
  0
LINE
  5
C30E
330
1E
100
AcDbEntity
  8
0
 48
0.27
100
AcDbLine
 10
1432.252853983026
 20
-130.854709444897
 30
0.0
 11
1432.174230357397
 21
-130.4988506988436
 31
0.0
  0
LINE
  5
C30F
330
1E
100
AcDbEntity
  8
0
 48
0.27
100
AcDbLine
 10
1428.406643999209
 20
-137.9988515338439
 30
0.0
 11
1432.174230357397
 21
-137.9988515338439
 31
0.0
  0
LINE
  5
C310
330
1E
100
AcDbEntity
  8
0
 48
0.27
100
AcDbLine
 10
1430.388201515129
 20
-137.9988515338439
 30
0.0
 11
1429.666514119858
 21
-139.248851951344
 31
0.0
  0
LINE
  5
C311
330
1E
100
AcDbEntity
  8
0
 48
0.27
100
AcDbLine
 10
1429.666514119858
 20
-139.248851951344
 30
0.0
 11
1423.893009947683
 21
-139.248851951344
 31
0.0
  0
LINE
  5
C312
330
1E
100
AcDbEntity
  8
0
 48
0.27
100
AcDbLine
 10
1421.006258696595
 20
-134.2488502813435
 30
0.0
 11
1423.893009947683
 21
-139.248851951344
 31
0.0
  0
LINE
  5
C313
330
1E
100
AcDbEntity
  8
0
 48
0.27
100
AcDbLine
 10
1423.893009947683
 20
-129.2488502813435
 30
0.0
 11
1421.006258696595
 21
-134.2488502813435
 31
0.0
  0
LINE
  5
C314
330
1E
100
AcDbEntity
  8
0
 48
0.27
100
AcDbLine
 10
1423.893009947683
 20
-129.2488502813435
 30
0.0
 11
1429.666512449857
 21
-129.2488502813435
 31
0.0
  0
LINE
  5
C315
330
1E
100
AcDbEntity
  8
0
 48
0.27
100
AcDbLine
 10
1430.388201515129
 20
-130.4988506988436
 30
0.0
 11
1429.666512449857
 21
-129.2488502813435
 31
0.0
  0
ARC
  5
C316
330
1E
100
AcDbEntity
  8
0
 48
0.27
100
AcDbCircle
 10
1426.77976119877
 20
-134.2488502813435
 30
0.0
 40
5.0
100
AcDbArc
 50
48.59037799890332
 51
311.4096220031988
  0
LWPOLYLINE
  5
C317
330
1E
100
AcDbEntity
  8
0
 48
0.27
100
AcDbPolyline
 90
       17
 70
     0
 43
0.0
 10
1437.96937272656
 20
-134.2488502813436
 10
1438.011308110313
 20
-134.5201468797751
 10
1438.052421853679
 20
-134.5987771854064
 10
1438.098134778563
 20
-134.6357042374482
 10
1438.140606232406
 20
-134.635320137384
 10
1438.186222297274
 20
-134.5975647650789
 10
1438.225402180067
 20
-134.522852280727
 10
1438.262135512077
 20
-134.3602610276992
 10
1438.268344574114
 20
-134.2488502813436
 10
1438.226410860361
 20
-133.9775553529123
 10
1438.185295446994
 20
-133.898925047281
 10
1438.13958252211
 20
-133.8619979952393
 10
1438.097112738268
 20
-133.8623820954284
 10
1438.051495003399
 20
-133.9001374677336
 10
1438.012316790607
 20
-133.9748499520855
 10
1437.975581788597
 20
-134.1374412049883
 10
1437.96937272656
 20
-134.2488502813436
  0
LINE
  5
C319
330
1E
100
AcDbEntity
  8
中心線
 48
0.27
100
AcDbLine
 10
1426.778107729885
 20
-107.0826045513724
 30
0.0
 11
1426.778107729885
 21
-194.1006720079608
 31
0.0
  0
LINE
  5
C31A
330
1E
100
AcDbEntity
  8
中心線
 48
0.27
100
AcDbLine
 10
1464.280221907553
 20
-110.2492999901269
 30
0.0
 11
1464.280221907553
 21
-139.783323990127
 31
0.0
  0
LINE
  5
C31C
330
1E
100
AcDbEntity
  8
虛線
 48
0.27
100
AcDbLine
 10
1458.280221907554
 20
-112.974299990128
 30
0.0
 11
1458.280221907553
 21
-130.2492999901269
 31
0.0
  0
LINE
  5
C31D
330
1E
100
AcDbEntity
  8
虛線
 48
0.27
100
AcDbLine
 10
1459.155221907553
 20
-113.849299990127
 30
0.0
 11
1459.155221907553
 21
-135.4993029901268
 31
0.0
  0
LINE
  5
C31E
330
1E
100
AcDbEntity
  8
虛線
 48
0.27
100
AcDbLine
 10
1469.405221907553
 20
-135.4993029901268
 30
0.0
 11
1459.155221907553
 21
-135.4993029901268
 31
0.0
  0
LINE
  5
C31F
330
1E
100
AcDbEntity
  8
虛線
 48
0.27
100
AcDbLine
 10
1459.155221907553
 20
-135.499302990127
 30
0.0
 11
1464.280221907553
 21
-138.5787136626431
 31
0.0
  0
LINE
  5
C320
330
1E
100
AcDbEntity
  8
虛線
 48
0.27
100
AcDbLine
 10
1469.405221907553
 20
-135.4993029901268
 30
0.0
 11
1464.280221907553
 21
-138.5787136626431
 31
0.0
  0
LINE
  5
C321
330
1E
100
AcDbEntity
  8
虛線
 48
0.27
100
AcDbLine
 10
1469.405221907553
 20
-113.849299990127
 30
0.0
 11
1469.405221907553
 21
-135.4993029901268
 31
0.0
  0
LINE
  5
C322
330
1E
100
AcDbEntity
  8
虛線
 48
0.27
100
AcDbLine
 10
1470.280221907553
 20
-130.2492999901269
 30
0.0
 11
1458.280221907553
 21
-130.2492999901269
 31
0.0
  0
LINE
  5
C323
330
1E
100
AcDbEntity
  8
虛線
 48
0.27
100
AcDbLine
 10
1470.280221907554
 20
-112.9742999901262
 30
0.0
 11
1470.280221907553
 21
-130.2492999901269
 31
0.0
  0
LINE
  5
C32B
330
1E
100
AcDbEntity
  8
中心線
 48
0.27
100
AcDbLine
 10
1389.280221907553
 20
-110.2492999901267
 30
0.0
 11
1389.280221907553
 21
-139.7833239901267
 31
0.0
  0
LINE
  5
CEEA
330
1E
100
AcDbEntity
  8
0
  6
Continuous
 62
     7
100
AcDbLine
 10
1399.432336085221
 20
-179.8616831469004
 30
0.0
 11
1399.432336085221
 21
-181.6493424341265
 31
0.0
  0
LINE
  5
CEEF
330
1E
100
AcDbEntity
  8
0
  6
Continuous
 62
     7
100
AcDbLine
 10
1453.278107729885
 20
-190.2493424341264
 30
0.0
 11
1451.278107729885
 21
-192.2493424341264
 31
0.0
  0
LINE
  5
CEF0
330
1E
100
AcDbEntity
  8
0
  6
Continuous
 62
     7
100
AcDbLine
 10
1438.278121729885
 20
-191.2493424341264
 30
0.0
 11
1437.278107729885
 21
-192.2493564341264
 31
0.0
  0
LINE
  5
CEF1
330
1E
100
AcDbEntity
  8
0
  6
Continuous
 62
     7
100
AcDbLine
 10
1456.528107729885
 20
-154.4781485742142
 30
0.0
 11
1456.528107729885
 21
-147.9031173565267
 31
0.0
  0
LINE
  5
CEF2
330
1E
100
AcDbEntity
  8
0
  6
Continuous
 62
     7
100
AcDbLine
 10
1456.528107729885
 20
-178.8717989529294
 30
0.0
 11
1456.528107729885
 21
-181.6493424341265
 31
0.0
  0
LINE
  5
CEF3
330
1E
100
AcDbEntity
  8
0
  6
Continuous
 62
     7
100
AcDbLine
 10
1456.528107729885
 20
-147.9031173565267
 30
0.0
 11
1453.574301807485
 21
-144.9493114341264
 31
0.0
  0
LINE
  5
CEF4
330
1E
100
AcDbEntity
  8
0
  6
Continuous
 62
     7
100
AcDbLine
 10
1449.028107729884
 20
-161.9781485779265
 30
0.0
 11
1456.528107729885
 21
-154.4781485742142
 31
0.0
  0
LINE
  5
CEF5
330
1E
100
AcDbEntity
  8
0
  6
Continuous
 62
     7
100
AcDbLine
 10
1454.128107729885
 20
-153.4840360247437
 30
0.0
 11
1454.128107729885
 21
-148.8972299064023
 31
0.0
  0
LINE
  5
CEF6
330
1E
100
AcDbEntity
  8
0
  6
Continuous
 62
     7
100
AcDbLine
 10
1454.128107729884
 20
-179.8659115025086
 30
0.0
 11
1454.128107729885
 21
-181.6493424341265
 31
0.0
  0
LINE
  5
CEF7
330
1E
100
AcDbEntity
  8
0
  6
Continuous
 62
     7
100
AcDbLine
 10
1453.278107729885
 20
-180.2179930300516
 30
0.0
 11
1453.278107729885
 21
-190.2493424341264
 31
0.0
  0
LINE
  5
CEF8
330
1E
100
AcDbEntity
  8
0
  6
Continuous
 62
     7
100
AcDbLine
 10
1453.278107729885
 20
-149.2493114343691
 30
0.0
 11
1453.278107729885
 21
-153.1319544968806
 31
0.0
  0
LINE
  5
CEF9
330
1E
100
AcDbEntity
  8
0
  6
Continuous
 62
     7
100
AcDbLine
 10
1449.028107729884
 20
-171.3717989495265
 30
0.0
 11
1449.028107729884
 21
-161.9781485779265
 31
0.0
  0
LINE
  5
CEFA
330
1E
100
AcDbEntity
  8
0
  6
Continuous
 62
     7
100
AcDbLine
 10
1452.580189257885
 20
-147.3493114341265
 30
0.0
 11
1454.128107729885
 21
-148.8972299064023
 31
0.0
  0
LINE
  5
CEFB
330
1E
100
AcDbEntity
  8
0
  6
Continuous
 62
     7
100
AcDbLine
 10
1452.278107729885
 20
-148.2493114341264
 30
0.0
 11
1453.278107729885
 21
-149.2493114343691
 31
0.0
  0
LINE
  5
CEFC
330
1E
100
AcDbEntity
  8
0
  6
Continuous
 62
     7
100
AcDbLine
 10
1454.128107729885
 20
-153.4840360247437
 30
0.0
 11
1446.628107729885
 21
-160.9840360285266
 31
0.0
  0
LINE
  5
CEFD
330
1E
100
AcDbEntity
  8
0
  6
Continuous
 62
     7
100
AcDbLine
 10
1453.278107729885
 20
-153.1319544968806
 30
0.0
 11
1445.778107729885
 21
-160.6319545006136
 31
0.0
  0
LINE
  5
CEFE
330
1E
100
AcDbEntity
  8
0
  6
Continuous
 62
     7
100
AcDbLine
 10
1446.628107729885
 20
-172.3659114987265
 30
0.0
 11
1446.628107729885
 21
-160.9840360285266
 31
0.0
  0
LINE
  5
CEFF
330
1E
100
AcDbEntity
  8
0
  6
Continuous
 62
     7
100
AcDbLine
 10
1445.778107729885
 20
-160.6319545006136
 30
0.0
 11
1445.778107729885
 21
-172.7179930268517
 31
0.0
  0
LINE
  5
CF00
330
1E
100
AcDbEntity
  8
0
  6
Continuous
 62
     7
100
AcDbLine
 10
1410.278168729885
 20
-191.2493424341264
 30
0.0
 11
1409.278168729884
 21
-192.2493424341264
 31
0.0
  0
LINE
  5
CF01
330
1E
100
AcDbEntity
  8
0
  6
Continuous
 62
     7
100
AcDbLine
 10
1453.574301807485
 20
-144.9493114341264
 30
0.0
 11
1399.981913652085
 21
-144.9493114341264
 31
0.0
  0
LINE
  5
CF02
330
1E
100
AcDbEntity
  8
0
  6
Continuous
 62
     7
100
AcDbLine
 10
1456.528107729885
 20
-178.8717989529294
 30
0.0
 11
1449.028107729884
 21
-171.3717989495265
 31
0.0
  0
LINE
  5
CF03
330
1E
100
AcDbEntity
  8
0
  6
Continuous
 62
     7
100
AcDbLine
 10
1452.580189257885
 20
-147.3493114341265
 30
0.0
 11
1400.976026201885
 21
-147.3493114341265
 31
0.0
  0
LINE
  5
CF04
330
1E
100
AcDbEntity
  8
0
  6
Continuous
 62
     7
100
AcDbLine
 10
1401.278107729885
 20
-148.2493114341264
 30
0.0
 11
1452.278107729885
 21
-148.2493114341264
 31
0.0
  0
LINE
  5
CF05
330
1E
100
AcDbEntity
  8
0
  6
Continuous
 62
     7
100
AcDbLine
 10
1400.278107729885
 20
-180.2179930301116
 30
0.0
 11
1407.778107729885
 21
-172.7179930266451
 31
0.0
  0
LINE
  5
CF06
330
1E
100
AcDbEntity
  8
0
  6
Continuous
 62
     7
100
AcDbLine
 10
1446.628107729885
 20
-172.3659114987265
 30
0.0
 11
1454.128107729884
 21
-179.8659115025086
 31
0.0
  0
LINE
  5
CF07
330
1E
100
AcDbEntity
  8
0
  6
Continuous
 62
     7
100
AcDbLine
 10
1445.778107729885
 20
-172.7179930268517
 30
0.0
 11
1453.278107729885
 21
-180.2179930300516
 31
0.0
  0
LINE
  5
CF08
330
1E
100
AcDbEntity
  8
0
  6
Continuous
 62
     7
100
AcDbLine
 10
1399.432336085221
 20
-179.8616831469004
 30
0.0
 11
1406.928107729885
 21
-172.3659114987265
 31
0.0
  0
LINE
  5
CF09
330
1E
100
AcDbEntity
  8
0
  6
Continuous
 62
     7
100
AcDbLine
 10
1404.528107729885
 20
-171.3717989495265
 30
0.0
 11
1397.028107729885
 21
-178.8717989529294
 31
0.0
  0
LINE
  5
CF0A
330
1E
100
AcDbEntity
  8
0
  6
Continuous
 62
     7
100
AcDbLine
 10
1444.278046729884
 20
-192.2493424341264
 30
0.0
 11
1443.278046729884
 21
-191.2493424341264
 31
0.0
  0
LINE
  5
CF0B
330
1E
100
AcDbEntity
  8
0
  6
Continuous
 62
     7
100
AcDbLine
 10
1407.778107729885
 20
-160.6319545006075
 30
0.0
 11
1400.278107729885
 21
-153.1319544971412
 31
0.0
  0
LINE
  5
CF0C
330
1E
100
AcDbEntity
  8
0
  6
Continuous
 62
     7
100
AcDbLine
 10
1406.928107729885
 20
-160.9840360285266
 30
0.0
 11
1399.428107729885
 21
-153.4840360250142
 31
0.0
  0
LINE
  5
CF0D
330
1E
100
AcDbEntity
  8
0
  6
Continuous
 62
     7
100
AcDbLine
 10
1407.778107729885
 20
-172.7179930266451
 30
0.0
 11
1407.778107729885
 21
-160.6319545006075
 31
0.0
  0
LINE
  5
CF0E
330
1E
100
AcDbEntity
  8
0
  6
Continuous
 62
     7
100
AcDbLine
 10
1406.928107729885
 20
-160.9840360285266
 30
0.0
 11
1406.928107729885
 21
-172.3659114987265
 31
0.0
  0
LINE
  5
CF0F
330
1E
100
AcDbEntity
  8
0
  6
Continuous
 62
     7
100
AcDbLine
 10
1397.028107729885
 20
-154.4781485742146
 30
0.0
 11
1404.528107729885
 21
-161.9781485779265
 31
0.0
  0
LINE
  5
CF10
330
1E
100
AcDbEntity
  8
0
  6
Continuous
 62
     7
100
AcDbLine
 10
1400.278107729885
 20
-149.2493114341259
 30
0.0
 11
1401.278107729885
 21
-148.2493114341264
 31
0.0
  0
LINE
  5
CF11
330
1E
100
AcDbEntity
  8
0
  6
Continuous
 62
     7
100
AcDbLine
 10
1399.428107729885
 20
-148.8972299061265
 30
0.0
 11
1400.976026201885
 21
-147.3493114341265
 31
0.0
  0
LINE
  5
CF12
330
1E
100
AcDbEntity
  8
0
  6
Continuous
 62
     7
100
AcDbLine
 10
1399.981913652085
 20
-144.9493114341264
 30
0.0
 11
1397.028107729885
 21
-147.90311735665
 31
0.0
  0
LINE
  5
CF13
330
1E
100
AcDbEntity
  8
0
  6
Continuous
 62
     7
100
AcDbLine
 10
1404.528107729885
 20
-161.9781485779265
 30
0.0
 11
1404.528107729885
 21
-171.3717989495265
 31
0.0
  0
LINE
  5
CF14
330
1E
100
AcDbEntity
  8
0
  6
Continuous
 62
     7
100
AcDbLine
 10
1454.128107729885
 20
-181.6493424341265
 30
0.0
 11
1456.528107729885
 21
-181.6493424341265
 31
0.0
  0
LINE
  5
CF15
330
1E
100
AcDbEntity
  8
0
  6
Continuous
 62
     7
100
AcDbLine
 10
1397.028107729885
 20
-181.6493424341265
 30
0.0
 11
1399.432336085221
 21
-181.6493424341265
 31
0.0
  0
LINE
  5
CF16
330
1E
100
AcDbEntity
  8
0
  6
Continuous
 62
     7
100
AcDbLine
 10
1400.278107729885
 20
-153.1319544971412
 30
0.0
 11
1400.278107729885
 21
-149.2493114341259
 31
0.0
  0
LINE
  5
CF17
330
1E
100
AcDbEntity
  8
0
  6
Continuous
 62
     7
100
AcDbLine
 10
1400.278107729885
 20
-190.2493424341264
 30
0.0
 11
1400.278107729885
 21
-180.2179930301116
 31
0.0
  0
LINE
  5
CF18
330
1E
100
AcDbEntity
  8
0
  6
Continuous
 62
     7
100
AcDbLine
 10
1399.428107729885
 20
-148.8972299061265
 30
0.0
 11
1399.428107729885
 21
-153.4840360250142
 31
0.0
  0
LINE
  5
CF19
330
1E
100
AcDbEntity
  8
0
  6
Continuous
 62
     7
100
AcDbLine
 10
1397.028107729885
 20
-178.8717989529294
 30
0.0
 11
1397.028107729885
 21
-181.6493424341265
 31
0.0
  0
LINE
  5
CF1A
330
1E
100
AcDbEntity
  8
0
  6
Continuous
 62
     7
100
AcDbLine
 10
1397.028107729885
 20
-147.90311735665
 30
0.0
 11
1397.028107729885
 21
-154.4781485742146
 31
0.0
  0
LINE
  5
CF1B
330
1E
100
AcDbEntity
  8
0
  6
Continuous
 62
     7
100
AcDbLine
 10
1416.278107729885
 20
-192.2493564341264
 30
0.0
 11
1415.278093729885
 21
-191.2493424341264
 31
0.0
  0
LINE
  5
CF1C
330
1E
100
AcDbEntity
  8
0
  6
Continuous
 62
     7
100
AcDbLine
 10
1415.278093729885
 20
-191.2493424341264
 30
0.0
 11
1410.278168729885
 21
-191.2493424341264
 31
0.0
  0
LINE
  5
CF1D
330
1E
100
AcDbEntity
  8
0
  6
Continuous
 62
     7
100
AcDbLine
 10
1443.278046729884
 20
-191.2493424341264
 30
0.0
 11
1438.278121729885
 21
-191.2493424341264
 31
0.0
  0
LINE
  5
CF1E
330
1E
100
AcDbEntity
  8
0
  6
Continuous
 62
     7
100
AcDbLine
 10
1409.278168729884
 20
-192.2493424341264
 30
0.0
 11
1402.278107729885
 21
-192.2493424341264
 31
0.0
  0
LINE
  5
CF1F
330
1E
100
AcDbEntity
  8
0
  6
Continuous
 62
     7
100
AcDbLine
 10
1451.278107729885
 20
-192.2493424341264
 30
0.0
 11
1444.278046729884
 21
-192.2493424341264
 31
0.0
  0
LINE
  5
CF20
330
1E
100
AcDbEntity
  8
0
  6
Continuous
 62
     7
100
AcDbLine
 10
1437.278107729885
 20
-192.2493564341264
 30
0.0
 11
1416.278107729885
 21
-192.2493564341264
 31
0.0
  0
LINE
  5
CF21
330
1E
100
AcDbEntity
  8
0
  6
Continuous
 62
     7
100
AcDbLine
 10
1402.278107729885
 20
-192.2493424341264
 30
0.0
 11
1400.278107729885
 21
-190.2493424341264
 31
0.0
  0
LINE
  5
CF22
330
1E
100
AcDbEntity
  8
虛線
 48
0.27
100
AcDbLine
 10
1415.280221907553
 20
-148.6493564341265
 30
0.0
 11
1415.069117694087
 21
-148.2837132107117
 31
0.0
  0
LINE
  5
CF23
330
1E
100
AcDbEntity
  8
虛線
 48
0.27
100
AcDbLine
 10
1435.280221907553
 20
-192.2493564341266
 30
0.0
 11
1434.780221907552
 21
-191.7493564341266
 31
0.0
  0
LINE
  5
CF24
330
1E
100
AcDbEntity
  8
虛線
 48
0.27
100
AcDbLine
 10
1418.280221907552
 20
-192.2493564341266
 30
0.0
 11
1418.780221907552
 21
-191.7493564341264
 31
0.0
  0
LINE
  5
CF25
330
1E
100
AcDbEntity
  8
虛線
 48
0.27
100
AcDbLine
 10
1434.780221907552
 20
-191.7493564341266
 30
0.0
 11
1418.780221907552
 21
-191.7493564341264
 31
0.0
  0
LINE
  5
CF26
330
1E
100
AcDbEntity
  8
虛線
 48
0.27
100
AcDbLine
 10
1418.780221907552
 20
-191.7493564341264
 30
0.0
 11
1418.780221907552
 21
-168.7493564341266
 31
0.0
  0
LINE
  5
CF27
330
1E
100
AcDbEntity
  8
虛線
 48
0.27
100
AcDbLine
 10
1434.780221907552
 20
-191.7493564341266
 30
0.0
 11
1434.780221907552
 21
-168.7493564341266
 31
0.0
  0
LINE
  5
CF28
330
1E
100
AcDbEntity
  8
虛線
 48
0.27
100
AcDbLine
 10
1415.280221907553
 20
-168.2493564341266
 30
0.0
 11
1415.280221907553
 21
-148.6493564341265
 31
0.0
  0
LINE
  5
CF29
330
1E
100
AcDbEntity
  8
虛線
 48
0.27
100
AcDbLine
 10
1418.780221907552
 20
-168.7493564341266
 30
0.0
 11
1434.780221907552
 21
-168.7493564341266
 31
0.0
  0
LINE
  5
CF2A
330
1E
100
AcDbEntity
  8
虛線
 48
0.27
100
AcDbLine
 10
1418.780221907552
 20
-168.7493564341266
 30
0.0
 11
1418.280221907552
 21
-168.2493564341266
 31
0.0
  0
LINE
  5
CF2B
330
1E
100
AcDbEntity
  8
虛線
 48
0.27
100
AcDbLine
 10
1435.280221907553
 20
-168.2493564341266
 30
0.0
 11
1434.780221907552
 21
-168.7493564341266
 31
0.0
  0
LINE
  5
CF2C
330
1E
100
AcDbEntity
  8
0
  6
Continuous
 62
     7
100
AcDbLine
 10
1437.280221907553
 20
-192.2493564341266
 30
0.0
 11
1416.280221907553
 21
-192.2493564341266
 31
0.0
  0
LINE
  5
CF2D
330
1E
100
AcDbEntity
  8
虛線
 48
0.27
100
AcDbLine
 10
1415.280221907553
 20
-168.2493564341266
 30
0.0
 11
1438.280221907553
 21
-168.2493564341266
 31
0.0
  0
LINE
  5
CF2E
330
1E
100
AcDbEntity
  8
虛線
 48
0.27
100
AcDbLine
 10
1415.280221907553
 20
-148.6493564341265
 30
0.0
 11
1438.280221907553
 21
-148.6493564341267
 31
0.0
  0
LINE
  5
CF2F
330
1E
100
AcDbEntity
  8
虛線
 48
0.27
100
AcDbLine
 10
1438.491326121019
 20
-148.2837132107117
 30
0.0
 11
1438.280221907553
 21
-148.6493564341267
 31
0.0
  0
LINE
  5
CF30
330
1E
100
AcDbEntity
  8
虛線
 48
0.27
100
AcDbLine
 10
1438.280221907553
 20
-168.2493564341266
 30
0.0
 11
1438.280221907553
 21
-148.6493564341267
 31
0.0
  0
LINE
  5
CF31
330
1E
100
AcDbEntity
  8
指線
 48
0.27
100
AcDbLine
 10
1387.479197781073
 20
-149.048501255939
 30
0.0
 11
1384.360580059267
 21
-149.048907701391
 31
0.0
  0
LINE
  5
CF32
330
1E
100
AcDbEntity
  8
指線
 48
0.27
100
AcDbLine
 10
1389.077264872133
 20
-149.0482539102333
 30
0.0
 11
1392.189477955393
 21
-149.0476959593368
 31
0.0
  0
LINE
  5
CF33
330
1E
100
AcDbEntity
  8
指線
 48
0.27
100
AcDbLine
 10
1389.077017678696
 20
-147.4501836123133
 30
0.0
 11
1392.189230761957
 21
-147.449625661417
 31
0.0
  0
ARC
  5
CF34
330
1E
100
AcDbEntity
  8
指線
 48
0.27
100
AcDbCircle
 10
1388.278107729885
 20
-148.2493424341264
 30
0.0
 40
2.397105012956624
100
AcDbArc
 50
19.48100010832958
 51
70.53767875679525
  0
LINE
  5
CF35
330
1E
100
AcDbEntity
  8
指線
 48
0.27
100
AcDbLine
 10
1389.076791691144
 20
-145.9892060724949
 30
0.0
 11
1389.077017678696
 21
-147.4501836123133
 31
0.0
  0
ARC
  5
CF36
330
1E
100
AcDbEntity
  8
指線
 48
0.27
100
AcDbCircle
 10
1388.278107729884
 20
-148.2493424341264
 30
0.0
 40
2.397105012956624
100
AcDbArc
 50
289.4623212432053
 51
340.5208129039548
  0
ARC
  5
CF37
330
1E
100
AcDbEntity
  8
指線
 48
0.27
100
AcDbCircle
 10
1388.278107729885
 20
-148.2493424341264
 30
0.0
 40
2.397105012956624
100
AcDbArc
 50
199.4791870960452
 51
250.5376787567947
  0
LINE
  5
CF38
330
1E
100
AcDbEntity
  8
指線
 48
0.27
100
AcDbLine
 10
1387.479197781073
 20
-149.048501255939
 30
0.0
 11
1387.479423768625
 21
-150.509478795758
 31
0.0
  0
LINE
  5
CF39
330
1E
100
AcDbEntity
  8
指線
 48
0.27
100
AcDbLine
 10
1389.077264872133
 20
-149.0482539102333
 30
0.0
 11
1389.077490860004
 21
-150.5092314500593
 31
0.0
  0
LINE
  5
CF3A
330
1E
100
AcDbEntity
  8
指線
 48
0.27
100
AcDbLine
 10
1387.478950587637
 20
-147.4504309580195
 30
0.0
 11
1384.360332865831
 21
-147.450837403471
 31
0.0
  0
ARC
  5
CF3B
330
1E
100
AcDbEntity
  8
指線
 48
0.27
100
AcDbCircle
 10
1388.278107729884
 20
-148.2493424341264
 30
0.0
 40
2.397105012956624
100
AcDbArc
 50
109.4623212432047
 51
160.5189998916704
  0
LINE
  5
CF3C
330
1E
100
AcDbEntity
  8
指線
 48
0.27
100
AcDbLine
 10
1387.478724599765
 20
-145.989453418193
 30
0.0
 11
1387.478950587637
 21
-147.4504309580195
 31
0.0
  0
CIRCLE
  5
CF3D
330
1E
100
AcDbEntity
  8
指線
 48
0.27
100
AcDbCircle
 10
1388.278107729885
 20
-148.2493424341264
 30
0.0
 40
4.0
  0
LINE
  5
CF3E
330
1E
100
AcDbEntity
  8
指線
 48
0.27
100
AcDbLine
 10
1464.479197781073
 20
-149.048501255939
 30
0.0
 11
1461.360580059267
 21
-149.048907701391
 31
0.0
  0
LINE
  5
CF3F
330
1E
100
AcDbEntity
  8
指線
 48
0.27
100
AcDbLine
 10
1466.077264872132
 20
-149.0482539102333
 30
0.0
 11
1469.189477955393
 21
-149.0476959593368
 31
0.0
  0
LINE
  5
CF40
330
1E
100
AcDbEntity
  8
指線
 48
0.27
100
AcDbLine
 10
1466.077017678696
 20
-147.4501836123133
 30
0.0
 11
1469.189230761956
 21
-147.449625661417
 31
0.0
  0
ARC
  5
CF41
330
1E
100
AcDbEntity
  8
指線
 48
0.27
100
AcDbCircle
 10
1465.278107729885
 20
-148.2493424341264
 30
0.0
 40
2.397105012956624
100
AcDbArc
 50
19.48100010832958
 51
70.53767875679525
  0
LINE
  5
CF42
330
1E
100
AcDbEntity
  8
指線
 48
0.27
100
AcDbLine
 10
1466.076791691144
 20
-145.9892060724949
 30
0.0
 11
1466.077017678696
 21
-147.4501836123133
 31
0.0
  0
ARC
  5
CF43
330
1E
100
AcDbEntity
  8
指線
 48
0.27
100
AcDbCircle
 10
1465.278107729884
 20
-148.2493424341264
 30
0.0
 40
2.397105012956624
100
AcDbArc
 50
289.4623212432053
 51
340.5208129039548
  0
ARC
  5
CF44
330
1E
100
AcDbEntity
  8
指線
 48
0.27
100
AcDbCircle
 10
1465.278107729885
 20
-148.2493424341264
 30
0.0
 40
2.397105012956624
100
AcDbArc
 50
199.4791870960452
 51
250.5376787567947
  0
LINE
  5
CF45
330
1E
100
AcDbEntity
  8
指線
 48
0.27
100
AcDbLine
 10
1464.479197781073
 20
-149.048501255939
 30
0.0
 11
1464.479423768625
 21
-150.509478795758
 31
0.0
  0
LINE
  5
CF46
330
1E
100
AcDbEntity
  8
指線
 48
0.27
100
AcDbLine
 10
1466.077264872132
 20
-149.0482539102333
 30
0.0
 11
1466.077490860004
 21
-150.5092314500593
 31
0.0
  0
LINE
  5
CF47
330
1E
100
AcDbEntity
  8
指線
 48
0.27
100
AcDbLine
 10
1464.478950587636
 20
-147.4504309580195
 30
0.0
 11
1461.360332865831
 21
-147.450837403471
 31
0.0
  0
ARC
  5
CF48
330
1E
100
AcDbEntity
  8
指線
 48
0.27
100
AcDbCircle
 10
1465.278107729884
 20
-148.2493424341264
 30
0.0
 40
2.397105012956624
100
AcDbArc
 50
109.4623212432047
 51
160.5189998916704
  0
LINE
  5
CF49
330
1E
100
AcDbEntity
  8
指線
 48
0.27
100
AcDbLine
 10
1464.478724599765
 20
-145.989453418193
 30
0.0
 11
1464.478950587636
 21
-147.4504309580195
 31
0.0
  0
CIRCLE
  5
CF4A
330
1E
100
AcDbEntity
  8
指線
 48
0.27
100
AcDbCircle
 10
1465.278107729885
 20
-148.2493424341264
 30
0.0
 40
4.0
  0
LINE
  5
D0F3
330
1E
100
AcDbEntity
  8
中心線
 48
0.27
100
AcDbLine
 10
1618.216875021521
 20
-194.1006720079608
 30
0.0
 11
1618.216875021521
 21
-145.7888003708719
 31
0.0
  0
LINE
  5
D0F4
330
1E
100
AcDbEntity
  8
0
100
AcDbLine
 10
1629.716875021521
 20
-168.2493424341267
 30
0.0
 11
1629.716875021521
 21
-148.6493424341268
 31
0.0
  0
LINE
  5
D0F5
330
1E
100
AcDbEntity
  8
0
100
AcDbLine
 10
1606.716875021521
 20
-168.2493424341267
 30
0.0
 11
1606.716875021521
 21
-148.6493424341268
 31
0.0
  0
LINE
  5
D0F6
330
1E
100
AcDbEntity
  8
0
100
AcDbLine
 10
1626.216875021521
 20
-168.7493424341266
 30
0.0
 11
1610.216875021521
 21
-168.7493424341266
 31
0.0
  0
LINE
  5
D0F7
330
1E
100
AcDbEntity
  8
0
100
AcDbLine
 10
1629.716875021521
 20
-168.2493424341267
 30
0.0
 11
1606.716875021521
 21
-168.2493424341267
 31
0.0
  0
LINE
  5
D0F8
330
1E
100
AcDbEntity
  8
0
100
AcDbLine
 10
1610.216875021521
 20
-191.7493424341266
 30
0.0
 11
1610.216875021521
 21
-168.7493424341266
 31
0.0
  0
LINE
  5
D0F9
330
1E
100
AcDbEntity
  8
0
100
AcDbLine
 10
1609.716875021521
 20
-168.2493424341267
 30
0.0
 11
1610.216875021521
 21
-168.7493424341266
 31
0.0
  0
LINE
  5
D0FA
330
1E
100
AcDbEntity
  8
0
100
AcDbLine
 10
1626.216875021521
 20
-191.7493424341266
 30
0.0
 11
1626.216875021521
 21
-168.7493424341266
 31
0.0
  0
LINE
  5
D0FB
330
1E
100
AcDbEntity
  8
0
100
AcDbLine
 10
1626.216875021521
 20
-168.7493424341266
 30
0.0
 11
1626.716875021521
 21
-168.2493424341267
 31
0.0
  0
LINE
  5
D0FC
330
1E
100
AcDbEntity
  8
0
100
AcDbLine
 10
1629.716875021521
 20
-148.6493424341268
 30
0.0
 11
1606.716875021521
 21
-148.6493424341268
 31
0.0
  0
LINE
  5
D0FD
330
1E
100
AcDbEntity
  8
0
100
AcDbLine
 10
1629.716875021521
 20
-148.6493424341268
 30
0.0
 11
1629.947815129197
 21
-148.2493424341267
 31
0.0
  0
LINE
  5
D0FE
330
1E
100
AcDbEntity
  8
0
100
AcDbLine
 10
1606.485934913845
 20
-148.2493424341269
 30
0.0
 11
1606.716875021521
 21
-148.6493424341268
 31
0.0
  0
LINE
  5
D0FF
330
1E
100
AcDbEntity
  8
0
100
AcDbLine
 10
1610.216875021521
 20
-191.7493424341266
 30
0.0
 11
1626.216875021521
 21
-191.7493424341266
 31
0.0
  0
LINE
  5
D100
330
1E
100
AcDbEntity
  8
0
100
AcDbLine
 10
1626.716875021521
 20
-192.2493424341267
 30
0.0
 11
1626.216875021521
 21
-191.7493424341266
 31
0.0
  0
LINE
  5
D101
330
1E
100
AcDbEntity
  8
0
100
AcDbLine
 10
1609.71687502152
 20
-192.2493424341267
 30
0.0
 11
1610.216875021521
 21
-191.7493424341266
 31
0.0
  0
LINE
  5
D1E2
330
1E
100
AcDbEntity
  8
虛線
 48
0.27
100
AcDbLine
 10
1669.716875021521
 20
-192.2493424341269
 30
0.0
 11
1670.216875021521
 21
-191.7493424341268
 31
0.0
  0
LINE
  5
D1E3
330
1E
100
AcDbEntity
  8
虛線
 48
0.27
100
AcDbLine
 10
1686.71687502152
 20
-192.2493424341269
 30
0.0
 11
1686.216875021521
 21
-191.7493424341268
 31
0.0
  0
LINE
  5
D1E4
330
1E
100
AcDbEntity
  8
虛線
 48
0.27
100
AcDbLine
 10
1670.216875021521
 20
-191.7493424341268
 30
0.0
 11
1686.216875021521
 21
-191.7493424341268
 31
0.0
  0
LINE
  5
D1E5
330
1E
100
AcDbEntity
  8
虛線
 48
0.27
100
AcDbLine
 10
1666.485934913845
 20
-148.2493424341271
 30
0.0
 11
1666.716875021521
 21
-148.6493424341269
 31
0.0
  0
LINE
  5
D1E6
330
1E
100
AcDbEntity
  8
虛線
 48
0.27
100
AcDbLine
 10
1674.730146287521
 20
-148.6493424341269
 30
0.0
 11
1666.716875021521
 21
-148.6493424341269
 31
0.0
  0
LINE
  5
D1E7
330
1E
100
AcDbEntity
  8
虛線
 48
0.27
100
AcDbLine
 10
1669.716875021521
 20
-168.2493424341268
 30
0.0
 11
1670.216875021521
 21
-168.7493424341268
 31
0.0
  0
LINE
  5
D1E8
330
1E
100
AcDbEntity
  8
虛線
 48
0.27
100
AcDbLine
 10
1676.36687502152
 20
-168.7493424341268
 30
0.0
 11
1670.216875021521
 21
-168.7493424341268
 31
0.0
  0
LINE
  5
D1E9
330
1E
100
AcDbEntity
  8
虛線
 48
0.27
100
AcDbLine
 10
1676.36687502152
 20
-168.2493424341268
 30
0.0
 11
1666.716875021521
 21
-168.2493424341268
 31
0.0
  0
LINE
  5
D1EA
330
1E
100
AcDbEntity
  8
虛線
 48
0.27
100
AcDbLine
 10
1666.716875021521
 20
-168.2493424341268
 30
0.0
 11
1666.716875021521
 21
-148.6493424341269
 31
0.0
  0
LINE
  5
D1EB
330
1E
100
AcDbEntity
  8
虛線
 48
0.27
100
AcDbLine
 10
1670.216875021521
 20
-191.7493424341268
 30
0.0
 11
1670.216875021521
 21
-168.7493424341268
 31
0.0
  0
LINE
  5
D1EC
330
1E
100
AcDbEntity
  8
虛線
 48
0.27
100
AcDbLine
 10
1686.216875021521
 20
-191.7493424341268
 30
0.0
 11
1686.216875021521
 21
-182.2493424341269
 31
0.0
  0
LINE
  5
D1ED
330
1E
100
AcDbEntity
  8
虛線
 48
0.27
100
AcDbLine
 10
1869.716875021521
 20
-148.6493424341269
 30
0.0
 11
1869.947815129197
 21
-148.2493424341269
 31
0.0
  0
LINE
  5
D1EE
330
1E
100
AcDbEntity
  8
虛線
 48
0.27
100
AcDbLine
 10
1869.716875021521
 20
-148.6493424341269
 30
0.0
 11
1861.70360375552
 21
-148.6493424341269
 31
0.0
  0
LINE
  5
D1EF
330
1E
100
AcDbEntity
  8
虛線
 48
0.27
100
AcDbLine
 10
1866.216875021521
 20
-168.7493424341268
 30
0.0
 11
1866.716875021521
 21
-168.2493424341268
 31
0.0
  0
LINE
  5
D1F0
330
1E
100
AcDbEntity
  8
虛線
 48
0.27
100
AcDbLine
 10
1866.216875021521
 20
-168.7493424341268
 30
0.0
 11
1860.066875021521
 21
-168.7493424341268
 31
0.0
  0
LINE
  5
D1F1
330
1E
100
AcDbEntity
  8
虛線
 48
0.27
100
AcDbLine
 10
1869.716875021521
 20
-168.2493424341268
 30
0.0
 11
1860.066875021521
 21
-168.2493424341268
 31
0.0
  0
LINE
  5
D1F2
330
1E
100
AcDbEntity
  8
虛線
 48
0.27
100
AcDbLine
 10
1869.716875021521
 20
-168.2493424341268
 30
0.0
 11
1869.716875021521
 21
-148.6493424341269
 31
0.0
  0
LINE
  5
D1F3
330
1E
100
AcDbEntity
  8
虛線
 48
0.27
100
AcDbLine
 10
1849.716875021521
 20
-192.2493424341269
 30
0.0
 11
1850.216875021521
 21
-191.7493424341268
 31
0.0
  0
LINE
  5
D1F4
330
1E
100
AcDbEntity
  8
虛線
 48
0.27
100
AcDbLine
 10
1866.716875021521
 20
-192.2493424341269
 30
0.0
 11
1866.216875021521
 21
-191.7493424341268
 31
0.0
  0
LINE
  5
D1F5
330
1E
100
AcDbEntity
  8
虛線
 48
0.27
100
AcDbLine
 10
1850.216875021521
 20
-191.7493424341268
 30
0.0
 11
1866.216875021521
 21
-191.7493424341268
 31
0.0
  0
LINE
  5
D1F6
330
1E
100
AcDbEntity
  8
虛線
 48
0.27
100
AcDbLine
 10
1850.216875021521
 20
-191.7493424341268
 30
0.0
 11
1850.216875021521
 21
-182.2493424341269
 31
0.0
  0
LINE
  5
D1F7
330
1E
100
AcDbEntity
  8
虛線
 48
0.27
100
AcDbLine
 10
1866.216875021521
 20
-191.7493424341268
 30
0.0
 11
1866.216875021521
 21
-168.7493424341268
 31
0.0
  0
LINE
  5
D1F8
330
1E
100
AcDbEntity
  8
虛線
 48
0.27
100
AcDbLine
 10
1806.216875021521
 20
-191.7493424341268
 30
0.0
 11
1806.216875021521
 21
-182.2493424341269
 31
0.0
  0
LINE
  5
D1F9
330
1E
100
AcDbEntity
  8
虛線
 48
0.27
100
AcDbLine
 10
1790.216875021521
 20
-191.7493424341268
 30
0.0
 11
1790.216875021521
 21
-182.2493424341269
 31
0.0
  0
LINE
  5
D1FA
330
1E
100
AcDbEntity
  8
虛線
 48
0.27
100
AcDbLine
 10
1790.216875021521
 20
-191.7493424341268
 30
0.0
 11
1806.216875021521
 21
-191.7493424341268
 31
0.0
  0
LINE
  5
D1FB
330
1E
100
AcDbEntity
  8
虛線
 48
0.27
100
AcDbLine
 10
1806.716875021521
 20
-192.2493424341269
 30
0.0
 11
1806.216875021521
 21
-191.7493424341268
 31
0.0
  0
LINE
  5
D1FC
330
1E
100
AcDbEntity
  8
虛線
 48
0.27
100
AcDbLine
 10
1789.716875021521
 20
-192.2493424341269
 30
0.0
 11
1790.216875021521
 21
-191.7493424341268
 31
0.0
  0
LINE
  5
D1FD
330
1E
100
AcDbEntity
  8
虛線
 48
0.27
100
AcDbLine
 10
1729.716875021521
 20
-192.2493424341269
 30
0.0
 11
1730.216875021521
 21
-191.7493424341268
 31
0.0
  0
LINE
  5
D1FE
330
1E
100
AcDbEntity
  8
虛線
 48
0.27
100
AcDbLine
 10
1746.716875021521
 20
-192.2493424341269
 30
0.0
 11
1746.216875021521
 21
-191.7493424341268
 31
0.0
  0
LINE
  5
D1FF
330
1E
100
AcDbEntity
  8
虛線
 48
0.27
100
AcDbLine
 10
1730.216875021521
 20
-191.7493424341268
 30
0.0
 11
1746.216875021521
 21
-191.7493424341268
 31
0.0
  0
LINE
  5
D200
330
1E
100
AcDbEntity
  8
虛線
 48
0.27
100
AcDbLine
 10
1730.216875021521
 20
-191.7493424341268
 30
0.0
 11
1730.216875021521
 21
-182.2493424341269
 31
0.0
  0
LINE
  5
D201
330
1E
100
AcDbEntity
  8
虛線
 48
0.27
100
AcDbLine
 10
1746.216875021521
 20
-191.7493424341268
 30
0.0
 11
1746.216875021521
 21
-182.2493424341269
 31
0.0
  0
LINE
  5
D20A
330
1E
100
AcDbEntity
  8
中心線
 48
0.27
100
AcDbLine
 10
1687.129283707702
 20
-139.7493424341266
 30
0.0
 11
1698.804466335338
 21
-139.7493424341266
 31
0.0
  0
LINE
  5
D20B
330
1E
100
AcDbEntity
  8
中心線
 48
0.27
100
AcDbLine
 10
1692.966875021521
 20
-145.5869337479445
 30
0.0
 11
1692.966875021521
 21
-133.9117511203091
 31
0.0
  0
LINE
  5
D213
330
1E
100
AcDbEntity
  8
中心線
 48
0.27
100
AcDbLine
 10
1837.629283707703
 20
-139.7493424341266
 30
0.0
 11
1849.304466335339
 21
-139.7493424341266
 31
0.0
  0
LINE
  5
D214
330
1E
100
AcDbEntity
  8
中心線
 48
0.27
100
AcDbLine
 10
1843.466875021521
 20
-145.5869337479445
 30
0.0
 11
1843.466875021521
 21
-133.9117511203091
 31
0.0
  0
LINE
  5
D215
330
1E
100
AcDbEntity
  8
0
100
AcDbLine
 10
1643.832718362519
 20
-187.9509610147783
 30
0.0
 11
1642.28204146193
 21
-192.2493424341268
 31
0.0
  0
LINE
  5
D216
330
1E
100
AcDbEntity
  8
0
100
AcDbLine
 10
1638.939290590841
 20
-176.1617341890853
 30
0.0
 11
1643.832718362519
 21
-187.9509610147783
 31
0.0
  0
LINE
  5
D217
330
1E
100
AcDbEntity
  8
0
100
AcDbLine
 10
1643.823369553556
 20
-166.0724073925527
 30
0.0
 11
1638.939290590841
 21
-176.1617341890853
 31
0.0
  0
LINE
  5
D218
330
1E
100
AcDbEntity
  8
0
100
AcDbLine
 10
1638.862898439378
 20
-156.1558273372457
 30
0.0
 11
1643.823369553556
 21
-166.0724073925527
 31
0.0
  0
LINE
  5
D219
330
1E
100
AcDbEntity
  8
0
100
AcDbLine
 10
1642.267201088023
 20
-148.2493114341268
 30
0.0
 11
1638.862898439378
 21
-156.1558273372457
 31
0.0
  0
ARC
  5
D233
330
1E
100
AcDbEntity
  8
0
100
AcDbCircle
 10
1678.216875021521
 20
22.80941411797323
 30
0.0
 40
8.000000000000227
100
AcDbArc
 50
221.8103077775812
 51
256.629324360956
  0
ARC
  5
D234
330
1E
100
AcDbEntity
  8
0
100
AcDbCircle
 10
1678.216875021521
 20
22.80941411797335
 30
0.0
 40
11.50000000000022
100
AcDbArc
 50
228.492154162669
 51
260.7426275127565
  0
ARC
  5
D235
330
1E
100
AcDbEntity
  8
0
100
AcDbCircle
 10
1678.216875021521
 20
22.80941411797335
 30
0.0
 40
11.50000000000022
100
AcDbArc
 50
99.25737248724342
 51
154.8199732206189
  0
ARC
  5
D236
330
1E
100
AcDbEntity
  8
0
100
AcDbCircle
 10
1678.216875021521
 20
22.80941411797323
 30
0.0
 40
8.000000000000227
100
AcDbArc
 50
103.370675639044
 51
138.1896779860263
  0
LINE
  5
D237
330
1E
100
AcDbEntity
  8
中心線
 48
0.27
100
AcDbLine
 10
1662.498805018007
 20
22.80941411797323
 30
0.0
 11
1664.598734524208
 21
22.80941411797323
 31
0.0
  0
LINE
  5
D238
330
1E
100
AcDbEntity
  8
0
  6
Continuous
100
AcDbLine
 10
1674.730146287522
 20
18.20941472598281
 30
0.0
 11
1674.730146287522
 21
27.40941499156395
 31
0.0
  0
ARC
  5
D239
330
1E
100
AcDbEntity
  8
0
  6
Continuous
100
AcDbCircle
 10
1685.3533915937
 20
22.80941485877327
 30
0.0
 40
10.62324530617823
100
AcDbArc
 50
163.2213499979114
 51
196.7786500020885
  0
ARC
  5
D23A
330
1E
100
AcDbEntity
  8
0
  6
Continuous
100
AcDbCircle
 10
1663.630235106253
 20
18.11327693368457
 30
0.0
 40
2.472178306553661
100
AcDbArc
 50
34.63277999893853
 51
100.3672200010633
  0
ARC
  5
D23B
330
1E
100
AcDbEntity
  8
0
  6
Continuous
100
AcDbCircle
 10
1669.932067857541
 20
22.80941485877327
 30
0.0
 40
5.333333333333332
100
AcDbArc
 50
90.0
 51
210.8352048940846
  0
LINE
  5
D23C
330
1E
100
AcDbEntity
  8
0
  6
Continuous
100
AcDbLine
 10
1671.628674138547
 20
17.47608152544001
 30
0.0
 11
1674.826975738208
 21
17.47608152544001
 31
0.0
  0
ARC
  5
D23D
330
1E
100
AcDbEntity
  8
0
  6
Continuous
100
AcDbCircle
 10
1671.067465557663
 20
15.03267521421628
 30
0.0
 40
2.472178306553661
100
AcDbArc
 50
34.63277999893853
 51
100.3672200010633
  0
ARC
  5
D23E
330
1E
100
AcDbEntity
  8
0
  6
Continuous
100
AcDbCircle
 10
1671.955973094849
 20
11.81186895198698
 30
0.0
 40
2.746231479756805
100
AcDbArc
 50
89.1520988349392
 51
159.1520988349398
  0
ARC
  5
D23F
330
1E
100
AcDbEntity
  8
0
  6
Continuous
100
AcDbCircle
 10
1671.893891128926
 20
17.02784303665157
 30
0.0
 40
2.472178306553661
100
AcDbArc
 50
214.6327799989385
 51
280.3672200010634
  0
LINE
  5
D240
330
1E
100
AcDbEntity
  8
0
  6
Continuous
100
AcDbLine
 10
1664.576296786023
 20
20.39727187182803
 30
0.0
 11
1672.013527237434
 21
17.31667015235962
 31
0.0
  0
LINE
  5
D241
330
1E
100
AcDbEntity
  8
0
  6
Continuous
100
AcDbLine
 10
1663.510598997746
 20
17.82444981797653
 30
0.0
 11
1670.947829449156
 21
14.74384809850824
 31
0.0
  0
LINE
  5
D242
330
1E
100
AcDbEntity
  8
0
  6
Continuous
100
AcDbLine
 10
1663.476712587644
 20
15.23839480082336
 30
0.0
 11
1669.143173720379
 21
12.89126974898431
 31
0.0
  0
ARC
  5
D243
330
1E
100
AcDbEntity
  8
0
  6
Continuous
100
AcDbCircle
 10
1665.055189255842
 20
11.99156287759285
 30
0.0
 40
3.813798694049016
100
AcDbArc
 50
118.5864858262631
 51
163.586485826263
  0
LINE
  5
D244
330
1E
100
AcDbEntity
  8
0
  6
Continuous
100
AcDbLine
 10
1661.396812954188
 20
13.06921927655662
 30
0.0
 11
1669.08004613259
 21
9.886719891187908
 31
0.0
  0
LINE
  5
D245
330
1E
100
AcDbEntity
  8
0
  6
Continuous
100
AcDbLine
 10
1661.396812954188
 20
9.026557993375263
 30
0.0
 11
1661.396812954188
 21
13.06921927655662
 31
0.0
  0
ARC
  5
D246
330
1E
100
AcDbEntity
  8
0
  6
Continuous
100
AcDbCircle
 10
1665.731165294062
 20
11.71156443472318
 30
0.0
 40
3.813798694049014
100
AcDbArc
 50
331.4135141737369
 51
16.41351417374012
  0
ARC
  5
D247
330
1E
100
AcDbEntity
  8
0
  6
Continuous
100
AcDbCircle
 10
1660.724511452664
 20
16.46409268945354
 30
0.0
 40
2.746231479756805
100
AcDbArc
 50
335.8479011650612
 51
45.84790116506007
  0
ARC
  5
D248
330
1E
100
AcDbEntity
  8
0
  6
Continuous
100
AcDbCircle
 10
1664.456660677516
 20
20.10844475611987
 30
0.0
 40
2.472178306553661
100
AcDbArc
 50
214.6327799989385
 51
280.3672200010634
  0
LINE
  5
D249
330
1E
100
AcDbEntity
  8
0
  6
Continuous
100
AcDbLine
 10
1662.422524780769
 20
18.70354993861019
 30
0.0
 11
1663.185294472123
 21
20.54503887244459
 31
0.0
  0
ARC
  5
D24A
330
1E
100
AcDbEntity
  8
0
  6
Continuous
100
AcDbCircle
 10
1664.737739532182
 20
10.26919696827224
 30
0.0
 40
9.295339642905961
100
AcDbArc
 50
50.7213499979104
 51
84.27865000208958
  0
LINE
  5
D24B
330
1E
100
AcDbEntity
  8
0
  6
Continuous
100
AcDbLine
 10
1664.901601741035
 20
17.67668263950122
 30
0.0
 11
1665.664371432389
 21
19.51817157333573
 31
0.0
  0
ARC
  5
D24C
330
1E
100
AcDbEntity
  8
0
  6
Continuous
100
AcDbCircle
 10
1670.786386702997
 20
24.87192300206391
 30
0.0
 40
9.295339642905961
100
AcDbArc
 50
230.7213499979124
 51
264.2786500020895
  0
LINE
  5
D24D
330
1E
100
AcDbEntity
  8
0
  6
Continuous
100
AcDbLine
 10
1669.85975480279
 20
15.62294839700053
 30
0.0
 11
1670.622524494145
 21
17.46443733083492
 31
0.0
  0
LINE
  5
D24E
330
1E
100
AcDbEntity
  8
0
  6
Continuous
100
AcDbLine
 10
1672.338775426995
 20
14.59602405886414
 30
0.0
 11
1673.101601951482
 21
16.43765020002058
 31
0.0
  0
ARC
  5
D24F
330
1E
100
AcDbEntity
  8
0
  6
Continuous
100
AcDbCircle
 10
1677.555492923583
 20
18.20941472598281
 30
0.0
 40
2.825346636061326
100
AcDbArc
 50
147.1327799989362
 51
212.8672200010638
  0
LINE
  5
D250
330
1E
100
AcDbEntity
  8
0
  6
Continuous
100
AcDbLine
 10
1675.182483010334
 20
16.67608152543994
 30
0.0
 11
1676.366875021521
 21
16.67608152544005
 31
0.0
  0
LINE
  5
D251
330
1E
100
AcDbEntity
  8
0
  6
Continuous
100
AcDbLine
 10
1675.182483010334
 20
19.74274845768775
 30
0.0
 11
1676.366875021521
 21
19.74274845768775
 31
0.0
  0
LINE
  5
D252
330
1E
100
AcDbEntity
  8
0
  6
Continuous
100
AcDbLine
 10
1669.932067857541
 20
28.14274819210675
 30
0.0
 11
1674.826975738208
 21
28.14274819210675
 31
0.0
  0
ARC
  5
D253
330
1E
100
AcDbEntity
  8
0
  6
Continuous
100
AcDbCircle
 10
1677.555492923583
 20
27.40941499156395
 30
0.0
 40
2.825346636061326
100
AcDbArc
 50
147.1327799989362
 51
212.8672200010638
  0
LINE
  5
D254
330
1E
100
AcDbEntity
  8
0
  6
Continuous
100
AcDbLine
 10
1675.182483010334
 20
25.87608125985878
 30
0.0
 11
1676.366875021521
 21
25.87608125985878
 31
0.0
  0
LINE
  5
D255
330
1E
100
AcDbEntity
  8
0
  6
Continuous
100
AcDbLine
 10
1675.182483010334
 20
28.94274819210671
 30
0.0
 11
1676.366875021521
 21
28.94274819210671
 31
0.0
  0
LINE
  5
D256
330
1E
100
AcDbEntity
  8
0
  6
Continuous
100
AcDbLine
 10
1661.396812954188
 20
9.026557993375263
 30
0.0
 11
1666.221452925212
 21
7.028126683810228
 31
0.0
  0
LINE
  5
D257
330
1E
100
AcDbEntity
  8
0
  6
Continuous
100
AcDbLine
 10
1666.221452925212
 20
7.028126683810228
 30
0.0
 11
1669.08004613259
 21
9.886719891187908
 31
0.0
  0
LINE
  5
D258
330
1E
100
AcDbEntity
  8
0
  6
Continuous
100
AcDbLine
 10
1674.730146287522
 20
18.20941472598281
 30
0.0
 11
1674.730146287522
 21
27.40941499156395
 31
0.0
  0
ARC
  5
D259
330
1E
100
AcDbEntity
  8
0
  6
Continuous
100
AcDbCircle
 10
1685.3533915937
 20
22.80941485877327
 30
0.0
 40
10.62324530617823
100
AcDbArc
 50
163.2213499979114
 51
196.7786500020885
  0
ARC
  5
D25A
330
1E
100
AcDbEntity
  8
0
  6
Continuous
100
AcDbCircle
 10
1663.630235106253
 20
18.11327693368457
 30
0.0
 40
2.472178306553661
100
AcDbArc
 50
34.63277999893853
 51
100.3672200010633
  0
ARC
  5
D25B
330
1E
100
AcDbEntity
  8
0
  6
Continuous
100
AcDbCircle
 10
1669.932067857541
 20
22.80941485877327
 30
0.0
 40
5.333333333333332
100
AcDbArc
 50
90.0
 51
210.8352048940846
  0
ARC
  5
D25C
330
1E
100
AcDbEntity
  8
0
  6
Continuous
100
AcDbCircle
 10
1671.067465557663
 20
15.03267521421628
 30
0.0
 40
2.472178306553661
100
AcDbArc
 50
34.63277999893853
 51
100.3672200010633
  0
ARC
  5
D25D
330
1E
100
AcDbEntity
  8
0
  6
Continuous
100
AcDbCircle
 10
1671.955973094849
 20
11.81186895198698
 30
0.0
 40
2.746231479756805
100
AcDbArc
 50
89.1520988349392
 51
159.1520988349398
  0
ARC
  5
D25E
330
1E
100
AcDbEntity
  8
0
  6
Continuous
100
AcDbCircle
 10
1671.893891128926
 20
17.02784303665157
 30
0.0
 40
2.472178306553661
100
AcDbArc
 50
214.6327799989385
 51
280.3672200010634
  0
LINE
  5
D25F
330
1E
100
AcDbEntity
  8
0
  6
Continuous
100
AcDbLine
 10
1664.576296786023
 20
20.39727187182803
 30
0.0
 11
1672.013527237434
 21
17.31667015235962
 31
0.0
  0
LINE
  5
D260
330
1E
100
AcDbEntity
  8
0
  6
Continuous
100
AcDbLine
 10
1663.510598997746
 20
17.82444981797653
 30
0.0
 11
1670.947829449156
 21
14.74384809850824
 31
0.0
  0
LINE
  5
D261
330
1E
100
AcDbEntity
  8
0
  6
Continuous
100
AcDbLine
 10
1663.476712587644
 20
15.23839480082336
 30
0.0
 11
1669.143173720379
 21
12.89126974898431
 31
0.0
  0
ARC
  5
D262
330
1E
100
AcDbEntity
  8
0
  6
Continuous
100
AcDbCircle
 10
1665.055189255842
 20
11.99156287759285
 30
0.0
 40
3.813798694049016
100
AcDbArc
 50
118.5864858262631
 51
163.586485826263
  0
LINE
  5
D263
330
1E
100
AcDbEntity
  8
0
  6
Continuous
100
AcDbLine
 10
1661.396812954188
 20
13.06921927655662
 30
0.0
 11
1669.08004613259
 21
9.886719891187908
 31
0.0
  0
LINE
  5
D264
330
1E
100
AcDbEntity
  8
0
  6
Continuous
100
AcDbLine
 10
1661.396812954188
 20
9.026557993375263
 30
0.0
 11
1661.396812954188
 21
13.06921927655662
 31
0.0
  0
ARC
  5
D265
330
1E
100
AcDbEntity
  8
0
  6
Continuous
100
AcDbCircle
 10
1665.731165294062
 20
11.71156443472318
 30
0.0
 40
3.813798694049014
100
AcDbArc
 50
331.4135141737369
 51
16.41351417374012
  0
ARC
  5
D266
330
1E
100
AcDbEntity
  8
0
  6
Continuous
100
AcDbCircle
 10
1660.724511452664
 20
16.46409268945354
 30
0.0
 40
2.746231479756805
100
AcDbArc
 50
335.8479011650612
 51
45.84790116506007
  0
ARC
  5
D267
330
1E
100
AcDbEntity
  8
0
  6
Continuous
100
AcDbCircle
 10
1664.456660677516
 20
20.10844475611987
 30
0.0
 40
2.472178306553661
100
AcDbArc
 50
214.6327799989385
 51
280.3672200010634
  0
LINE
  5
D268
330
1E
100
AcDbEntity
  8
0
  6
Continuous
100
AcDbLine
 10
1662.422524780769
 20
18.70354993861019
 30
0.0
 11
1663.185294472123
 21
20.54503887244459
 31
0.0
  0
ARC
  5
D269
330
1E
100
AcDbEntity
  8
0
  6
Continuous
100
AcDbCircle
 10
1664.737739532182
 20
10.26919696827224
 30
0.0
 40
9.295339642905961
100
AcDbArc
 50
50.7213499979104
 51
84.27865000208958
  0
LINE
  5
D26A
330
1E
100
AcDbEntity
  8
0
  6
Continuous
100
AcDbLine
 10
1664.901601741035
 20
17.67668263950122
 30
0.0
 11
1665.664371432389
 21
19.51817157333573
 31
0.0
  0
ARC
  5
D26B
330
1E
100
AcDbEntity
  8
0
  6
Continuous
100
AcDbCircle
 10
1670.786386702997
 20
24.87192300206391
 30
0.0
 40
9.295339642905961
100
AcDbArc
 50
230.7213499979124
 51
264.2786500020895
  0
LINE
  5
D26C
330
1E
100
AcDbEntity
  8
0
  6
Continuous
100
AcDbLine
 10
1669.85975480279
 20
15.62294839700053
 30
0.0
 11
1670.622524494145
 21
17.46443733083492
 31
0.0
  0
LINE
  5
D26D
330
1E
100
AcDbEntity
  8
0
  6
Continuous
100
AcDbLine
 10
1672.338775426995
 20
14.59602405886414
 30
0.0
 11
1673.101601951482
 21
16.43765020002058
 31
0.0
  0
ARC
  5
D26E
330
1E
100
AcDbEntity
  8
0
  6
Continuous
100
AcDbCircle
 10
1677.555492923583
 20
18.20941472598281
 30
0.0
 40
2.825346636061326
100
AcDbArc
 50
147.1327799989362
 51
212.8672200010638
  0
LINE
  5
D26F
330
1E
100
AcDbEntity
  8
0
  6
Continuous
100
AcDbLine
 10
1675.182483010334
 20
16.67608152543994
 30
0.0
 11
1676.366875021521
 21
16.67608152544005
 31
0.0
  0
LINE
  5
D270
330
1E
100
AcDbEntity
  8
0
  6
Continuous
100
AcDbLine
 10
1675.182483010334
 20
19.74274845768775
 30
0.0
 11
1676.366875021521
 21
19.74274845768775
 31
0.0
  0
LINE
  5
D271
330
1E
100
AcDbEntity
  8
0
  6
Continuous
100
AcDbLine
 10
1669.932067857541
 20
28.14274819210675
 30
0.0
 11
1674.826975738208
 21
28.14274819210675
 31
0.0
  0
ARC
  5
D272
330
1E
100
AcDbEntity
  8
0
  6
Continuous
100
AcDbCircle
 10
1677.555492923583
 20
27.40941499156395
 30
0.0
 40
2.825346636061326
100
AcDbArc
 50
147.1327799989362
 51
212.8672200010638
  0
LINE
  5
D273
330
1E
100
AcDbEntity
  8
0
  6
Continuous
100
AcDbLine
 10
1675.182483010334
 20
25.87608125985878
 30
0.0
 11
1676.366875021521
 21
25.87608125985878
 31
0.0
  0
LINE
  5
D274
330
1E
100
AcDbEntity
  8
0
  6
Continuous
100
AcDbLine
 10
1675.182483010334
 20
28.94274819210671
 30
0.0
 11
1676.366875021521
 21
28.94274819210671
 31
0.0
  0
LINE
  5
D275
330
1E
100
AcDbEntity
  8
0
  6
Continuous
100
AcDbLine
 10
1661.396812954188
 20
9.026557993375263
 30
0.0
 11
1666.221452925212
 21
7.028126683810228
 31
0.0
  0
LINE
  5
D276
330
1E
100
AcDbEntity
  8
0
  6
Continuous
100
AcDbLine
 10
1666.221452925212
 20
7.028126683810228
 30
0.0
 11
1669.08004613259
 21
9.886719891187908
 31
0.0
  0
ARC
  5
D277
330
1E
100
AcDbEntity
  8
0
100
AcDbCircle
 10
1858.21687502152
 20
22.80941485867334
 30
0.0
 40
11.50000000000022
100
AcDbArc
 50
279.2573724872422
 51
80.74262751275773
  0
ARC
  5
D278
330
1E
100
AcDbEntity
  8
0
100
AcDbCircle
 10
1858.21687502152
 20
22.80941485867322
 30
0.0
 40
8.000000000000227
100
AcDbArc
 50
283.3706756390423
 51
76.62932436095768
  0
LINE
  5
D279
330
1E
100
AcDbEntity
  8
中心線
 48
0.27
100
AcDbLine
 10
1860.06687502152
 20
22.80941485867322
 30
0.0
 11
1873.934945025034
 21
22.80941485867322
 31
0.0
  0
LINE
  5
D27B
330
1E
100
AcDbEntity
  8
0
  6
Continuous
 62
     7
100
AcDbLine
 10
1379.775974478616
 20
-182.2493424341266
 30
0.0
 11
1377.775974478616
 21
-180.2493424341266
 31
0.0
  0
LINE
  5
D27C
330
1E
100
AcDbEntity
  8
0
  6
Continuous
 62
     7
100
AcDbLine
 10
1473.776012625617
 20
-182.2493424341266
 30
0.0
 11
1476.776012625617
 21
-179.2493424341266
 31
0.0
  0
LINE
  5
D2BE
330
1E
100
AcDbEntity
  8
中心線
100
AcDbLine
 10
1768.21687502152
 20
77.80943319167329
 30
0.0
 11
1768.21687502152
 21
-32.19060495532676
 31
0.0
  0
LINE
  5
D2BF
330
1E
100
AcDbEntity
  8
中心線
100
AcDbLine
 10
1700.46687502152
 20
22.80941411817327
 30
0.0
 11
1835.966875021521
 21
22.80941411817327
 31
0.0
  0
LINE
  5
D2E0
330
1E
100
AcDbEntity
  8
虛線
 48
0.27
100
AcDbLine
 10
1459.155221907553
 20
-113.849299990127
 30
0.0
 11
1469.405221907552
 21
-113.849299990127
 31
0.0
  0
LINE
  5
D2E1
330
1E
100
AcDbEntity
  8
虛線
 48
0.27
100
AcDbLine
 10
1471.005221907552
 20
-112.2492999901267
 30
0.0
 11
1469.405221907553
 21
-113.849299990127
 31
0.0
  0
LINE
  5
D2E2
330
1E
100
AcDbEntity
  8
虛線
 48
0.27
100
AcDbLine
 10
1459.155221907553
 20
-113.849299990127
 30
0.0
 11
1457.555221907552
 21
-112.2492999901267
 31
0.0
  0
LINE
  5
D32A
330
1E
100
AcDbEntity
  8
虛線
 48
0.27
100
AcDbLine
 10
1725.591875021521
 20
-113.8493063481271
 30
0.0
 11
1723.99187502152
 21
-112.2493063481267
 31
0.0
  0
LINE
  5
D32B
330
1E
100
AcDbEntity
  8
虛線
 48
0.27
100
AcDbLine
 10
1724.716875021521
 20
-112.9743063481271
 30
0.0
 11
1724.716875021521
 21
-130.249306348127
 31
0.0
  0
LINE
  5
D32C
330
1E
100
AcDbEntity
  8
虛線
 48
0.27
100
AcDbLine
 10
1725.591875021521
 20
-113.8493063481271
 30
0.0
 11
1725.591875021521
 21
-135.4993093481269
 31
0.0
  0
LINE
  5
D32D
330
1E
100
AcDbEntity
  8
虛線
 48
0.27
100
AcDbLine
 10
1735.84187502152
 20
-135.4993093481269
 30
0.0
 11
1725.591875021521
 21
-135.4993093481269
 31
0.0
  0
LINE
  5
D32E
330
1E
100
AcDbEntity
  8
虛線
 48
0.27
100
AcDbLine
 10
1725.591875021521
 20
-135.4993093481271
 30
0.0
 11
1730.716875021521
 21
-138.5787200206434
 31
0.0
  0
LINE
  5
D32F
330
1E
100
AcDbEntity
  8
虛線
 48
0.27
100
AcDbLine
 10
1735.84187502152
 20
-135.4993093481269
 30
0.0
 11
1730.716875021521
 21
-138.5787200206434
 31
0.0
  0
LINE
  5
D330
330
1E
100
AcDbEntity
  8
虛線
 48
0.27
100
AcDbLine
 10
1735.84187502152
 20
-113.8493063481271
 30
0.0
 11
1735.84187502152
 21
-135.4993093481269
 31
0.0
  0
LINE
  5
D331
330
1E
100
AcDbEntity
  8
虛線
 48
0.27
100
AcDbLine
 10
1736.71687502152
 20
-130.249306348127
 30
0.0
 11
1724.716875021521
 21
-130.249306348127
 31
0.0
  0
LINE
  5
D332
330
1E
100
AcDbEntity
  8
虛線
 48
0.27
100
AcDbLine
 10
1736.716875021521
 20
-112.9743063481272
 30
0.0
 11
1736.71687502152
 21
-130.249306348127
 31
0.0
  0
LINE
  5
D333
330
1E
100
AcDbEntity
  8
虛線
 48
0.27
100
AcDbLine
 10
1737.44187502152
 20
-112.2493063481267
 30
0.0
 11
1735.84187502152
 21
-113.8493063481271
 31
0.0
  0
LINE
  5
D334
330
1E
100
AcDbEntity
  8
虛線
 48
0.27
100
AcDbLine
 10
1725.591875021521
 20
-113.8493063481271
 30
0.0
 11
1735.84187502152
 21
-113.8493063481271
 31
0.0
  0
LINE
  5
D345
330
1E
100
AcDbEntity
  8
虛線
 48
0.27
100
AcDbLine
 10
1800.591875021521
 20
-113.8493063481271
 30
0.0
 11
1798.99187502152
 21
-112.2493063481267
 31
0.0
  0
LINE
  5
D346
330
1E
100
AcDbEntity
  8
虛線
 48
0.27
100
AcDbLine
 10
1799.716875021521
 20
-112.9743063481271
 30
0.0
 11
1799.716875021521
 21
-130.249306348127
 31
0.0
  0
LINE
  5
D347
330
1E
100
AcDbEntity
  8
虛線
 48
0.27
100
AcDbLine
 10
1800.591875021521
 20
-113.8493063481271
 30
0.0
 11
1800.591875021521
 21
-135.4993093481269
 31
0.0
  0
LINE
  5
D348
330
1E
100
AcDbEntity
  8
虛線
 48
0.27
100
AcDbLine
 10
1810.841875021521
 20
-135.4993093481269
 30
0.0
 11
1800.591875021521
 21
-135.4993093481269
 31
0.0
  0
LINE
  5
D349
330
1E
100
AcDbEntity
  8
虛線
 48
0.27
100
AcDbLine
 10
1800.591875021521
 20
-135.4993093481271
 30
0.0
 11
1805.716875021521
 21
-138.5787200206434
 31
0.0
  0
LINE
  5
D34A
330
1E
100
AcDbEntity
  8
虛線
 48
0.27
100
AcDbLine
 10
1810.841875021521
 20
-135.4993093481269
 30
0.0
 11
1805.716875021521
 21
-138.5787200206434
 31
0.0
  0
LINE
  5
D34B
330
1E
100
AcDbEntity
  8
虛線
 48
0.27
100
AcDbLine
 10
1810.84187502152
 20
-113.8493063481271
 30
0.0
 11
1810.841875021521
 21
-135.4993093481269
 31
0.0
  0
LINE
  5
D34C
330
1E
100
AcDbEntity
  8
虛線
 48
0.27
100
AcDbLine
 10
1811.71687502152
 20
-130.249306348127
 30
0.0
 11
1799.716875021521
 21
-130.249306348127
 31
0.0
  0
LINE
  5
D34D
330
1E
100
AcDbEntity
  8
虛線
 48
0.27
100
AcDbLine
 10
1811.716875021521
 20
-112.9743063481272
 30
0.0
 11
1811.71687502152
 21
-130.249306348127
 31
0.0
  0
LINE
  5
D34E
330
1E
100
AcDbEntity
  8
虛線
 48
0.27
100
AcDbLine
 10
1812.44187502152
 20
-112.2493063481267
 30
0.0
 11
1810.841875021521
 21
-113.8493063481271
 31
0.0
  0
LINE
  5
D34F
330
1E
100
AcDbEntity
  8
虛線
 48
0.27
100
AcDbLine
 10
1800.591875021521
 20
-113.8493063481271
 30
0.0
 11
1810.84187502152
 21
-113.8493063481271
 31
0.0
  0
LINE
  5
D3BE
330
1E
100
AcDbEntity
  8
虛線
 48
0.27
100
AcDbLine
 10
1384.155221907552
 20
-113.8492872745269
 30
0.0
 11
1382.555221907552
 21
-112.2492872745265
 31
0.0
  0
LINE
  5
D3BF
330
1E
100
AcDbEntity
  8
虛線
 48
0.27
100
AcDbLine
 10
1396.005221907552
 20
-112.2492872745265
 30
0.0
 11
1394.405221907552
 21
-113.8492872745269
 31
0.0
  0
LINE
  5
D3C0
330
1E
100
AcDbEntity
  8
虛線
 48
0.27
100
AcDbLine
 10
1384.155221907552
 20
-113.8492872745268
 30
0.0
 11
1394.405221907552
 21
-113.8492872745268
 31
0.0
  0
LINE
  5
D3C1
330
1E
100
AcDbEntity
  8
虛線
 48
0.27
100
AcDbLine
 10
1395.280221907553
 20
-112.9742872745261
 30
0.0
 11
1395.280221907553
 21
-130.2492872745267
 31
0.0
  0
LINE
  5
D3C2
330
1E
100
AcDbEntity
  8
虛線
 48
0.27
100
AcDbLine
 10
1395.280221907553
 20
-130.2492872745267
 30
0.0
 11
1383.280221907553
 21
-130.2492872745267
 31
0.0
  0
LINE
  5
D3C3
330
1E
100
AcDbEntity
  8
虛線
 48
0.27
100
AcDbLine
 10
1394.405221907553
 20
-113.8492872745269
 30
0.0
 11
1394.405221907553
 21
-135.4992902745266
 31
0.0
  0
LINE
  5
D3C4
330
1E
100
AcDbEntity
  8
虛線
 48
0.27
100
AcDbLine
 10
1394.405221907553
 20
-135.4992902745266
 30
0.0
 11
1384.155221907553
 21
-135.4992902745266
 31
0.0
  0
LINE
  5
D3C5
330
1E
100
AcDbEntity
  8
虛線
 48
0.27
100
AcDbLine
 10
1384.155221907553
 20
-113.8492872745269
 30
0.0
 11
1384.155221907553
 21
-135.4992902745266
 31
0.0
  0
LINE
  5
D3C6
330
1E
100
AcDbEntity
  8
虛線
 48
0.27
100
AcDbLine
 10
1383.280221907553
 20
-112.9742872745278
 30
0.0
 11
1383.280221907553
 21
-130.2492872745267
 31
0.0
  0
LINE
  5
D3C7
330
1E
100
AcDbEntity
  8
虛線
 48
0.27
100
AcDbLine
 10
1394.405221907553
 20
-135.4992902745266
 30
0.0
 11
1389.280221907553
 21
-138.578700947043
 31
0.0
  0
LINE
  5
D3C8
330
1E
100
AcDbEntity
  8
虛線
 48
0.27
100
AcDbLine
 10
1384.155221907553
 20
-135.4992902745268
 30
0.0
 11
1389.280221907553
 21
-138.578700947043
 31
0.0
  0
LINE
  5
D441
330
1E
100
AcDbEntity
  8
虛線
 48
0.27
100
AcDbLine
 10
1421.655221907552
 20
-113.8492910893269
 30
0.0
 11
1420.055221907552
 21
-112.2492910893265
 31
0.0
  0
LINE
  5
D442
330
1E
100
AcDbEntity
  8
虛線
 48
0.27
100
AcDbLine
 10
1433.505221907552
 20
-112.2492910893265
 30
0.0
 11
1431.905221907552
 21
-113.8492910893269
 31
0.0
  0
LINE
  5
D443
330
1E
100
AcDbEntity
  8
虛線
 48
0.27
100
AcDbLine
 10
1421.655221907552
 20
-113.8492910893269
 30
0.0
 11
1431.905221907552
 21
-113.8492910893269
 31
0.0
  0
LINE
  5
D444
330
1E
100
AcDbEntity
  8
虛線
 48
0.27
100
AcDbLine
 10
1432.780221907553
 20
-112.9742910893261
 30
0.0
 11
1432.780221907553
 21
-130.2492910893268
 31
0.0
  0
LINE
  5
D445
330
1E
100
AcDbEntity
  8
虛線
 48
0.27
100
AcDbLine
 10
1432.780221907553
 20
-130.2492910893268
 30
0.0
 11
1420.780221907553
 21
-130.2492910893268
 31
0.0
  0
LINE
  5
D446
330
1E
100
AcDbEntity
  8
虛線
 48
0.27
100
AcDbLine
 10
1431.905221907553
 20
-113.8492910893269
 30
0.0
 11
1431.905221907553
 21
-135.4992940893266
 31
0.0
  0
LINE
  5
D447
330
1E
100
AcDbEntity
  8
虛線
 48
0.27
100
AcDbLine
 10
1431.905221907553
 20
-135.4992940893266
 30
0.0
 11
1426.780221907553
 21
-138.578704761843
 31
0.0
  0
LINE
  5
D448
330
1E
100
AcDbEntity
  8
虛線
 48
0.27
100
AcDbLine
 10
1421.655221907553
 20
-135.4992940893269
 30
0.0
 11
1426.780221907553
 21
-138.578704761843
 31
0.0
  0
LINE
  5
D449
330
1E
100
AcDbEntity
  8
虛線
 48
0.27
100
AcDbLine
 10
1431.905221907553
 20
-135.4992940893266
 30
0.0
 11
1421.655221907553
 21
-135.4992940893266
 31
0.0
  0
LINE
  5
D44A
330
1E
100
AcDbEntity
  8
虛線
 48
0.27
100
AcDbLine
 10
1421.655221907553
 20
-113.8492910893269
 30
0.0
 11
1421.655221907553
 21
-135.4992940893266
 31
0.0
  0
LINE
  5
D44B
330
1E
100
AcDbEntity
  8
虛線
 48
0.27
100
AcDbLine
 10
1420.780221907553
 20
-112.9742910893278
 30
0.0
 11
1420.780221907553
 21
-130.2492910893268
 31
0.0
  0
MTEXT
  5
D49C
330
1E
100
AcDbEntity
  8
0
100
AcDbMText
 10
1400.38520153983
 20
-209.9920603417913
 30
0.0
 40
7.800000159341863
 41
100.6095
 71
     1
 72
     5
  1
\A1;{\fTimes New Roman|b0|i0|c0|p18;RGH55CA\PC : 13300 kgf\PC\fProxy 1|b0|i0|c0|p0;\H0.75x;\S^ 0;\fTimes New Roman|b0|i0|c0|p18;\H1.333x;: 25690 kgf}
 73
     1
 44
1.0
1001
ACAD
1000
MTEXTBEGIN
1070
    73
1070
     1
1070
    44
1040
1.0
1070
    74
1070
     0
1000
MTEXTEND
  0
LINE
  5
EAA2
330
1E
100
AcDbEntity
  8
0
100
AcDbLine
 10
1948.216875021521
 20
-149.2493114343928
 30
0.0
 11
1861.70360375552
 21
-149.2493114343878
 31
0.0
  0
LINE
  5
EAA3
330
1E
100
AcDbEntity
  8
0
100
AcDbLine
 10
1948.216875021521
 20
-153.1319544967439
 30
0.0
 11
1860.06687502152
 21
-153.1319544967735
 31
0.0
  0
LINE
  5
EAA4
330
1E
100
AcDbEntity
  8
0
100
AcDbLine
 10
1948.216875021521
 20
-160.6319545002018
 30
0.0
 11
1860.06687502152
 21
-160.6319545002893
 31
0.0
  0
LINE
  5
EAA5
330
1E
100
AcDbEntity
  8
0
100
AcDbLine
 10
1948.21687502152
 20
-172.7179930268312
 30
0.0
 11
1860.06687502152
 21
-172.7179930268356
 31
0.0
  0
LINE
  5
EAA6
330
1E
100
AcDbEntity
  8
0
100
AcDbLine
 10
1948.21687502152
 20
-180.2179930298953
 30
0.0
 11
1860.06687502152
 21
-180.2179930299291
 31
0.0
  0
LINE
  5
EAA7
330
1E
100
AcDbEntity
  8
0
100
AcDbLine
 10
1948.21687502152
 20
-190.2493424341264
 30
0.0
 11
1643.003558121019
 21
-190.2493424341264
 31
0.0
  0
LINE
  5
EAA8
330
1E
100
AcDbEntity
  8
0
100
AcDbLine
 10
1674.730146287522
 20
-149.249311434377
 30
0.0
 11
1641.836631834612
 21
-149.249311434375
 31
0.0
  0
LINE
  5
EAAA
330
1E
100
AcDbEntity
  8
0
100
AcDbLine
 10
1676.36687502152
 20
-153.1319544968351
 30
0.0
 11
1640.164885110356
 21
-153.1319544968472
 31
0.0
  0
LINE
  5
EAAB
330
1E
100
AcDbEntity
  8
0
100
AcDbLine
 10
1676.36687502152
 20
-160.6319545004715
 30
0.0
 11
1641.101946515722
 21
-160.6319545005064
 31
0.0
  0
LINE
  5
EAAC
330
1E
100
AcDbEntity
  8
0
100
AcDbLine
 10
1676.36687502152
 20
-172.7179930268446
 30
0.0
 11
1640.606349662543
 21
-172.7179930268464
 31
0.0
  0
LINE
  5
EAAD
330
1E
100
AcDbEntity
  8
0
100
AcDbLine
 10
1676.36687502152
 20
-180.2179930299995
 30
0.0
 11
1640.622947199946
 21
-180.2179930300132
 31
0.0
  0
ENDSEC
  0
SECTION
  2
OBJECTS
  0
DICTIONARY
  5
C
330
0
100
AcDbDictionary
281
     1
  3
ACAD_COLOR
350
3D97
  3
ACAD_GROUP
350
D
  3
ACAD_LAYOUT
350
19
  3
ACAD_MATERIAL
350
3D96
  3
ACAD_MLINESTYLE
350
16
  3
ACAD_PLOTSETTINGS
350
18
  3
ACAD_PLOTSTYLENAME
350
E
  3
ACAD_TABLESTYLE
350
E7A3
  3
ACDBHEADERROUNDTRIPXREC
350
EAC7
  3
AcDbVariableDictionary
350
3E63
  0
DICTIONARY
  5
43C2
330
2
100
AcDbDictionary
280
     1
281
     1
  3
ACAD_LAYERSTATES
360
43C3
  0
DICTIONARY
  5
3D1E
330
1E
100
AcDbDictionary
280
     1
281
     1
  3
ACAD_LAYOUTSELFREF
360
3D92
  3
ACAD_SORTENTS
360
EAA9
  0
DICTIONARY
  5
3D20
330
1A
100
AcDbDictionary
280
     1
281
     1
  3
ACAD_LAYOUTSELFREF
360
3D91
  0
DICTIONARY
  5
69B8
330
69B7
100
AcDbDictionary
280
     1
281
     1
  3
ACAD_SORTENTS
360
69B9
  0
DICTIONARY
  5
69CC
330
69CB
100
AcDbDictionary
280
     1
281
     1
  3
ACAD_SORTENTS
360
69CD
  0
DICTIONARY
  5
3D97
102
{ACAD_REACTORS
330
C
102
}
330
C
100
AcDbDictionary
281
     1
  0
DICTIONARY
  5
D
102
{ACAD_REACTORS
330
C
102
}
330
C
100
AcDbDictionary
281
     1
  3
*A1
350
4143
  3
*A10
350
4378
  3
*A11
350
43BF
  3
*A12
350
423A
  3
*A13
350
414C
  3
*A14
350
579E
  3
*A15
350
4235
  3
*A16
350
437C
  3
*A17
350
414F
  3
*A18
350
437E
  3
*A19
350
4149
  3
*A2
350
4241
  3
*A20
350
4239
  3
*A21
350
4237
  3
*A22
350
423C
  3
*A23
350
43B6
  3
*A24
350
423B
  3
*A25
350
43B8
  3
*A26
350
576A
  3
*A27
350
4240
  3
*A28
350
423E
  3
*A29
350
4374
  3
*A3
350
43BB
  3
*A30
350
4373
  3
*A31
350
43BD
  3
*A32
350
4236
  3
*A33
350
4377
  3
*A34
350
4145
  3
*A35
350
437A
  3
*A36
350
4379
  3
*A37
350
43C1
  3
*A38
350
423D
  3
*A39
350
437D
  3
*A4
350
414D
  3
*A40
350
4146
  3
*A41
350
437F
  3
*A42
350
414B
  3
*A43
350
4375
  3
*A44
350
43B7
  3
*A45
350
414E
  3
*A46
350
43B9
  3
*A47
350
57D9
  3
*A48
350
437B
  3
*A49
350
43BC
  3
*A5
350
4144
  3
*A50
350
43BE
  3
*A51
350
4238
  3
*A52
350
43B5
  3
*A53
350
43C0
  3
*A54
350
4148
  3
*A55
350
423F
  3
*A56
350
43BA
  3
*A6
350
414A
  3
*A7
350
5691
  3
*A8
350
4376
  3
*A9
350
4147
  0
DICTIONARY
  5
19
102
{ACAD_REACTORS
330
C
102
}
330
C
100
AcDbDictionary
281
     1
  3
Model
350
21
  3
配置1
350
1D
  0
DICTIONARY
  5
3D96
102
{ACAD_REACTORS
330
C
102
}
330
C
100
AcDbDictionary
281
     1
  0
DICTIONARY
  5
16
102
{ACAD_REACTORS
330
C
102
}
330
C
100
AcDbDictionary
281
     1
  3
Standard
350
17
  0
DICTIONARY
  5
18
102
{ACAD_REACTORS
330
C
102
}
330
C
100
AcDbDictionary
281
     1
  3
LANSRO
350
4150
  0
ACDBDICTIONARYWDFLT
  5
E
102
{ACAD_REACTORS
330
C
102
}
330
C
100
AcDbDictionary
281
     1
  3
Normal
350
F
100
AcDbDictionaryWithDefault
340
F
  0
DICTIONARY
  5
E7A3
102
{ACAD_REACTORS
330
C
102
}
330
C
100
AcDbDictionary
281
     1
  3
Standard
350
E7A4
  0
DICTIONARY
  5
EAC7
102
{ACAD_REACTORS
330
C
102
}
330
C
100
AcDbDictionary
281
     1
  3
COLORDICT
350
EAC9
  3
MATERIALDICT
350
EAC8
  0
DICTIONARY
  5
3E63
102
{ACAD_REACTORS
330
C
102
}
330
C
100
AcDbDictionary
281
     1
  3
CTABLESTYLE
350
E8F8
  3
DIMASSOC
350
3E64
  3
PROJECTNAME
350
3E65
  0
DICTIONARY
  5
43C3
102
{ACAD_REACTORS
330
43C2
102
}
330
43C2
100
AcDbDictionary
281
     1
  0
XRECORD
  5
3D92
102
{ACAD_REACTORS
330
3D1E
102
}
330
3D1E
100
AcDbXrecord
280
     1
340
1E
  0
SORTENTSTABLE
  5
EAA9
102
{ACAD_REACTORS
330
3D1E
102
}
330
3D1E
100
AcDbSortentsTable
330
1E
331
D25E
  5
D25E
331
D49C
  5
D49C
331
D266
  5
D266
331
C230
  5
C230
331
D201
  5
D201
331
C2ED
  5
C2ED
331
C277
  5
C277
331
C2AE
  5
C2AE
331
C238
  5
C238
331
CF13
  5
CF13
331
CF4A
  5
CF4A
331
CF1B
  5
CF1B
331
C2F5
  5
C2F5
331
C083
  5
C083
331
C240
  5
C240
331
C27F
  5
C27F
331
C2B6
  5
C2B6
331
C1F7
  5
C1F7
331
CF23
  5
CF23
331
D0FA
  5
D0FA
331
C2BE
  5
C2BE
331
C2FD
  5
C2FD
331
C08B
  5
C08B
331
C248
  5
C248
331
C287
  5
C287
331
C0E2
  5
C0E2
331
C2C6
  5
C2C6
331
A2B4
  5
A2B4
331
C1FF
  5
C1FF
331
C1A0
  5
C1A0
331
C207
  5
C207
331
C0EA
  5
C0EA
331
D345
  5
D345
331
D26E
  5
D26E
331
D276
  5
D276
331
D34D
  5
D34D
331
D237
  5
D237
331
D23F
  5
D23F
331
D3C5
  5
D3C5
331
D247
  5
D247
331
D2BE
  5
D2BE
331
EAA4
  5
EAA6
331
C211
  5
C211
331
C250
  5
C250
331
CEF4
  5
CEF4
331
CF2B
  5
CF2B
331
C28F
  5
C28F
331
C2CE
  5
C2CE
331
C219
  5
C219
331
C258
  5
C258
331
C305
  5
C305
331
D1E2
  5
D1E2
331
C1A8
  5
C1A8
331
D1EA
  5
D1EA
331
C09B
  5
C09B
331
C0F2
  5
C0F2
331
C30D
  5
C30D
331
CEFC
  5
CEFC
331
C260
  5
C260
331
C297
  5
C297
331
C221
  5
C221
331
C2D6
  5
C2D6
331
CF33
  5
CF33
331
C171
  5
C171
331
C1B0
  5
C1B0
331
C044
  5
C044
331
CF3B
  5
CF3B
331
D1F2
  5
D1F2
331
C315
  5
C315
331
CF04
  5
CF04
331
C0A3
  5
C0A3
331
C0FA
  5
C0FA
331
C268
  5
C268
331
C29F
  5
C29F
331
C229
  5
C229
331
C2DE
  5
C2DE
331
C179
  5
C179
331
CF43
  5
CF43
331
D1FA
  5
D1FA
331
C2E6
  5
C2E6
331
C31D
  5
C31D
331
C2A7
  5
C2A7
331
CF0C
  5
CF0C
331
C0AB
  5
C0AB
331
C181
  5
C181
331
C07C
  5
C07C
331
C1E8
  5
C1E8
331
EAAC
  5
EAAA
331
D24F
  5
D24F
331
D32E
  5
D32E
331
D445
  5
D445
331
D257
  5
D257
331
D25F
  5
D25F
331
D267
  5
D267
331
C231
  5
C231
331
C270
  5
C270
331
CF14
  5
CF14
331
C2AF
  5
C2AF
331
C2EE
  5
C2EE
331
C239
  5
C239
331
C278
  5
C278
331
C084
  5
C084
331
D20A
  5
D20A
331
CF1C
  5
CF1C
331
D0F3
  5
D0F3
331
C280
  5
C280
331
C2B7
  5
C2B7
331
C241
  5
C241
331
C2F6
  5
C2F6
331
C1F0
  5
C1F0
331
C08C
  5
C08C
331
C2FE
  5
C2FE
331
C2BF
  5
C2BF
331
CF24
  5
CF24
331
C249
  5
C249
331
D0FB
  5
D0FB
331
A2B5
  5
A2B5
331
C0E3
  5
C0E3
331
C2C7
  5
C2C7
331
C1A1
  5
C1A1
331
D218
  5
D218
331
D26F
  5
D26F
331
D346
  5
D346
331
D34E
  5
D34E
331
D238
  5
D238
331
D277
  5
D277
331
D3BE
  5
D3BE
331
D240
  5
D240
331
EAA5
  5
EAA8
331
D2BF
  5
D2BF
331
D3C6
  5
D3C6
331
C251
  5
C251
331
C288
  5
C288
331
C212
  5
C212
331
CF2C
  5
CF2C
331
D1E3
  5
D1E3
331
C2CF
  5
C2CF
331
C306
  5
C306
331
C259
  5
C259
331
C290
  5
C290
331
CEF5
  5
CEF5
331
C21A
  5
C21A
331
C09C
  5
C09C
331
C03D
  5
C03D
331
CF34
  5
CF34
331
D1EB
  5
D1EB
331
C1A9
  5
C1A9
331
C2D7
  5
C2D7
331
C30E
  5
C30E
331
C222
  5
C222
331
C261
  5
C261
331
C298
  5
C298
331
CEFD
  5
CEFD
331
C1B1
  5
C1B1
331
C0A4
  5
C0A4
331
C045
  5
C045
331
CF05
  5
CF05
331
CF3C
  5
CF3C
331
C2A0
  5
C2A0
331
C2DF
  5
C2DF
331
C22A
  5
C22A
331
C269
  5
C269
331
C316
  5
C316
331
D1F3
  5
D1F3
331
D1FB
  5
D1FB
331
C0AC
  5
C0AC
331
C31E
  5
C31E
331
CF0D
  5
CF0D
331
C2E7
  5
C2E7
331
CF44
  5
CF44
331
C07D
  5
C07D
331
C1E9
  5
C1E9
331
D248
  5
D248
331
D250
  5
D250
331
EAAD
  5
EAAC
331
D446
  5
D446
331
D258
  5
D258
331
D32F
  5
D32F
331
D260
  5
D260
331
C271
  5
C271
331
C2A8
  5
C2A8
331
C232
  5
C232
331
C2EF
  5
C2EF
331
C279
  5
C279
331
C2B0
  5
C2B0
331
C23A
  5
C23A
331
CF15
  5
CF15
331
C1F1
  5
C1F1
331
D20B
  5
D20B
331
CF1D
  5
CF1D
331
D0F4
  5
D0F4
331
C2F7
  5
C2F7
331
C085
  5
C085
331
C242
  5
C242
331
C281
  5
C281
331
C2B8
  5
C2B8
331
D213
  5
D213
331
CF25
  5
CF25
331
D0FC
  5
D0FC
331
C2C0
  5
C2C0
331
C24A
  5
C24A
331
C2FF
  5
C2FF
331
C08D
  5
C08D
331
C0E4
  5
C0E4
331
A2B6
  5
A2B6
331
C163
  5
C163
331
C1A2
  5
C1A2
331
C0EC
  5
C0EC
331
D219
  5
D219
331
D268
  5
D268
331
D270
  5
D270
331
D347
  5
D347
331
D278
  5
D278
331
D34F
  5
D34F
331
D239
  5
D239
331
D241
  5
D241
331
D3BF
  5
D3BF
331
D3C7
  5
D3C7
331
EAA6
  5
EAAB
331
C2C8
  5
C2C8
331
C213
  5
C213
331
C252
  5
C252
331
C289
  5
C289
331
CEF6
  5
CEF6
331
CF2D
  5
CF2D
331
C291
  5
C291
331
C2D0
  5
C2D0
331
C21B
  5
C21B
331
C25A
  5
C25A
331
C307
  5
C307
331
D1E4
  5
D1E4
331
C1AA
  5
C1AA
331
C03E
  5
C03E
331
D1EC
  5
D1EC
331
C09D
  5
C09D
331
C0F4
  5
C0F4
331
C30F
  5
C30F
331
CEFE
  5
CEFE
331
C262
  5
C262
331
C299
  5
C299
331
C223
  5
C223
331
C2D8
  5
C2D8
331
CF35
  5
CF35
331
C1B2
  5
C1B2
331
C046
  5
C046
331
CF3D
  5
CF3D
331
D1F4
  5
D1F4
331
C2E0
  5
C2E0
331
C317
  5
C317
331
C26A
  5
C26A
331
C2A1
  5
C2A1
331
CF06
  5
CF06
331
C0A5
  5
C0A5
331
C22B
  5
C22B
331
C0AD
  5
C0AD
331
C17B
  5
C17B
331
CF45
  5
CF45
331
D1FC
  5
D1FC
331
C31F
  5
C31F
331
CF0E
  5
CF0E
331
C1EA
  5
C1EA
331
C11C
  5
C11C
331
C183
  5
C183
331
C07E
  5
C07E
331
D249
  5
D249
331
D2E0
  5
D2E0
331
D251
  5
D251
331
D330
  5
D330
331
D447
  5
D447
331
D259
  5
D259
331
D261
  5
D261
331
C2E8
  5
C2E8
331
C233
  5
C233
331
C272
  5
C272
331
C2A9
  5
C2A9
331
CF16
  5
CF16
331
C27A
  5
C27A
331
C2B1
  5
C2B1
331
C23B
  5
C23B
331
C2F0
  5
C2F0
331
C1F2
  5
C1F2
331
C086
  5
C086
331
CF1E
  5
CF1E
331
D0F5
  5
D0F5
331
C282
  5
C282
331
C2B9
  5
C2B9
331
C243
  5
C243
331
C2F8
  5
C2F8
331
C08E
  5
C08E
331
D0FD
  5
D0FD
331
D214
  5
D214
331
C2C1
  5
C2C1
331
CF26
  5
CF26
331
C24B
  5
C24B
331
C164
  5
C164
331
A2B7
  5
A2B7
331
CEEF
  5
CEEF
331
C0E5
  5
C0E5
331
C1A3
  5
C1A3
331
C0ED
  5
C0ED
331
D269
  5
D269
331
D271
  5
D271
331
D348
  5
D348
331
D23A
  5
D23A
331
D279
  5
D279
331
D3C0
  5
D3C0
331
D242
  5
D242
331
EAA7
  5
EAAD
331
C300
  5
C300
331
C253
  5
C253
331
C28A
  5
C28A
331
C2C9
  5
C2C9
331
CF2E
  5
CF2E
331
D1E5
  5
D1E5
331
C2D1
  5
C2D1
331
C308
  5
C308
331
C21C
  5
C21C
331
C25B
  5
C25B
331
C292
  5
C292
331
CEF7
  5
CEF7
331
C09E
  5
C09E
331
C0F5
  5
C0F5
331
C16C
  5
C16C
331
C03F
  5
C03F
331
CEFF
  5
CEFF
331
CF36
  5
CF36
331
C2D9
  5
C2D9
331
C310
  5
C310
331
D1ED
  5
D1ED
331
C1AB
  5
C1AB
331
C224
  5
C224
331
C263
  5
C263
331
C29A
  5
C29A
331
C1B3
  5
C1B3
331
C0A6
  5
C0A6
331
C047
  5
C047
331
CF07
  5
CF07
331
C2A2
  5
C2A2
331
C2E1
  5
C2E1
331
CF3E
  5
CF3E
331
C22C
  5
C22C
331
C26B
  5
C26B
331
D1F5
  5
D1F5
331
C1E3
  5
C1E3
331
D1FD
  5
D1FD
331
C0AE
  5
C0AE
331
CF0F
  5
CF0F
331
CF46
  5
CF46
331
C17C
  5
C17C
331
C184
  5
C184
331
C0C6
  5
C0C6
331
C07F
  5
C07F
331
C1EB
  5
C1EB
331
D2E1
  5
D2E1
331
D3C8
  5
D3C8
331
D24A
  5
D24A
331
D252
  5
D252
331
D448
  5
D448
331
D25A
  5
D25A
331
D331
  5
D331
331
D262
  5
D262
331
C2E9
  5
C2E9
331
C320
  5
C320
331
C273
  5
C273
331
C2AA
  5
C2AA
331
C234
  5
C234
331
C2F1
  5
C2F1
331
C27B
  5
C27B
331
C2B2
  5
C2B2
331
C23C
  5
C23C
331
CF17
  5
CF17
331
CF1F
  5
CF1F
331
D0F6
  5
D0F6
331
C2F9
  5
C2F9
331
C1F3
  5
C1F3
331
C244
  5
C244
331
C283
  5
C283
331
C2BA
  5
C2BA
331
C155
  5
C155
331
D215
  5
D215
331
C2C2
  5
C2C2
331
CF27
  5
CF27
331
C24C
  5
C24C
331
D0FE
  5
D0FE
331
C08F
  5
C08F
331
C097
  5
C097
331
C0E6
  5
C0E6
331
A2B8
  5
A2B8
331
C1A4
  5
C1A4
331
C0EE
  5
C0EE
331
D26A
  5
D26A
331
D272
  5
D272
331
D349
  5
D349
331
D233
  5
D233
331
D23B
  5
D23B
331
D243
  5
D243
331
D3C1
  5
D3C1
331
CEF0
  5
CEF0
331
C28B
  5
C28B
331
C2CA
  5
C2CA
331
C254
  5
C254
331
C301
  5
C301
331
D1E6
  5
D1E6
331
CEF8
  5
CEF8
331
CF2F
  5
CF2F
331
C293
  5
C293
331
C2D2
  5
C2D2
331
C21D
  5
C21D
331
C25C
  5
C25C
331
C309
  5
C309
331
C16D
  5
C16D
331
C1AC
  5
C1AC
331
C040
  5
C040
331
D1EE
  5
D1EE
331
C09F
  5
C09F
331
C311
  5
C311
331
CF00
  5
CF00
331
C264
  5
C264
331
C29B
  5
C29B
331
C225
  5
C225
331
C2DA
  5
C2DA
331
CF37
  5
CF37
331
C048
  5
C048
331
CF3F
  5
CF3F
331
D1F6
  5
D1F6
331
C2E2
  5
C2E2
331
C319
  5
C319
331
C22D
  5
C22D
331
C26C
  5
C26C
331
C2A3
  5
C2A3
331
CF08
  5
CF08
331
C0A7
  5
C0A7
331
C0AF
  5
C0AF
331
C17D
  5
C17D
331
CF47
  5
CF47
331
D1FE
  5
D1FE
331
C1E4
  5
C1E4
331
C1EC
  5
C1EC
331
C185
  5
C185
331
C0C7
  5
C0C7
331
D2E2
  5
D2E2
331
D24B
  5
D24B
331
EAA8
  5
EAA3
331
D32A
  5
D32A
331
D441
  5
D441
331
D253
  5
D253
331
D332
  5
D332
331
D449
  5
D449
331
D25B
  5
D25B
331
D263
  5
D263
331
CF10
  5
CF10
331
C2EA
  5
C2EA
331
C321
  5
C321
331
C235
  5
C235
331
C274
  5
C274
331
C2AB
  5
C2AB
331
CF18
  5
CF18
331
C27C
  5
C27C
331
C2B3
  5
C2B3
331
C23D
  5
C23D
331
C2F2
  5
C2F2
331
C080
  5
C080
331
C1F4
  5
C1F4
331
C2FA
  5
C2FA
331
C284
  5
C284
331
C2BB
  5
C2BB
331
CF20
  5
CF20
331
C245
  5
C245
331
D0F7
  5
D0F7
331
C18D
  5
C18D
331
C156
  5
C156
331
C1FC
  5
C1FC
331
A2B1
  5
A2B1
331
C090
  5
C090
331
C0DF
  5
C0DF
331
D0FF
  5
D0FF
331
C2C3
  5
C2C3
331
D216
  5
D216
331
C24D
  5
C24D
331
C204
  5
C204
331
C0E7
  5
C0E7
331
C1A5
  5
C1A5
331
C0EF
  5
C0EF
331
D26B
  5
D26B
331
D234
  5
D234
331
D273
  5
D273
331
D34A
  5
D34A
331
D23C
  5
D23C
331
D27B
  5
D27B
331
D3C2
  5
D3C2
331
D244
  5
D244
331
C302
  5
C302
331
CEF1
  5
CEF1
331
C255
  5
C255
331
C28C
  5
C28C
331
C216
  5
C216
331
C2CB
  5
C2CB
331
CF28
  5
CF28
331
CF30
  5
CF30
331
D1E7
  5
D1E7
331
C2D3
  5
C2D3
331
C30A
  5
C30A
331
C21E
  5
C21E
331
C25D
  5
C25D
331
C294
  5
C294
331
CEF9
  5
CEF9
331
C098
  5
C098
331
C0A0
  5
C0A0
331
C16E
  5
C16E
331
C041
  5
C041
331
CF01
  5
CF01
331
CF38
  5
CF38
331
C29C
  5
C29C
331
C2DB
  5
C2DB
331
C226
  5
C226
331
C265
  5
C265
331
C312
  5
C312
331
D1EF
  5
D1EF
331
C1AD
  5
C1AD
331
D1F7
  5
D1F7
331
C0A8
  5
C0A8
331
CF09
  5
CF09
331
CF40
  5
CF40
331
C176
  5
C176
331
C2A4
  5
C2A4
331
C2E3
  5
C2E3
331
C22E
  5
C22E
331
C26D
  5
C26D
331
C31A
  5
C31A
331
C17E
  5
C17E
331
D1FF
  5
D1FF
331
C1E5
  5
C1E5
331
C1ED
  5
C1ED
331
D24C
  5
D24C
331
D254
  5
D254
331
D32B
  5
D32B
331
D442
  5
D442
331
D333
  5
D333
331
D44A
  5
D44A
331
D25C
  5
D25C
331
D264
  5
D264
331
C2EB
  5
C2EB
331
C322
  5
C322
331
C275
  5
C275
331
C2AC
  5
C2AC
331
C236
  5
C236
331
CF11
  5
CF11
331
CF48
  5
CF48
331
C0C8
  5
C0C8
331
CF19
  5
CF19
331
C2F3
  5
C2F3
331
C081
  5
C081
331
C23E
  5
C23E
331
C27D
  5
C27D
331
C2B4
  5
C2B4
331
C137
  5
C137
331
C1F5
  5
C1F5
331
CF21
  5
CF21
331
D0F8
  5
D0F8
331
C2FB
  5
C2FB
331
C0D8
  5
C0D8
331
C246
  5
C246
331
C285
  5
C285
331
C2BC
  5
C2BC
331
C0E0
  5
C0E0
331
C196
  5
C196
331
C1FD
  5
C1FD
331
D217
  5
D217
331
A2B2
  5
A2B2
331
D100
  5
D100
331
C2C4
  5
C2C4
331
C24E
  5
C24E
331
CEEA
  5
CEEA
331
C091
  5
C091
331
C205
  5
C205
331
C19E
  5
C19E
331
C1A6
  5
C1A6
331
D26C
  5
D26C
331
D274
  5
D274
331
D34B
  5
D34B
331
D235
  5
D235
331
D23D
  5
D23D
331
D27C
  5
D27C
331
EAA2
  5
EAA2
331
D245
  5
D245
331
D3C3
  5
D3C3
331
CEF2
  5
CEF2
331
CF29
  5
CF29
331
C28D
  5
C28D
331
C2CC
  5
C2CC
331
C217
  5
C217
331
C256
  5
C256
331
C303
  5
C303
331
D1E8
  5
D1E8
331
C099
  5
C099
331
C0F0
  5
C0F0
331
C30B
  5
C30B
331
CEFA
  5
CEFA
331
C295
  5
C295
331
C2D4
  5
C2D4
331
CF31
  5
CF31
331
C21F
  5
C21F
331
C25E
  5
C25E
331
C1AE
  5
C1AE
331
C042
  5
C042
331
D1F0
  5
D1F0
331
C0A1
  5
C0A1
331
C313
  5
C313
331
CF02
  5
CF02
331
C266
  5
C266
331
C29D
  5
C29D
331
C227
  5
C227
331
C2DC
  5
C2DC
331
CF39
  5
CF39
331
C177
  5
C177
331
CF41
  5
CF41
331
D1F8
  5
D1F8
331
C2E4
  5
C2E4
331
C22F
  5
C22F
331
C26E
  5
C26E
331
C2A5
  5
C2A5
331
CF0A
  5
CF0A
331
C0A9
  5
C0A9
331
C110
  5
C110
331
C17F
  5
C17F
331
C1E6
  5
C1E6
331
C1EE
  5
C1EE
331
EAAA
  5
EAA5
331
D24D
  5
D24D
331
D32C
  5
D32C
331
D443
  5
D443
331
D255
  5
D255
331
D334
  5
D334
331
D44B
  5
D44B
331
D25D
  5
D25D
331
D265
  5
D265
331
D200
  5
D200
331
CF12
  5
CF12
331
CF49
  5
CF49
331
C2AD
  5
C2AD
331
C2EC
  5
C2EC
331
C323
  5
C323
331
C237
  5
C237
331
C276
  5
C276
331
C082
  5
C082
331
CF1A
  5
CF1A
331
C0C9
  5
C0C9
331
C27E
  5
C27E
331
C2B5
  5
C2B5
331
C23F
  5
C23F
331
C2F4
  5
C2F4
331
C32B
  5
C32B
331
C1F6
  5
C1F6
331
C2FC
  5
C2FC
331
C286
  5
C286
331
C2BD
  5
C2BD
331
CF22
  5
CF22
331
C247
  5
C247
331
D0F9
  5
D0F9
331
C1FE
  5
C1FE
331
A2B3
  5
A2B3
331
D101
  5
D101
331
C092
  5
C092
331
C0E1
  5
C0E1
331
C24F
  5
C24F
331
C2C5
  5
C2C5
331
C19F
  5
C19F
331
C206
  5
C206
331
C0E9
  5
C0E9
331
C1A7
  5
C1A7
331
D26D
  5
D26D
331
D34C
  5
D34C
331
D236
  5
D236
331
D275
  5
D275
331
D23E
  5
D23E
331
EAA3
  5
EAA4
331
D3C4
  5
D3C4
331
D246
  5
D246
331
C210
  5
C210
331
CF2A
  5
CF2A
331
C304
  5
C304
331
CEF3
  5
CEF3
331
C257
  5
C257
331
C218
  5
C218
331
C2CD
  5
C2CD
331
C0F1
  5
C0F1
331
CF32
  5
CF32
331
D1E9
  5
D1E9
331
C2D5
  5
C2D5
331
C30C
  5
C30C
331
C220
  5
C220
331
C25F
  5
C25F
331
C296
  5
C296
331
CEFB
  5
CEFB
331
C09A
  5
C09A
331
C0A2
  5
C0A2
331
C0F9
  5
C0F9
331
C170
  5
C170
331
C043
  5
C043
331
CF03
  5
CF03
331
CF3A
  5
CF3A
331
C29E
  5
C29E
331
C2DD
  5
C2DD
331
C228
  5
C228
331
C267
  5
C267
331
C314
  5
C314
331
D1F1
  5
D1F1
331
C1AF
  5
C1AF
331
D1F9
  5
D1F9
331
C0AA
  5
C0AA
331
C31C
  5
C31C
331
CF0B
  5
CF0B
331
C2A6
  5
C2A6
331
C2E5
  5
C2E5
331
CF42
  5
CF42
331
C178
  5
C178
331
C26F
  5
C26F
331
C180
  5
C180
331
C1E7
  5
C1E7
331
C1EF
  5
C1EF
331
D24E
  5
D24E
331
EAAB
  5
EAA7
331
D256
  5
D256
331
D32D
  5
D32D
331
D444
  5
D444
  0
XRECORD
  5
3D91
102
{ACAD_REACTORS
330
3D20
102
}
330
3D20
100
AcDbXrecord
280
     1
340
1A
  0
SORTENTSTABLE
  5
69B9
102
{ACAD_REACTORS
330
69B8
102
}
330
69B8
100
AcDbSortentsTable
330
69B7
  0
SORTENTSTABLE
  5
69CD
102
{ACAD_REACTORS
330
69CC
102
}
330
69CC
100
AcDbSortentsTable
330
69CB
  0
GROUP
  5
4143
102
{ACAD_REACTORS
330
D
102
}
330
D
100
AcDbGroup
300

 70
     1
 71
     1
  0
GROUP
  5
4378
102
{ACAD_REACTORS
330
D
102
}
330
D
100
AcDbGroup
300

 70
     1
 71
     1
  0
GROUP
  5
43BF
102
{ACAD_REACTORS
330
D
102
}
330
D
100
AcDbGroup
300

 70
     1
 71
     1
  0
GROUP
  5
423A
102
{ACAD_REACTORS
330
D
102
}
330
D
100
AcDbGroup
300

 70
     1
 71
     1
  0
GROUP
  5
414C
102
{ACAD_REACTORS
330
D
102
}
330
D
100
AcDbGroup
300

 70
     1
 71
     1
  0
GROUP
  5
579E
102
{ACAD_REACTORS
330
D
102
}
330
D
100
AcDbGroup
300

 70
     1
 71
     1
  0
GROUP
  5
4235
102
{ACAD_REACTORS
330
D
102
}
330
D
100
AcDbGroup
300

 70
     1
 71
     1
  0
GROUP
  5
437C
102
{ACAD_REACTORS
330
D
102
}
330
D
100
AcDbGroup
300

 70
     1
 71
     1
  0
GROUP
  5
414F
102
{ACAD_REACTORS
330
D
102
}
330
D
100
AcDbGroup
300

 70
     1
 71
     1
  0
GROUP
  5
437E
102
{ACAD_REACTORS
330
D
102
}
330
D
100
AcDbGroup
300

 70
     1
 71
     1
  0
GROUP
  5
4149
102
{ACAD_REACTORS
330
D
102
}
330
D
100
AcDbGroup
300

 70
     1
 71
     1
  0
GROUP
  5
4241
102
{ACAD_REACTORS
330
D
102
}
330
D
100
AcDbGroup
300

 70
     1
 71
     1
  0
GROUP
  5
4239
102
{ACAD_REACTORS
330
D
102
}
330
D
100
AcDbGroup
300

 70
     1
 71
     1
  0
GROUP
  5
4237
102
{ACAD_REACTORS
330
D
102
}
330
D
100
AcDbGroup
300

 70
     1
 71
     1
  0
GROUP
  5
423C
102
{ACAD_REACTORS
330
D
102
}
330
D
100
AcDbGroup
300

 70
     1
 71
     1
  0
GROUP
  5
43B6
102
{ACAD_REACTORS
330
D
102
}
330
D
100
AcDbGroup
300

 70
     1
 71
     1
  0
GROUP
  5
423B
102
{ACAD_REACTORS
330
D
102
}
330
D
100
AcDbGroup
300

 70
     1
 71
     1
  0
GROUP
  5
43B8
102
{ACAD_REACTORS
330
D
102
}
330
D
100
AcDbGroup
300

 70
     1
 71
     1
  0
GROUP
  5
576A
102
{ACAD_REACTORS
330
D
102
}
330
D
100
AcDbGroup
300

 70
     1
 71
     1
  0
GROUP
  5
4240
102
{ACAD_REACTORS
330
D
102
}
330
D
100
AcDbGroup
300

 70
     1
 71
     1
  0
GROUP
  5
423E
102
{ACAD_REACTORS
330
D
102
}
330
D
100
AcDbGroup
300

 70
     1
 71
     1
  0
GROUP
  5
4374
102
{ACAD_REACTORS
330
D
102
}
330
D
100
AcDbGroup
300

 70
     1
 71
     1
  0
GROUP
  5
43BB
102
{ACAD_REACTORS
330
D
102
}
330
D
100
AcDbGroup
300

 70
     1
 71
     1
  0
GROUP
  5
4373
102
{ACAD_REACTORS
330
D
102
}
330
D
100
AcDbGroup
300

 70
     1
 71
     1
  0
GROUP
  5
43BD
102
{ACAD_REACTORS
330
D
102
}
330
D
100
AcDbGroup
300

 70
     1
 71
     1
  0
GROUP
  5
4236
102
{ACAD_REACTORS
330
D
102
}
330
D
100
AcDbGroup
300

 70
     1
 71
     1
  0
GROUP
  5
4377
102
{ACAD_REACTORS
330
D
102
}
330
D
100
AcDbGroup
300

 70
     1
 71
     1
  0
GROUP
  5
4145
102
{ACAD_REACTORS
330
D
102
}
330
D
100
AcDbGroup
300

 70
     1
 71
     1
  0
GROUP
  5
437A
102
{ACAD_REACTORS
330
D
102
}
330
D
100
AcDbGroup
300

 70
     1
 71
     1
  0
GROUP
  5
4379
102
{ACAD_REACTORS
330
D
102
}
330
D
100
AcDbGroup
300

 70
     1
 71
     1
  0
GROUP
  5
43C1
102
{ACAD_REACTORS
330
D
102
}
330
D
100
AcDbGroup
300

 70
     1
 71
     1
  0
GROUP
  5
423D
102
{ACAD_REACTORS
330
D
102
}
330
D
100
AcDbGroup
300

 70
     1
 71
     1
  0
GROUP
  5
437D
102
{ACAD_REACTORS
330
D
102
}
330
D
100
AcDbGroup
300

 70
     1
 71
     1
  0
GROUP
  5
414D
102
{ACAD_REACTORS
330
D
102
}
330
D
100
AcDbGroup
300

 70
     1
 71
     1
  0
GROUP
  5
4146
102
{ACAD_REACTORS
330
D
102
}
330
D
100
AcDbGroup
300

 70
     1
 71
     1
  0
GROUP
  5
437F
102
{ACAD_REACTORS
330
D
102
}
330
D
100
AcDbGroup
300

 70
     1
 71
     1
  0
GROUP
  5
414B
102
{ACAD_REACTORS
330
D
102
}
330
D
100
AcDbGroup
300

 70
     1
 71
     1
  0
GROUP
  5
4375
102
{ACAD_REACTORS
330
D
102
}
330
D
100
AcDbGroup
300

 70
     1
 71
     1
  0
GROUP
  5
43B7
102
{ACAD_REACTORS
330
D
102
}
330
D
100
AcDbGroup
300

 70
     1
 71
     1
  0
GROUP
  5
414E
102
{ACAD_REACTORS
330
D
102
}
330
D
100
AcDbGroup
300

 70
     1
 71
     1
  0
GROUP
  5
43B9
102
{ACAD_REACTORS
330
D
102
}
330
D
100
AcDbGroup
300

 70
     1
 71
     1
  0
GROUP
  5
57D9
102
{ACAD_REACTORS
330
D
102
}
330
D
100
AcDbGroup
300

 70
     1
 71
     1
  0
GROUP
  5
437B
102
{ACAD_REACTORS
330
D
102
}
330
D
100
AcDbGroup
300

 70
     1
 71
     1
  0
GROUP
  5
43BC
102
{ACAD_REACTORS
330
D
102
}
330
D
100
AcDbGroup
300

 70
     1
 71
     1
  0
GROUP
  5
4144
102
{ACAD_REACTORS
330
D
102
}
330
D
100
AcDbGroup
300

 70
     1
 71
     1
  0
GROUP
  5
43BE
102
{ACAD_REACTORS
330
D
102
}
330
D
100
AcDbGroup
300

 70
     1
 71
     1
  0
GROUP
  5
4238
102
{ACAD_REACTORS
330
D
102
}
330
D
100
AcDbGroup
300

 70
     1
 71
     1
  0
GROUP
  5
43B5
102
{ACAD_REACTORS
330
D
102
}
330
D
100
AcDbGroup
300

 70
     1
 71
     1
  0
GROUP
  5
43C0
102
{ACAD_REACTORS
330
D
102
}
330
D
100
AcDbGroup
300

 70
     1
 71
     1
  0
GROUP
  5
4148
102
{ACAD_REACTORS
330
D
102
}
330
D
100
AcDbGroup
300

 70
     1
 71
     1
  0
GROUP
  5
423F
102
{ACAD_REACTORS
330
D
102
}
330
D
100
AcDbGroup
300

 70
     1
 71
     1
  0
GROUP
  5
43BA
102
{ACAD_REACTORS
330
D
102
}
330
D
100
AcDbGroup
300

 70
     1
 71
     1
  0
GROUP
  5
414A
102
{ACAD_REACTORS
330
D
102
}
330
D
100
AcDbGroup
300

 70
     1
 71
     1
  0
GROUP
  5
5691
102
{ACAD_REACTORS
330
D
102
}
330
D
100
AcDbGroup
300

 70
     1
 71
     1
  0
GROUP
  5
4376
102
{ACAD_REACTORS
330
D
102
}
330
D
100
AcDbGroup
300

 70
     1
 71
     1
  0
GROUP
  5
4147
102
{ACAD_REACTORS
330
D
102
}
330
D
100
AcDbGroup
300

 70
     1
 71
     1
  0
LAYOUT
  5
21
102
{ACAD_XDICTIONARY
360
EACC
102
}
102
{ACAD_REACTORS
330
19
102
}
330
19
100
AcDbPlotSettings
  1

  2
HP 2200
  4

  6

 40
0.0
 41
0.0
 42
0.0
 43
0.0
 44
0.0
 45
0.0
 46
0.0
 47
0.0
 48
0.0
 49
0.0
140
0.0
141
0.0
142
1.0
143
1.0
 70
  1712
 72
     0
 73
     0
 74
     0
  7
AAA.ctb
 75
     0
147
1.0
148
0.0
149
0.0
100
AcDbLayout
  1
Model
 70
     1
 71
     0
 10
0.0
 20
0.0
 11
12.0
 21
9.0
 12
0.0
 22
0.0
 32
0.0
 14
0.0
 24
0.0
 34
0.0
 15
0.0
 25
0.0
 35
0.0
146
0.0
 13
0.0
 23
0.0
 33
0.0
 16
1.0
 26
0.0
 36
0.0
 17
0.0
 27
1.0
 37
0.0
 76
     0
330
1E
  0
LAYOUT
  5
1D
102
{ACAD_XDICTIONARY
360
EACA
102
}
102
{ACAD_REACTORS
330
19
102
}
330
19
100
AcDbPlotSettings
  1

  2
HP 2200
  4

  6

 40
0.0
 41
0.0
 42
0.0
 43
0.0
 44
0.0
 45
0.0
 46
0.0
 47
0.0
 48
0.0
 49
0.0
140
0.0
141
0.0
142
1.0
143
1.0
 70
   688
 72
     0
 73
     0
 74
     5
  7
AAA.ctb
 75
    16
147
1.0
148
0.0
149
0.0
100
AcDbLayout
  1
配置1
 70
     0
 71
     1
 10
0.0
 20
0.0
 11
12.0
 21
9.0
 12
0.0
 22
0.0
 32
0.0
 14
1.000000000000000E+20
 24
1.000000000000000E+20
 34
1.000000000000000E+20
 15
-1.000000000000000E+20
 25
-1.000000000000000E+20
 35
-1.000000000000000E+20
146
0.0
 13
0.0
 23
0.0
 33
0.0
 16
1.0
 26
0.0
 36
0.0
 17
0.0
 27
1.0
 37
0.0
 76
     0
330
1A
  0
MLINESTYLE
  5
17
102
{ACAD_REACTORS
330
16
102
}
330
16
100
AcDbMlineStyle
  2
STANDARD
 70
     0
  3

 62
   256
 51
90.0
 52
90.0
 71
     2
 49
0.5
 62
   256
  6
BYLAYER
 49
-0.5
 62
   256
  6
BYLAYER
  0
PLOTSETTINGS
  5
4150
102
{ACAD_XDICTIONARY
360
EACE
102
}
102
{ACAD_REACTORS
330
18
102
}
330
18
100
AcDbPlotSettings
  1
LANSRO
  2
\\1260\HP2200
  4
A4
  6

 40
6.043083190917968
 41
6.762742042541503
 42
7.736419677734375
 43
5.027069091796875
 44
209.9733276367187
 45
296.9683227539062
 46
5.15
 47
0.0
 48
0.0
 49
0.0
140
0.0
141
0.0
142
1.0
143
0.8829829263240881
 70
  1716
 72
     1
 73
     1
 74
     0
  7
AAA.ctb
 75
     0
147
1.132524729739748
148
-132.297014905803
149
-71.78507365635891
  0
ACDBPLACEHOLDER
  5
F
102
{ACAD_REACTORS
330
E
102
}
330
E
  0
ACAD_PROXY_OBJECT
  5
E7A4
102
{ACAD_REACTORS
330
E7A3
102
}
330
E7A3
100
AcDbProxyObject
 90
      499
 91
      514
 95
   983063
 70
     0
 93
     1841
310
4214DD185B99185C9928B81E85EB51B8AE3F2E07A17AD46E2B8FC02B5E8DC0F42B1CFD028000000C1008070000C3001FDFF8000000C1003FBFF000000182007F7FE00000030400FEFFC00000060801FDFF8000000C1003FBFF00000018200000000000000681FA0B0000001820100E000186003FBFF000000182007F7FE000
310
00030400FEFFC00000060801FDFF8000000C1003FBFF000000182007F7FE000000304000AD7A3703D0AC73F4160000003040201C00030C007F7FE00000030400FEFFC00000060801FDFF8000000C1003FBFF000000182007F7FE00000030400FEFFC000000608051
340
11
340
11
340
11
 94
        0
1001
ACAD
1000
AcRTDxfName
1000
TABLESTYLE
  0
XRECORD
  5
EAC9
102
{ACAD_REACTORS
330
EAC7
102
}
330
EAC7
100
AcDbXrecord
280
     1
340
3D97
  0
XRECORD
  5
EAC8
102
{ACAD_REACTORS
330
EAC7
102
}
330
EAC7
100
AcDbXrecord
280
     1
340
3D96
  0
DICTIONARYVAR
  5
E8F8
102
{ACAD_REACTORS
330
3E63
102
}
330
3E63
100
DictionaryVariables
280
     0
  1
STANDARD
  0
DICTIONARYVAR
  5
3E64
102
{ACAD_REACTORS
330
3E63
102
}
330
3E63
100
DictionaryVariables
280
     0
  1
1
  0
DICTIONARYVAR
  5
3E65
102
{ACAD_REACTORS
330
3E63
102
}
330
3E63
100
DictionaryVariables
280
     0
  1

  0
DICTIONARY
  5
EACC
330
21
100
AcDbDictionary
280
     1
281
     1
  3
ACAD_XREC_ROUNDTRIP
360
EACD
  0
DICTIONARY
  5
EACA
330
1D
100
AcDbDictionary
280
     1
281
     1
  3
ACAD_XREC_ROUNDTRIP
360
EACB
  0
DICTIONARY
  5
EACE
330
4150
100
AcDbDictionary
280
     1
281
     1
  3
ACAD_XREC_ROUNDTRIP
360
EACF
  0
XRECORD
  5
EACD
102
{ACAD_REACTORS
330
EACC
102
}
330
EACC
100
AcDbXrecord
280
     1
102
SHADEPLOT
 70
     0
102
SHADEPLOTRESLEVEL
 70
     2
102
SHADEPLOTCUSTOMDPI
 70
   300
  0
XRECORD
  5
EACB
102
{ACAD_REACTORS
330
EACA
102
}
330
EACA
100
AcDbXrecord
280
     1
102
SHADEPLOT
 70
     0
102
SHADEPLOTRESLEVEL
 70
     2
102
SHADEPLOTCUSTOMDPI
 70
   300
  0
XRECORD
  5
EACF
102
{ACAD_REACTORS
330
EACE
102
}
330
EACE
100
AcDbXrecord
280
     1
102
SHADEPLOT
 70
     0
102
SHADEPLOTRESLEVEL
 70
     2
102
SHADEPLOTCUSTOMDPI
 70
   300
  0
ENDSEC
  0
EOF
