  0
SECTION
  2
HEADER
  9
$ACADVER
  1
AC1015
  9
$ACADMAINTVER
 70
    20
  9
$DWGCODEPAGE
  3
ANSI_950
  9
$INSBASE
 10
0.0
 20
0.0
 30
0.0
  9
$EXTMIN
 10
815.346324415746
 20
-248.9692298923205
 30
-3.0
  9
$EXTMAX
 10
1373.635395613223
 20
93.84395582043817
 30
3.191352311763766
  9
$LIMMIN
 10
-10.0
 20
-15.0
  9
$LIMMAX
 10
120.0
 20
90.0
  9
$ORTHOMODE
 70
     1
  9
$REGENMODE
 70
     0
  9
$FILLMODE
 70
     1
  9
$QTEXTMODE
 70
     0
  9
$MIRRTEXT
 70
     0
  9
$LTSCALE
 40
3.0
  9
$ATTMODE
 70
     1
  9
$TEXTSIZE
 40
3.0
  9
$TRACEWID
 40
1.0
  9
$TEXTSTYLE
  7
STANDARD
  9
$CLAYER
  8
0
  9
$CELTYPE
  6
ByLayer
  9
$CECOLOR
 62
   256
  9
$CELTSCALE
 40
1.0
  9
$DISPSILH
 70
     0
  9
$DIMSCALE
 40
1.0
  9
$DIMASZ
 40
3.0
  9
$DIMEXO
 40
1.0
  9
$DIMDLI
 40
6.0
  9
$DIMRND
 40
0.0
  9
$DIMDLE
 40
0.0
  9
$DIMEXE
 40
1.0
  9
$DIMTP
 40
0.0
  9
$DIMTM
 40
0.0
  9
$DIMTXT
 40
3.0
  9
$DIMCEN
 40
1.5
  9
$DIMTSZ
 40
0.0
  9
$DIMTOL
 70
     0
  9
$DIMLIM
 70
     0
  9
$DIMTIH
 70
     1
  9
$DIMTOH
 70
     1
  9
$DIMSE1
 70
     0
  9
$DIMSE2
 70
     0
  9
$DIMTAD
 70
     0
  9
$DIMZIN
 70
     0
  9
$DIMBLK
  1

  9
$DIMASO
 70
     1
  9
$DIMSHO
 70
     0
  9
$DIMPOST
  1

  9
$DIMAPOST
  1

  9
$DIMALT
 70
     0
  9
$DIMALTD
 70
     2
  9
$DIMALTF
 40
25.4
  9
$DIMLFAC
 40
1.0
  9
$DIMTOFL
 70
     1
  9
$DIMTVP
 40
0.0
  9
$DIMTIX
 70
     0
  9
$DIMSOXD
 70
     0
  9
$DIMSAH
 70
     0
  9
$DIMBLK1
  1

  9
$DIMBLK2
  1

  9
$DIMSTYLE
  2
Standard
  9
$DIMCLRD
 70
     0
  9
$DIMCLRE
 70
     0
  9
$DIMCLRT
 70
     0
  9
$DIMTFAC
 40
1.0
  9
$DIMGAP
 40
0.09
  9
$DIMJUST
 70
     0
  9
$DIMSD1
 70
     0
  9
$DIMSD2
 70
     0
  9
$DIMTOLJ
 70
     1
  9
$DIMTZIN
 70
     0
  9
$DIMALTZ
 70
     0
  9
$DIMALTTZ
 70
     0
  9
$DIMUPT
 70
     0
  9
$DIMDEC
 70
     4
  9
$DIMTDEC
 70
     8
  9
$DIMALTU
 70
     2
  9
$DIMALTTD
 70
     2
  9
$DIMTXSTY
  7
STANDARD
  9
$DIMAUNIT
 70
     0
  9
$DIMADEC
 70
     0
  9
$DIMALTRND
 40
0.0
  9
$DIMAZIN
 70
     0
  9
$DIMDSEP
 70
    46
  9
$DIMATFIT
 70
     3
  9
$DIMFRAC
 70
     0
  9
$DIMLDRBLK
  1

  9
$DIMLUNIT
 70
     2
  9
$DIMLWD
 70
    -2
  9
$DIMLWE
 70
    -2
  9
$DIMTMOVE
 70
     2
  9
$LUNITS
 70
     2
  9
$LUPREC
 70
     4
  9
$SKETCHINC
 40
0.5
  9
$FILLETRAD
 40
0.0
  9
$AUNITS
 70
     0
  9
$AUPREC
 70
     0
  9
$MENU
  1
ACAD
  9
$ELEVATION
 40
0.0
  9
$PELEVATION
 40
0.0
  9
$THICKNESS
 40
0.0
  9
$LIMCHECK
 70
     0
  9
$CHAMFERA
 40
0.0
  9
$CHAMFERB
 40
0.0
  9
$CHAMFERC
 40
0.0
  9
$CHAMFERD
 40
0.0
  9
$SKPOLY
 70
     0
  9
$TDCREATE
 40
2444975.333333334
  9
$TDUCREATE
 40
2444975.000000000
  9
$TDUPDATE
 40
2454042.478617697
  9
$TDUUPDATE
 40
2454042.145284364
  9
$TDINDWG
 40
0.3142303819
  9
$TDUSRTIMER
 40
0.0000000000
  9
$USRTIMER
 70
     0
  9
$ANGBASE
 50
0.0
  9
$ANGDIR
 70
     0
  9
$PDMODE
 70
     0
  9
$PDSIZE
 40
0.001
  9
$PLINEWID
 40
0.0
  9
$SPLFRAME
 70
     0
  9
$SPLINETYPE
 70
     6
  9
$SPLINESEGS
 70
  8000
  9
$HANDSEED
  5
EADC
  9
$SURFTAB1
 70
     6
  9
$SURFTAB2
 70
     6
  9
$SURFTYPE
 70
     6
  9
$SURFU
 70
     6
  9
$SURFV
 70
     6
  9
$UCSBASE
  2

  9
$UCSNAME
  2

  9
$UCSORG
 10
0.0
 20
0.0
 30
0.0
  9
$UCSXDIR
 10
1.0
 20
0.0
 30
0.0
  9
$UCSYDIR
 10
0.0
 20
1.0
 30
0.0
  9
$UCSORTHOREF
  2

  9
$UCSORTHOVIEW
 70
     0
  9
$UCSORGTOP
 10
0.0
 20
0.0
 30
0.0
  9
$UCSORGBOTTOM
 10
0.0
 20
0.0
 30
0.0
  9
$UCSORGLEFT
 10
0.0
 20
0.0
 30
0.0
  9
$UCSORGRIGHT
 10
0.0
 20
0.0
 30
0.0
  9
$UCSORGFRONT
 10
0.0
 20
0.0
 30
0.0
  9
$UCSORGBACK
 10
0.0
 20
0.0
 30
0.0
  9
$PUCSBASE
  2

  9
$PUCSNAME
  2

  9
$PUCSORG
 10
0.0
 20
0.0
 30
0.0
  9
$PUCSXDIR
 10
1.0
 20
0.0
 30
0.0
  9
$PUCSYDIR
 10
0.0
 20
1.0
 30
0.0
  9
$PUCSORTHOREF
  2

  9
$PUCSORTHOVIEW
 70
     0
  9
$PUCSORGTOP
 10
0.0
 20
0.0
 30
0.0
  9
$PUCSORGBOTTOM
 10
0.0
 20
0.0
 30
0.0
  9
$PUCSORGLEFT
 10
0.0
 20
0.0
 30
0.0
  9
$PUCSORGRIGHT
 10
0.0
 20
0.0
 30
0.0
  9
$PUCSORGFRONT
 10
0.0
 20
0.0
 30
0.0
  9
$PUCSORGBACK
 10
0.0
 20
0.0
 30
0.0
  9
$USERI1
 70
     0
  9
$USERI2
 70
     0
  9
$USERI3
 70
     0
  9
$USERI4
 70
     0
  9
$USERI5
 70
     0
  9
$USERR1
 40
0.0
  9
$USERR2
 40
0.0
  9
$USERR3
 40
0.0
  9
$USERR4
 40
0.0
  9
$USERR5
 40
0.0
  9
$WORLDVIEW
 70
     1
  9
$SHADEDGE
 70
     3
  9
$SHADEDIF
 70
    70
  9
$TILEMODE
 70
     1
  9
$MAXACTVP
 70
    48
  9
$PINSBASE
 10
0.0
 20
0.0
 30
0.0
  9
$PLIMCHECK
 70
     0
  9
$PEXTMIN
 10
1.000000000000000E+20
 20
1.000000000000000E+20
 30
1.000000000000000E+20
  9
$PEXTMAX
 10
-1.000000000000000E+20
 20
-1.000000000000000E+20
 30
-1.000000000000000E+20
  9
$PLIMMIN
 10
0.0
 20
0.0
  9
$PLIMMAX
 10
12.0
 20
9.0
  9
$UNITMODE
 70
     0
  9
$VISRETAIN
 70
     1
  9
$PLINEGEN
 70
     0
  9
$PSLTSCALE
 70
     0
  9
$TREEDEPTH
 70
  3020
  9
$CMLSTYLE
  2
Standard
  9
$CMLJUST
 70
     0
  9
$CMLSCALE
 40
1.0
  9
$PROXYGRAPHICS
 70
     1
  9
$MEASUREMENT
 70
     0
  9
$CELWEIGHT
370
    -1
  9
$ENDCAPS
280
     0
  9
$JOINSTYLE
280
     0
  9
$LWDISPLAY
290
     0
  9
$INSUNITS
 70
     0
  9
$HYPERLINKBASE
  1

  9
$STYLESHEET
  1

  9
$XEDIT
290
     1
  9
$CEPSNTYPE
380
     0
  9
$PSTYLEMODE
290
     1
  9
$FINGERPRINTGUID
  2
{77095E5F-9CE7-11D7-970D-0040F4541FA8}
  9
$VERSIONGUID
  2
{936F24B4-9D76-4DF6-B9FF-EAB76D81D6FE}
  9
$EXTNAMES
290
     1
  9
$PSVPSCALE
 40
0.0
  9
$OLESTARTUP
290
     0
  0
ENDSEC
  0
SECTION
  2
CLASSES
  0
CLASS
  1
ACDBDICTIONARYWDFLT
  2
AcDbDictionaryWithDefault
  3
ObjectDBX Classes
 90
        0
280
     0
281
     0
  0
CLASS
  1
ACDBPLACEHOLDER
  2
AcDbPlaceHolder
  3
ObjectDBX Classes
 90
        0
280
     0
281
     0
  0
CLASS
  1
LAYOUT
  2
AcDbLayout
  3
ObjectDBX Classes
 90
        0
280
     0
281
     0
  0
CLASS
  1
LONG_TRANSACTION
  2
AcDbLongTransaction
  3
ObjectDBX Classes
 90
    32768
280
     0
281
     0
  0
CLASS
  1
LWPOLYLINE
  2
AcDbPolyline
  3
ObjectDBX Classes
 90
        0
280
     0
281
     1
  0
CLASS
  1
HATCH
  2
AcDbHatch
  3
ObjectDBX Classes
 90
    32768
280
     0
281
     1
  0
CLASS
  1
XRECORD
  2
AcDbXrecord
  3
ObjectDBX Classes
 90
        0
280
     0
281
     0
  0
CLASS
  1
LONG_TRANSACTION
  2
AcDbLongTransaction
  3
ObjectDBX Classes
 90
    32768
280
     0
281
     0
  0
CLASS
  1
LWPOLYLINE
  2
AcDbPolyline
  3
ObjectDBX Classes
 90
        0
280
     0
281
     1
  0
CLASS
  1
HATCH
  2
AcDbHatch
  3
ObjectDBX Classes
 90
    32768
280
     0
281
     1
  0
CLASS
  1
XRECORD
  2
AcDbXrecord
  3
ObjectDBX Classes
 90
        0
280
     0
281
     0
  0
CLASS
  1
DICTIONARYVAR
  2
AcDbDictionaryVar
  3
ObjectDBX Classes
 90
        0
280
     0
281
     0
  0
CLASS
  1
PLOTSETTINGS
  2
AcDbPlotSettings
  3
ObjectDBX Classes
 90
        0
280
     0
281
     0
  0
CLASS
  1
SORTENTSTABLE
  2
AcDbSortentsTable
  3
ObjectDBX Classes
 90
        0
280
     0
281
     0
  0
CLASS
  1
TABLESTYLE
  2
AcDbTableStyle
  3
ObjectDBX Classes
 90
     2047
280
     0
281
     0
  0
ENDSEC
  0
SECTION
  2
TABLES
  0
TABLE
  2
VPORT
  5
8
330
0
100
AcDbSymbolTable
 70
     4
  0
VPORT
  5
EAD2
330
8
100
AcDbSymbolTableRecord
100
AcDbViewportTableRecord
  2
*Active
 70
     0
 10
0.0
 20
0.0
 11
1.0
 21
1.0
 12
1101.977858540628
 22
-74.18862374164911
 13
457.9999999999997
 23
1082.0
 14
10.0
 24
10.0
 15
10.0
 25
10.0
 16
0.0
 26
0.0
 36
1.0
 17
0.0
 27
0.0
 37
0.0
 40
386.2093680959257
 41
1.530456852791878
 42
1.0
 43
0.0
 44
0.0
 50
0.0
 51
0.0
 71
     0
 72
  2000
 73
     1
 74
     1
 75
     0
 76
     0
 77
     0
 78
     0
281
     0
 65
     1
110
0.0
120
0.0
130
0.0
111
1.0
121
0.0
131
0.0
112
0.0
122
1.0
132
0.0
 79
     0
146
0.0
  0
ENDTAB
  0
TABLE
  2
LTYPE
  5
5
330
0
100
AcDbSymbolTable
 70
     6
  0
LTYPE
  5
13
330
5
100
AcDbSymbolTableRecord
100
AcDbLinetypeTableRecord
  2
ByBlock
 70
     0
  3

 72
    65
 73
     0
 40
0.0
  0
LTYPE
  5
14
330
5
100
AcDbSymbolTableRecord
100
AcDbLinetypeTableRecord
  2
ByLayer
 70
     0
  3

 72
    65
 73
     0
 40
0.0
  0
LTYPE
  5
15
330
5
100
AcDbSymbolTableRecord
100
AcDbLinetypeTableRecord
  2
CONTINUOUS
 70
     0
  3
連續線 ________________________
 72
    65
 73
     0
 40
0.0
  0
LTYPE
  5
225
330
5
100
AcDbSymbolTableRecord
100
AcDbLinetypeTableRecord
  2
BYBLOCK
 70
     0
  3
Solid line
 72
    65
 73
     0
 40
0.0
  0
LTYPE
  5
226
330
5
100
AcDbSymbolTableRecord
100
AcDbLinetypeTableRecord
  2
BYLAYER
 70
     0
  3
Solid line
 72
    65
 73
     0
 40
0.0
  0
LTYPE
  5
413C
330
5
100
AcDbSymbolTableRecord
100
AcDbLinetypeTableRecord
  2
CENTER2
 70
     0
  3
Center (.5x) ___ _ ___ _ ___ _ ___ _ ___ _ ___
 72
    65
 73
     4
 40
28.575
 49
19.05
 74
     0
 49
-3.174999999999999
 74
     0
 49
3.174999999999999
 74
     0
 49
-3.174999999999999
 74
     0
  0
LTYPE
  5
413D
330
5
100
AcDbSymbolTableRecord
100
AcDbLinetypeTableRecord
  2
DASHED2
 70
     0
  3
Dashed (.5x) _ _ _ _ _ _ _ _ _ _ _ _ _ _ _ _ _
 72
    65
 73
     2
 40
9.524999999999998
 49
6.349999999999999
 74
     0
 49
-3.174999999999999
 74
     0
  0
LTYPE
  5
69DC
330
5
100
AcDbSymbolTableRecord
100
AcDbLinetypeTableRecord
  2
DASHED
 70
     0
  3
__ __ __ __ __ __ __ __ __ __ __ __ __ __ __
 72
    65
 73
     2
 40
4.0
 49
3.0
 74
     0
 49
-1.0
 74
     0
  0
ENDTAB
  0
TABLE
  2
LAYER
  5
2
102
{ACAD_XDICTIONARY
360
43C2
102
}
330
0
100
AcDbSymbolTable
 70
     7
  0
LAYER
  5
10
330
2
100
AcDbSymbolTableRecord
100
AcDbLayerTableRecord
  2
0
 70
     0
 62
     7
  6
CONTINUOUS
370
    -3
390
F
  0
LAYER
  5
413E
330
2
100
AcDbSymbolTableRecord
100
AcDbLayerTableRecord
  2
指線
 70
     0
 62
     3
  6
CONTINUOUS
370
    15
390
F
  0
LAYER
  5
413F
330
2
100
AcDbSymbolTableRecord
100
AcDbLayerTableRecord
  2
中心線
 70
     0
 62
     4
  6
CENTER2
370
    20
390
F
  0
LAYER
  5
4140
330
2
100
AcDbSymbolTableRecord
100
AcDbLayerTableRecord
  2
虛線
 70
     0
 62
     6
  6
DASHED2
290
     0
370
    -3
390
F
  0
LAYER
  5
43B4
330
2
100
AcDbSymbolTableRecord
100
AcDbLayerTableRecord
  2
建構線
 70
     0
 62
     1
  6
CONTINUOUS
370
    -3
390
F
  0
LAYER
  5
69DF
330
2
100
AcDbSymbolTableRecord
100
AcDbLayerTableRecord
  2
標註線
 70
     0
 62
     3
  6
CONTINUOUS
370
    13
390
F
  0
LAYER
  5
C701
330
2
100
AcDbSymbolTableRecord
100
AcDbLayerTableRecord
  2
Defpoints
 70
     0
 62
     7
  6
CONTINUOUS
290
     0
370
    -3
390
F
  0
ENDTAB
  0
TABLE
  2
STYLE
  5
3
330
0
100
AcDbSymbolTable
 70
     1
  0
STYLE
  5
11
330
3
100
AcDbSymbolTableRecord
100
AcDbTextStyleTableRecord
  2
STANDARD
 70
     0
 40
0.0
 41
1.0
 50
0.0
 71
     0
 42
3.0
  3

  4

  0
ENDTAB
  0
TABLE
  2
VIEW
  5
6
330
0
100
AcDbSymbolTable
 70
     0
  0
ENDTAB
  0
TABLE
  2
UCS
  5
7
330
0
100
AcDbSymbolTable
 70
     0
  0
ENDTAB
  0
TABLE
  2
APPID
  5
9
330
0
100
AcDbSymbolTable
 70
     4
  0
APPID
  5
12
330
9
100
AcDbSymbolTableRecord
100
AcDbRegAppTableRecord
  2
ACAD
 70
     0
  0
APPID
  5
230
330
9
100
AcDbSymbolTableRecord
100
AcDbRegAppTableRecord
  2
TCAD
 70
     0
  0
APPID
  5
4142
330
9
100
AcDbSymbolTableRecord
100
AcDbRegAppTableRecord
  2
CONTENTBLOCKICON
 70
     0
  0
APPID
  5
5D91
330
9
100
AcDbSymbolTableRecord
100
AcDbRegAppTableRecord
  2
pntflag
 70
     0
  0
ENDTAB
  0
TABLE
  2
DIMSTYLE
  5
A
330
0
100
AcDbSymbolTable
 70
     1
100
AcDbDimStyleTable
 71
     1
340
3C9D
  0
DIMSTYLE
105
3C9D
330
A
100
AcDbSymbolTableRecord
100
AcDbDimStyleTableRecord
  2
Standard
 70
     0
340
11
  0
ENDTAB
  0
TABLE
  2
BLOCK_RECORD
  5
1
330
0
100
AcDbSymbolTable
 70
     2
  0
BLOCK_RECORD
  5
1E
102
{ACAD_XDICTIONARY
360
3D1E
102
}
330
1
100
AcDbSymbolTableRecord
100
AcDbBlockTableRecord
  2
*Model_Space
340
21
  0
BLOCK_RECORD
  5
1A
102
{ACAD_XDICTIONARY
360
3D20
102
}
330
1
100
AcDbSymbolTableRecord
100
AcDbBlockTableRecord
  2
*Paper_Space
340
1D
  0
BLOCK_RECORD
  5
69B7
102
{ACAD_XDICTIONARY
360
69B8
102
}
330
1
100
AcDbSymbolTableRecord
100
AcDbBlockTableRecord
  2
A$C51E2538E
340
0
  0
BLOCK_RECORD
  5
69CB
102
{ACAD_XDICTIONARY
360
69CC
102
}
330
1
100
AcDbSymbolTableRecord
100
AcDbBlockTableRecord
  2
A$C3310154B
340
0
  0
ENDTAB
  0
ENDSEC
  0
SECTION
  2
BLOCKS
  0
BLOCK
  5
254
330
1E
100
AcDbEntity
  8
0
100
AcDbBlockBegin
  2
*Model_Space
 70
     0
 10
0.0
 20
0.0
 30
0.0
  3
*Model_Space
  1

  0
ENDBLK
  5
255
330
1E
100
AcDbEntity
  8
0
100
AcDbBlockEnd
  0
BLOCK
  5
252
330
1A
100
AcDbEntity
 67
     1
  8
0
100
AcDbBlockBegin
  2
*Paper_Space
 70
     0
 10
0.0
 20
0.0
 30
0.0
  3
*Paper_Space
  1

  0
ENDBLK
  5
253
330
1A
100
AcDbEntity
 67
     1
  8
0
100
AcDbBlockEnd
  0
BLOCK
  5
69BA
330
69B7
100
AcDbEntity
  8
0
 62
     1
 48
0.27
100
AcDbBlockBegin
  2
A$C51E2538E
 70
     0
 10
0.0
 20
0.0
 30
0.0
  3
A$C51E2538E
  1

  0
LINE
  5
69BB
330
69B7
100
AcDbEntity
  8
虛線
 48
0.25
100
AcDbLine
 10
9.230939415452212
 20
1.99838789798423
 30
0.0
 11
2.230939415459943
 21
1.998387897983548
 31
0.0
  0
LINE
  5
69BC
330
69B7
100
AcDbEntity
  8
虛線
 48
0.25
100
AcDbLine
 10
9.230939415453576
 20
15.79841841556197
 30
0.0
 11
9.230939415452212
 21
1.99838789798423
 31
0.0
  0
LINE
  5
69BD
330
69B7
100
AcDbEntity
  8
虛線
 48
0.25
100
AcDbLine
 10
0.2309394154581241
 20
24.698418415562
 30
0.0
 11
0.2309394154590336
 21
16.09842604495623
 31
0.0
  0
LINE
  5
69BE
330
69B7
100
AcDbEntity
  8
虛線
 48
0.25
100
AcDbLine
 10
2.230939415453576
 20
15.79841841556191
 30
0.0
 11
2.230939415459943
 21
1.998387897983576
 31
0.0
  0
LINE
  5
69BF
330
69B7
100
AcDbEntity
  8
虛線
 48
0.25
100
AcDbLine
 10
0.2309394154590336
 20
16.09835738040544
 30
0.0
 11
11.23093941545221
 21
16.09835738040573
 31
0.0
  0
LINE
  5
69C0
330
69B7
100
AcDbEntity
  8
中心線
 48
0.25
100
AcDbLine
 10
5.730939415455679
 20
27.09841841556201
 30
0.0
 11
5.730939415449938
 21
0.0
 31
0.0
  0
LINE
  5
69C1
330
69B7
100
AcDbEntity
  8
虛線
 48
0.25
100
AcDbLine
 10
2.230939415459943
 20
1.998387897983548
 30
0.0
 11
1.730939415460852
 21
1.498387897984002
 31
0.0
  0
LINE
  5
69C2
330
69B7
100
AcDbEntity
  8
虛線
 48
0.25
100
AcDbLine
 10
9.230939415452212
 20
1.99838789798423
 30
0.0
 11
9.730939415451302
 21
1.498387897984287
 31
0.0
  0
LINE
  5
69C3
330
69B7
100
AcDbEntity
  8
虛線
 48
0.25
100
AcDbLine
 10
11.23093941545358
 20
24.698418415562
 30
0.0
 11
11.23093941545221
 21
16.09835738040573
 31
0.0
  0
LINE
  5
69C4
330
69B7
100
AcDbEntity
  8
虛線
 48
0.25
100
AcDbLine
 10
0.2309394154535767
 20
24.698418415562
 30
0.0
 11
11.23093941545358
 21
24.698418415562
 31
0.0
  0
LINE
  5
69C5
330
69B7
100
AcDbEntity
  8
虛線
 48
0.25
100
AcDbLine
 10
2.230939415453576
 20
15.79841841556197
 30
0.0
 11
9.230939415453576
 21
15.79841841556197
 31
0.0
  0
LINE
  5
69C6
330
69B7
100
AcDbEntity
  8
虛線
 48
0.25
100
AcDbLine
 10
1.930939415453394
 20
16.09841841556192
 30
0.0
 11
2.230939415453576
 21
15.79841841556191
 31
0.0
  0
LINE
  5
69C7
330
69B7
100
AcDbEntity
  8
虛線
 48
0.25
100
AcDbLine
 10
0.2309394154535767
 20
24.698418415562
 30
0.0
 11
-0.0000006922223292
 21
25.09841841556204
 31
0.0
  0
LINE
  5
69C8
330
69B7
100
AcDbEntity
  8
虛線
 48
0.25
100
AcDbLine
 10
9.230939415453576
 20
15.79841841556197
 30
0.0
 11
9.530939415453758
 21
16.09841841556198
 31
0.0
  0
LINE
  5
69C9
330
69B7
100
AcDbEntity
  8
虛線
 48
0.25
100
AcDbLine
 10
11.23093941545358
 20
24.698418415562
 30
0.0
 11
11.46187952312948
 21
25.09841841556204
 31
0.0
  0
ENDBLK
  5
69CA
330
69B7
100
AcDbEntity
  8
0
 62
     1
 48
0.27
100
AcDbBlockEnd
  0
BLOCK
  5
69CE
330
69CB
100
AcDbEntity
  8
0
 62
     1
 48
0.27
100
AcDbBlockBegin
  2
A$C3310154B
 70
     0
 10
0.0
 20
0.0
 30
0.0
  3
A$C3310154B
  1

  0
LINE
  5
69CF
330
69CB
100
AcDbEntity
  8
虛線
 48
0.2
100
AcDbLine
 10
0.4999707651827521
 20
12.80115016654724
 30
0.0
 11
0.4999707651836616
 21
5.30113016654775
 31
0.0
  0
LINE
  5
69D0
330
69CB
100
AcDbEntity
  8
虛線
 48
0.2
100
AcDbLine
 10
6.499970765181842
 20
12.80111016654831
 30
0.0
 11
6.499970765183661
 21
5.301130166548432
 31
0.0
  0
LINE
  5
69D1
330
69CB
100
AcDbEntity
  8
虛線
 48
0.2
100
AcDbLine
 10
6.499970765183661
 20
5.301130166548432
 30
0.0
 11
0.4999707651836616
 21
5.30113016654775
 31
0.0
  0
LINE
  5
69D2
330
69CB
100
AcDbEntity
  8
中心線
 48
0.25
100
AcDbLine
 10
3.49999076518344
 20
15.30112016654811
 30
0.0
 11
3.499990765177699
 21
0.000000166540076
 31
0.0
  0
LINE
  5
69D3
330
69CB
100
AcDbEntity
  8
虛線
 48
0.2
100
AcDbLine
 10
5.999980765182044
 20
12.30112016654846
 30
0.0
 11
5.999980765187501
 21
2.30113016655747
 31
0.0
  0
LINE
  5
69D4
330
69CB
100
AcDbEntity
  8
虛線
 48
0.2
100
AcDbLine
 10
1.000000765181994
 20
12.30112016654812
 30
0.0
 11
1.000000765187905
 21
2.301130166554685
 31
0.0
  0
LINE
  5
69D5
330
69CB
100
AcDbEntity
  8
虛線
 48
0.2
100
AcDbLine
 10
5.999980765187501
 20
2.30113016655747
 30
0.0
 11
1.000000765187905
 21
2.301130166554685
 31
0.0
  0
LINE
  5
69D6
330
69CB
100
AcDbEntity
  8
虛線
 48
0.2
100
AcDbLine
 10
5.999980765182499
 20
12.3011201665484
 30
0.0
 11
1.000000765181994
 21
12.30112016654817
 31
0.0
  0
LINE
  5
69D7
330
69CB
100
AcDbEntity
  8
虛線
 48
0.2
100
AcDbLine
 10
5.999980765182044
 20
12.3011201665484
 30
0.0
 11
6.999980765182499
 21
13.30112016654863
 31
0.0
  0
LINE
  5
69D8
330
69CB
100
AcDbEntity
  8
虛線
 48
0.2
100
AcDbLine
 10
5.999980765187956
 20
2.301130166557413
 30
0.0
 11
3.499990765183611
 21
0.801130166544965
 31
0.0
  0
LINE
  5
69D9
330
69CB
100
AcDbEntity
  8
虛線
 48
0.2
100
AcDbLine
 10
1.000000765187905
 20
2.30113016657259
 30
0.0
 11
3.499990765178154
 21
0.801130166544965
 31
0.0
  0
LINE
  5
69DA
330
69CB
100
AcDbEntity
  8
虛線
 48
0.2
100
AcDbLine
 10
1.00000076518495
 20
12.30112016654834
 30
0.0
 11
0.0000007651844385
 21
13.30112016654854
 31
0.0
  0
ENDBLK
  5
69DB
330
69CB
100
AcDbEntity
  8
0
 62
     1
 48
0.27
100
AcDbBlockEnd
  0
ENDSEC
  0
SECTION
  2
ENTITIES
  0
LINE
  5
A2B9
330
1E
100
AcDbEntity
  8
0
  6
Continuous
 62
     7
100
AcDbLine
 10
1105.385395613223
 20
6.343955820438054
 30
0.0
 11
1130.885395613223
 21
6.343955820438054
 31
0.0
  0
LINE
  5
A2BA
330
1E
100
AcDbEntity
  8
0
  6
Continuous
 62
     7
100
AcDbLine
 10
1105.385395613223
 20
7.143949819838098
 30
0.0
 11
1130.885395613223
 21
7.143949819838098
 31
0.0
  0
LINE
  5
A2BB
330
1E
100
AcDbEntity
  8
0
  6
Continuous
 62
     7
100
AcDbLine
 10
1105.385395613223
 20
31.34395582043806
 30
0.0
 11
1130.885395613223
 21
31.34395582043806
 31
0.0
  0
LINE
  5
A2BC
330
1E
100
AcDbEntity
  8
0
  6
Continuous
 62
     7
100
AcDbLine
 10
1105.385395613223
 20
30.54396182103813
 30
0.0
 11
1130.885395613223
 21
30.54396182103813
 31
0.0
  0
LINE
  5
C370
330
1E
100
AcDbEntity
  8
0
100
AcDbLine
 10
1251.135395613223
 20
-158.726565106562
 30
0.0
 11
1256.385395613223
 21
-158.726565106562
 31
0.0
  0
LINE
  5
C371
330
1E
100
AcDbEntity
  8
0
100
AcDbLine
 10
1156.135395613223
 20
-158.726565106562
 30
0.0
 11
1231.135395613223
 21
-158.726565106562
 31
0.0
  0
LINE
  5
C372
330
1E
100
AcDbEntity
  8
0
100
AcDbLine
 10
1130.885395613223
 20
-158.726565106562
 30
0.0
 11
1136.135395613223
 21
-158.726565106562
 31
0.0
  0
LINE
  5
C373
330
1E
100
AcDbEntity
  8
虛線
 48
0.27
100
AcDbLine
 10
821.346324415747
 20
-120.2265651065618
 30
0.0
 11
821.3463244157471
 21
-135.7265501065619
 31
0.0
  0
LINE
  5
C374
330
1E
100
AcDbEntity
  8
虛線
 48
0.27
100
AcDbLine
 10
821.346324415747
 20
-120.2265651065618
 30
0.0
 11
819.8463244157471
 21
-118.7265651065618
 31
0.0
  0
LINE
  5
C375
330
1E
100
AcDbEntity
  8
虛線
 48
0.27
100
AcDbLine
 10
833.3463244157478
 20
-120.2265651065618
 30
0.0
 11
834.8463244157478
 21
-118.7265651065618
 31
0.0
  0
LINE
  5
C376
330
1E
100
AcDbEntity
  8
虛線
 48
0.27
100
AcDbLine
 10
821.346324415747
 20
-120.2265651065618
 30
0.0
 11
833.346324415748
 21
-120.2265651065618
 31
0.0
  0
LINE
  5
C377
330
1E
100
AcDbEntity
  8
虛線
 48
0.27
100
AcDbLine
 10
833.346324415748
 20
-120.2265651065618
 30
0.0
 11
833.3463244157471
 21
-135.7265501065615
 31
0.0
  0
LINE
  5
C378
330
1E
100
AcDbEntity
  8
虛線
 48
0.27
100
AcDbLine
 10
891.346324415746
 20
-120.2265501065617
 30
0.0
 11
891.3463244157455
 21
-130.7265191065617
 31
0.0
  0
LINE
  5
C379
330
1E
100
AcDbEntity
  8
虛線
 48
0.27
100
AcDbLine
 10
891.3463244157462
 20
-120.2265501065617
 30
0.0
 11
892.8463244157461
 21
-118.7265501065617
 31
0.0
  0
LINE
  5
C37A
330
1E
100
AcDbEntity
  8
虛線
 48
0.27
100
AcDbLine
 10
879.3463244157461
 20
-120.2265501065608
 30
0.0
 11
877.8463244157462
 21
-118.7265501065608
 31
0.0
  0
LINE
  5
C37B
330
1E
100
AcDbEntity
  8
虛線
 48
0.27
100
AcDbLine
 10
879.3463244157452
 20
-120.2265501065617
 30
0.0
 11
891.346324415746
 21
-120.2265501065617
 31
0.0
  0
LINE
  5
C37C
330
1E
100
AcDbEntity
  8
虛線
 48
0.27
100
AcDbLine
 10
879.3463244157452
 20
-120.2265501065617
 30
0.0
 11
879.3463244157454
 21
-130.7265191065617
 31
0.0
  0
LINE
  5
C37D
330
1E
100
AcDbEntity
  8
虛線
 48
0.27
100
AcDbLine
 10
937.3463244157472
 20
-120.2265651065618
 30
0.0
 11
935.8463244157471
 21
-118.7265651065618
 31
0.0
  0
LINE
  5
C37E
330
1E
100
AcDbEntity
  8
虛線
 48
0.27
100
AcDbLine
 10
949.346324415748
 20
-120.2265651065617
 30
0.0
 11
950.846324415748
 21
-118.7265651065617
 31
0.0
  0
LINE
  5
C37F
330
1E
100
AcDbEntity
  8
虛線
 48
0.27
100
AcDbLine
 10
937.3463244157472
 20
-120.2265651065618
 30
0.0
 11
949.346324415748
 21
-120.2265651065618
 31
0.0
  0
LINE
  5
C380
330
1E
100
AcDbEntity
  8
虛線
 48
0.27
100
AcDbLine
 10
937.3463244157472
 20
-120.2265651065618
 30
0.0
 11
937.3463244157472
 21
-135.7265501065619
 31
0.0
  0
LINE
  5
C381
330
1E
100
AcDbEntity
  8
虛線
 48
0.27
100
AcDbLine
 10
949.346324415748
 20
-120.2265651065618
 30
0.0
 11
949.3463244157471
 21
-135.7265501065615
 31
0.0
  0
LINE
  5
C382
330
1E
100
AcDbEntity
  8
中心線
 48
0.27
100
AcDbLine
 10
885.3463244157463
 20
-116.7265651065615
 30
0.0
 11
885.3463244157463
 21
-190.5778946803959
 31
0.0
  0
LINE
  5
C383
330
1E
100
AcDbEntity
  8
中心線
 48
0.27
100
AcDbLine
 10
827.3463244157481
 20
-117.2265501065617
 30
0.0
 11
827.3463244157481
 21
-172.5111571065617
 31
0.0
  0
LINE
  5
C384
330
1E
100
AcDbEntity
  8
虛線
 48
0.27
100
AcDbLine
 10
933.3463244157481
 20
-135.7265501065622
 30
0.0
 11
933.3463244157462
 21
-178.7265501065612
 31
0.0
  0
LINE
  5
C385
330
1E
100
AcDbEntity
  8
中心線
 48
0.27
100
AcDbLine
 10
943.3463244157481
 20
-117.2265501065617
 30
0.0
 11
943.3463244157481
 21
-172.5111571065617
 31
0.0
  0
LINE
  5
C386
330
1E
100
AcDbEntity
  8
虛線
 48
0.27
100
AcDbLine
 10
955.3463244157489
 20
-135.7265501065612
 30
0.0
 11
933.3463244157481
 21
-135.7265501065622
 31
0.0
  0
LINE
  5
C387
330
1E
100
AcDbEntity
  8
虛線
 48
0.27
100
AcDbLine
 10
936.3463244157472
 20
-119.2265651065619
 30
0.0
 11
936.3463244157472
 21
-135.7265501065619
 31
0.0
  0
LINE
  5
C388
330
1E
100
AcDbEntity
  8
虛線
 48
0.27
100
AcDbLine
 10
950.346324415748
 20
-119.2265651065617
 30
0.0
 11
950.3463244157471
 21
-135.7265501065615
 31
0.0
  0
LINE
  5
C389
330
1E
100
AcDbEntity
  8
虛線
 48
0.27
100
AcDbLine
 10
892.3463244157472
 20
-119.2265501065607
 30
0.0
 11
892.346324415749
 21
-130.7265191065617
 31
0.0
  0
LINE
  5
C38A
330
1E
100
AcDbEntity
  8
虛線
 48
0.27
100
AcDbLine
 10
895.3463244157481
 20
-130.7265191065617
 30
0.0
 11
895.346324415747
 21
-142.7265651065618
 31
0.0
  0
LINE
  5
C38B
330
1E
100
AcDbEntity
  8
虛線
 48
0.27
100
AcDbLine
 10
875.3463244157481
 20
-130.7265191065617
 30
0.0
 11
895.3463244157481
 21
-130.7265191065617
 31
0.0
  0
LINE
  5
C38C
330
1E
100
AcDbEntity
  8
虛線
 48
0.27
100
AcDbLine
 10
878.3463244157482
 20
-119.2265501065628
 30
0.0
 11
878.346324415747
 21
-130.7265191065617
 31
0.0
  0
LINE
  5
C38D
330
1E
100
AcDbEntity
  8
虛線
 48
0.27
100
AcDbLine
 10
875.3463244157481
 20
-130.7265191065617
 30
0.0
 11
875.3463244157492
 21
-142.7265651065618
 31
0.0
  0
LINE
  5
C38E
330
1E
100
AcDbEntity
  8
虛線
 48
0.27
100
AcDbLine
 10
837.3463244157481
 20
-135.7265501065612
 30
0.0
 11
837.3463244157489
 21
-178.7265501065617
 31
0.0
  0
LINE
  5
C38F
330
1E
100
AcDbEntity
  8
虛線
 48
0.27
100
AcDbLine
 10
816.346324415746
 20
-135.7265501065612
 30
0.0
 11
837.3463244157481
 21
-135.7265501065612
 31
0.0
  0
LINE
  5
C390
330
1E
100
AcDbEntity
  8
虛線
 48
0.27
100
AcDbLine
 10
834.3463244157481
 20
-119.2265651065617
 30
0.0
 11
834.346324415749
 21
-135.7265501065612
 31
0.0
  0
LINE
  5
C391
330
1E
100
AcDbEntity
  8
虛線
 48
0.27
100
AcDbLine
 10
820.3463244157481
 20
-119.2265651065627
 30
0.0
 11
820.3463244157481
 21
-135.7265501065612
 31
0.0
  0
LINE
  5
C392
330
1E
100
AcDbEntity
  8
中心線
 48
0.27
100
AcDbLine
 10
899.044125460638
 20
-130.7260729537788
 30
0.0
 11
877.2854767886938
 21
-130.7260729537788
 31
0.0
  0
LINE
  5
C393
330
1E
100
AcDbEntity
  8
虛線
 48
0.27
100
AcDbLine
 10
896.8484385934141
 20
-164.726579106562
 30
0.0
 11
896.8484385934143
 21
-145.1265791065621
 31
0.0
  0
LINE
  5
C394
330
1E
100
AcDbEntity
  8
虛線
 48
0.27
100
AcDbLine
 10
897.0595428068801
 20
-144.7609358831471
 30
0.0
 11
896.8484385934143
 21
-145.1265791065621
 31
0.0
  0
LINE
  5
C395
330
1E
100
AcDbEntity
  8
虛線
 48
0.27
100
AcDbLine
 10
873.8484385934143
 20
-145.1265791065618
 30
0.0
 11
896.8484385934143
 21
-145.1265791065621
 31
0.0
  0
LINE
  5
C396
330
1E
100
AcDbEntity
  8
虛線
 48
0.27
100
AcDbLine
 10
873.8484385934141
 20
-164.726579106562
 30
0.0
 11
896.8484385934141
 21
-164.726579106562
 31
0.0
  0
LINE
  5
C397
330
1E
100
AcDbEntity
  8
0
  6
Continuous
 62
     7
100
AcDbLine
 10
895.8484385934143
 20
-188.726579106562
 30
0.0
 11
874.8484385934144
 21
-188.726579106562
 31
0.0
  0
LINE
  5
C398
330
1E
100
AcDbEntity
  8
虛線
 48
0.27
100
AcDbLine
 10
893.8484385934142
 20
-164.726579106562
 30
0.0
 11
893.3484385934141
 21
-165.226579106562
 31
0.0
  0
LINE
  5
C399
330
1E
100
AcDbEntity
  8
虛線
 48
0.27
100
AcDbLine
 10
877.3484385934141
 20
-165.226579106562
 30
0.0
 11
876.8484385934142
 21
-164.726579106562
 31
0.0
  0
LINE
  5
C39A
330
1E
100
AcDbEntity
  8
虛線
 48
0.27
100
AcDbLine
 10
877.3484385934141
 20
-165.226579106562
 30
0.0
 11
893.3484385934141
 21
-165.226579106562
 31
0.0
  0
LINE
  5
C39B
330
1E
100
AcDbEntity
  8
虛線
 48
0.27
100
AcDbLine
 10
873.8484385934141
 20
-164.726579106562
 30
0.0
 11
873.8484385934143
 21
-145.1265791065618
 31
0.0
  0
LINE
  5
C39C
330
1E
100
AcDbEntity
  8
虛線
 48
0.27
100
AcDbLine
 10
893.3484385934141
 20
-188.226579106562
 30
0.0
 11
893.3484385934141
 21
-165.226579106562
 31
0.0
  0
LINE
  5
C39D
330
1E
100
AcDbEntity
  8
虛線
 48
0.27
100
AcDbLine
 10
877.3484385934141
 20
-188.2265791065617
 30
0.0
 11
877.3484385934141
 21
-165.226579106562
 31
0.0
  0
LINE
  5
C39E
330
1E
100
AcDbEntity
  8
虛線
 48
0.27
100
AcDbLine
 10
893.3484385934141
 20
-188.226579106562
 30
0.0
 11
877.3484385934141
 21
-188.2265791065617
 31
0.0
  0
LINE
  5
C39F
330
1E
100
AcDbEntity
  8
虛線
 48
0.27
100
AcDbLine
 10
876.8484385934142
 20
-188.726579106562
 30
0.0
 11
877.3484385934141
 21
-188.2265791065617
 31
0.0
  0
LINE
  5
C3A0
330
1E
100
AcDbEntity
  8
虛線
 48
0.27
100
AcDbLine
 10
893.8484385934142
 20
-188.726579106562
 30
0.0
 11
893.3484385934141
 21
-188.226579106562
 31
0.0
  0
LINE
  5
C3A1
330
1E
100
AcDbEntity
  8
虛線
 48
0.27
100
AcDbLine
 10
873.8484385934143
 20
-145.1265791065618
 30
0.0
 11
873.6373343799483
 21
-144.7609358831471
 31
0.0
  0
POINT
  5
C3AF
330
1E
100
AcDbEntity
  8
0
100
AcDbPoint
 10
897.544125460638
 20
-130.7260729537788
 30
0.0
1001
pntflag
1000
endpoint
  0
LINE
  5
C3B0
330
1E
100
AcDbEntity
  8
中心線
 48
0.27
100
AcDbLine
 10
899.044125460638
 20
-130.7260729537788
 30
0.0
 11
877.2854767886938
 21
-130.7260729537788
 31
0.0
  0
LINE
  5
C3B1
330
1E
100
AcDbEntity
  8
0
 48
0.27
100
AcDbLine
 10
893.202753635254
 20
-128.3338205538975
 30
0.0
 11
893.266196955974
 21
-128.2919920502872
 31
0.0
  0
LINE
  5
C3B2
330
1E
100
AcDbEntity
  8
0
 48
0.27
100
AcDbLine
 10
892.9370999687648
 20
-133.1461792926866
 30
0.0
 11
892.9975422983586
 21
-133.1487460836151
 31
0.0
  0
LINE
  5
C3B3
330
1E
100
AcDbEntity
  8
0
 48
0.27
100
AcDbLine
 10
893.202753635254
 20
-133.1183270236602
 30
0.0
 11
893.266196955974
 21
-133.1601555272705
 31
0.0
  0
LINE
  5
C3B4
330
1E
100
AcDbEntity
  8
0
 48
0.27
100
AcDbLine
 10
893.8314704302497
 20
-130.7260729537788
 30
0.0
 11
893.8549406179191
 21
-130.1033965507918
 31
0.0
  0
LINE
  5
C3B5
330
1E
100
AcDbEntity
  8
0
 48
0.27
100
AcDbLine
 10
895.8300252117583
 20
-130.7260729537788
 30
0.0
 11
895.8464930871334
 21
-130.289152381313
 31
0.0
  0
LINE
  5
C3B6
330
1E
100
AcDbEntity
  8
0
 48
0.27
100
AcDbLine
 10
895.8464930871334
 20
-131.1629935262444
 30
0.0
 11
895.8300252117583
 21
-130.7260729537788
 31
0.0
  0
LINE
  5
C3B7
330
1E
100
AcDbEntity
  8
0
 48
0.27
100
AcDbLine
 10
893.8549406179191
 20
-131.3487510267659
 30
0.0
 11
893.8314704302497
 21
-130.7260729537788
 31
0.0
  0
LINE
  5
C3B8
330
1E
100
AcDbEntity
  8
0
 48
0.27
100
AcDbLine
 10
895.8464930871334
 20
-130.289152381313
 30
0.0
 11
895.8952654530285
 21
-129.8690236644015
 31
0.0
  0
LINE
  5
C3B9
330
1E
100
AcDbEntity
  8
0
 48
0.27
100
AcDbLine
 10
893.8549406179191
 20
-130.1033965507918
 30
0.0
 11
893.9244460405266
 21
-129.5046479155508
 31
0.0
  0
LINE
  5
C3BA
330
1E
100
AcDbEntity
  8
0
 48
0.27
100
AcDbLine
 10
895.8952654530285
 20
-131.5831239131562
 30
0.0
 11
895.8464930871334
 21
-131.1629935262444
 31
0.0
  0
LINE
  5
C3BB
330
1E
100
AcDbEntity
  8
0
 48
0.27
100
AcDbLine
 10
893.9244460405266
 20
-131.947499662007
 30
0.0
 11
893.8549406179191
 21
-131.3487510267659
 31
0.0
  0
LINE
  5
C3BC
330
1E
100
AcDbEntity
  8
0
 48
0.27
100
AcDbLine
 10
895.8952654530285
 20
-129.8690236644015
 30
0.0
 11
895.9744652288797
 21
-129.481829028115
 31
0.0
  0
LINE
  5
C3BD
330
1E
100
AcDbEntity
  8
0
 48
0.27
100
AcDbLine
 10
893.9244460405266
 20
-129.5046479155508
 30
0.0
 11
894.0373180373763
 21
-128.9528379857736
 31
0.0
  0
LINE
  5
C3BE
330
1E
100
AcDbEntity
  8
0
 48
0.27
100
AcDbLine
 10
895.9744652288797
 20
-131.9703168794426
 30
0.0
 11
895.8952654530285
 21
-131.5831239131562
 31
0.0
  0
LINE
  5
C3BF
330
1E
100
AcDbEntity
  8
0
 48
0.27
100
AcDbLine
 10
894.0373180373763
 20
-132.4993095919094
 30
0.0
 11
893.9244460405266
 21
-131.947499662007
 31
0.0
  0
LINE
  5
C3C0
330
1E
100
AcDbEntity
  8
0
 48
0.27
100
AcDbLine
 10
895.9744652288797
 20
-129.481829028115
 30
0.0
 11
896.0810496736794
 21
-129.142451517564
 31
0.0
  0
LINE
  5
C3C1
330
1E
100
AcDbEntity
  8
0
 48
0.27
100
AcDbLine
 10
894.0373180373763
 20
-128.9528379857736
 30
0.0
 11
894.1892179468686
 21
-128.4691724280014
 31
0.0
  0
LINE
  5
C3C2
330
1E
100
AcDbEntity
  8
0
 48
0.27
100
AcDbLine
 10
896.0810496736794
 20
-132.3096960599937
 30
0.0
 11
895.9744652288797
 21
-131.9703168794426
 31
0.0
  0
LINE
  5
C3C3
330
1E
100
AcDbEntity
  8
0
 48
0.27
100
AcDbLine
 10
894.1892179468686
 20
-132.9829734795562
 30
0.0
 11
894.0373180373763
 21
-132.4993095919094
 31
0.0
  0
LINE
  5
C3C4
330
1E
100
AcDbEntity
  8
0
 48
0.27
100
AcDbLine
 10
896.0810496736794
 20
-129.142451517564
 30
0.0
 11
896.2109239459934
 21
-128.8639304966759
 31
0.0
  0
LINE
  5
C3C5
330
1E
100
AcDbEntity
  8
0
 48
0.27
100
AcDbLine
 10
894.1892179468686
 20
-128.4691724280014
 30
0.0
 11
894.3743091172787
 21
-128.0722400185887
 31
0.0
  0
LINE
  5
C3C6
330
1E
100
AcDbEntity
  8
0
 48
0.27
100
AcDbLine
 10
896.2109239459934
 20
-132.5882170808818
 30
0.0
 11
896.0810496736794
 21
-132.3096960599937
 31
0.0
  0
LINE
  5
C3C7
330
1E
100
AcDbEntity
  8
0
 48
0.27
100
AcDbLine
 10
896.2109239459934
 20
-128.8639304966759
 30
0.0
 11
896.3590964142381
 21
-128.656972339239
 31
0.0
  0
LINE
  5
C3C8
330
1E
100
AcDbEntity
  8
0
 48
0.27
100
AcDbLine
 10
894.3743091172787
 20
-133.3799075589691
 30
0.0
 11
894.1892179468686
 21
-132.9829734795562
 31
0.0
  0
LINE
  5
C3C9
330
1E
100
AcDbEntity
  8
0
 48
0.27
100
AcDbLine
 10
892.4514421004099
 20
-130.7260729537788
 30
0.0
 11
892.4693762362799
 21
-130.2502246686872
 31
0.0
  0
LINE
  5
C3CA
330
1E
100
AcDbEntity
  8
0
 48
0.27
100
AcDbLine
 10
892.4693762362799
 20
-131.2019229088707
 30
0.0
 11
892.4514421004099
 21
-130.7260729537788
 31
0.0
  0
LINE
  5
C3CB
330
1E
100
AcDbEntity
  8
0
 48
0.27
100
AcDbLine
 10
892.4693762362799
 20
-130.2502246686872
 30
0.0
 11
892.5224939435256
 21
-129.7926628895243
 31
0.0
  0
LINE
  5
C3CC
330
1E
100
AcDbEntity
  8
0
 48
0.27
100
AcDbLine
 10
888.4788498153621
 20
-130.7260729537788
 30
0.0
 11
888.506424864342
 21
-129.9944841253534
 31
0.0
  0
LINE
  5
C3CD
330
1E
100
AcDbEntity
  8
0
 48
0.27
100
AcDbLine
 10
888.506424864342
 20
-131.457661782329
 30
0.0
 11
888.4788498153621
 21
-130.7260729537788
 31
0.0
  0
LINE
  5
C3CE
330
1E
100
AcDbEntity
  8
0
 48
0.27
100
AcDbLine
 10
892.5224939435256
 20
-131.6594846880334
 30
0.0
 11
892.4693762362799
 21
-131.2019229088707
 31
0.0
  0
LINE
  5
C3CF
330
1E
100
AcDbEntity
  8
0
 48
0.27
100
AcDbLine
 10
892.5224939435256
 20
-129.7926628895243
 30
0.0
 11
892.6087494716803
 21
-129.3709710519767
 31
0.0
  0
LINE
  5
C3D0
330
1E
100
AcDbEntity
  8
0
 48
0.27
100
AcDbLine
 10
894.3743091172787
 20
-128.0722400185887
 30
0.0
 11
894.5854773460437
 21
-127.7772912024572
 31
0.0
  0
LINE
  5
C3D1
330
1E
100
AcDbEntity
  8
0
 48
0.27
100
AcDbLine
 10
896.3590964142381
 20
-132.7951752383189
 30
0.0
 11
896.2109239459934
 21
-132.5882170808818
 31
0.0
  0
LINE
  5
C3D2
330
1E
100
AcDbEntity
  8
0
 48
0.27
100
AcDbLine
 10
896.3590964142381
 20
-128.656972339239
 30
0.0
 11
896.519874046713
 21
-128.5295262477054
 31
0.0
  0
LINE
  5
C3D3
330
1E
100
AcDbEntity
  8
0
 48
0.27
100
AcDbLine
 10
888.506424864342
 20
-129.9944841253534
 30
0.0
 11
888.5880878909798
 21
-129.2910097559982
 31
0.0
  0
LINE
  5
C3D4
330
1E
100
AcDbEntity
  8
0
 48
0.27
100
AcDbLine
 10
888.5880878909798
 20
-132.1611361515593
 30
0.0
 11
888.506424864342
 21
-131.457661782329
 31
0.0
  0
LINE
  5
C3D5
330
1E
100
AcDbEntity
  8
0
 48
0.27
100
AcDbLine
 10
892.6087494716803
 20
-132.0811765255812
 30
0.0
 11
892.5224939435256
 21
-131.6594846880334
 31
0.0
  0
LINE
  5
C3D6
330
1E
100
AcDbEntity
  8
0
 48
0.27
100
AcDbLine
 10
894.5854773460437
 20
-133.6748563751007
 30
0.0
 11
894.3743091172787
 21
-133.3799075589691
 31
0.0
  0
LINE
  5
C3D7
330
1E
100
AcDbEntity
  8
0
 48
0.27
100
AcDbLine
 10
892.6087494716803
 20
-129.3709710519767
 30
0.0
 11
892.724831209566
 21
-129.0013548415009
 31
0.0
  0
LINE
  5
C3D8
330
1E
100
AcDbEntity
  8
0
 48
0.27
100
AcDbLine
 10
888.5880878909798
 20
-129.2910097559982
 30
0.0
 11
888.7207009641262
 21
-128.6426854846031
 31
0.0
  0
LINE
  5
C3D9
330
1E
100
AcDbEntity
  8
0
 48
0.27
100
AcDbLine
 10
888.7207009641262
 20
-132.8094620929548
 30
0.0
 11
888.5880878909798
 21
-132.1611361515593
 31
0.0
  0
LINE
  5
C3DA
330
1E
100
AcDbEntity
  8
0
 48
0.27
100
AcDbLine
 10
892.724831209566
 20
-132.4507927360569
 30
0.0
 11
892.6087494716803
 21
-132.0811765255812
 31
0.0
  0
LINE
  5
C3DB
330
1E
100
AcDbEntity
  8
0
 48
0.27
100
AcDbLine
 10
896.519874046713
 20
-128.5295262477054
 30
0.0
 11
896.6870761711358
 21
-128.4864936736439
 31
0.0
  0
LINE
  5
C3DC
330
1E
100
AcDbEntity
  8
0
 48
0.27
100
AcDbLine
 10
894.5854773460437
 20
-127.7772912024572
 30
0.0
 11
894.8146081008086
 21
-127.5956619432502
 31
0.0
  0
LINE
  5
C3DD
330
1E
100
AcDbEntity
  8
0
 48
0.27
100
AcDbLine
 10
896.3590964142381
 20
-132.7951752383189
 30
0.0
 11
896.519874046713
 21
-132.9226213298525
 31
0.0
  0
LINE
  5
C3DE
330
1E
100
AcDbEntity
  8
0
 48
0.27
100
AcDbLine
 10
892.724831209566
 20
-129.0013548415009
 30
0.0
 11
892.8662769155623
 21
-128.6980192825938
 31
0.0
  0
LINE
  5
C3DF
330
1E
100
AcDbEntity
  8
0
 48
0.27
100
AcDbLine
 10
894.5854773460437
 20
-133.6748563751007
 30
0.0
 11
894.8146081008086
 21
-133.8564839643074
 31
0.0
  0
LINE
  5
C3E0
330
1E
100
AcDbEntity
  8
0
 48
0.27
100
AcDbLine
 10
892.8662769155623
 20
-132.7541282949642
 30
0.0
 11
892.724831209566
 21
-132.4507927360569
 31
0.0
  0
LINE
  5
C3E1
330
1E
100
AcDbEntity
  8
0
 48
0.27
100
AcDbLine
 10
888.7207009641262
 20
-128.6426854846031
 30
0.0
 11
888.8991705823055
 21
-128.0744227093282
 31
0.0
  0
LINE
  5
C3E2
330
1E
100
AcDbEntity
  8
0
 48
0.27
100
AcDbLine
 10
888.8991705823055
 20
-133.3777248682297
 30
0.0
 11
888.7207009641262
 21
-132.8094620929548
 31
0.0
  0
LINE
  5
C3E3
330
1E
100
AcDbEntity
  8
0
 48
0.27
100
AcDbLine
 10
892.8662769155623
 20
-128.6980192825938
 30
0.0
 11
893.027652408262
 21
-128.4726209792022
 31
0.0
  0
LINE
  5
C3E4
330
1E
100
AcDbEntity
  8
0
 48
0.27
100
AcDbLine
 10
893.7470519027767
 20
-128.0031854961817
 30
0.0
 11
893.9586309517354
 21
-127.8354706814232
 31
0.0
  0
LINE
  5
C3E5
330
1E
100
AcDbEntity
  8
0
 48
0.27
100
AcDbLine
 10
894.8146081008086
 20
-127.5956619432502
 30
0.0
 11
895.0528971384779
 21
-127.5343345132585
 31
0.0
  0
LINE
  5
C3E6
330
1E
100
AcDbEntity
  8
0
 48
0.27
100
AcDbLine
 10
896.6870761711358
 20
-128.4864936736439
 30
0.0
 11
896.8542782956836
 21
-128.5295262477054
 31
0.0
  0
LINE
  5
C3E7
330
1E
100
AcDbEntity
  8
0
 48
0.27
100
AcDbLine
 10
896.519874046713
 20
-132.9226213298525
 30
0.0
 11
896.6870761711358
 21
-132.9656539039138
 31
0.0
  0
LINE
  5
C3E8
330
1E
100
AcDbEntity
  8
0
 48
0.27
100
AcDbLine
 10
893.027652408262
 20
-132.9795265983555
 30
0.0
 11
892.8662769155623
 21
-132.7541282949642
 31
0.0
  0
LINE
  5
C3E9
330
1E
100
AcDbEntity
  8
0
 48
0.27
100
AcDbLine
 10
888.2568449529122
 20
-130.7260729537788
 30
0.0
 11
889.0853789830273
 21
-126.9760733712787
 31
0.0
  0
LINE
  5
C3EA
330
1E
100
AcDbEntity
  8
0
 48
0.27
100
AcDbLine
 10
889.0853789830273
 20
-134.476074206279
 30
0.0
 11
888.2568449529122
 21
-130.7260729537788
 31
0.0
  0
LINE
  5
C3EB
330
1E
100
AcDbEntity
  8
0
 48
0.27
100
AcDbLine
 10
893.9586309517354
 20
-127.8354706814232
 30
0.0
 11
894.3661712045447
 21
-127.6298468544589
 31
0.0
  0
LINE
  5
C3EC
330
1E
100
AcDbEntity
  8
0
 48
0.27
100
AcDbLine
 10
894.3661712045447
 20
-127.6298468544589
 30
0.0
 11
894.6018567114041
 21
-127.5691874247038
 31
0.0
  0
LINE
  5
C3ED
330
1E
100
AcDbEntity
  8
0
 48
0.27
100
AcDbLine
 10
894.8146081008086
 20
-133.8564839643074
 30
0.0
 11
895.0528971384779
 21
-133.9178130642995
 31
0.0
  0
LINE
  5
C3EE
330
1E
100
AcDbEntity
  8
0
 48
0.27
100
AcDbLine
 10
888.8991705823055
 20
-128.0744227093282
 30
0.0
 11
889.116634713247
 21
-127.6080616973208
 31
0.0
  0
LINE
  5
C3EF
330
1E
100
AcDbEntity
  8
0
 48
0.27
100
AcDbLine
 10
889.116634713247
 20
-133.8440858802369
 30
0.0
 11
888.8991705823055
 21
-133.3777248682297
 31
0.0
  0
LINE
  5
C3F0
330
1E
100
AcDbEntity
  8
0
 48
0.27
100
AcDbLine
 10
893.027652408262
 20
-128.4726209792022
 30
0.0
 11
893.202753635254
 21
-128.3338205538975
 31
0.0
  0
LINE
  5
C3F1
330
1E
100
AcDbEntity
  8
0
 48
0.27
100
AcDbLine
 10
893.266196955974
 20
-128.2919920502872
 30
0.0
 11
893.9586309517354
 21
-127.8354706814232
 31
0.0
  0
LINE
  5
C3F2
330
1E
100
AcDbEntity
  8
0
 48
0.27
100
AcDbLine
 10
894.3661712045447
 20
-133.8223007230988
 30
0.0
 11
894.6018567114041
 21
-133.8829584829786
 31
0.0
  0
LINE
  5
C3F3
330
1E
100
AcDbEntity
  8
0
 48
0.27
100
AcDbLine
 10
893.9586309517354
 20
-133.6166768961348
 30
0.0
 11
894.3661712045447
 21
-133.8223007230988
 31
0.0
  0
LINE
  5
C3F4
330
1E
100
AcDbEntity
  8
0
 48
0.27
100
AcDbLine
 10
893.027652408262
 20
-132.9795265983555
 30
0.0
 11
893.202753635254
 21
-133.1183270236602
 31
0.0
  0
LINE
  5
C3F5
330
1E
100
AcDbEntity
  8
0
 48
0.27
100
AcDbLine
 10
894.6018567114041
 20
-127.5691874247038
 30
0.0
 11
895.0528971384779
 21
-127.5343345132585
 31
0.0
  0
LINE
  5
C3F6
330
1E
100
AcDbEntity
  8
0
 48
0.27
100
AcDbLine
 10
895.0528971384779
 20
-127.5343345132585
 30
0.0
 11
895.2911845061469
 21
-127.5956619432502
 31
0.0
  0
LINE
  5
C3F7
330
1E
100
AcDbEntity
  8
0
 48
0.27
100
AcDbLine
 10
896.8542782956836
 20
-128.5295262477054
 30
0.0
 11
897.0150542581581
 21
-128.656972339239
 31
0.0
  0
LINE
  5
C3F8
330
1E
100
AcDbEntity
  8
0
 48
0.27
100
AcDbLine
 10
895.2911845061469
 20
-127.5956619432502
 30
0.0
 11
896.8542782956836
 21
-128.5295262477054
 31
0.0
  0
LINE
  5
C3F9
330
1E
100
AcDbEntity
  8
0
 48
0.27
100
AcDbLine
 10
896.6870761711358
 20
-132.9656539039138
 30
0.0
 11
896.8542782956836
 21
-132.9226213298525
 31
0.0
  0
LINE
  5
C3FA
330
1E
100
AcDbEntity
  8
0
 48
0.27
100
AcDbLine
 10
893.266196955974
 20
-133.1601555272705
 30
0.0
 11
893.9586309517354
 21
-133.6166768961348
 31
0.0
  0
LINE
  5
C3FB
330
1E
100
AcDbEntity
  8
0
 48
0.27
100
AcDbLine
 10
894.6018567114041
 20
-133.8829584829786
 30
0.0
 11
895.0528971384779
 21
-133.9178130642995
 31
0.0
  0
LINE
  5
C3FC
330
1E
100
AcDbEntity
  8
0
 48
0.27
100
AcDbLine
 10
895.0528971384779
 20
-133.9178130642995
 30
0.0
 11
895.2911845061469
 21
-133.8564839643074
 31
0.0
  0
LINE
  5
C3FD
330
1E
100
AcDbEntity
  8
0
 48
0.27
100
AcDbLine
 10
889.116634713247
 20
-127.6080616973208
 30
0.0
 11
889.3647383440555
 21
-127.2615248943243
 31
0.0
  0
LINE
  5
C3FE
330
1E
100
AcDbEntity
  8
0
 48
0.27
100
AcDbLine
 10
889.3647383440555
 20
-134.1906226832336
 30
0.0
 11
889.116634713247
 21
-133.8440858802369
 31
0.0
  0
LINE
  5
C3FF
330
1E
100
AcDbEntity
  8
0
 48
0.27
100
AcDbLine
 10
886.9748606850709
 20
-134.476074206279
 30
0.0
 11
886.1463266549556
 21
-130.7260729537788
 31
0.0
  0
LINE
  5
C400
330
1E
100
AcDbEntity
  8
0
 48
0.27
100
AcDbLine
 10
886.1463266549556
 20
-130.7260729537788
 30
0.0
 11
888.2568449529122
 21
-130.7260729537788
 31
0.0
  0
LINE
  5
C401
330
1E
100
AcDbEntity
  8
0
 48
0.27
100
AcDbLine
 10
886.1463266549556
 20
-130.7260729537788
 30
0.0
 11
886.9748606850709
 21
-126.9760733712787
 31
0.0
  0
LINE
  5
C402
330
1E
100
AcDbEntity
  8
0
 48
0.27
100
AcDbLine
 10
897.1632267264029
 20
-128.8639304966759
 30
0.0
 11
897.0150542581581
 21
-128.656972339239
 31
0.0
  0
LINE
  5
C403
330
1E
100
AcDbEntity
  8
0
 48
0.27
100
AcDbLine
 10
896.8542782956836
 20
-132.9226213298525
 30
0.0
 11
897.0150542581581
 21
-132.7951752383189
 31
0.0
  0
LINE
  5
C404
330
1E
100
AcDbEntity
  8
0
 48
0.27
100
AcDbLine
 10
895.2911845061469
 20
-133.8564839643074
 30
0.0
 11
896.8542782956836
 21
-132.9226213298525
 31
0.0
  0
LINE
  5
C405
330
1E
100
AcDbEntity
  8
0
 48
0.27
100
AcDbLine
 10
892.9975422983586
 20
-128.3033998239423
 30
0.0
 11
893.266196955974
 21
-128.2919920502872
 31
0.0
  0
LINE
  5
C406
330
1E
100
AcDbEntity
  8
0
 48
0.27
100
AcDbLine
 10
892.9975422983586
 20
-133.1487460836151
 30
0.0
 11
893.266196955974
 21
-133.1601555272705
 31
0.0
  0
LINE
  5
C407
330
1E
100
AcDbEntity
  8
0
 48
0.27
100
AcDbLine
 10
889.3647383440555
 20
-127.2615248943243
 30
0.0
 11
889.633945771888
 21
-127.048128884812
 31
0.0
  0
LINE
  5
C408
330
1E
100
AcDbEntity
  8
0
 48
0.27
100
AcDbLine
 10
889.3647383440555
 20
-134.1906226832336
 30
0.0
 11
889.633945771888
 21
-134.4040186927457
 31
0.0
  0
LINE
  5
C409
330
1E
100
AcDbEntity
  8
0
 48
0.27
100
AcDbLine
 10
897.2931009987169
 20
-129.142451517564
 30
0.0
 11
897.1632267264029
 21
-128.8639304966759
 31
0.0
  0
LINE
  5
C40A
330
1E
100
AcDbEntity
  8
0
 48
0.27
100
AcDbLine
 10
897.0150542581581
 20
-132.7951752383189
 30
0.0
 11
897.1632267264029
 21
-132.5882170808818
 31
0.0
  0
LINE
  5
C40B
330
1E
100
AcDbEntity
  8
0
 48
0.27
100
AcDbLine
 10
892.6961389301494
 20
-128.1803976039009
 30
0.0
 11
892.9975422983586
 21
-128.3033998239423
 31
0.0
  0
LINE
  5
C40C
330
1E
100
AcDbEntity
  8
0
 48
0.27
100
AcDbLine
 10
892.6961389301494
 20
-133.2717499736568
 30
0.0
 11
892.9975422983586
 21
-133.1487460836151
 31
0.0
  0
LINE
  5
C40D
330
1E
100
AcDbEntity
  8
0
 48
0.27
100
AcDbLine
 10
897.3996871135168
 20
-129.481829028115
 30
0.0
 11
897.2931009987169
 21
-129.142451517564
 31
0.0
  0
LINE
  5
C40E
330
1E
100
AcDbEntity
  8
0
 48
0.27
100
AcDbLine
 10
897.1632267264029
 20
-132.5882170808818
 30
0.0
 11
897.2931009987169
 21
-132.3096960599937
 31
0.0
  0
LINE
  5
C40F
330
1E
100
AcDbEntity
  8
0
 48
0.27
100
AcDbLine
 10
889.633945771888
 20
-127.048128884812
 30
0.0
 11
889.9139130131425
 21
-126.9760733712787
 31
0.0
  0
LINE
  5
C410
330
1E
100
AcDbEntity
  8
0
 48
0.27
100
AcDbLine
 10
889.633945771888
 20
-134.4040186927457
 30
0.0
 11
889.9139130131425
 21
-134.476074206279
 31
0.0
  0
LINE
  5
C411
330
1E
100
AcDbEntity
  8
0
 48
0.27
100
AcDbLine
 10
897.4788868893682
 20
-129.8690236644015
 30
0.0
 11
897.3996871135168
 21
-129.481829028115
 31
0.0
  0
LINE
  5
C412
330
1E
100
AcDbEntity
  8
0
 48
0.27
100
AcDbLine
 10
896.3439077593266
 20
-132.7739595514008
 30
0.0
 11
896.3462808300981
 21
-132.772798901082
 31
0.0
  0
LINE
  5
C413
330
1E
100
AcDbEntity
  8
0
 48
0.27
100
AcDbLine
 10
897.2931009987169
 20
-132.3096960599937
 30
0.0
 11
897.3996871135168
 21
-131.9703168794426
 31
0.0
  0
LINE
  5
C414
330
1E
100
AcDbEntity
  8
0
 48
0.27
100
AcDbLine
 10
897.5276575852628
 20
-130.289152381313
 30
0.0
 11
897.4788868893682
 21
-129.8690236644015
 31
0.0
  0
LINE
  5
C415
330
1E
100
AcDbEntity
  8
0
 48
0.27
100
AcDbLine
 10
897.3996871135168
 20
-131.9703168794426
 30
0.0
 11
897.4788868893682
 21
-131.5831239131562
 31
0.0
  0
LINE
  5
C416
330
1E
100
AcDbEntity
  8
0
 48
0.27
100
AcDbLine
 10
890.193880254397
 20
-127.048128884812
 30
0.0
 11
892.6961389301494
 21
-128.1803976039009
 31
0.0
  0
LINE
  5
C417
330
1E
100
AcDbEntity
  8
0
 48
0.27
100
AcDbLine
 10
889.9139130131425
 20
-126.9760733712787
 30
0.0
 11
890.193880254397
 21
-127.048128884812
 31
0.0
  0
LINE
  5
C418
330
1E
100
AcDbEntity
  8
0
 48
0.27
100
AcDbLine
 10
889.9139130131425
 20
-134.476074206279
 30
0.0
 11
890.193880254397
 21
-134.4040186927457
 31
0.0
  0
LINE
  5
C419
330
1E
100
AcDbEntity
  8
0
 48
0.27
100
AcDbLine
 10
897.544125460638
 20
-130.7260729537788
 30
0.0
 11
897.5276575852628
 21
-130.289152381313
 31
0.0
  0
LINE
  5
C41A
330
1E
100
AcDbEntity
  8
0
 48
0.27
100
AcDbLine
 10
897.4788868893682
 20
-131.5831239131562
 30
0.0
 11
897.5276575852628
 21
-131.1629935262444
 31
0.0
  0
LINE
  5
C41B
330
1E
100
AcDbEntity
  8
0
 48
0.27
100
AcDbLine
 10
897.5276575852628
 20
-131.1629935262444
 30
0.0
 11
897.544125460638
 21
-130.7260729537788
 31
0.0
  0
LINE
  5
C41C
330
1E
100
AcDbEntity
  8
0
 48
0.27
100
AcDbLine
 10
890.193880254397
 20
-134.4040186927457
 30
0.0
 11
892.6961389301494
 21
-133.2717499736568
 31
0.0
  0
LINE
  5
C41D
330
1E
100
AcDbEntity
  8
0
 48
0.27
100
AcDbLine
 10
886.9748606850709
 20
-126.9760733712787
 30
0.0
 11
890.7424470432577
 21
-126.9760733712787
 31
0.0
  0
LINE
  5
C41E
330
1E
100
AcDbEntity
  8
0
 48
0.27
100
AcDbLine
 10
890.7424470432577
 20
-134.476074206279
 30
0.0
 11
890.8210706688878
 21
-134.1202154602256
 31
0.0
  0
LINE
  5
C41F
330
1E
100
AcDbEntity
  8
0
 48
0.27
100
AcDbLine
 10
890.8210706688878
 20
-127.3319321173321
 30
0.0
 11
890.7424470432577
 21
-126.9760733712787
 31
0.0
  0
LINE
  5
C420
330
1E
100
AcDbEntity
  8
0
 48
0.27
100
AcDbLine
 10
886.9748606850709
 20
-134.476074206279
 30
0.0
 11
890.7424470432577
 21
-134.476074206279
 31
0.0
  0
LINE
  5
C421
330
1E
100
AcDbEntity
  8
0
 48
0.27
100
AcDbLine
 10
888.9564182009909
 20
-134.476074206279
 30
0.0
 11
888.2347308057191
 21
-135.7260746237791
 31
0.0
  0
LINE
  5
C422
330
1E
100
AcDbEntity
  8
0
 48
0.27
100
AcDbLine
 10
888.2347308057191
 20
-135.7260746237791
 30
0.0
 11
882.4612266335439
 21
-135.7260746237791
 31
0.0
  0
LINE
  5
C423
330
1E
100
AcDbEntity
  8
0
 48
0.27
100
AcDbLine
 10
879.5744753824564
 20
-130.7260729537788
 30
0.0
 11
882.4612266335439
 21
-135.7260746237791
 31
0.0
  0
LINE
  5
C424
330
1E
100
AcDbEntity
  8
0
 48
0.27
100
AcDbLine
 10
882.4612266335439
 20
-125.7260729537788
 30
0.0
 11
879.5744753824564
 21
-130.7260729537788
 31
0.0
  0
LINE
  5
C425
330
1E
100
AcDbEntity
  8
0
 48
0.27
100
AcDbLine
 10
882.4612266335439
 20
-125.7260729537788
 30
0.0
 11
888.234729135719
 21
-125.7260729537788
 31
0.0
  0
LINE
  5
C426
330
1E
100
AcDbEntity
  8
0
 48
0.27
100
AcDbLine
 10
888.9564182009909
 20
-126.9760733712787
 30
0.0
 11
888.234729135719
 21
-125.7260729537788
 31
0.0
  0
ARC
  5
C427
330
1E
100
AcDbEntity
  8
0
 48
0.27
100
AcDbCircle
 10
885.3479778846313
 20
-130.7260729537788
 30
0.0
 40
5.0
100
AcDbArc
 50
48.59037799890117
 51
311.4096220031988
  0
LWPOLYLINE
  5
C428
330
1E
100
AcDbEntity
  8
0
 48
0.27
100
AcDbPolyline
 90
       17
 70
     0
 43
0.0
 10
896.5375894124216
 20
-130.7260729537788
 10
896.5795247961748
 20
-130.9973695522103
 10
896.6206385395407
 20
-131.0759998578415
 10
896.6663514644247
 20
-131.1129269098834
 10
896.7088229182675
 20
-131.1125428098192
 10
896.7544389831354
 20
-131.0747874375141
 10
896.7936188659285
 20
-131.0000749531621
 10
896.8303521979379
 20
-130.8374837001344
 10
896.8365612599749
 20
-130.7260729537788
 10
896.7946275462219
 20
-130.4547780253475
 10
896.7535121328555
 20
-130.3761477197162
 10
896.7077992079717
 20
-130.3392206676744
 10
896.6653294241291
 20
-130.3396047678636
 10
896.619711689261
 20
-130.3773601401688
 10
896.5805334764681
 20
-130.4520726245207
 10
896.5437984744585
 20
-130.6146638774235
 10
896.5375894124216
 20
-130.7260729537788
  0
LINE
  5
C437
330
1E
100
AcDbEntity
  8
中心線
 48
0.27
100
AcDbLine
 10
1343.635395613223
 20
-190.5778946803959
 30
0.0
 11
1343.635395613223
 21
-142.2660230433071
 31
0.0
  0
LINE
  5
C438
330
1E
100
AcDbEntity
  8
虛線
 48
0.27
100
AcDbLine
 10
1335.135395613223
 20
-188.7265651065618
 30
0.0
 11
1335.635395613223
 21
-188.2265651065618
 31
0.0
  0
LINE
  5
C439
330
1E
100
AcDbEntity
  8
虛線
 48
0.27
100
AcDbLine
 10
1352.135395613223
 20
-188.7265651065618
 30
0.0
 11
1351.635395613223
 21
-188.2265651065618
 31
0.0
  0
LINE
  5
C43A
330
1E
100
AcDbEntity
  8
虛線
 48
0.27
100
AcDbLine
 10
1335.635395613223
 20
-188.2265651065618
 30
0.0
 11
1351.635395613223
 21
-188.2265651065618
 31
0.0
  0
LINE
  5
C43B
330
1E
100
AcDbEntity
  8
虛線
 48
0.27
100
AcDbLine
 10
1331.904455505547
 20
-144.726565106562
 30
0.0
 11
1332.135395613223
 21
-145.1265651065619
 31
0.0
  0
LINE
  5
C43C
330
1E
100
AcDbEntity
  8
虛線
 48
0.27
100
AcDbLine
 10
1355.135395613223
 20
-145.1265651065619
 30
0.0
 11
1355.366335720899
 21
-144.7265651065618
 31
0.0
  0
LINE
  5
C43D
330
1E
100
AcDbEntity
  8
虛線
 48
0.27
100
AcDbLine
 10
1355.135395613223
 20
-145.1265651065619
 30
0.0
 11
1332.135395613223
 21
-145.1265651065619
 31
0.0
  0
LINE
  5
C43E
330
1E
100
AcDbEntity
  8
虛線
 48
0.27
100
AcDbLine
 10
1351.635395613223
 20
-165.2265651065618
 30
0.0
 11
1352.135395613223
 21
-164.7265651065618
 31
0.0
  0
LINE
  5
C43F
330
1E
100
AcDbEntity
  8
虛線
 48
0.27
100
AcDbLine
 10
1335.135395613223
 20
-164.7265651065618
 30
0.0
 11
1335.635395613223
 21
-165.2265651065618
 31
0.0
  0
LINE
  5
C440
330
1E
100
AcDbEntity
  8
虛線
 48
0.27
100
AcDbLine
 10
1351.635395613223
 20
-165.2265651065618
 30
0.0
 11
1335.635395613223
 21
-165.2265651065618
 31
0.0
  0
LINE
  5
C441
330
1E
100
AcDbEntity
  8
虛線
 48
0.27
100
AcDbLine
 10
1355.135395613223
 20
-164.7265651065618
 30
0.0
 11
1332.135395613223
 21
-164.7265651065618
 31
0.0
  0
LINE
  5
C442
330
1E
100
AcDbEntity
  8
虛線
 48
0.27
100
AcDbLine
 10
1355.135395613223
 20
-164.7265651065618
 30
0.0
 11
1355.135395613223
 21
-145.1265651065619
 31
0.0
  0
LINE
  5
C443
330
1E
100
AcDbEntity
  8
虛線
 48
0.27
100
AcDbLine
 10
1332.135395613223
 20
-164.7265651065618
 30
0.0
 11
1332.135395613223
 21
-145.1265651065619
 31
0.0
  0
LINE
  5
C444
330
1E
100
AcDbEntity
  8
虛線
 48
0.27
100
AcDbLine
 10
1335.635395613223
 20
-188.2265651065618
 30
0.0
 11
1335.635395613223
 21
-165.2265651065618
 31
0.0
  0
LINE
  5
C445
330
1E
100
AcDbEntity
  8
虛線
 48
0.27
100
AcDbLine
 10
1351.635395613223
 20
-188.2265651065618
 30
0.0
 11
1351.635395613223
 21
-165.2265651065618
 31
0.0
  0
LINE
  5
C446
330
1E
100
AcDbEntity
  8
中心線
 48
0.27
100
AcDbLine
 10
1283.635395613223
 20
-190.5778946803959
 30
0.0
 11
1283.635395613223
 21
-178.7265651065618
 31
0.0
  0
LINE
  5
C447
330
1E
100
AcDbEntity
  8
中心線
 48
0.27
100
AcDbLine
 10
1223.635395613223
 20
-190.5778946803959
 30
0.0
 11
1223.635395613223
 21
-178.7265651065618
 31
0.0
  0
LINE
  5
C448
330
1E
100
AcDbEntity
  8
中心線
 48
0.27
100
AcDbLine
 10
1163.635395613223
 20
-190.5778946803959
 30
0.0
 11
1163.635395613223
 21
-178.7265651065618
 31
0.0
  0
LINE
  5
C449
330
1E
100
AcDbEntity
  8
中心線
 48
0.27
100
AcDbLine
 10
1103.635395613223
 20
-190.5778946803959
 30
0.0
 11
1103.635395613223
 21
-178.7265651065618
 31
0.0
  0
LINE
  5
C44A
330
1E
100
AcDbEntity
  8
0
100
AcDbLine
 10
1035.135395613223
 20
-188.7265651065618
 30
0.0
 11
1035.635395613224
 21
-188.2265651065618
 31
0.0
  0
LINE
  5
C44B
330
1E
100
AcDbEntity
  8
0
100
AcDbLine
 10
1052.135395613223
 20
-188.7265651065618
 30
0.0
 11
1051.635395613224
 21
-188.2265651065618
 31
0.0
  0
LINE
  5
C44C
330
1E
100
AcDbEntity
  8
0
100
AcDbLine
 10
1035.635395613224
 20
-188.2265651065618
 30
0.0
 11
1051.635395613224
 21
-188.2265651065618
 31
0.0
  0
LINE
  5
C44D
330
1E
100
AcDbEntity
  8
0
100
AcDbLine
 10
1031.904455505548
 20
-144.726565106562
 30
0.0
 11
1032.135395613223
 21
-145.1265651065619
 31
0.0
  0
LINE
  5
C44E
330
1E
100
AcDbEntity
  8
0
100
AcDbLine
 10
1055.135395613223
 20
-145.1265651065619
 30
0.0
 11
1055.366335720899
 21
-144.7265651065618
 31
0.0
  0
LINE
  5
C44F
330
1E
100
AcDbEntity
  8
0
100
AcDbLine
 10
1055.135395613223
 20
-145.1265651065619
 30
0.0
 11
1032.135395613223
 21
-145.1265651065619
 31
0.0
  0
LINE
  5
C450
330
1E
100
AcDbEntity
  8
0
100
AcDbLine
 10
1051.635395613224
 20
-165.2265651065618
 30
0.0
 11
1052.135395613223
 21
-164.7265651065618
 31
0.0
  0
LINE
  5
C451
330
1E
100
AcDbEntity
  8
0
100
AcDbLine
 10
1051.635395613224
 20
-188.2265651065618
 30
0.0
 11
1051.635395613224
 21
-165.2265651065618
 31
0.0
  0
LINE
  5
C452
330
1E
100
AcDbEntity
  8
0
100
AcDbLine
 10
1035.135395613223
 20
-164.7265651065618
 30
0.0
 11
1035.635395613224
 21
-165.2265651065618
 31
0.0
  0
LINE
  5
C453
330
1E
100
AcDbEntity
  8
0
100
AcDbLine
 10
1035.635395613224
 20
-188.2265651065618
 30
0.0
 11
1035.635395613224
 21
-165.2265651065618
 31
0.0
  0
LINE
  5
C454
330
1E
100
AcDbEntity
  8
0
100
AcDbLine
 10
1055.135395613223
 20
-164.7265651065618
 30
0.0
 11
1032.135395613223
 21
-164.7265651065618
 31
0.0
  0
LINE
  5
C455
330
1E
100
AcDbEntity
  8
0
100
AcDbLine
 10
1051.635395613224
 20
-165.2265651065618
 30
0.0
 11
1035.635395613224
 21
-165.2265651065618
 31
0.0
  0
LINE
  5
C456
330
1E
100
AcDbEntity
  8
0
100
AcDbLine
 10
1032.135395613223
 20
-164.7265651065618
 30
0.0
 11
1032.135395613223
 21
-145.1265651065619
 31
0.0
  0
LINE
  5
C457
330
1E
100
AcDbEntity
  8
0
100
AcDbLine
 10
1055.135395613223
 20
-164.7265651065618
 30
0.0
 11
1055.135395613223
 21
-145.1265651065619
 31
0.0
  0
LINE
  5
C458
330
1E
100
AcDbEntity
  8
中心線
 48
0.27
100
AcDbLine
 10
1043.635395613223
 20
-190.5778946803959
 30
0.0
 11
1043.635395613223
 21
-142.2660230433071
 31
0.0
  0
LINE
  5
C459
330
1E
100
AcDbEntity
  8
中心線
 48
0.27
100
AcDbLine
 10
1228.635395613223
 20
-146.7684672038783
 30
0.0
 11
1228.635395613223
 21
-116.7265651065618
 31
-3.0
  0
LINE
  5
C45A
330
1E
100
AcDbEntity
  8
虛線
 48
0.27
100
AcDbLine
 10
1222.635395613223
 20
-120.2265651065618
 30
0.0
 11
1221.135395613223
 21
-118.7265651065618
 31
0.0
  0
LINE
  5
C45C
330
1E
100
AcDbEntity
  8
虛線
 48
0.27
100
AcDbLine
 10
1222.635395613223
 20
-120.2265651065618
 30
0.0
 11
1234.635395613223
 21
-120.2265651065618
 31
0.0
  0
LINE
  5
C45D
330
1E
100
AcDbEntity
  8
虛線
 48
0.27
100
AcDbLine
 10
1222.635395613223
 20
-130.7265341065617
 30
0.0
 11
1222.635395613223
 21
-120.2265651065618
 31
0.0
  0
LINE
  5
C45E
330
1E
100
AcDbEntity
  8
虛線
 48
0.27
100
AcDbLine
 10
1221.635395613224
 20
-130.7265341065617
 30
0.0
 11
1221.635395613223
 21
-119.2265651065618
 31
0.0
  0
LINE
  5
C461
330
1E
100
AcDbEntity
  8
虛線
 48
0.6
100
AcDbLine
 10
1238.635395613224
 20
-130.7265341065617
 30
0.0
 11
1218.635395613224
 21
-130.7265341065617
 31
0.0
  0
LINE
  5
C462
330
1E
100
AcDbEntity
  8
虛線
 48
0.6
100
AcDbLine
 10
1218.635395613224
 20
-130.7265341065617
 30
0.0
 11
1218.635395613225
 21
-142.7265651065618
 31
0.0
  0
LINE
  5
C463
330
1E
100
AcDbEntity
  8
虛線
 48
0.6
100
AcDbLine
 10
1238.635395613224
 20
-130.7265341065617
 30
0.0
 11
1238.635395613222
 21
-142.7265651065618
 31
0.0
  0
LINE
  5
C464
330
1E
100
AcDbEntity
  8
虛線
 48
0.6
100
AcDbLine
 10
1168.635395613223
 20
-130.7265341065617
 30
0.0
 11
1168.635395613222
 21
-142.7265651065618
 31
0.0
  0
LINE
  5
C465
330
1E
100
AcDbEntity
  8
虛線
 48
0.6
100
AcDbLine
 10
1148.635395613223
 20
-130.7265341065617
 30
0.0
 11
1168.635395613223
 21
-130.7265341065617
 31
0.0
  0
LINE
  5
C466
330
1E
100
AcDbEntity
  8
虛線
 48
0.6
100
AcDbLine
 10
1148.635395613223
 20
-130.7265341065617
 30
0.0
 11
1148.635395613224
 21
-142.7265651065618
 31
0.0
  0
LINE
  5
C467
330
1E
100
AcDbEntity
  8
中心線
 48
0.27
100
AcDbLine
 10
1158.635395613224
 20
-146.7684672038783
 30
0.0
 11
1158.635395613224
 21
-116.7265651065618
 31
-3.0
  0
LINE
  5
C468
330
1E
100
AcDbEntity
  8
虛線
 48
0.27
100
AcDbLine
 10
1152.635395613224
 20
-120.2265651065618
 30
0.0
 11
1151.135395613223
 21
-118.7265651065618
 31
0.0
  0
LINE
  5
C469
330
1E
100
AcDbEntity
  8
虛線
 48
0.27
100
AcDbLine
 10
1164.635395613223
 20
-120.2265651065618
 30
0.0
 11
1152.635395613224
 21
-120.2265651065618
 31
0.0
  0
LINE
  5
C46A
330
1E
100
AcDbEntity
  8
虛線
 48
0.27
100
AcDbLine
 10
1164.635395613223
 20
-120.2265651065618
 30
0.0
 11
1166.135395613224
 21
-118.7265651065618
 31
0.0
  0
LINE
  5
C46B
330
1E
100
AcDbEntity
  8
虛線
 48
0.27
100
AcDbLine
 10
1151.635395613223
 20
-130.7265341065617
 30
0.0
 11
1151.635395613223
 21
-119.2265651065617
 31
0.0
  0
LINE
  5
C46C
330
1E
100
AcDbEntity
  8
虛線
 48
0.27
100
AcDbLine
 10
1152.635395613224
 20
-130.7265341065617
 30
0.0
 11
1152.635395613224
 21
-120.2265651065618
 31
0.0
  0
LINE
  5
C46D
330
1E
100
AcDbEntity
  8
虛線
 48
0.27
100
AcDbLine
 10
1164.635395613223
 20
-130.7265341065617
 30
0.0
 11
1164.635395613223
 21
-120.2265651065618
 31
0.0
  0
LINE
  5
C46E
330
1E
100
AcDbEntity
  8
虛線
 48
0.27
100
AcDbLine
 10
1165.635395613223
 20
-130.7265341065617
 30
0.0
 11
1165.635395613223
 21
-119.2265651065621
 31
0.0
  0
LINE
  5
C46F
330
1E
100
AcDbEntity
  8
虛線
 48
0.27
100
AcDbLine
 10
1256.385395613223
 20
-142.7265651065618
 30
0.0
 11
1130.885395613223
 21
-142.7265651065618
 31
0.0
  0
LINE
  5
C470
330
1E
100
AcDbEntity
  8
中心線
 48
0.27
100
AcDbLine
 10
1146.135395613224
 20
-178.7265651065617
 30
2.376919790161701
 11
1146.135395613224
 21
-116.7265651065618
 31
-3.0
  0
LINE
  5
C471
330
1E
100
AcDbEntity
  8
虛線
 48
0.27
100
AcDbLine
 10
1153.135395613223
 20
-135.7265651065618
 30
0.0
 11
1153.135395613224
 21
-119.2265651065619
 31
0.0
  0
LINE
  5
C472
330
1E
100
AcDbEntity
  8
虛線
 48
0.27
100
AcDbLine
 10
1152.135395613224
 20
-135.7265651065618
 30
0.0
 11
1152.135395613223
 21
-120.2265651065618
 31
0.0
  0
LINE
  5
C473
330
1E
100
AcDbEntity
  8
虛線
 48
0.27
100
AcDbLine
 10
1140.135395613223
 20
-135.7265651065618
 30
0.0
 11
1140.135395613223
 21
-120.2265651065618
 31
0.0
  0
LINE
  5
C474
330
1E
100
AcDbEntity
  8
虛線
 48
0.27
100
AcDbLine
 10
1139.135395613223
 20
-135.7265651065618
 30
0.0
 11
1139.135395613223
 21
-119.2265651065617
 31
0.0
  0
LINE
  5
C475
330
1E
100
AcDbEntity
  8
虛線
 48
0.27
100
AcDbLine
 10
1152.135395613223
 20
-120.2265651065618
 30
0.0
 11
1153.635395613224
 21
-118.7265651065618
 31
0.0
  0
LINE
  5
C476
330
1E
100
AcDbEntity
  8
虛線
 48
0.27
100
AcDbLine
 10
1153.135395613223
 20
-120.2265651065618
 30
0.0
 11
1152.635395613224
 21
-120.2265651065618
 31
0.0
  0
LINE
  5
C477
330
1E
100
AcDbEntity
  8
虛線
 48
0.27
100
AcDbLine
 10
1140.135395613223
 20
-120.2265651065618
 30
0.0
 11
1138.635395613223
 21
-118.7265651065618
 31
0.0
  0
LINE
  5
C478
330
1E
100
AcDbEntity
  8
中心線
 48
0.27
100
AcDbLine
 10
1241.135395613224
 20
-178.7265651065625
 30
3.191352311763766
 11
1241.135395613224
 21
-116.7265651065618
 31
-3.0
  0
LINE
  5
C47A
330
1E
100
AcDbEntity
  8
虛線
 48
0.27
100
AcDbLine
 10
1247.135395613224
 20
-120.2265651065618
 30
0.0
 11
1235.635395613223
 21
-120.2265651065618
 31
0.0
  0
LINE
  5
C47B
330
1E
100
AcDbEntity
  8
虛線
 48
0.27
100
AcDbLine
 10
1247.135395613224
 20
-120.2265651065618
 30
0.0
 11
1248.635395613224
 21
-118.7265651065618
 31
0.0
  0
LINE
  5
C47E
330
1E
100
AcDbEntity
  8
虛線
 48
0.27
100
AcDbLine
 10
1247.135395613224
 20
-135.7265651065618
 30
0.0
 11
1247.135395613224
 21
-120.2265651065618
 31
0.0
  0
LINE
  5
C47F
330
1E
100
AcDbEntity
  8
虛線
 48
0.27
100
AcDbLine
 10
1248.135395613224
 20
-135.7265651065618
 30
0.0
 11
1248.135395613223
 21
-119.2265651065621
 31
0.0
  0
LINE
  5
C482
330
1E
100
AcDbEntity
  8
中心線
100
AcDbLine
 10
1288.78697453326
 20
57.34397563463824
 30
0.0
 11
1278.141749005331
 21
57.34397563463824
 31
0.0
  0
LINE
  5
C483
330
1E
100
AcDbEntity
  8
0
100
AcDbLine
 10
1287.122124347222
 20
58.69479229348872
 30
0.0
 11
1287.122124347222
 21
55.99315897578685
 31
0.0
  0
ARC
  5
C484
330
1E
100
AcDbEntity
  8
0
100
AcDbCircle
 10
1284.864402538657
 20
56.02971563645496
 30
0.0
 40
2.258017748891656
100
AcDbArc
 50
285.9630221688284
 51
359.0723572120041
  0
ARC
  5
C485
330
1E
100
AcDbEntity
  8
0
100
AcDbCircle
 10
1284.864402538657
 20
58.65823563282152
 30
0.0
 40
2.258017748891656
100
AcDbArc
 50
0.9276427879959022
 51
74.03697783117156
  0
ARC
  5
C48A
330
1E
100
AcDbEntity
  8
0
100
AcDbCircle
 10
1284.864402538657
 20
-20.9703239919454
 30
0.0
 40
2.258017748891656
100
AcDbArc
 50
285.9630221688284
 51
359.0723572120041
  0
ARC
  5
C48B
330
1E
100
AcDbEntity
  8
0
100
AcDbCircle
 10
1284.864402538657
 20
-18.34180399557886
 30
0.0
 40
2.258017748891656
100
AcDbArc
 50
0.9276427879959022
 51
74.03697783117156
  0
LINE
  5
C48C
330
1E
100
AcDbEntity
  8
0
100
AcDbLine
 10
1287.122124347222
 20
-21.00688065261261
 30
0.0
 11
1287.122124347222
 21
-18.30524733491074
 31
0.0
  0
LINE
  5
C48D
330
1E
100
AcDbEntity
  8
中心線
100
AcDbLine
 10
1288.78697453326
 20
-19.65606399376202
 30
0.0
 11
1278.141749005331
 21
-19.65606399376202
 31
0.0
  0
LINE
  5
C492
330
1E
100
AcDbEntity
  8
0
  6
Continuous
100
AcDbLine
 10
1091.639973516914
 20
3.062668386175118
 30
0.0
 11
1094.498566724292
 21
5.921261593552799
 31
0.0
  0
LINE
  5
C493
330
1E
100
AcDbEntity
  8
0
  6
Continuous
100
AcDbLine
 10
1086.815333545891
 20
5.061099695740153
 30
0.0
 11
1091.639973516914
 21
3.062668386175118
 31
0.0
  0
LINE
  5
C494
330
1E
100
AcDbEntity
  8
0
  6
Continuous
100
AcDbLine
 10
1100.601003602037
 20
24.9772898944716
 30
0.0
 11
1101.785395613223
 21
24.9772898944716
 31
0.0
  0
LINE
  5
C495
330
1E
100
AcDbEntity
  8
0
  6
Continuous
100
AcDbLine
 10
1100.601003602037
 20
21.91062296222367
 30
0.0
 11
1101.785395613223
 21
21.91062296222367
 31
0.0
  0
ARC
  5
C496
330
1E
100
AcDbEntity
  8
0
  6
Continuous
100
AcDbCircle
 10
1102.974013515285
 20
23.44395669392884
 30
0.0
 40
2.825346636061326
100
AcDbArc
 50
147.1327799989362
 51
212.8672200010638
  0
LINE
  5
C497
330
1E
100
AcDbEntity
  8
0
  6
Continuous
100
AcDbLine
 10
1095.350588449244
 20
24.17728989447164
 30
0.0
 11
1100.245496329911
 21
24.17728989447164
 31
0.0
  0
LINE
  5
C498
330
1E
100
AcDbEntity
  8
0
  6
Continuous
100
AcDbLine
 10
1100.601003602037
 20
15.77729016005264
 30
0.0
 11
1101.785395613223
 21
15.77729016005264
 31
0.0
  0
LINE
  5
C499
330
1E
100
AcDbEntity
  8
0
  6
Continuous
100
AcDbLine
 10
1100.601003602037
 20
12.71062322780483
 30
0.0
 11
1101.785395613223
 21
12.71062322780494
 31
0.0
  0
ARC
  5
C49A
330
1E
100
AcDbEntity
  8
0
  6
Continuous
100
AcDbCircle
 10
1102.974013515285
 20
14.2439564283477
 30
0.0
 40
2.825346636061326
100
AcDbArc
 50
147.1327799989362
 51
212.8672200010638
  0
LINE
  5
C49B
330
1E
100
AcDbEntity
  8
0
  6
Continuous
100
AcDbLine
 10
1097.757296018697
 20
10.63056576122903
 30
0.0
 11
1098.520122543185
 21
12.47219190238547
 31
0.0
  0
LINE
  5
C49C
330
1E
100
AcDbEntity
  8
0
  6
Continuous
100
AcDbLine
 10
1095.278275394493
 20
11.65749009936542
 30
0.0
 11
1096.041045085847
 21
13.49897903319982
 31
0.0
  0
ARC
  5
C49D
330
1E
100
AcDbEntity
  8
0
  6
Continuous
100
AcDbCircle
 10
1096.2049072947
 20
20.9064647044288
 30
0.0
 40
9.295339642905961
100
AcDbArc
 50
230.7213499979124
 51
264.2786500020895
  0
LINE
  5
C49E
330
1E
100
AcDbEntity
  8
0
  6
Continuous
100
AcDbLine
 10
1090.320122332738
 20
13.71122434186611
 30
0.0
 11
1091.082892024092
 21
15.55271327570062
 31
0.0
  0
ARC
  5
C49F
330
1E
100
AcDbEntity
  8
0
  6
Continuous
100
AcDbCircle
 10
1090.156260123885
 20
6.30373867063713
 30
0.0
 40
9.295339642905961
100
AcDbArc
 50
50.7213499979104
 51
84.27865000208958
  0
LINE
  5
C4A0
330
1E
100
AcDbEntity
  8
0
  6
Continuous
100
AcDbLine
 10
1087.841045372472
 20
14.73809164097508
 30
0.0
 11
1088.603815063826
 21
16.57958057480948
 31
0.0
  0
ARC
  5
C4A1
330
1E
100
AcDbEntity
  8
0
  6
Continuous
100
AcDbCircle
 10
1089.875181269219
 20
16.14298645848475
 30
0.0
 40
2.472178306553661
100
AcDbArc
 50
214.6327799989385
 51
280.3672200010634
  0
ARC
  5
C4A2
330
1E
100
AcDbEntity
  8
0
  6
Continuous
100
AcDbCircle
 10
1086.143032044366
 20
12.49863439181843
 30
0.0
 40
2.746231479756805
100
AcDbArc
 50
335.8479011650612
 51
45.84790116506007
  0
ARC
  5
C4A3
330
1E
100
AcDbEntity
  8
0
  6
Continuous
100
AcDbCircle
 10
1091.149685885764
 20
7.746106137088077
 30
0.0
 40
3.813798694049014
100
AcDbArc
 50
331.4135141737369
 51
16.41351417374012
  0
LINE
  5
C4A4
330
1E
100
AcDbEntity
  8
0
  6
Continuous
100
AcDbLine
 10
1086.815333545891
 20
5.061099695740153
 30
0.0
 11
1086.815333545891
 21
9.103760978921513
 31
0.0
  0
LINE
  5
C4A5
330
1E
100
AcDbEntity
  8
0
  6
Continuous
100
AcDbLine
 10
1086.815333545891
 20
9.103760978921513
 30
0.0
 11
1094.498566724292
 21
5.921261593552799
 31
0.0
  0
ARC
  5
C4A6
330
1E
100
AcDbEntity
  8
0
  6
Continuous
100
AcDbCircle
 10
1090.473709847545
 20
8.026104579957745
 30
0.0
 40
3.813798694049016
100
AcDbArc
 50
118.5864858262631
 51
163.586485826263
  0
LINE
  5
C4A7
330
1E
100
AcDbEntity
  8
0
  6
Continuous
100
AcDbLine
 10
1088.895233179346
 20
11.27293650318825
 30
0.0
 11
1094.561694312082
 21
8.925811451349204
 31
0.0
  0
LINE
  5
C4A8
330
1E
100
AcDbEntity
  8
0
  6
Continuous
100
AcDbLine
 10
1088.929119589448
 20
13.85899152034142
 30
0.0
 11
1096.366350040859
 21
10.77838980087313
 31
0.0
  0
LINE
  5
C4A9
330
1E
100
AcDbEntity
  8
0
  6
Continuous
100
AcDbLine
 10
1089.994817377726
 20
16.43181357419291
 30
0.0
 11
1097.432047829136
 21
13.35121185472451
 31
0.0
  0
ARC
  5
C4AA
330
1E
100
AcDbEntity
  8
0
  6
Continuous
100
AcDbCircle
 10
1097.312411720629
 20
13.06238473901646
 30
0.0
 40
2.472178306553661
100
AcDbArc
 50
214.6327799989385
 51
280.3672200010634
  0
ARC
  5
C4AB
330
1E
100
AcDbEntity
  8
0
  6
Continuous
100
AcDbCircle
 10
1097.374493686552
 20
7.846410654351871
 30
0.0
 40
2.746231479756805
100
AcDbArc
 50
89.1520988349392
 51
159.1520988349398
  0
ARC
  5
C4AC
330
1E
100
AcDbEntity
  8
0
  6
Continuous
100
AcDbCircle
 10
1096.485986149366
 20
11.06721691658117
 30
0.0
 40
2.472178306553661
100
AcDbArc
 50
34.63277999893853
 51
100.3672200010633
  0
ARC
  5
C4AE
330
1E
100
AcDbEntity
  8
0
  6
Continuous
100
AcDbCircle
 10
1095.350588449244
 20
18.84395656113816
 30
0.0
 40
5.333333333333332
100
AcDbArc
 50
90.0
 51
210.8352048940846
  0
ARC
  5
C4AF
330
1E
100
AcDbEntity
  8
0
  6
Continuous
100
AcDbCircle
 10
1089.048755697956
 20
14.14781863604946
 30
0.0
 40
2.472178306553661
100
AcDbArc
 50
34.63277999893853
 51
100.3672200010633
  0
ARC
  5
C4B0
330
1E
100
AcDbEntity
  8
0
  6
Continuous
100
AcDbCircle
 10
1110.771912185402
 20
18.84395656113816
 30
0.0
 40
10.62324530617823
100
AcDbArc
 50
163.2213499979114
 51
196.7786500020885
  0
LINE
  5
C4B1
330
1E
100
AcDbEntity
  8
0
  6
Continuous
100
AcDbLine
 10
1100.148666879224
 20
14.2439564283477
 30
0.0
 11
1100.148666879224
 21
23.44395669392884
 31
0.0
  0
LINE
  5
C4C2
330
1E
100
AcDbEntity
  8
0
  6
Continuous
100
AcDbLine
 10
1091.639973516914
 20
3.062668386175118
 30
0.0
 11
1094.498566724292
 21
5.921261593552799
 31
0.0
  0
LINE
  5
C4C3
330
1E
100
AcDbEntity
  8
0
  6
Continuous
100
AcDbLine
 10
1086.815333545891
 20
5.061099695740153
 30
0.0
 11
1091.639973516914
 21
3.062668386175118
 31
0.0
  0
LINE
  5
C4C4
330
1E
100
AcDbEntity
  8
0
  6
Continuous
100
AcDbLine
 10
1100.601003602037
 20
24.9772898944716
 30
0.0
 11
1101.785395613223
 21
24.9772898944716
 31
0.0
  0
LINE
  5
C4C5
330
1E
100
AcDbEntity
  8
0
  6
Continuous
100
AcDbLine
 10
1100.601003602037
 20
21.91062296222367
 30
0.0
 11
1101.785395613223
 21
21.91062296222367
 31
0.0
  0
ARC
  5
C4C6
330
1E
100
AcDbEntity
  8
0
  6
Continuous
100
AcDbCircle
 10
1102.974013515285
 20
23.44395669392884
 30
0.0
 40
2.825346636061326
100
AcDbArc
 50
147.1327799989362
 51
212.8672200010638
  0
LINE
  5
C4C7
330
1E
100
AcDbEntity
  8
0
  6
Continuous
100
AcDbLine
 10
1095.350588449244
 20
24.17728989447164
 30
0.0
 11
1100.245496329911
 21
24.17728989447164
 31
0.0
  0
LINE
  5
C4C8
330
1E
100
AcDbEntity
  8
0
  6
Continuous
100
AcDbLine
 10
1100.601003602037
 20
15.77729016005264
 30
0.0
 11
1101.785395613223
 21
15.77729016005264
 31
0.0
  0
LINE
  5
C4C9
330
1E
100
AcDbEntity
  8
0
  6
Continuous
100
AcDbLine
 10
1100.601003602037
 20
12.71062322780483
 30
0.0
 11
1101.785395613223
 21
12.71062322780494
 31
0.0
  0
ARC
  5
C4CA
330
1E
100
AcDbEntity
  8
0
  6
Continuous
100
AcDbCircle
 10
1102.974013515285
 20
14.2439564283477
 30
0.0
 40
2.825346636061326
100
AcDbArc
 50
147.1327799989362
 51
212.8672200010638
  0
LINE
  5
C4CB
330
1E
100
AcDbEntity
  8
0
  6
Continuous
100
AcDbLine
 10
1097.757296018697
 20
10.63056576122903
 30
0.0
 11
1098.520122543185
 21
12.47219190238547
 31
0.0
  0
LINE
  5
C4CC
330
1E
100
AcDbEntity
  8
0
  6
Continuous
100
AcDbLine
 10
1095.278275394493
 20
11.65749009936542
 30
0.0
 11
1096.041045085847
 21
13.49897903319982
 31
0.0
  0
ARC
  5
C4CD
330
1E
100
AcDbEntity
  8
0
  6
Continuous
100
AcDbCircle
 10
1096.2049072947
 20
20.9064647044288
 30
0.0
 40
9.295339642905961
100
AcDbArc
 50
230.7213499979124
 51
264.2786500020895
  0
LINE
  5
C4CE
330
1E
100
AcDbEntity
  8
0
  6
Continuous
100
AcDbLine
 10
1090.320122332738
 20
13.71122434186611
 30
0.0
 11
1091.082892024092
 21
15.55271327570062
 31
0.0
  0
ARC
  5
C4CF
330
1E
100
AcDbEntity
  8
0
  6
Continuous
100
AcDbCircle
 10
1090.156260123885
 20
6.30373867063713
 30
0.0
 40
9.295339642905961
100
AcDbArc
 50
50.7213499979104
 51
84.27865000208958
  0
LINE
  5
C4D0
330
1E
100
AcDbEntity
  8
0
  6
Continuous
100
AcDbLine
 10
1087.841045372472
 20
14.73809164097508
 30
0.0
 11
1088.603815063826
 21
16.57958057480948
 31
0.0
  0
ARC
  5
C4D1
330
1E
100
AcDbEntity
  8
0
  6
Continuous
100
AcDbCircle
 10
1089.875181269219
 20
16.14298645848475
 30
0.0
 40
2.472178306553661
100
AcDbArc
 50
214.6327799989385
 51
280.3672200010634
  0
ARC
  5
C4D2
330
1E
100
AcDbEntity
  8
0
  6
Continuous
100
AcDbCircle
 10
1086.143032044366
 20
12.49863439181843
 30
0.0
 40
2.746231479756805
100
AcDbArc
 50
335.8479011650612
 51
45.84790116506007
  0
ARC
  5
C4D3
330
1E
100
AcDbEntity
  8
0
  6
Continuous
100
AcDbCircle
 10
1091.149685885764
 20
7.746106137088077
 30
0.0
 40
3.813798694049014
100
AcDbArc
 50
331.4135141737369
 51
16.41351417374012
  0
LINE
  5
C4D4
330
1E
100
AcDbEntity
  8
0
  6
Continuous
100
AcDbLine
 10
1086.815333545891
 20
5.061099695740153
 30
0.0
 11
1086.815333545891
 21
9.103760978921513
 31
0.0
  0
LINE
  5
C4D5
330
1E
100
AcDbEntity
  8
0
  6
Continuous
100
AcDbLine
 10
1086.815333545891
 20
9.103760978921513
 30
0.0
 11
1094.498566724292
 21
5.921261593552799
 31
0.0
  0
ARC
  5
C4D6
330
1E
100
AcDbEntity
  8
0
  6
Continuous
100
AcDbCircle
 10
1090.473709847545
 20
8.026104579957745
 30
0.0
 40
3.813798694049016
100
AcDbArc
 50
118.5864858262631
 51
163.586485826263
  0
LINE
  5
C4D7
330
1E
100
AcDbEntity
  8
0
  6
Continuous
100
AcDbLine
 10
1088.895233179346
 20
11.27293650318825
 30
0.0
 11
1094.561694312082
 21
8.925811451349204
 31
0.0
  0
LINE
  5
C4D8
330
1E
100
AcDbEntity
  8
0
  6
Continuous
100
AcDbLine
 10
1088.929119589448
 20
13.85899152034142
 30
0.0
 11
1096.366350040859
 21
10.77838980087313
 31
0.0
  0
LINE
  5
C4D9
330
1E
100
AcDbEntity
  8
0
  6
Continuous
100
AcDbLine
 10
1089.994817377726
 20
16.43181357419291
 30
0.0
 11
1097.432047829136
 21
13.35121185472451
 31
0.0
  0
ARC
  5
C4DA
330
1E
100
AcDbEntity
  8
0
  6
Continuous
100
AcDbCircle
 10
1097.312411720629
 20
13.06238473901646
 30
0.0
 40
2.472178306553661
100
AcDbArc
 50
214.6327799989385
 51
280.3672200010634
  0
ARC
  5
C4DB
330
1E
100
AcDbEntity
  8
0
  6
Continuous
100
AcDbCircle
 10
1097.374493686552
 20
7.846410654351871
 30
0.0
 40
2.746231479756805
100
AcDbArc
 50
89.1520988349392
 51
159.1520988349398
  0
ARC
  5
C4DC
330
1E
100
AcDbEntity
  8
0
  6
Continuous
100
AcDbCircle
 10
1096.485986149366
 20
11.06721691658117
 30
0.0
 40
2.472178306553661
100
AcDbArc
 50
34.63277999893853
 51
100.3672200010633
  0
LINE
  5
C4DD
330
1E
100
AcDbEntity
  8
0
  6
Continuous
100
AcDbLine
 10
1097.047194730249
 20
13.5106232278049
 30
0.0
 11
1100.245496329911
 21
13.5106232278049
 31
0.0
  0
ARC
  5
C4DE
330
1E
100
AcDbEntity
  8
0
  6
Continuous
100
AcDbCircle
 10
1095.350588449244
 20
18.84395656113816
 30
0.0
 40
5.333333333333332
100
AcDbArc
 50
90.0
 51
210.8352048940846
  0
ARC
  5
C4DF
330
1E
100
AcDbEntity
  8
0
  6
Continuous
100
AcDbCircle
 10
1089.048755697956
 20
14.14781863604946
 30
0.0
 40
2.472178306553661
100
AcDbArc
 50
34.63277999893853
 51
100.3672200010633
  0
ARC
  5
C4E0
330
1E
100
AcDbEntity
  8
0
  6
Continuous
100
AcDbCircle
 10
1110.771912185402
 20
18.84395656113816
 30
0.0
 40
10.62324530617823
100
AcDbArc
 50
163.2213499979114
 51
196.7786500020885
  0
LINE
  5
C4E1
330
1E
100
AcDbEntity
  8
0
  6
Continuous
100
AcDbLine
 10
1100.148666879224
 20
14.2439564283477
 30
0.0
 11
1100.148666879224
 21
23.44395669392884
 31
0.0
  0
LINE
  5
C4E2
330
1E
100
AcDbEntity
  8
中心線
 48
0.27
100
AcDbLine
 10
1043.635395613223
 20
2.7758865575247
 30
0.0
 11
1043.635395613223
 21
34.91202656455153
 31
0.0
  0
CIRCLE
  5
C4E3
330
1E
100
AcDbEntity
  8
0
100
AcDbCircle
 10
1043.635395613223
 20
18.84395656103822
 30
0.0
 40
11.50000000000022
  0
CIRCLE
  5
C4E4
330
1E
100
AcDbEntity
  8
0
100
AcDbCircle
 10
1043.635395613223
 20
18.84395656103811
 30
0.0
 40
8.000000000000227
  0
LINE
  5
C4E5
330
1E
100
AcDbEntity
  8
中心線
 48
0.27
100
AcDbLine
 10
1027.91732560971
 20
18.84395656103811
 30
0.0
 11
1059.353465616736
 21
18.84395656103811
 31
0.0
  0
LINE
  5
C4E6
330
1E
100
AcDbEntity
  8
中心線
 48
0.27
100
AcDbLine
 10
1343.635395613223
 20
2.7758865575247
 30
0.0
 11
1343.635395613223
 21
34.91202656455153
 31
0.0
  0
CIRCLE
  5
C4E7
330
1E
100
AcDbEntity
  8
0
100
AcDbCircle
 10
1343.635395613223
 20
18.84395656103822
 30
0.0
 40
11.50000000000022
  0
CIRCLE
  5
C4E8
330
1E
100
AcDbEntity
  8
0
100
AcDbCircle
 10
1343.635395613223
 20
18.84395656103811
 30
0.0
 40
8.000000000000227
  0
LINE
  5
C4E9
330
1E
100
AcDbEntity
  8
中心線
 48
0.27
100
AcDbLine
 10
1327.91732560971
 20
18.84395656103811
 30
0.0
 11
1359.353465616736
 21
18.84395656103811
 31
0.0
  0
LINE
  5
C4EA
330
1E
100
AcDbEntity
  8
中心線
100
AcDbLine
 10
1146.135395613223
 20
85.78544131699482
 30
0.0
 11
1146.135395613223
 21
67.90247032388151
 31
0.0
  0
ARC
  5
C4EB
330
1E
100
AcDbEntity
  8
標註線
 62
     1
100
AcDbCircle
 10
1146.135395613223
 20
76.84395582043817
 30
0.0
 40
7.0
100
AcDbArc
 50
180.0
 51
90.0
  0
CIRCLE
  5
C4EC
330
1E
100
AcDbEntity
  8
0
100
AcDbCircle
 10
1146.135395613223
 20
76.84395582043817
 30
0.0
 40
6.0
  0
LINE
  5
C4ED
330
1E
100
AcDbEntity
  8
中心線
100
AcDbLine
 10
1137.235105318727
 20
76.84395582043817
 30
0.0
 11
1155.035685907719
 21
76.84395582043817
 31
0.0
  0
LINE
  5
C4EE
330
1E
100
AcDbEntity
  8
中心線
100
AcDbLine
 10
1158.635395613223
 20
27.78544131699482
 30
0.0
 11
1158.635395613223
 21
9.902470323881516
 31
0.0
  0
ARC
  5
C4EF
330
1E
100
AcDbEntity
  8
標註線
 62
     1
100
AcDbCircle
 10
1158.635395613223
 20
18.84395582043817
 30
0.0
 40
7.0
100
AcDbArc
 50
180.0
 51
90.0
  0
CIRCLE
  5
C4F0
330
1E
100
AcDbEntity
  8
0
100
AcDbCircle
 10
1158.635395613223
 20
18.84395582043817
 30
0.0
 40
6.0
  0
LINE
  5
C4F1
330
1E
100
AcDbEntity
  8
中心線
100
AcDbLine
 10
1146.135395613223
 20
-30.21455868300518
 30
0.0
 11
1146.135395613223
 21
-48.09752967611848
 31
0.0
  0
ARC
  5
C4F2
330
1E
100
AcDbEntity
  8
標註線
 62
     1
100
AcDbCircle
 10
1146.135395613223
 20
-39.15604417956183
 30
0.0
 40
7.0
100
AcDbArc
 50
180.0
 51
90.0
  0
CIRCLE
  5
C4F3
330
1E
100
AcDbEntity
  8
0
100
AcDbCircle
 10
1146.135395613223
 20
-39.15604417956183
 30
0.0
 40
6.0
  0
LINE
  5
C4F4
330
1E
100
AcDbEntity
  8
中心線
100
AcDbLine
 10
1137.235105318727
 20
-39.15604417956183
 30
0.0
 11
1155.035685907719
 21
-39.15604417956183
 31
0.0
  0
LINE
  5
C4F5
330
1E
100
AcDbEntity
  8
中心線
100
AcDbLine
 10
1241.135395613223
 20
-30.21455868300518
 30
0.0
 11
1241.135395613223
 21
-48.09752967611848
 31
0.0
  0
ARC
  5
C4F6
330
1E
100
AcDbEntity
  8
標註線
 62
     1
100
AcDbCircle
 10
1241.135395613223
 20
-39.15604417956183
 30
0.0
 40
7.0
100
AcDbArc
 50
180.0
 51
90.0
  0
CIRCLE
  5
C4F7
330
1E
100
AcDbEntity
  8
0
100
AcDbCircle
 10
1241.135395613223
 20
-39.15604417956183
 30
0.0
 40
6.0
  0
LINE
  5
C4F8
330
1E
100
AcDbEntity
  8
中心線
100
AcDbLine
 10
1232.235105318727
 20
-39.15604417956183
 30
0.0
 11
1250.035685907719
 21
-39.15604417956183
 31
0.0
  0
LINE
  5
C4F9
330
1E
100
AcDbEntity
  8
中心線
100
AcDbLine
 10
1228.635395613223
 20
27.78544131699482
 30
0.0
 11
1228.635395613223
 21
9.902470323881516
 31
0.0
  0
ARC
  5
C4FA
330
1E
100
AcDbEntity
  8
標註線
 62
     1
100
AcDbCircle
 10
1228.635395613223
 20
18.84395582043817
 30
0.0
 40
7.0
100
AcDbArc
 50
180.0
 51
90.0
  0
CIRCLE
  5
C4FB
330
1E
100
AcDbEntity
  8
0
100
AcDbCircle
 10
1228.635395613223
 20
18.84395582043817
 30
0.0
 40
6.0
  0
LINE
  5
C4FC
330
1E
100
AcDbEntity
  8
中心線
100
AcDbLine
 10
1241.135395613223
 20
85.78544131699482
 30
0.0
 11
1241.135395613223
 21
67.90247032388151
 31
0.0
  0
ARC
  5
C4FD
330
1E
100
AcDbEntity
  8
標註線
 62
     1
100
AcDbCircle
 10
1241.135395613223
 20
76.84395582043817
 30
0.0
 40
7.0
100
AcDbArc
 50
180.0
 51
90.0
  0
CIRCLE
  5
C4FE
330
1E
100
AcDbEntity
  8
0
100
AcDbCircle
 10
1241.135395613223
 20
76.84395582043817
 30
0.0
 40
6.0
  0
LINE
  5
C4FF
330
1E
100
AcDbEntity
  8
中心線
100
AcDbLine
 10
1232.235105318727
 20
76.84395582043817
 30
0.0
 11
1250.035685907719
 21
76.84395582043817
 31
0.0
  0
LINE
  5
C500
330
1E
100
AcDbEntity
  8
中心線
100
AcDbLine
 10
1098.483816693186
 20
-144.7265651065618
 30
0.0
 11
1109.129042221115
 21
-144.7265651065618
 31
0.0
  0
LINE
  5
C501
330
1E
100
AcDbEntity
  8
0
100
AcDbLine
 10
1100.148666879224
 20
-143.3757484477112
 30
0.0
 11
1100.148666879224
 21
-146.077381765413
 31
0.0
  0
ARC
  5
C502
330
1E
100
AcDbEntity
  8
0
100
AcDbCircle
 10
1102.406388687789
 20
-146.0408251047449
 30
0.0
 40
2.258017748891656
100
AcDbArc
 50
180.9276427879959
 51
254.0369778311716
  0
ARC
  5
C503
330
1E
100
AcDbEntity
  8
0
100
AcDbCircle
 10
1102.406388687789
 20
-143.4123051083784
 30
0.0
 40
2.258017748891656
100
AcDbArc
 50
105.9630221688284
 51
179.0723572120041
  0
POINT
  5
C504
330
1E
100
AcDbEntity
  8
0
100
AcDbPoint
 10
1088.213513113223
 20
-130.7265152584307
 30
0.0
1001
pntflag
1000
endpoint
  0
LINE
  5
C505
330
1E
100
AcDbEntity
  8
0
 48
0.27
100
AcDbLine
 10
1092.554498113223
 20
-130.7265152584307
 30
0.0
 11
1092.514740613223
 21
-131.1634352584306
 31
0.0
  0
LINE
  5
C506
330
1E
100
AcDbEntity
  8
0
 48
0.27
100
AcDbLine
 10
1092.514740613223
 20
-131.1634352584306
 30
0.0
 11
1092.396996863223
 21
-131.5835652584308
 31
0.0
  0
LINE
  5
C507
330
1E
100
AcDbEntity
  8
0
 48
0.27
100
AcDbLine
 10
1092.514740613223
 20
-130.2895952584308
 30
0.0
 11
1092.554498113223
 21
-130.7265152584307
 31
0.0
  0
LINE
  5
C508
330
1E
100
AcDbEntity
  8
0
 48
0.27
100
AcDbLine
 10
1092.396996863223
 20
-131.5835652584308
 30
0.0
 11
1092.205791863223
 21
-131.9707590084306
 31
0.0
  0
LINE
  5
C509
330
1E
100
AcDbEntity
  8
0
 48
0.27
100
AcDbLine
 10
1092.396996863223
 20
-129.8694652584306
 30
0.0
 11
1092.514740613223
 21
-130.2895952584308
 31
0.0
  0
LINE
  5
C50A
330
1E
100
AcDbEntity
  8
0
 48
0.27
100
AcDbLine
 10
1092.205791863223
 20
-131.9707590084306
 30
0.0
 11
1091.948471863223
 21
-132.3101377584307
 31
0.0
  0
LINE
  5
C50B
330
1E
100
AcDbEntity
  8
0
 48
0.27
100
AcDbLine
 10
1092.205791863223
 20
-129.4822715084308
 30
0.0
 11
1092.396996863223
 21
-129.8694652584306
 31
0.0
  0
LINE
  5
C50C
330
1E
100
AcDbEntity
  8
0
 48
0.27
100
AcDbLine
 10
1091.634928113223
 20
-132.5886577584306
 30
0.0
 11
1091.948471863223
 21
-132.3101377584307
 31
0.0
  0
LINE
  5
C50D
330
1E
100
AcDbEntity
  8
0
 48
0.27
100
AcDbLine
 10
1091.948471863223
 20
-129.1428940084306
 30
0.0
 11
1092.205791863223
 21
-129.4822715084308
 31
0.0
  0
LINE
  5
C50E
330
1E
100
AcDbEntity
  8
0
 48
0.27
100
AcDbLine
 10
1094.111078113223
 20
-130.7265152584307
 30
0.0
 11
1094.054418113223
 21
-131.3491927584307
 31
0.0
  0
LINE
  5
C50F
330
1E
100
AcDbEntity
  8
0
 48
0.27
100
AcDbLine
 10
1094.054418113223
 20
-131.3491927584307
 30
0.0
 11
1093.886614363223
 21
-131.9479415084306
 31
0.0
  0
LINE
  5
C510
330
1E
100
AcDbEntity
  8
0
 48
0.27
100
AcDbLine
 10
1094.054418113223
 20
-130.1038377584307
 30
0.0
 11
1094.111078113223
 21
-130.7265152584307
 31
0.0
  0
LINE
  5
C511
330
1E
100
AcDbEntity
  8
0
 48
0.27
100
AcDbLine
 10
1091.277206863223
 20
-132.7956177584306
 30
0.0
 11
1091.634928113223
 21
-132.5886577584306
 31
0.0
  0
LINE
  5
C512
330
1E
100
AcDbEntity
  8
0
 48
0.27
100
AcDbLine
 10
1091.634928113223
 20
-128.8643727584308
 30
0.0
 11
1091.948471863223
 21
-129.1428940084306
 31
0.0
  0
LINE
  5
C513
330
1E
100
AcDbEntity
  8
0
 48
0.27
100
AcDbLine
 10
1093.886614363223
 20
-131.9479415084306
 30
0.0
 11
1093.614118113223
 21
-132.4997502584306
 31
0.0
  0
LINE
  5
C514
330
1E
100
AcDbEntity
  8
0
 48
0.27
100
AcDbLine
 10
1093.886614363223
 20
-129.5050902584307
 30
0.0
 11
1094.054418113223
 21
-130.1038377584307
 31
0.0
  0
LINE
  5
C515
330
1E
100
AcDbEntity
  8
0
 48
0.27
100
AcDbLine
 10
1093.614118113223
 20
-132.4997502584306
 30
0.0
 11
1093.247399363223
 21
-132.9834152584308
 31
0.0
  0
LINE
  5
C516
330
1E
100
AcDbEntity
  8
0
 48
0.27
100
AcDbLine
 10
1093.614118113223
 20
-128.9532802584308
 30
0.0
 11
1093.886614363223
 21
-129.5050902584307
 31
0.0
  0
LINE
  5
C517
330
1E
100
AcDbEntity
  8
0
 48
0.27
100
AcDbLine
 10
1090.889058113223
 20
-132.9230627584306
 30
0.0
 11
1091.277206863223
 21
-132.7956177584306
 31
0.0
  0
LINE
  5
C518
330
1E
100
AcDbEntity
  8
0
 48
0.27
100
AcDbLine
 10
1091.277206863223
 20
-128.6574140084308
 30
0.0
 11
1091.634928113223
 21
-128.8643727584308
 31
0.0
  0
LINE
  5
C519
330
1E
100
AcDbEntity
  8
0
 48
0.27
100
AcDbLine
 10
1092.800550613223
 20
-133.3803490084306
 30
0.0
 11
1093.247399363223
 21
-132.9834152584308
 31
0.0
  0
LINE
  5
C51A
330
1E
100
AcDbEntity
  8
0
 48
0.27
100
AcDbLine
 10
1093.247399363223
 20
-128.4696152584306
 30
0.0
 11
1093.614118113223
 21
-128.9532802584308
 31
0.0
  0
LINE
  5
C51B
330
1E
100
AcDbEntity
  8
0
 48
0.27
100
AcDbLine
 10
1094.265703113223
 20
-130.7265152584307
 30
0.0
 11
1094.209661863223
 21
-131.3423927584308
 31
0.0
  0
LINE
  5
C51C
330
1E
100
AcDbEntity
  8
0
 48
0.27
100
AcDbLine
 10
1090.485396863223
 20
-132.9660952584306
 30
0.0
 11
1090.889058113223
 21
-132.9230627584306
 31
0.0
  0
LINE
  5
C51D
330
1E
100
AcDbEntity
  8
0
 48
0.27
100
AcDbLine
 10
1090.889058113223
 20
-128.5299690084307
 30
0.0
 11
1091.277206863223
 21
-128.6574140084308
 31
0.0
  0
LINE
  5
C51E
330
1E
100
AcDbEntity
  8
0
 48
0.27
100
AcDbLine
 10
1094.209661863223
 20
-131.3423927584308
 30
0.0
 11
1094.043691863223
 21
-131.9346027584306
 31
0.0
  0
LINE
  5
C51F
330
1E
100
AcDbEntity
  8
0
 48
0.27
100
AcDbLine
 10
1094.209661863223
 20
-130.1106377584306
 30
0.0
 11
1094.265703113223
 21
-130.7265152584307
 31
0.0
  0
LINE
  5
C520
330
1E
100
AcDbEntity
  8
0
 48
0.27
100
AcDbLine
 10
1092.290745613223
 20
-133.6752977584306
 30
0.0
 11
1092.800550613223
 21
-133.3803490084306
 31
0.0
  0
LINE
  5
C521
330
1E
100
AcDbEntity
  8
0
 48
0.27
100
AcDbLine
 10
1092.800550613223
 20
-128.0726815084308
 30
0.0
 11
1093.247399363223
 21
-128.4696152584306
 31
0.0
  0
LINE
  5
C522
330
1E
100
AcDbEntity
  8
0
 48
0.27
100
AcDbLine
 10
1094.043691863223
 20
-131.9346027584306
 30
0.0
 11
1093.774170613223
 21
-132.4803865084307
 31
0.0
  0
LINE
  5
C523
330
1E
100
AcDbEntity
  8
0
 48
0.27
100
AcDbLine
 10
1094.043691863223
 20
-129.5184277584308
 30
0.0
 11
1094.209661863223
 21
-130.1106377584306
 31
0.0
  0
LINE
  5
C524
330
1E
100
AcDbEntity
  8
0
 48
0.27
100
AcDbLine
 10
1093.774170613223
 20
-132.4803865084307
 30
0.0
 11
1093.411456863223
 21
-132.9587702584308
 31
0.0
  0
LINE
  5
C525
330
1E
100
AcDbEntity
  8
0
 48
0.27
100
AcDbLine
 10
1093.774170613223
 20
-128.9726440084307
 30
0.0
 11
1094.043691863223
 21
-129.5184277584308
 31
0.0
  0
LINE
  5
C526
330
1E
100
AcDbEntity
  8
0
 48
0.27
100
AcDbLine
 10
1091.737574363223
 20
-133.8569265084306
 30
0.0
 11
1092.290745613223
 21
-133.6752977584306
 31
0.0
  0
LINE
  5
C527
330
1E
100
AcDbEntity
  8
0
 48
0.27
100
AcDbLine
 10
1092.290745613223
 20
-127.7777327584308
 30
0.0
 11
1092.800550613223
 21
-128.0726815084308
 31
0.0
  0
LINE
  5
C528
330
1E
100
AcDbEntity
  8
0
 48
0.27
100
AcDbLine
 10
1090.081734363223
 20
-132.9230627584306
 30
0.0
 11
1090.485396863223
 21
-132.9660952584306
 31
0.0
  0
LINE
  5
C529
330
1E
100
AcDbEntity
  8
0
 48
0.27
100
AcDbLine
 10
1090.485396863223
 20
-128.4869365084307
 30
0.0
 11
1090.889058113223
 21
-128.5299690084307
 31
0.0
  0
LINE
  5
C52A
330
1E
100
AcDbEntity
  8
0
 48
0.27
100
AcDbLine
 10
1092.969488113223
 20
-133.3513690084307
 30
0.0
 11
1093.411456863223
 21
-132.9587702584308
 31
0.0
  0
LINE
  5
C52B
330
1E
100
AcDbEntity
  8
0
 48
0.27
100
AcDbLine
 10
1093.411456863223
 20
-128.4942602584308
 30
0.0
 11
1093.774170613223
 21
-128.9726440084307
 31
0.0
  0
LINE
  5
C52C
330
1E
100
AcDbEntity
  8
0
 48
0.27
100
AcDbLine
 10
1091.162295613223
 20
-133.9182540084307
 30
0.0
 11
1091.737574363223
 21
-133.8569265084306
 31
0.0
  0
LINE
  5
C52D
330
1E
100
AcDbEntity
  8
0
 48
0.27
100
AcDbLine
 10
1091.737574363223
 20
-133.8569265084306
 30
0.0
 11
1091.918119363223
 21
-133.8227415084306
 31
0.0
  0
LINE
  5
C52E
330
1E
100
AcDbEntity
  8
0
 48
0.27
100
AcDbLine
 10
1091.737574363223
 20
-127.5961052584307
 30
0.0
 11
1092.290745613223
 21
-127.7777327584308
 31
0.0
  0
LINE
  5
C52F
330
1E
100
AcDbEntity
  8
0
 48
0.27
100
AcDbLine
 10
1089.693585613223
 20
-132.7956177584306
 30
0.0
 11
1090.081734363223
 21
-132.9230627584306
 31
0.0
  0
LINE
  5
C530
330
1E
100
AcDbEntity
  8
0
 48
0.27
100
AcDbLine
 10
1090.081734363223
 20
-128.5299690084307
 30
0.0
 11
1090.485396863223
 21
-128.4869365084307
 31
0.0
  0
LINE
  5
C531
330
1E
100
AcDbEntity
  8
0
 48
0.27
100
AcDbLine
 10
1092.465249363223
 20
-133.6430965084307
 30
0.0
 11
1092.969488113223
 21
-133.3513690084307
 31
0.0
  0
LINE
  5
C532
330
1E
100
AcDbEntity
  8
0
 48
0.27
100
AcDbLine
 10
1092.969488113223
 20
-128.1016615084308
 30
0.0
 11
1093.411456863223
 21
-128.4942602584308
 31
0.0
  0
LINE
  5
C533
330
1E
100
AcDbEntity
  8
0
 48
0.27
100
AcDbLine
 10
1091.918119363223
 20
-133.8227415084306
 30
0.0
 11
1092.465249363223
 21
-133.6430965084307
 31
0.0
  0
LINE
  5
C534
330
1E
100
AcDbEntity
  8
0
 48
0.27
100
AcDbLine
 10
1092.465249363223
 20
-127.8099340084309
 30
0.0
 11
1092.969488113223
 21
-128.1016615084308
 31
0.0
  0
LINE
  5
C535
330
1E
100
AcDbEntity
  8
0
 48
0.27
100
AcDbLine
 10
1090.587016863223
 20
-133.8569265084306
 30
0.0
 11
1091.162295613223
 21
-133.9182540084307
 31
0.0
  0
LINE
  5
C536
330
1E
100
AcDbEntity
  8
0
 48
0.27
100
AcDbLine
 10
1091.162295613223
 20
-127.5347765084307
 30
0.0
 11
1091.737574363223
 21
-127.5961052584307
 31
0.0
  0
LINE
  5
C537
330
1E
100
AcDbEntity
  8
0
 48
0.27
100
AcDbLine
 10
1091.737574363223
 20
-127.5961052584307
 30
0.0
 11
1091.918119363223
 21
-127.6302890084307
 31
0.0
  0
LINE
  5
C538
330
1E
100
AcDbEntity
  8
0
 48
0.27
100
AcDbLine
 10
1089.335864363223
 20
-132.5886577584306
 30
0.0
 11
1089.693585613223
 21
-132.7956177584306
 31
0.0
  0
LINE
  5
C539
330
1E
100
AcDbEntity
  8
0
 48
0.27
100
AcDbLine
 10
1089.693585613223
 20
-128.6574140084308
 30
0.0
 11
1090.081734363223
 21
-128.5299690084307
 31
0.0
  0
LINE
  5
C53A
330
1E
100
AcDbEntity
  8
0
 48
0.27
100
AcDbLine
 10
1091.918119363223
 20
-127.6302890084307
 30
0.0
 11
1092.465249363223
 21
-127.8099340084309
 31
0.0
  0
LINE
  5
C53B
330
1E
100
AcDbEntity
  8
0
 48
0.27
100
AcDbLine
 10
1089.022320613223
 20
-132.3101377584307
 30
0.0
 11
1089.335864363223
 21
-132.5886577584306
 31
0.0
  0
LINE
  5
C53C
330
1E
100
AcDbEntity
  8
0
 48
0.27
100
AcDbLine
 10
1089.335864363223
 20
-128.8643727584308
 30
0.0
 11
1089.693585613223
 21
-128.6574140084308
 31
0.0
  0
LINE
  5
C53D
330
1E
100
AcDbEntity
  8
0
 48
0.27
100
AcDbLine
 10
1090.033845613223
 20
-133.6752977584306
 30
0.0
 11
1090.587016863223
 21
-133.8569265084306
 31
0.0
  0
LINE
  5
C53E
330
1E
100
AcDbEntity
  8
0
 48
0.27
100
AcDbLine
 10
1090.587016863223
 20
-127.5961052584307
 30
0.0
 11
1091.162295613223
 21
-127.5347765084307
 31
0.0
  0
LINE
  5
C53F
330
1E
100
AcDbEntity
  8
0
 48
0.27
100
AcDbLine
 10
1088.765000613223
 20
-131.9707590084306
 30
0.0
 11
1089.022320613223
 21
-132.3101377584307
 31
0.0
  0
LINE
  5
C540
330
1E
100
AcDbEntity
  8
0
 48
0.27
100
AcDbLine
 10
1089.022320613223
 20
-129.1428940084306
 30
0.0
 11
1089.335864363223
 21
-128.8643727584308
 31
0.0
  0
LINE
  5
C541
330
1E
100
AcDbEntity
  8
0
 48
0.27
100
AcDbLine
 10
1089.524039363223
 20
-133.3803490084306
 30
0.0
 11
1090.033845613223
 21
-133.6752977584306
 31
0.0
  0
LINE
  5
C542
330
1E
100
AcDbEntity
  8
0
 48
0.27
100
AcDbLine
 10
1090.033845613223
 20
-127.7777327584308
 30
0.0
 11
1090.587016863223
 21
-127.5961052584307
 31
0.0
  0
LINE
  5
C543
330
1E
100
AcDbEntity
  8
0
 48
0.27
100
AcDbLine
 10
1088.573795613223
 20
-131.5835652584308
 30
0.0
 11
1088.765000613223
 21
-131.9707590084306
 31
0.0
  0
LINE
  5
C544
330
1E
100
AcDbEntity
  8
0
 48
0.27
100
AcDbLine
 10
1089.022320613223
 20
-129.1428940084306
 30
0.0
 11
1088.765000613223
 21
-129.4822715084308
 31
0.0
  0
LINE
  5
C545
330
1E
100
AcDbEntity
  8
0
 48
0.27
100
AcDbLine
 10
1089.077191863223
 20
-132.9834152584308
 30
0.0
 11
1089.524039363223
 21
-133.3803490084306
 31
0.0
  0
LINE
  5
C546
330
1E
100
AcDbEntity
  8
0
 48
0.27
100
AcDbLine
 10
1089.524039363223
 20
-128.0726815084308
 30
0.0
 11
1090.033845613223
 21
-127.7777327584308
 31
0.0
  0
LINE
  5
C547
330
1E
100
AcDbEntity
  8
0
 48
0.27
100
AcDbLine
 10
1088.456051863223
 20
-131.1634352584306
 30
0.0
 11
1088.573795613223
 21
-131.5835652584308
 31
0.0
  0
LINE
  5
C548
330
1E
100
AcDbEntity
  8
0
 48
0.27
100
AcDbLine
 10
1088.765000613223
 20
-129.4822715084308
 30
0.0
 11
1088.573795613223
 21
-129.8694652584306
 31
0.0
  0
LINE
  5
C549
330
1E
100
AcDbEntity
  8
0
 48
0.27
100
AcDbLine
 10
1088.416294363223
 20
-130.7265152584307
 30
0.0
 11
1088.456051863223
 21
-131.1634352584306
 31
0.0
  0
LINE
  5
C54A
330
1E
100
AcDbEntity
  8
0
 48
0.27
100
AcDbLine
 10
1088.573795613223
 20
-129.8694652584306
 30
0.0
 11
1088.456051863223
 21
-130.2895952584308
 31
0.0
  0
LINE
  5
C54B
330
1E
100
AcDbEntity
  8
0
 48
0.27
100
AcDbLine
 10
1088.456051863223
 20
-130.2895952584308
 30
0.0
 11
1088.416294363223
 21
-130.7265152584307
 31
0.0
  0
LINE
  5
C54C
330
1E
100
AcDbEntity
  8
0
 48
0.27
100
AcDbLine
 10
1088.710471863223
 20
-132.4997502584306
 30
0.0
 11
1089.077191863223
 21
-132.9834152584308
 31
0.0
  0
LINE
  5
C54D
330
1E
100
AcDbEntity
  8
0
 48
0.27
100
AcDbLine
 10
1089.077191863223
 20
-128.4696152584306
 30
0.0
 11
1089.524039363223
 21
-128.0726815084308
 31
0.0
  0
LINE
  5
C54E
330
1E
100
AcDbEntity
  8
0
 48
0.27
100
AcDbLine
 10
1088.437975613223
 20
-131.9479415084306
 30
0.0
 11
1088.710471863223
 21
-132.4997502584306
 31
0.0
  0
LINE
  5
C54F
330
1E
100
AcDbEntity
  8
0
 48
0.27
100
AcDbLine
 10
1089.077191863223
 20
-128.4696152584306
 30
0.0
 11
1088.710471863223
 21
-128.9532802584308
 31
0.0
  0
LINE
  5
C550
330
1E
100
AcDbEntity
  8
0
 48
0.27
100
AcDbLine
 10
1088.270173113223
 20
-131.3491927584307
 30
0.0
 11
1088.437975613223
 21
-131.9479415084306
 31
0.0
  0
LINE
  5
C551
330
1E
100
AcDbEntity
  8
0
 48
0.27
100
AcDbLine
 10
1088.710471863223
 20
-128.9532802584308
 30
0.0
 11
1088.437975613223
 21
-129.5050902584307
 31
0.0
  0
LINE
  5
C552
330
1E
100
AcDbEntity
  8
0
 48
0.27
100
AcDbLine
 10
1088.213513113223
 20
-130.7265152584307
 30
0.0
 11
1088.270173113223
 21
-131.3491927584307
 31
0.0
  0
LINE
  5
C553
330
1E
100
AcDbEntity
  8
0
 48
0.27
100
AcDbLine
 10
1088.437975613223
 20
-129.5050902584307
 30
0.0
 11
1088.270173113223
 21
-130.1038377584307
 31
0.0
  0
LINE
  5
C554
330
1E
100
AcDbEntity
  8
0
 48
0.27
100
AcDbLine
 10
1088.270173113223
 20
-130.1038377584307
 30
0.0
 11
1088.213513113223
 21
-130.7265152584307
 31
0.0
  0
LINE
  5
C555
330
1E
100
AcDbEntity
  8
0
 48
0.27
100
AcDbLine
 10
1089.661060613223
 20
-132.7768002584307
 30
0.0
 11
1089.664774363223
 21
-132.7747802584308
 31
0.0
  0
LINE
  5
C556
330
1E
100
AcDbEntity
  8
0
 48
0.27
100
AcDbLine
 10
1089.661060613223
 20
-128.6762315084306
 30
0.0
 11
1089.664774363223
 21
-128.6782502584308
 31
0.0
  0
LINE
  5
C557
330
1E
100
AcDbEntity
  8
0
 48
0.27
100
AcDbLine
 10
1096.755479363223
 20
-130.7265152584307
 30
0.0
 11
1096.688909363223
 21
-131.4581040084308
 31
0.0
  0
LINE
  5
C558
330
1E
100
AcDbEntity
  8
0
 48
0.27
100
AcDbLine
 10
1096.688909363223
 20
-129.9949265084306
 30
0.0
 11
1096.755479363223
 21
-130.7265152584307
 31
0.0
  0
LINE
  5
C559
330
1E
100
AcDbEntity
  8
0
 48
0.27
100
AcDbLine
 10
1096.688909363223
 20
-131.4581040084308
 30
0.0
 11
1096.491756863223
 21
-132.1615790084306
 31
0.0
  0
LINE
  5
C55A
330
1E
100
AcDbEntity
  8
0
 48
0.27
100
AcDbLine
 10
1096.491756863223
 20
-129.2914527584307
 30
0.0
 11
1096.688909363223
 21
-129.9949265084306
 31
0.0
  0
LINE
  5
C55B
330
1E
100
AcDbEntity
  8
0
 48
0.27
100
AcDbLine
 10
1096.491756863223
 20
-132.1615790084306
 30
0.0
 11
1096.171598113223
 21
-132.8099040084307
 31
0.0
  0
LINE
  5
C55C
330
1E
100
AcDbEntity
  8
0
 48
0.27
100
AcDbLine
 10
1096.171598113223
 20
-128.6431277584306
 30
0.0
 11
1096.491756863223
 21
-129.2914527584307
 31
0.0
  0
LINE
  5
C55D
330
1E
100
AcDbEntity
  8
0
 48
0.27
100
AcDbLine
 10
1096.171598113223
 20
-132.8099040084307
 30
0.0
 11
1095.740736863223
 21
-133.3781665084307
 31
0.0
  0
LINE
  5
C55E
330
1E
100
AcDbEntity
  8
0
 48
0.27
100
AcDbLine
 10
1095.740736863223
 20
-128.0748652584307
 30
0.0
 11
1096.171598113223
 21
-128.6431277584306
 31
0.0
  0
LINE
  5
C55F
330
1E
100
AcDbEntity
  8
0
 48
0.27
100
AcDbLine
 10
1097.291446863223
 20
-130.7265152584307
 30
0.0
 11
1095.291189363223
 21
-134.4765152584307
 31
0.0
  0
LINE
  5
C560
330
1E
100
AcDbEntity
  8
0
 48
0.27
100
AcDbLine
 10
1095.291189363223
 20
-126.9765152584307
 30
0.0
 11
1097.291446863223
 21
-130.7265152584307
 31
0.0
  0
LINE
  5
C561
330
1E
100
AcDbEntity
  8
0
 48
0.27
100
AcDbLine
 10
1095.215731863223
 20
-133.8445265084306
 30
0.0
 11
1095.740736863223
 21
-133.3781665084307
 31
0.0
  0
LINE
  5
C562
330
1E
100
AcDbEntity
  8
0
 48
0.27
100
AcDbLine
 10
1095.215731863223
 20
-127.6085040084308
 30
0.0
 11
1095.740736863223
 21
-128.0748652584307
 31
0.0
  0
LINE
  5
C563
330
1E
100
AcDbEntity
  8
0
 48
0.27
100
AcDbLine
 10
1094.616756863223
 20
-134.1910640084306
 30
0.0
 11
1095.215731863223
 21
-133.8445265084306
 31
0.0
  0
LINE
  5
C564
330
1E
100
AcDbEntity
  8
0
 48
0.27
100
AcDbLine
 10
1094.616756863223
 20
-127.2619677584307
 30
0.0
 11
1095.215731863223
 21
-127.6085040084308
 31
0.0
  0
LINE
  5
C565
330
1E
100
AcDbEntity
  8
0
 48
0.27
100
AcDbLine
 10
1093.966831863223
 20
-134.4044602584306
 30
0.0
 11
1094.616756863223
 21
-134.1910640084306
 31
0.0
  0
LINE
  5
C566
330
1E
100
AcDbEntity
  8
0
 48
0.27
100
AcDbLine
 10
1093.966831863223
 20
-127.0485702584308
 30
0.0
 11
1094.616756863223
 21
-127.2619677584307
 31
0.0
  0
LINE
  5
C567
330
1E
100
AcDbEntity
  8
0
 48
0.27
100
AcDbLine
 10
1093.290931863223
 20
-134.4765152584307
 30
0.0
 11
1093.966831863223
 21
-134.4044602584306
 31
0.0
  0
LINE
  5
C568
330
1E
100
AcDbEntity
  8
0
 48
0.27
100
AcDbLine
 10
1093.290931863223
 20
-126.9765152584307
 30
0.0
 11
1093.966831863223
 21
-127.0485702584308
 31
0.0
  0
LINE
  5
C569
330
1E
100
AcDbEntity
  8
0
 48
0.27
100
AcDbLine
 10
1092.615031863223
 20
-134.4044602584306
 30
0.0
 11
1093.290931863223
 21
-134.4765152584307
 31
0.0
  0
LINE
  5
C56A
330
1E
100
AcDbEntity
  8
0
 48
0.27
100
AcDbLine
 10
1092.615031863223
 20
-127.0485702584308
 30
0.0
 11
1093.290931863223
 21
-126.9765152584307
 31
0.0
  0
LINE
  5
C56B
330
1E
100
AcDbEntity
  8
0
 48
0.27
100
AcDbLine
 10
1091.965106863223
 20
-134.1910640084306
 30
0.0
 11
1092.615031863223
 21
-134.4044602584306
 31
0.0
  0
LINE
  5
C56C
330
1E
100
AcDbEntity
  8
0
 48
0.27
100
AcDbLine
 10
1091.965106863223
 20
-127.2619677584307
 30
0.0
 11
1092.615031863223
 21
-127.0485702584308
 31
0.0
  0
LINE
  5
C56D
330
1E
100
AcDbEntity
  8
0
 48
0.27
100
AcDbLine
 10
1091.442023113223
 20
-133.8884340084305
 30
0.0
 11
1091.965106863223
 21
-134.1910640084306
 31
0.0
  0
LINE
  5
C56E
330
1E
100
AcDbEntity
  8
0
 48
0.27
100
AcDbLine
 10
1091.442023113223
 20
-127.5645977584308
 30
0.0
 11
1091.965106863223
 21
-127.2619677584307
 31
0.0
  0
LINE
  5
C56F
330
1E
100
AcDbEntity
  8
0
 48
0.27
100
AcDbLine
 10
1098.165651863223
 20
-130.7265152584307
 30
0.0
 11
1096.165394363223
 21
-134.4765152584307
 31
0.0
  0
LINE
  5
C570
330
1E
100
AcDbEntity
  8
0
 48
0.27
100
AcDbLine
 10
1096.165394363223
 20
-134.4765152584307
 30
0.0
 11
1091.290674363223
 21
-134.4765152584307
 31
0.0
  0
LINE
  5
C571
330
1E
100
AcDbEntity
  8
0
 48
0.27
100
AcDbLine
 10
1096.165394363223
 20
-126.9765152584307
 30
0.0
 11
1098.165651863223
 21
-130.7265152584307
 31
0.0
  0
LINE
  5
C572
330
1E
100
AcDbEntity
  8
0
 48
0.27
100
AcDbLine
 10
1097.291446863223
 20
-130.7265152584307
 30
0.0
 11
1098.165651863223
 21
-130.7265152584307
 31
0.0
  0
LINE
  5
C573
330
1E
100
AcDbEntity
  8
0
 48
0.27
100
AcDbLine
 10
1091.290674363223
 20
-126.9765152584307
 30
0.0
 11
1090.982683113223
 21
-127.5539240084308
 31
0.0
  0
LINE
  5
C574
330
1E
100
AcDbEntity
  8
0
 48
0.27
100
AcDbLine
 10
1090.982683113223
 20
-133.8991065084305
 30
0.0
 11
1091.290674363223
 21
-134.4765152584307
 31
0.0
  0
LINE
  5
C575
330
1E
100
AcDbEntity
  8
0
 48
0.27
100
AcDbLine
 10
1091.290674363223
 20
-126.9765152584307
 30
0.0
 11
1096.165394363223
 21
-126.9765152584307
 31
0.0
  0
ARC
  5
C576
330
1E
100
AcDbEntity
  8
0
 48
0.27
100
AcDbCircle
 10
1095.699970613223
 20
-130.7265152584307
 30
0.0
 40
4.99999999999996
100
AcDbArc
 50
228.5903779972994
 51
270.0
  0
LWPOLYLINE
  5
C577
330
1E
100
AcDbEntity
  8
0
 48
0.27
100
AcDbPolyline
 90
       31
 70
     0
 43
0.0
 10
1091.224499363223
 20
-130.7265152584307
 10
1091.183476863223
 20
-130.4636965084307
 10
1091.128293113223
 20
-130.3318377584307
 10
1091.049501863223
 20
-130.2096140084308
 10
1090.950156863223
 20
-130.1044727584307
 10
1090.835793113223
 20
-130.0221315084307
 10
1090.713393113223
 20
-129.9655302584308
 10
1090.547598113223
 20
-129.9293540084307
 10
1090.393836863223
 20
-129.9326777584308
 10
1090.260181863223
 20
-129.9645602584307
 10
1090.114925613223
 20
-130.0342702584308
 10
1089.976713113223
 20
-130.1461315084307
 10
1089.866425613223
 20
-130.2893190084307
 10
1089.795633113223
 20
-130.4391177584306
 10
1089.760819363223
 20
-130.5686877584308
 10
1089.746293113223
 20
-130.7265152584307
 10
1089.787315613223
 20
-130.9893340084307
 10
1089.842500613223
 20
-131.1211940084307
 10
1089.921290613223
 20
-131.2434165084307
 10
1090.020635613223
 20
-131.3485577584308
 10
1090.134999363223
 20
-131.4308990084308
 10
1090.257399363223
 20
-131.4875002584307
 10
1090.423194363223
 20
-131.5236777584308
 10
1090.576955613223
 20
-131.5203527584307
 10
1090.710610613223
 20
-131.4884715084307
 10
1090.855866863224
 20
-131.4187615084307
 10
1090.994079363223
 20
-131.3068990084307
 10
1091.104366863223
 20
-131.1637127584308
 10
1091.175159363223
 20
-131.0139140084307
 10
1091.209974363223
 20
-130.8843427584306
 10
1091.224499363223
 20
-130.7265152584307
  0
ARC
  5
C578
330
1E
100
AcDbEntity
  8
0
 48
0.27
100
AcDbCircle
 10
1095.699970613223
 20
-130.7265152584307
 30
0.0
 40
4.99999999999996
100
AcDbArc
 50
90.0
 51
131.4096219996015
  0
LINE
  5
C579
330
1E
100
AcDbEntity
  8
0
 48
0.27
100
AcDbLine
 10
1101.785395613223
 20
-125.7265152584307
 30
0.0
 11
1095.699970613223
 21
-125.7265152584307
 31
0.0
  0
LINE
  5
C57A
330
1E
100
AcDbEntity
  8
0
 48
0.27
100
AcDbLine
 10
1095.699970613223
 20
-135.7265152584307
 30
0.0
 11
1101.785395613223
 21
-135.7265152584307
 31
0.0
  0
LINE
  5
C57B
330
1E
100
AcDbEntity
  8
中心線
 48
0.27
100
AcDbLine
 10
1086.713513113223
 20
-130.7265152584307
 30
0.0
 11
1102.783591724022
 21
-130.7265394223056
 31
0.0
  0
LINE
  5
C57D
330
1E
100
AcDbEntity
  8
0
100
AcDbLine
 10
1100.385395613223
 20
-135.7265152584307
 30
0.0
 11
1100.385395613223
 21
-125.7265152584307
 31
0.0
  0
LINE
  5
C57E
330
1E
100
AcDbEntity
  8
中心線
 48
0.27
100
AcDbLine
 10
1112.547804299405
 20
-136.2265651065618
 30
0.0
 11
1124.222986927041
 21
-136.2265651065618
 31
0.0
  0
LINE
  5
C57F
330
1E
100
AcDbEntity
  8
中心線
 48
0.27
100
AcDbLine
 10
1118.385395613223
 20
-142.0641564203796
 30
0.0
 11
1118.385395613223
 21
-130.3889737927442
 31
0.0
  0
ARC
  5
C581
330
1E
100
AcDbEntity
  8
0
100
AcDbCircle
 10
1112.006388687789
 20
-161.8379364377783
 30
0.0
 40
2.258017748891656
100
AcDbArc
 50
105.9630221688284
 51
179.0723572120041
  0
LINE
  5
C582
330
1E
100
AcDbEntity
  8
0
100
AcDbLine
 10
1109.748666879224
 20
-161.8013797771091
 30
0.0
 11
1109.748666879224
 21
-164.503013094813
 31
0.0
  0
ARC
  5
C583
330
1E
100
AcDbEntity
  8
0
100
AcDbCircle
 10
1112.006388687789
 20
-164.4664564341449
 30
0.0
 40
2.258017748891656
100
AcDbArc
 50
180.9276427879959
 51
254.0369778311716
  0
ARC
  5
C584
330
1E
100
AcDbEntity
  8
0
100
AcDbCircle
 10
1275.264402538657
 20
-164.4664564341451
 30
0.0
 40
2.258017748891656
100
AcDbArc
 50
285.9630221688284
 51
359.0723572120041
  0
LINE
  5
C586
330
1E
100
AcDbEntity
  8
0
100
AcDbLine
 10
1277.522124347222
 20
-161.8013797771091
 30
0.0
 11
1277.522124347222
 21
-164.5030130948132
 31
0.0
  0
ARC
  5
C587
330
1E
100
AcDbEntity
  8
0
100
AcDbCircle
 10
1275.264402538657
 20
-161.8379364377785
 30
0.0
 40
2.258017748891656
100
AcDbArc
 50
0.9276427879959022
 51
74.03697783117156
  0
ARC
  5
C588
330
1E
100
AcDbEntity
  8
0
100
AcDbCircle
 10
1284.864402538657
 20
-143.4123051083786
 30
0.0
 40
2.258017748891656
100
AcDbArc
 50
0.9276427879959022
 51
74.03697783117156
  0
ARC
  5
C589
330
1E
100
AcDbEntity
  8
0
100
AcDbCircle
 10
1284.864402538657
 20
-146.0408251047452
 30
0.0
 40
2.258017748891656
100
AcDbArc
 50
285.9630221688284
 51
359.0723572120041
  0
LINE
  5
C58A
330
1E
100
AcDbEntity
  8
0
100
AcDbLine
 10
1287.122124347222
 20
-143.3757484477114
 30
0.0
 11
1287.122124347222
 21
-146.0773817654133
 31
0.0
  0
LINE
  5
C58B
330
1E
100
AcDbEntity
  8
中心線
100
AcDbLine
 10
1288.78697453326
 20
-144.7265651065618
 30
0.0
 11
1278.141749005331
 21
-144.7265651065618
 31
0.0
  0
LINE
  5
C58C
330
1E
100
AcDbEntity
  8
中心線
 48
0.27
100
AcDbLine
 10
1268.885395613223
 20
-142.0641564203796
 30
0.0
 11
1268.885395613223
 21
-130.3889737927442
 31
0.0
  0
LINE
  5
C58D
330
1E
100
AcDbEntity
  8
中心線
 48
0.27
100
AcDbLine
 10
1263.047804299405
 20
-136.2265651065617
 30
0.0
 11
1274.722986927041
 21
-136.2265651065617
 31
0.0
  0
LINE
  5
C58E
330
1E
100
AcDbEntity
  8
0
100
AcDbLine
 10
1373.635395613223
 20
-7.656044179561831
 30
0.0
 11
1373.635395613223
 21
45.34395582043816
 31
0.0
  0
LINE
  5
C58F
330
1E
100
AcDbEntity
  8
0
100
AcDbLine
 10
1013.635395613223
 20
-7.656044179561831
 30
0.0
 11
1013.635395613223
 21
45.34395582043816
 31
0.0
  0
LINE
  5
C590
330
1E
100
AcDbEntity
  8
0
100
AcDbLine
 10
1013.635395613223
 20
-144.7265341065617
 30
0.0
 11
1013.635395613223
 21
-188.7265651065618
 31
0.0
  0
LINE
  5
C591
330
1E
100
AcDbEntity
  8
0
100
AcDbLine
 10
1373.635395613223
 20
-144.7265341065617
 30
0.0
 11
1373.635395613223
 21
-188.7265651065618
 31
0.0
  0
LINE
  5
C592
330
1E
100
AcDbEntity
  8
0
  6
Continuous
 62
     7
100
AcDbLine
 10
955.3463244157457
 20
-158.726565106562
 30
0.0
 11
955.3463244157461
 21
-120.7266261065619
 31
0.0
  0
LINE
  5
C593
330
1E
100
AcDbEntity
  8
0
  6
Continuous
 62
     7
100
AcDbLine
 10
815.3463244157462
 20
-120.7266261065617
 30
0.0
 11
817.3463244157462
 21
-118.7265651065618
 31
0.0
  0
LINE
  5
C594
330
1E
100
AcDbEntity
  8
0
  6
Continuous
 62
     7
100
AcDbLine
 10
836.4463053421461
 20
-121.9265531065618
 30
0.0
 11
838.4463053421461
 21
-119.9265531065618
 31
0.0
  0
LINE
  5
C595
330
1E
100
AcDbEntity
  8
0
  6
Continuous
 62
     7
100
AcDbLine
 10
835.3463244157463
 20
-178.7265651065618
 30
0.0
 11
816.346324415746
 21
-159.7265651065615
 31
0.0
  0
LINE
  5
C596
330
1E
100
AcDbEntity
  8
0
  6
Continuous
 62
     7
100
AcDbLine
 10
838.4463053421461
 20
-178.7265651065618
 30
0.0
 11
836.4463053421461
 21
-176.7265651065618
 31
0.0
  0
LINE
  5
C597
330
1E
100
AcDbEntity
  8
0
  6
Continuous
 62
     7
100
AcDbLine
 10
836.4463053421461
 20
-176.7265651065618
 30
0.0
 11
836.4463053421461
 21
-121.9265531065618
 31
0.0
  0
LINE
  5
C598
330
1E
100
AcDbEntity
  8
0
  6
Continuous
 62
     7
100
AcDbLine
 10
860.8463244157462
 20
-188.7265651065618
 30
0.0
 11
858.8463244157463
 21
-186.7265651065618
 31
0.0
  0
LINE
  5
C599
330
1E
100
AcDbEntity
  8
0
  6
Continuous
 62
     7
100
AcDbLine
 10
895.8463244157462
 20
-188.7265791065617
 30
0.0
 11
874.8463244157463
 21
-188.7265791065617
 31
0.0
  0
LINE
  5
C59A
330
1E
100
AcDbEntity
  8
0
  6
Continuous
 62
     7
100
AcDbLine
 10
909.8463244157462
 20
-188.7265651065618
 30
0.0
 11
902.8462634157461
 21
-188.7265651065618
 31
0.0
  0
LINE
  5
C59B
330
1E
100
AcDbEntity
  8
0
  6
Continuous
 62
     7
100
AcDbLine
 10
867.8463854157461
 20
-188.7265651065618
 30
0.0
 11
860.8463244157462
 21
-188.7265651065618
 31
0.0
  0
LINE
  5
C59C
330
1E
100
AcDbEntity
  8
0
  6
Continuous
 62
     7
100
AcDbLine
 10
901.8462634157462
 20
-187.7265651065618
 30
0.0
 11
896.8463384157463
 21
-187.7265651065618
 31
0.0
  0
LINE
  5
C59D
330
1E
100
AcDbEntity
  8
0
  6
Continuous
 62
     7
100
AcDbLine
 10
873.8463104157462
 20
-187.7265651065618
 30
0.0
 11
868.8463854157461
 21
-187.7265651065618
 31
0.0
  0
LINE
  5
C59F
330
1E
100
AcDbEntity
  8
0
  6
Continuous
 62
     7
100
AcDbLine
 10
867.3463244157462
 20
-119.5265531065617
 30
0.0
 11
868.1462264157461
 21
-118.7265501065617
 31
0.0
  0
LINE
  5
C5A0
330
1E
100
AcDbEntity
  8
0
  6
Continuous
 62
     7
100
AcDbLine
 10
872.0463304163461
 20
-119.9265531065618
 30
0.0
 11
872.8463244157461
 21
-119.1265651065618
 31
0.0
  0
LINE
  5
C5A3
330
1E
100
AcDbEntity
  8
0
  6
Continuous
 62
     7
100
AcDbLine
 10
874.8463244157463
 20
-188.7265791065617
 30
0.0
 11
873.8463104157462
 21
-187.7265651065618
 31
0.0
  0
LINE
  5
C5A5
330
1E
100
AcDbEntity
  8
0
  6
Continuous
 62
     7
100
AcDbLine
 10
855.5963244157464
 20
-144.3803400290853
 30
0.0
 11
855.5963244157462
 21
-150.9553712466499
 31
0.0
  0
LINE
  5
C5A6
330
1E
100
AcDbEntity
  8
0
  6
Continuous
 62
     7
100
AcDbLine
 10
855.5963244157462
 20
-175.3490216253648
 30
0.0
 11
855.5963244157462
 21
-178.1265651065619
 31
0.0
  0
LINE
  5
C5A9
330
1E
100
AcDbEntity
  8
0
  6
Continuous
 62
     7
100
AcDbLine
 10
857.9963244157461
 20
-145.3744525785619
 30
0.0
 11
857.9963244157461
 21
-149.9612586974495
 31
0.0
  0
LINE
  5
C5AB
330
1E
100
AcDbEntity
  8
0
  6
Continuous
 62
     7
100
AcDbLine
 10
858.8463244157463
 20
-186.7265651065618
 30
0.0
 11
858.8463244157463
 21
-176.6952157025469
 31
0.0
  0
LINE
  5
C5AC
330
1E
100
AcDbEntity
  8
0
  6
Continuous
 62
     7
100
AcDbLine
 10
858.8463244157464
 20
-149.6091771695766
 30
0.0
 11
858.8463244157464
 21
-145.7265341065612
 31
0.0
  0
LINE
  5
C5AD
330
1E
100
AcDbEntity
  8
0
  6
Continuous
 62
     7
100
AcDbLine
 10
835.3463244157463
 20
-178.7265651065618
 30
0.0
 11
858.8463244157463
 21
-178.7265651065618
 31
0.0
  0
LINE
  5
C5AE
330
1E
100
AcDbEntity
  8
0
  6
Continuous
 62
     7
100
AcDbLine
 10
911.8463244157464
 20
-178.7265651065618
 30
0.0
 11
935.3463244157463
 21
-178.7265651065618
 31
0.0
  0
LINE
  5
C5B1
330
1E
100
AcDbEntity
  8
0
  6
Continuous
 62
     7
100
AcDbLine
 10
855.5963244157462
 20
-178.1265651065619
 30
0.0
 11
858.000552771082
 21
-178.1265651065618
 31
0.0
  0
LINE
  5
C5B2
330
1E
100
AcDbEntity
  8
0
  6
Continuous
 62
     7
100
AcDbLine
 10
912.6963244157463
 20
-178.1265651065619
 30
0.0
 11
915.0963244157463
 21
-178.1265651065619
 31
0.0
  0
LINE
  5
C5B6
330
1E
100
AcDbEntity
  8
0
  6
Continuous
 62
     7
100
AcDbLine
 10
863.0963244157463
 20
-158.4553712503618
 30
0.0
 11
863.0963244157463
 21
-167.8490216219618
 31
0.0
  0
LINE
  5
C5B8
330
1E
100
AcDbEntity
  8
0
  6
Continuous
 62
     7
100
AcDbLine
 10
858.5501303379462
 20
-141.4265341065618
 30
0.0
 11
855.5963244157464
 21
-144.3803400290853
 31
0.0
  0
LINE
  5
C5BA
330
1E
100
AcDbEntity
  8
0
  6
Continuous
 62
     7
100
AcDbLine
 10
857.9963244157461
 20
-145.3744525785619
 30
0.0
 11
859.5442428877461
 21
-143.8265341065619
 31
0.0
  0
LINE
  5
C5BB
330
1E
100
AcDbEntity
  8
0
  6
Continuous
 62
     7
100
AcDbLine
 10
858.8463244157464
 20
-145.7265341065612
 30
0.0
 11
859.8463244157462
 21
-144.7265341065617
 31
0.0
  0
LINE
  5
C5BC
330
1E
100
AcDbEntity
  8
0
  6
Continuous
 62
     7
100
AcDbLine
 10
855.5963244157462
 20
-150.9553712466499
 30
0.0
 11
863.0963244157463
 21
-158.4553712503618
 31
0.0
  0
LINE
  5
C5C0
330
1E
100
AcDbEntity
  8
0
  6
Continuous
 62
     7
100
AcDbLine
 10
865.496324415746
 20
-157.4612587009619
 30
0.0
 11
865.496324415746
 21
-168.8431341711618
 31
0.0
  0
LINE
  5
C5C1
330
1E
100
AcDbEntity
  8
0
  6
Continuous
 62
     7
100
AcDbLine
 10
866.3463244157462
 20
-169.1952156990804
 30
0.0
 11
866.3463244157462
 21
-157.109177173043
 31
0.0
  0
LINE
  5
C5C6
330
1E
100
AcDbEntity
  8
0
  6
Continuous
 62
     7
100
AcDbLine
 10
865.496324415746
 20
-157.4612587009619
 30
0.0
 11
857.9963244157461
 21
-149.9612586974495
 31
0.0
  0
LINE
  5
C5C8
330
1E
100
AcDbEntity
  8
0
  6
Continuous
 62
     7
100
AcDbLine
 10
866.3463244157462
 20
-157.109177173043
 30
0.0
 11
858.8463244157464
 21
-149.6091771695766
 31
0.0
  0
LINE
  5
C5CB
330
1E
100
AcDbEntity
  8
0
  6
Continuous
 62
     7
100
AcDbLine
 10
902.8462634157461
 20
-188.7265651065618
 30
0.0
 11
901.8462634157462
 21
-187.7265651065618
 31
0.0
  0
LINE
  5
C5CC
330
1E
100
AcDbEntity
  8
0
  6
Continuous
 62
     7
100
AcDbLine
 10
843.5461454159462
 20
-118.7265651065618
 30
0.0
 11
844.3461304159461
 21
-119.5265531065617
 31
0.0
  0
LINE
  5
C5CD
330
1E
100
AcDbEntity
  8
0
  6
Continuous
 62
     7
100
AcDbLine
 10
863.0963244157463
 20
-167.8490216219618
 30
0.0
 11
855.5963244157462
 21
-175.3490216253648
 31
0.0
  0
LINE
  5
C5D1
330
1E
100
AcDbEntity
  8
0
  6
Continuous
 62
     7
100
AcDbLine
 10
858.0005527710826
 20
-176.3389058193358
 30
0.0
 11
865.496324415746
 21
-168.8431341711618
 31
0.0
  0
LINE
  5
C5D7
330
1E
100
AcDbEntity
  8
0
  6
Continuous
 62
     7
100
AcDbLine
 10
904.3463244157461
 20
-169.1952156992869
 30
0.0
 11
911.8463244157462
 21
-176.6952157024869
 31
0.0
  0
LINE
  5
C5D9
330
1E
100
AcDbEntity
  8
0
  6
Continuous
 62
     7
100
AcDbLine
 10
905.1963244157461
 20
-168.8431341711618
 30
0.0
 11
912.6963244157456
 21
-176.343134174944
 31
0.0
  0
LINE
  5
C5DC
330
1E
100
AcDbEntity
  8
0
  6
Continuous
 62
     7
100
AcDbLine
 10
858.8463244157463
 20
-176.6952157025469
 30
0.0
 11
866.3463244157462
 21
-169.1952156990804
 31
0.0
  0
LINE
  5
C5E0
330
1E
100
AcDbEntity
  8
0
  6
Continuous
 62
     7
100
AcDbLine
 10
859.8463244157462
 20
-144.7265341065617
 30
0.0
 11
910.8463244157462
 21
-144.7265341065617
 31
0.0
  0
LINE
  5
C5E1
330
1E
100
AcDbEntity
  8
0
  6
Continuous
 62
     7
100
AcDbLine
 10
911.1484059437461
 20
-143.8265341065619
 30
0.0
 11
859.5442428877461
 21
-143.8265341065619
 31
0.0
  0
LINE
  5
C5E5
330
1E
100
AcDbEntity
  8
0
  6
Continuous
 62
     7
100
AcDbLine
 10
915.0963244157464
 20
-175.3490216253648
 30
0.0
 11
907.5963244157462
 21
-167.8490216219618
 31
0.0
  0
LINE
  5
C5E6
330
1E
100
AcDbEntity
  8
0
  6
Continuous
 62
     7
100
AcDbLine
 10
926.3464879155462
 20
-119.5265836065618
 30
0.0
 11
927.1465034153461
 21
-118.7265651065618
 31
0.0
  0
LINE
  5
C5E7
330
1E
100
AcDbEntity
  8
0
  6
Continuous
 62
     7
100
AcDbLine
 10
912.1425184933462
 20
-141.4265341065618
 30
0.0
 11
858.5501303379462
 21
-141.4265341065618
 31
0.0
  0
LINE
  5
C5E8
330
1E
100
AcDbEntity
  8
0
  6
Continuous
 62
     7
100
AcDbLine
 10
868.8463854157461
 20
-187.7265651065618
 30
0.0
 11
867.8463854157461
 21
-188.7265651065618
 31
0.0
  0
LINE
  5
C5EC
330
1E
100
AcDbEntity
  8
0
  6
Continuous
 62
     7
100
AcDbLine
 10
904.3463244157461
 20
-157.109177173049
 30
0.0
 11
904.3463244157461
 21
-169.1952156992869
 31
0.0
  0
LINE
  5
C5ED
330
1E
100
AcDbEntity
  8
0
  6
Continuous
 62
     7
100
AcDbLine
 10
905.1963244157461
 20
-168.8431341711618
 30
0.0
 11
905.1963244157461
 21
-157.4612587009619
 31
0.0
  0
LINE
  5
C5F1
330
1E
100
AcDbEntity
  8
0
  6
Continuous
 62
     7
100
AcDbLine
 10
911.8463244157466
 20
-149.609177169316
 30
0.0
 11
904.3463244157461
 21
-157.109177173049
 31
0.0
  0
LINE
  5
C5F3
330
1E
100
AcDbEntity
  8
0
  6
Continuous
 62
     7
100
AcDbLine
 10
912.6963244157462
 20
-149.9612586971791
 30
0.0
 11
905.1963244157461
 21
-157.4612587009619
 31
0.0
  0
LINE
  5
C5F8
330
1E
100
AcDbEntity
  8
0
  6
Continuous
 62
     7
100
AcDbLine
 10
910.8463244157462
 20
-144.7265341065617
 30
0.0
 11
911.8463244157462
 21
-145.7265341068045
 31
0.0
  0
LINE
  5
C5F9
330
1E
100
AcDbEntity
  8
0
  6
Continuous
 62
     7
100
AcDbLine
 10
911.1484059437461
 20
-143.8265341065619
 30
0.0
 11
912.6963244157462
 21
-145.3744525788376
 31
0.0
  0
LINE
  5
C5FA
330
1E
100
AcDbEntity
  8
0
  6
Continuous
 62
     7
100
AcDbLine
 10
907.5963244157462
 20
-167.8490216219618
 30
0.0
 11
907.5963244157462
 21
-158.4553712503618
 31
0.0
  0
LINE
  5
C5FB
330
1E
100
AcDbEntity
  8
0
  6
Continuous
 62
     7
100
AcDbLine
 10
911.8463244157462
 20
-145.7265341068045
 30
0.0
 11
911.8463244157466
 21
-149.609177169316
 31
0.0
  0
LINE
  5
C5FC
330
1E
100
AcDbEntity
  8
0
  6
Continuous
 62
     7
100
AcDbLine
 10
911.8463244157462
 20
-176.6952157024869
 30
0.0
 11
911.8463244157462
 21
-186.7265651065618
 31
0.0
  0
LINE
  5
C5FD
330
1E
100
AcDbEntity
  8
0
  6
Continuous
 62
     7
100
AcDbLine
 10
912.6963244157456
 20
-176.343134174944
 30
0.0
 11
912.6963244157463
 21
-178.1265651065619
 31
0.0
  0
LINE
  5
C5FE
330
1E
100
AcDbEntity
  8
0
  6
Continuous
 62
     7
100
AcDbLine
 10
912.6963244157462
 20
-149.9612586971791
 30
0.0
 11
912.6963244157462
 21
-145.3744525788376
 31
0.0
  0
LINE
  5
C5FF
330
1E
100
AcDbEntity
  8
0
  6
Continuous
 62
     7
100
AcDbLine
 10
907.5963244157462
 20
-158.4553712503618
 30
0.0
 11
915.0963244157464
 21
-150.9553712466496
 31
0.0
  0
LINE
  5
C602
330
1E
100
AcDbEntity
  8
0
  6
Continuous
 62
     7
100
AcDbLine
 10
915.0963244157461
 20
-144.380340028962
 30
0.0
 11
912.1425184933462
 21
-141.4265341065618
 31
0.0
  0
LINE
  5
C605
330
1E
100
AcDbEntity
  8
0
  6
Continuous
 62
     7
100
AcDbLine
 10
915.0963244157464
 20
-175.3490216253648
 30
0.0
 11
915.0963244157463
 21
-178.1265651065619
 31
0.0
  0
LINE
  5
C606
330
1E
100
AcDbEntity
  8
0
  6
Continuous
 62
     7
100
AcDbLine
 10
915.0963244157464
 20
-150.9553712466496
 30
0.0
 11
915.0963244157461
 21
-144.380340028962
 31
0.0
  0
LINE
  5
C608
330
1E
100
AcDbEntity
  8
0
  6
Continuous
 62
     7
100
AcDbLine
 10
838.4463053421461
 20
-119.9265531065618
 30
0.0
 11
932.2463434891462
 21
-119.9265531065618
 31
0.0
  0
LINE
  5
C609
330
1E
100
AcDbEntity
  8
0
  6
Continuous
 62
     7
100
AcDbLine
 10
903.3464619155461
 20
-119.5265836065618
 30
0.0
 11
926.3464879155462
 21
-119.5265836065618
 31
0.0
  0
LINE
  5
C60A
330
1E
100
AcDbEntity
  8
0
  6
Continuous
 62
     7
100
AcDbLine
 10
844.3461304159461
 20
-119.5265531065617
 30
0.0
 11
867.3463244157462
 21
-119.5265531065617
 31
0.0
  0
LINE
  5
C60B
330
1E
100
AcDbEntity
  8
0
  6
Continuous
 62
     7
100
AcDbLine
 10
897.8463244157463
 20
-119.1265651065618
 30
0.0
 11
872.8463244157461
 21
-119.1265651065618
 31
0.0
  0
LINE
  5
C60C
330
1E
100
AcDbEntity
  8
0
  6
Continuous
 62
     7
100
AcDbLine
 10
817.3463244157462
 20
-118.7265651065618
 30
0.0
 11
843.5461454159462
 21
-118.7265651065618
 31
0.0
  0
LINE
  5
C60D
330
1E
100
AcDbEntity
  8
0
  6
Continuous
 62
     7
100
AcDbLine
 10
927.1465034153461
 20
-118.7265651065618
 30
0.0
 11
953.3463244157461
 21
-118.7265651065618
 31
0.0
  0
LINE
  5
C60E
330
1E
100
AcDbEntity
  8
0
  6
Continuous
 62
     7
100
AcDbLine
 10
868.1462264157461
 20
-118.7265501065617
 30
0.0
 11
902.5464224157461
 21
-118.7265501065617
 31
0.0
  0
LINE
  5
C610
330
1E
100
AcDbEntity
  8
0
  6
Continuous
 62
     7
100
AcDbLine
 10
896.8463384157463
 20
-187.7265651065618
 30
0.0
 11
895.8463244157462
 21
-188.7265791065617
 31
0.0
  0
LINE
  5
C613
330
1E
100
AcDbEntity
  8
0
  6
Continuous
 62
     7
100
AcDbLine
 10
897.8463244157463
 20
-119.1265651065618
 30
0.0
 11
898.6463184151462
 21
-119.9265531065618
 31
0.0
  0
LINE
  5
C614
330
1E
100
AcDbEntity
  8
0
  6
Continuous
 62
     7
100
AcDbLine
 10
902.5464224157461
 20
-118.7265501065617
 30
0.0
 11
903.3464619155461
 21
-119.5265836065618
 31
0.0
  0
LINE
  5
C616
330
1E
100
AcDbEntity
  8
0
  6
Continuous
 62
     7
100
AcDbLine
 10
815.346324415746
 20
-134.7265651065618
 30
0.0
 11
816.346324415746
 21
-135.7265651065618
 31
0.0
  0
LINE
  5
C617
330
1E
100
AcDbEntity
  8
0
  6
Continuous
 62
     7
100
AcDbLine
 10
934.2463434891461
 20
-121.9265531065618
 30
0.0
 11
934.2463434891461
 21
-176.7265651065618
 31
0.0
  0
LINE
  5
C618
330
1E
100
AcDbEntity
  8
0
  6
Continuous
 62
     7
100
AcDbLine
 10
911.8463244157462
 20
-186.7265651065618
 30
0.0
 11
909.8463244157462
 21
-188.7265651065618
 31
0.0
  0
LINE
  5
C619
330
1E
100
AcDbEntity
  8
0
  6
Continuous
 62
     7
100
AcDbLine
 10
934.2463434891461
 20
-176.7265651065618
 30
0.0
 11
932.2463434891462
 21
-178.7265651065618
 31
0.0
  0
LINE
  5
C61A
330
1E
100
AcDbEntity
  8
0
  6
Continuous
 62
     7
100
AcDbLine
 10
932.2463434891462
 20
-119.9265531065618
 30
0.0
 11
934.2463434891461
 21
-121.9265531065618
 31
0.0
  0
LINE
  5
C61B
330
1E
100
AcDbEntity
  8
0
  6
Continuous
 62
     7
100
AcDbLine
 10
955.3463244157457
 20
-158.726565106562
 30
0.0
 11
935.3463244157463
 21
-178.7265651065618
 31
0.0
  0
LINE
  5
C61C
330
1E
100
AcDbEntity
  8
0
  6
Continuous
 62
     7
100
AcDbLine
 10
816.346324415746
 20
-135.7265501065612
 30
0.0
 11
816.346324415746
 21
-159.7265651065615
 31
0.0
  0
LINE
  5
C61D
330
1E
100
AcDbEntity
  8
0
  6
Continuous
 62
     7
100
AcDbLine
 10
815.346324415746
 20
-120.7266261065617
 30
0.0
 11
815.346324415746
 21
-134.7265651065618
 31
0.0
  0
LINE
  5
C61E
330
1E
100
AcDbEntity
  8
0
  6
Continuous
 62
     7
100
AcDbLine
 10
953.3463244157461
 20
-118.7265651065618
 30
0.0
 11
955.3463244157461
 21
-120.7266261065617
 31
0.0
  0
LINE
  5
C61F
330
1E
100
AcDbEntity
  8
0
  6
Continuous
 62
     7
100
AcDbLine
 10
1101.785395613223
 20
-119.9265531065618
 30
0.0
 11
1101.785395613223
 21
-178.7265651065618
 31
0.0
  0
LINE
  5
C620
330
1E
100
AcDbEntity
  8
0
  6
Continuous
 62
     7
100
AcDbLine
 10
1105.385395613223
 20
-119.1265651065618
 30
0.0
 11
1105.385395613223
 21
-178.7265651065618
 31
0.0
  0
LINE
  5
C621
330
1E
100
AcDbEntity
  8
0
  6
Continuous
 62
     7
100
AcDbLine
 10
1111.385395613223
 20
-167.1521964361618
 30
0.0
 11
1111.385395613223
 21
-159.1521964361618
 31
0.0
  0
LINE
  5
C622
330
1E
100
AcDbEntity
  8
0
  6
Continuous
 62
     7
100
AcDbLine
 10
1130.885395613223
 20
-118.7265651065618
 30
0.0
 11
1130.885395613223
 21
-178.7265651065618
 31
0.0
  0
LINE
  5
C623
330
1E
100
AcDbEntity
  8
0
  6
Continuous
 62
     7
100
AcDbLine
 10
1136.135395613223
 20
-170.7265651065618
 30
0.0
 11
1136.135395613223
 21
-135.7265651065618
 31
0.0
  0
LINE
  5
C624
330
1E
100
AcDbEntity
  8
0
  6
Continuous
 62
     7
100
AcDbLine
 10
1156.135395613223
 20
-135.7265651065618
 30
0.0
 11
1156.135395613223
 21
-170.7265651065618
 31
0.0
  0
LINE
  5
C625
330
1E
100
AcDbEntity
  8
0
  6
Continuous
 62
     7
100
AcDbLine
 10
1013.635395613223
 20
-188.7265651065618
 30
0.0
 11
1373.635395613223
 21
-188.7265651065618
 31
0.0
  0
LINE
  5
C627
330
1E
100
AcDbEntity
  8
0
  6
Continuous
 62
     7
100
AcDbLine
 10
1101.785395613223
 20
-178.7265651065618
 30
0.0
 11
1285.485395613223
 21
-178.7265651065618
 31
0.0
  0
LINE
  5
C62E
330
1E
100
AcDbEntity
  8
0
  6
Continuous
 62
     7
100
AcDbLine
 10
1285.485395613223
 20
-176.7265651065618
 30
0.0
 11
1256.385395613223
 21
-176.7265651065618
 31
0.0
  0
LINE
  5
C62F
330
1E
100
AcDbEntity
  8
0
  6
Continuous
 62
     7
100
AcDbLine
 10
1101.785395613223
 20
-176.7265651065618
 30
0.0
 11
1130.885395613223
 21
-176.7265651065618
 31
0.0
  0
LINE
  5
C63E
330
1E
100
AcDbEntity
  8
0
  6
Continuous
 62
     7
100
AcDbLine
 10
1105.385395613223
 20
-167.1521964361618
 30
0.0
 11
1111.385395613223
 21
-167.1521964361618
 31
0.0
  0
LINE
  5
C63F
330
1E
100
AcDbEntity
  8
0
  6
Continuous
 62
     7
100
AcDbLine
 10
1275.885395613223
 20
-167.1521964361618
 30
0.0
 11
1281.885395613223
 21
-167.1521964361618
 31
0.0
  0
LINE
  5
C640
330
1E
100
AcDbEntity
  8
0
  6
Continuous
 62
     7
100
AcDbLine
 10
1281.885395613223
 20
-159.1521964361618
 30
0.0
 11
1275.885395613223
 21
-159.1521964361618
 31
0.0
  0
LINE
  5
C641
330
1E
100
AcDbEntity
  8
0
  6
Continuous
 62
     7
100
AcDbLine
 10
1111.385395613223
 20
-159.1521964361618
 30
0.0
 11
1105.385395613223
 21
-159.1521964361618
 31
0.0
  0
LINE
  5
C658
330
1E
100
AcDbEntity
  8
0
  6
Continuous
 62
     7
100
AcDbLine
 10
1013.635395613223
 20
-144.7265341065617
 30
0.0
 11
1101.785395613223
 21
-144.7265341065617
 31
0.0
  0
LINE
  5
C659
330
1E
100
AcDbEntity
  8
0
  6
Continuous
 62
     7
100
AcDbLine
 10
1285.485395613223
 20
-144.7265341065617
 30
0.0
 11
1373.635395613223
 21
-144.7265341065617
 31
0.0
  0
LINE
  5
C65A
330
1E
100
AcDbEntity
  8
0
  6
Continuous
 62
     7
100
AcDbLine
 10
1251.135395613223
 20
-135.7265651065618
 30
0.0
 11
1231.135395613223
 21
-135.7265651065618
 31
0.0
  0
LINE
  5
C65B
330
1E
100
AcDbEntity
  8
0
  6
Continuous
 62
     7
100
AcDbLine
 10
1156.135395613223
 20
-135.7265651065618
 30
0.0
 11
1136.135395613223
 21
-135.7265651065618
 31
0.0
  0
LINE
  5
C65C
330
1E
100
AcDbEntity
  8
0
  6
Continuous
 62
     7
100
AcDbLine
 10
1285.485395613223
 20
-121.9265531065618
 30
0.0
 11
1256.385395613223
 21
-121.9265531065618
 31
0.0
  0
LINE
  5
C65D
330
1E
100
AcDbEntity
  8
0
  6
Continuous
 62
     7
100
AcDbLine
 10
1101.785395613223
 20
-121.9265531065618
 30
0.0
 11
1130.885395613223
 21
-121.9265531065618
 31
0.0
  0
LINE
  5
C65E
330
1E
100
AcDbEntity
  8
0
  6
Continuous
 62
     7
100
AcDbLine
 10
1256.385395613223
 20
-120.7266261065617
 30
0.0
 11
1130.885395613223
 21
-120.7266261065617
 31
0.0
  0
LINE
  5
C65F
330
1E
100
AcDbEntity
  8
0
  6
Continuous
 62
     7
100
AcDbLine
 10
1285.485395613223
 20
-119.9265531065618
 30
0.0
 11
1256.385395613223
 21
-119.9265531065618
 31
0.0
  0
LINE
  5
C660
330
1E
100
AcDbEntity
  8
0
  6
Continuous
 62
     7
100
AcDbLine
 10
1101.785395613223
 20
-119.9265531065618
 30
0.0
 11
1130.885395613223
 21
-119.9265531065618
 31
0.0
  0
LINE
  5
C661
330
1E
100
AcDbEntity
  8
0
  6
Continuous
 62
     7
100
AcDbLine
 10
1281.885395613223
 20
-119.1265651065618
 30
0.0
 11
1256.385395613223
 21
-119.1265651065618
 31
0.0
  0
LINE
  5
C662
330
1E
100
AcDbEntity
  8
0
  6
Continuous
 62
     7
100
AcDbLine
 10
1105.385395613223
 20
-119.1265651065618
 30
0.0
 11
1130.885395613223
 21
-119.1265651065618
 31
0.0
  0
LINE
  5
C663
330
1E
100
AcDbEntity
  8
0
  6
Continuous
 62
     7
100
AcDbLine
 10
1256.385395613223
 20
-118.7265651065618
 30
0.0
 11
1130.885395613223
 21
-118.7265651065618
 31
0.0
  0
LINE
  5
C664
330
1E
100
AcDbEntity
  8
0
  6
Continuous
 62
     7
100
AcDbLine
 10
1231.135395613223
 20
-170.7265651065618
 30
0.0
 11
1231.135395613223
 21
-135.7265651065618
 31
0.0
  0
LINE
  5
C665
330
1E
100
AcDbEntity
  8
0
  6
Continuous
 62
     7
100
AcDbLine
 10
1251.135395613223
 20
-135.7265651065618
 30
0.0
 11
1251.135395613223
 21
-170.7265651065618
 31
0.0
  0
LINE
  5
C666
330
1E
100
AcDbEntity
  8
0
  6
Continuous
 62
     7
100
AcDbLine
 10
1256.385395613223
 20
-178.7265651065618
 30
0.0
 11
1256.385395613223
 21
-118.7265651065618
 31
0.0
  0
LINE
  5
C667
330
1E
100
AcDbEntity
  8
0
  6
Continuous
 62
     7
100
AcDbLine
 10
1275.885395613223
 20
-159.1521964361618
 30
0.0
 11
1275.885395613223
 21
-167.1521964361618
 31
0.0
  0
LINE
  5
C668
330
1E
100
AcDbEntity
  8
0
  6
Continuous
 62
     7
100
AcDbLine
 10
1281.885395613223
 20
-178.7265651065618
 30
0.0
 11
1281.885395613223
 21
-119.1265651065618
 31
0.0
  0
LINE
  5
C669
330
1E
100
AcDbEntity
  8
0
  6
Continuous
 62
     7
100
AcDbLine
 10
1285.485395613223
 20
-178.7265651065618
 30
0.0
 11
1285.485395613223
 21
-119.9265531065618
 31
0.0
  0
LINE
  5
C66A
330
1E
100
AcDbEntity
  8
0
  6
Continuous
 62
     7
100
AcDbLine
 10
1101.785395613223
 20
67.74397489383819
 30
0.0
 11
1101.785395613223
 21
-30.05606325316194
 31
0.0
  0
LINE
  5
C66B
330
1E
100
AcDbEntity
  8
0
  6
Continuous
 62
     7
100
AcDbLine
 10
1105.385395613223
 20
-30.05606325316194
 30
0.0
 11
1105.385395613223
 21
67.74397489383819
 31
0.0
  0
LINE
  5
C66C
330
1E
100
AcDbEntity
  8
0
  6
Continuous
 62
     7
100
AcDbLine
 10
1130.885395613223
 20
88.84395582043817
 30
0.0
 11
1130.885395613223
 21
-51.15604417956183
 31
0.0
  0
LINE
  5
C66D
330
1E
100
AcDbEntity
  8
0
  6
Continuous
 62
     7
100
AcDbLine
 10
1256.385395613223
 20
-51.15604417956183
 30
0.0
 11
1130.885395613223
 21
-51.15604417956183
 31
0.0
  0
LINE
  5
C66E
330
1E
100
AcDbEntity
  8
0
  6
Continuous
 62
     7
100
AcDbLine
 10
1256.385395613223
 20
-49.15604417956183
 30
0.0
 11
1130.885395613223
 21
-49.15604417956183
 31
0.0
  0
LINE
  5
C66F
330
1E
100
AcDbEntity
  8
0
  6
Continuous
 62
     7
100
AcDbLine
 10
1285.485395613223
 20
-30.05606325316194
 30
0.0
 11
1256.385395613223
 21
-30.05606325316194
 31
0.0
  0
LINE
  5
C670
330
1E
100
AcDbEntity
  8
0
  6
Continuous
 62
     7
100
AcDbLine
 10
1101.785395613223
 20
-30.05606325316194
 30
0.0
 11
1130.885395613223
 21
-30.05606325316194
 31
0.0
  0
LINE
  5
C671
330
1E
100
AcDbEntity
  8
0
  6
Continuous
 62
     7
100
AcDbLine
 10
1285.485395613223
 20
-28.05606325316194
 30
0.0
 11
1256.385395613223
 21
-28.05606325316194
 31
0.0
  0
LINE
  5
C672
330
1E
100
AcDbEntity
  8
0
  6
Continuous
 62
     7
100
AcDbLine
 10
1101.785395613223
 20
-28.05606325316194
 30
0.0
 11
1130.885395613223
 21
-28.05606325316194
 31
0.0
  0
LINE
  5
C673
330
1E
100
AcDbEntity
  8
0
  6
Continuous
 62
     7
100
AcDbLine
 10
1256.385395613223
 20
-22.95622317936182
 30
0.0
 11
1130.885395613223
 21
-22.95622317936182
 31
0.0
  0
LINE
  5
C674
330
1E
100
AcDbEntity
  8
0
  6
Continuous
 62
     7
100
AcDbLine
 10
1256.385395613223
 20
-22.15623817936194
 30
0.0
 11
1130.885395613223
 21
-22.15623817936194
 31
0.0
  0
LINE
  5
C675
330
1E
100
AcDbEntity
  8
0
  6
Continuous
 62
     7
100
AcDbLine
 10
1373.635395613223
 20
-7.656044179561831
 30
0.0
 11
1285.485395613223
 21
-7.656044179561831
 31
0.0
  0
LINE
  5
C676
330
1E
100
AcDbEntity
  8
0
  6
Continuous
 62
     7
100
AcDbLine
 10
1101.785395613223
 20
-7.656044179561831
 30
0.0
 11
1013.635395613223
 21
-7.656044179561831
 31
0.0
  0
LINE
  5
C67B
330
1E
100
AcDbEntity
  8
0
  6
Continuous
 62
     7
100
AcDbLine
 10
1256.385395613223
 20
0.8437878204381377
 30
0.0
 11
1130.885395613223
 21
0.8437878204381377
 31
0.0
  0
LINE
  5
C67C
330
1E
100
AcDbEntity
  8
0
  6
Continuous
 62
     7
100
AcDbLine
 10
1281.885395613223
 20
6.343955820438054
 30
0.0
 11
1256.385395613223
 21
6.343955820438054
 31
0.0
  0
LINE
  5
C67D
330
1E
100
AcDbEntity
  8
0
  6
Continuous
 62
     7
100
AcDbLine
 10
1256.385395613223
 20
1.643857820438142
 30
0.0
 11
1130.885395613223
 21
1.643857820438142
 31
0.0
  0
LINE
  5
C67E
330
1E
100
AcDbEntity
  8
0
  6
Continuous
 62
     7
100
AcDbLine
 10
1281.885395613223
 20
7.143949819838098
 30
0.0
 11
1256.385395613223
 21
7.143949819838098
 31
0.0
  0
LINE
  5
C67F
330
1E
100
AcDbEntity
  8
0
  6
Continuous
 62
     7
100
AcDbLine
 10
1281.885395613223
 20
30.54396182103813
 30
0.0
 11
1256.385395613223
 21
30.54396182103813
 31
0.0
  0
LINE
  5
C680
330
1E
100
AcDbEntity
  8
0
  6
Continuous
 62
     7
100
AcDbLine
 10
1256.385395613223
 20
36.04405382043819
 30
0.0
 11
1130.885395613223
 21
36.04405382043819
 31
0.0
  0
LINE
  5
C681
330
1E
100
AcDbEntity
  8
0
  6
Continuous
 62
     7
100
AcDbLine
 10
1281.885395613223
 20
31.34395582043806
 30
0.0
 11
1256.385395613223
 21
31.34395582043806
 31
0.0
  0
LINE
  5
C682
330
1E
100
AcDbEntity
  8
0
  6
Continuous
 62
     7
100
AcDbLine
 10
1256.385395613223
 20
36.84395582043817
 30
0.0
 11
1130.885395613223
 21
36.84395582043817
 31
0.0
  0
LINE
  5
C687
330
1E
100
AcDbEntity
  8
0
  6
Continuous
 62
     7
100
AcDbLine
 10
1013.635395613223
 20
45.34395582043816
 30
0.0
 11
1101.785395613223
 21
45.34395582043816
 31
0.0
  0
LINE
  5
C688
330
1E
100
AcDbEntity
  8
0
  6
Continuous
 62
     7
100
AcDbLine
 10
1285.485395613223
 20
45.34395582043816
 30
0.0
 11
1373.635395613223
 21
45.34395582043816
 31
0.0
  0
LINE
  5
C689
330
1E
100
AcDbEntity
  8
0
  6
Continuous
 62
     7
100
AcDbLine
 10
1256.385395613223
 20
59.84414982023816
 30
0.0
 11
1130.885395613223
 21
59.84414982023816
 31
0.0
  0
LINE
  5
C68A
330
1E
100
AcDbEntity
  8
0
  6
Continuous
 62
     7
100
AcDbLine
 10
1256.385395613223
 20
60.64413482023815
 30
0.0
 11
1130.885395613223
 21
60.64413482023815
 31
0.0
  0
LINE
  5
C68B
330
1E
100
AcDbEntity
  8
0
  6
Continuous
 62
     7
100
AcDbLine
 10
1285.485395613223
 20
65.74397489383819
 30
0.0
 11
1256.385395613223
 21
65.74397489383819
 31
0.0
  0
LINE
  5
C68C
330
1E
100
AcDbEntity
  8
0
  6
Continuous
 62
     7
100
AcDbLine
 10
1101.785395613223
 20
65.74397489383819
 30
0.0
 11
1130.885395613223
 21
65.74397489383819
 31
0.0
  0
LINE
  5
C68D
330
1E
100
AcDbEntity
  8
0
  6
Continuous
 62
     7
100
AcDbLine
 10
1285.485395613223
 20
67.74397489383819
 30
0.0
 11
1256.385395613223
 21
67.74397489383819
 31
0.0
  0
LINE
  5
C68E
330
1E
100
AcDbEntity
  8
0
  6
Continuous
 62
     7
100
AcDbLine
 10
1101.785395613223
 20
67.74397489383819
 30
0.0
 11
1130.885395613223
 21
67.74397489383819
 31
0.0
  0
LINE
  5
C68F
330
1E
100
AcDbEntity
  8
0
  6
Continuous
 62
     7
100
AcDbLine
 10
1256.385395613223
 20
-51.15604417956183
 30
0.0
 11
1256.385395613223
 21
88.84395582043817
 31
0.0
  0
LINE
  5
C690
330
1E
100
AcDbEntity
  8
0
  6
Continuous
 62
     7
100
AcDbLine
 10
1256.385395613223
 20
86.84395582043817
 30
0.0
 11
1130.885395613223
 21
86.84395582043817
 31
0.0
  0
LINE
  5
C691
330
1E
100
AcDbEntity
  8
0
  6
Continuous
 62
     7
100
AcDbLine
 10
1256.385395613223
 20
88.84395582043817
 30
0.0
 11
1130.885395613223
 21
88.84395582043817
 31
0.0
  0
LINE
  5
C692
330
1E
100
AcDbEntity
  8
0
  6
Continuous
 62
     7
100
AcDbLine
 10
1281.885395613223
 20
-30.05606325316194
 30
0.0
 11
1281.885395613223
 21
67.74397489383819
 31
0.0
  0
LINE
  5
C693
330
1E
100
AcDbEntity
  8
0
  6
Continuous
 62
     7
100
AcDbLine
 10
1285.485395613223
 20
-30.05606325316194
 30
0.0
 11
1285.485395613223
 21
67.74397489383819
 31
0.0
  0
CIRCLE
  5
C6C6
330
1E
100
AcDbEntity
  8
0
  6
Continuous
 62
     7
100
AcDbCircle
 10
1118.385395613223
 20
-136.2265651065618
 30
0.0
 40
0.75
  0
CIRCLE
  5
C6C7
330
1E
100
AcDbEntity
  8
0
  6
Continuous
 62
     7
100
AcDbCircle
 10
1118.385395613223
 20
-136.2265651065618
 30
0.0
 40
4.767386812599999
  0
CIRCLE
  5
C6C8
330
1E
100
AcDbEntity
  8
0
  6
Continuous
 62
     7
100
AcDbCircle
 10
1118.385395613223
 20
-136.2265651065618
 30
0.0
 40
3.918292304999999
  0
CIRCLE
  5
C6C9
330
1E
100
AcDbEntity
  8
0
  6
Continuous
 62
     7
100
AcDbCircle
 10
1118.385395613223
 20
-136.2265651065618
 30
0.0
 40
4.2499867446
  0
CIRCLE
  5
C6CA
330
1E
100
AcDbEntity
  8
0
  6
Continuous
 62
     7
100
AcDbCircle
 10
1268.885395613223
 20
-136.2265651065618
 30
0.0
 40
0.75
  0
CIRCLE
  5
C6CB
330
1E
100
AcDbEntity
  8
0
  6
Continuous
 62
     7
100
AcDbCircle
 10
1268.885395613223
 20
-136.2265651065618
 30
0.0
 40
3.918292304999999
  0
CIRCLE
  5
C6CC
330
1E
100
AcDbEntity
  8
0
  6
Continuous
 62
     7
100
AcDbCircle
 10
1268.885395613223
 20
-136.2265651065618
 30
0.0
 40
4.2499867444
  0
CIRCLE
  5
C6CD
330
1E
100
AcDbEntity
  8
0
  6
Continuous
 62
     7
100
AcDbCircle
 10
1268.885395613223
 20
-136.2265651065618
 30
0.0
 40
4.767386812599999
  0
CIRCLE
  5
C6CE
330
1E
100
AcDbEntity
  8
0
  6
Continuous
 62
     7
100
AcDbCircle
 10
1118.385395613223
 20
18.84395582043817
 30
0.0
 40
0.75
  0
CIRCLE
  5
C6CF
330
1E
100
AcDbEntity
  8
0
  6
Continuous
 62
     7
100
AcDbCircle
 10
1118.385395613223
 20
18.84395582043817
 30
0.0
 40
5.15
  0
CIRCLE
  5
C6D0
330
1E
100
AcDbEntity
  8
0
  6
Continuous
 62
     7
100
AcDbCircle
 10
1268.885395613223
 20
18.84395582043817
 30
0.0
 40
0.75
  0
CIRCLE
  5
C6D1
330
1E
100
AcDbEntity
  8
0
  6
Continuous
 62
     7
100
AcDbCircle
 10
1268.885395613223
 20
18.84395582043817
 30
0.0
 40
5.15
  0
SPLINE
  5
C6D6
330
1E
100
AcDbEntity
  8
0
  6
Continuous
 62
     7
100
AcDbSpline
210
0.0
220
0.0
230
1.0
 70
     8
 71
     3
 72
    12
 73
     8
 74
     6
 42
0.0000000001
 43
0.0000000001
 44
0.0000000001
 12
0.0
 22
-1.0
 32
0.0
 13
-0.800000000002592
 23
-0.5999999999965442
 33
0.0
 40
0.0
 40
0.0
 40
0.0
 40
0.0
 40
2.06678736868514
 40
3.957432583874885
 40
5.760554762442519
 40
7.513486316756428
 40
9.259571620735403
 40
9.259571620735403
 40
9.259571620735403
 40
9.259571620735403
 10
1251.135395613223
 20
-170.7265651065618
 30
0.0
 10
1251.135395613223
 20
-171.4154942294568
 30
0.0
 10
1250.998107773574
 20
-172.7388812180298
 30
0.0
 10
1250.424151103753
 20
-174.5825825104892
 30
0.0
 10
1249.56987471934
 20
-176.1960446971397
 30
0.0
 10
1248.475161517581
 20
-177.5945495616171
 30
0.0
 10
1247.601018360952
 20
-178.377348045768
 30
0.0
 10
1247.135395613223
 20
-178.7265651065618
 30
0.0
 11
1251.135395613223
 21
-170.7265651065618
 31
0.0
 11
1250.921896786623
 21
-172.7822957013618
 31
0.0
 11
1250.360069934623
 21
-174.5875352749618
 31
0.0
 11
1249.516632726023
 21
-176.1812301221617
 31
0.0
 11
1248.435670934223
 21
-177.5611904979618
 31
0.0
 11
1247.135395613223
 21
-178.7265651065618
 31
0.0
  0
SPLINE
  5
C6D7
330
1E
100
AcDbEntity
  8
0
  6
Continuous
 62
     7
100
AcDbSpline
210
0.0
220
0.0
230
1.0
 70
     8
 71
     3
 72
    12
 73
     8
 74
     6
 42
0.0000000001
 43
0.0000000001
 44
0.0000000001
 12
0.0
 22
-1.0
 32
0.0
 13
-0.800000000002592
 23
-0.5999999999965442
 33
0.0
 40
0.0
 40
0.0
 40
0.0
 40
0.0
 40
2.066787368664471
 40
3.957432583913607
 40
5.760554762481348
 40
7.51348631667201
 40
9.259571620799819
 40
9.259571620799819
 40
9.259571620799819
 40
9.259571620799819
 10
1156.135395613223
 20
-170.7265651065618
 30
0.0
 10
1156.135395613223
 20
-171.4154942294499
 30
0.0
 10
1155.998107773927
 20
-172.7388812180849
 30
0.0
 10
1155.424151103693
 20
-174.582582510463
 30
0.0
 10
1154.569874719324
 20
-176.1960446970605
 30
0.0
 10
1153.475161517804
 20
-177.5945495617665
 30
0.0
 10
1152.601018360992
 20
-178.3773480457382
 30
0.0
 10
1152.135395613223
 20
-178.7265651065618
 30
0.0
 11
1156.135395613223
 21
-170.7265651065618
 31
0.0
 11
1155.921896786823
 21
-172.7822957013618
 31
0.0
 11
1155.360069934623
 21
-174.5875352749618
 31
0.0
 11
1154.516632726023
 21
-176.1812301221617
 31
0.0
 11
1153.435670934423
 21
-177.5611904979618
 31
0.0
 11
1152.135395613223
 21
-178.7265651065618
 31
0.0
  0
SPLINE
  5
C6D8
330
1E
100
AcDbEntity
  8
0
  6
Continuous
 62
     7
100
AcDbSpline
210
0.0
220
0.0
230
1.0
 70
     8
 71
     3
 72
    12
 73
     8
 74
     6
 42
0.0000000001
 43
0.0000000001
 44
0.0000000001
 12
-0.7999999999948164
 22
0.6000000000069119
 32
0.0
 13
0.0
 23
1.0
 33
0.0
 40
0.0
 40
0.0
 40
0.0
 40
0.0
 40
1.745865131712247
 40
3.498709764560721
 40
5.301847718931897
 40
7.192590900756169
 40
9.259571258556933
 40
9.259571258556933
 40
9.259571258556933
 40
9.259571258556933
 10
1235.135395613223
 20
-178.7265651065618
 30
0.0
 10
1234.669831578103
 20
-178.3773920802153
 30
0.0
 10
1233.795757852182
 20
-177.5946732684938
 30
0.0
 10
1232.7010681848
 20
-176.1962748586578
 30
0.0
 10
1231.846739195594
 20
-174.582830155212
 30
0.0
 10
1231.272706568782
 20
-172.7390437228836
 30
0.0
 10
1231.135395613223
 20
-171.415558559162
 30
0.0
 10
1231.135395613223
 20
-170.7265651065618
 30
0.0
 11
1235.135395613223
 21
-178.7265651065618
 31
0.0
 11
1233.835271326423
 21
-177.5613518655618
 31
0.0
 11
1232.754326623623
 21
-176.1814885185617
 31
0.0
 11
1231.910834250023
 21
-174.5878050185617
 31
0.0
 11
1231.348934324223
 21
-172.7824855861618
 31
0.0
 11
1231.135395613223
 21
-170.7265651065618
 31
0.0
  0
SPLINE
  5
C6D9
330
1E
100
AcDbEntity
  8
0
  6
Continuous
 62
     7
100
AcDbSpline
210
0.0
220
0.0
230
1.0
 70
     8
 71
     3
 72
    12
 73
     8
 74
     6
 42
0.0000000001
 43
0.0000000001
 44
0.0000000001
 12
-0.7999999999948164
 22
0.6000000000069119
 32
0.0
 13
0.0
 23
1.0
 33
0.0
 40
0.0
 40
0.0
 40
0.0
 40
0.0
 40
1.745865131712247
 40
3.498709764560721
 40
5.301847718931897
 40
7.192590900756169
 40
9.259571258556933
 40
9.259571258556933
 40
9.259571258556933
 40
9.259571258556933
 10
1140.135395613223
 20
-178.7265651065618
 30
0.0
 10
1139.669831578103
 20
-178.3773920802153
 30
0.0
 10
1138.795757852183
 20
-177.5946732684938
 30
0.0
 10
1137.7010681848
 20
-176.1962748586578
 30
0.0
 10
1136.846739195594
 20
-174.582830155212
 30
0.0
 10
1136.272706568782
 20
-172.7390437228836
 30
0.0
 10
1136.135395613223
 20
-171.415558559162
 30
0.0
 10
1136.135395613223
 20
-170.7265651065618
 30
0.0
 11
1140.135395613223
 21
-178.7265651065618
 31
0.0
 11
1138.835271326423
 21
-177.5613518655618
 31
0.0
 11
1137.754326623623
 21
-176.1814885185617
 31
0.0
 11
1136.910834250023
 21
-174.5878050185617
 31
0.0
 11
1136.348934324223
 21
-172.7824855861618
 31
0.0
 11
1136.135395613223
 21
-170.7265651065618
 31
0.0
  0
LINE
  5
CDE8
330
1E
100
AcDbEntity
  8
0
  6
Continuous
 62
     7
100
AcDbLine
 10
858.0005527710826
 20
-176.3389058193358
 30
0.0
 11
858.000552771082
 21
-178.1265651065618
 31
0.0
  0
LINE
  5
CE07
330
1E
100
AcDbEntity
  8
中心線
100
AcDbLine
 10
1098.483816693186
 20
-19.65606399376202
 30
0.0
 11
1109.129042221115
 21
-19.65606399376202
 31
0.0
  0
LINE
  5
CE08
330
1E
100
AcDbEntity
  8
0
100
AcDbLine
 10
1100.148666879224
 20
-21.00688065261261
 30
0.0
 11
1100.148666879224
 21
-18.30524733491074
 31
0.0
  0
ARC
  5
CE09
330
1E
100
AcDbEntity
  8
0
100
AcDbCircle
 10
1102.406388687789
 20
-18.34180399557886
 30
0.0
 40
2.258017748891656
100
AcDbArc
 50
105.9630221688284
 51
179.0723572120041
  0
ARC
  5
CE0A
330
1E
100
AcDbEntity
  8
0
100
AcDbCircle
 10
1102.406388687789
 20
-20.9703239919454
 30
0.0
 40
2.258017748891656
100
AcDbArc
 50
180.9276427879959
 51
254.0369778311716
  0
ARC
  5
CE0B
330
1E
100
AcDbEntity
  8
0
100
AcDbCircle
 10
1102.406388687789
 20
58.65823563282152
 30
0.0
 40
2.258017748891656
100
AcDbArc
 50
105.9630221688284
 51
179.0723572120041
  0
ARC
  5
CE0C
330
1E
100
AcDbEntity
  8
0
100
AcDbCircle
 10
1102.406388687789
 20
56.02971563645496
 30
0.0
 40
2.258017748891656
100
AcDbArc
 50
180.9276427879959
 51
254.0369778311716
  0
LINE
  5
CE0D
330
1E
100
AcDbEntity
  8
0
100
AcDbLine
 10
1100.148666879224
 20
58.69479229348872
 30
0.0
 11
1100.148666879224
 21
55.99315897578685
 31
0.0
  0
LINE
  5
CE0E
330
1E
100
AcDbEntity
  8
中心線
100
AcDbLine
 10
1098.483816693186
 20
57.34397563463824
 30
0.0
 11
1109.129042221115
 21
57.34397563463824
 31
0.0
  0
CIRCLE
  5
CE63
330
1E
100
AcDbEntity
  8
指線
 48
0.27
100
AcDbCircle
 10
846.8463244157462
 20
-144.7265651065618
 30
0.0
 40
4.0
  0
LINE
  5
CE64
330
1E
100
AcDbEntity
  8
指線
 48
0.27
100
AcDbLine
 10
846.0469412856266
 20
-142.4666760906284
 30
0.0
 11
846.0471672734984
 21
-143.9276536304548
 31
0.0
  0
ARC
  5
CE65
330
1E
100
AcDbEntity
  8
指線
 48
0.27
100
AcDbCircle
 10
846.846324415746
 20
-144.7265651065618
 30
0.0
 40
2.397105012956624
100
AcDbArc
 50
109.4623212432047
 51
160.5189998916704
  0
LINE
  5
CE66
330
1E
100
AcDbEntity
  8
指線
 48
0.27
100
AcDbLine
 10
846.0471672734984
 20
-143.9276536304548
 30
0.0
 11
842.9285495516923
 21
-143.9280600759064
 31
0.0
  0
LINE
  5
CE67
330
1E
100
AcDbEntity
  8
指線
 48
0.27
100
AcDbLine
 10
847.6454815579941
 20
-145.5254765826687
 30
0.0
 11
847.6457075458659
 21
-146.9864541224947
 31
0.0
  0
LINE
  5
CE68
330
1E
100
AcDbEntity
  8
指線
 48
0.27
100
AcDbLine
 10
846.0474144669346
 20
-145.5257239283744
 30
0.0
 11
846.047640454487
 21
-146.9867014681933
 31
0.0
  0
ARC
  5
CE69
330
1E
100
AcDbEntity
  8
指線
 48
0.27
100
AcDbCircle
 10
846.8463244157465
 20
-144.7265651065618
 30
0.0
 40
2.397105012956624
100
AcDbArc
 50
199.4791870960452
 51
250.5376787567886
  0
ARC
  5
CE6A
330
1E
100
AcDbEntity
  8
指線
 48
0.27
100
AcDbCircle
 10
846.846324415746
 20
-144.7265651065618
 30
0.0
 40
2.397105012956624
100
AcDbArc
 50
289.4623212432114
 51
340.5208129039548
  0
LINE
  5
CE6B
330
1E
100
AcDbEntity
  8
指線
 48
0.27
100
AcDbLine
 10
847.6450083770055
 20
-142.4664287449302
 30
0.0
 11
847.6452343645576
 21
-143.9274062847487
 31
0.0
  0
ARC
  5
CE6C
330
1E
100
AcDbEntity
  8
指線
 48
0.27
100
AcDbCircle
 10
846.8463244157465
 20
-144.7265651065618
 30
0.0
 40
2.397105012956624
100
AcDbArc
 50
19.48100010832958
 51
70.53767875679525
  0
LINE
  5
CE6D
330
1E
100
AcDbEntity
  8
指線
 48
0.27
100
AcDbLine
 10
847.6452343645576
 20
-143.9274062847487
 30
0.0
 11
850.7574474478179
 21
-143.9268483338524
 31
0.0
  0
LINE
  5
CE6E
330
1E
100
AcDbEntity
  8
指線
 48
0.27
100
AcDbLine
 10
847.6454815579941
 20
-145.5254765826687
 30
0.0
 11
850.7576946412546
 21
-145.5249186317721
 31
0.0
  0
LINE
  5
CE6F
330
1E
100
AcDbEntity
  8
指線
 48
0.27
100
AcDbLine
 10
846.0474144669346
 20
-145.5257239283744
 30
0.0
 11
842.9287967451287
 21
-145.5261303738264
 31
0.0
  0
CIRCLE
  5
CE70
330
1E
100
AcDbEntity
  8
指線
 48
0.27
100
AcDbCircle
 10
923.8463244157461
 20
-144.7265651065618
 30
0.0
 40
4.0
  0
LINE
  5
CE71
330
1E
100
AcDbEntity
  8
指線
 48
0.27
100
AcDbLine
 10
923.0469412856265
 20
-142.4666760906284
 30
0.0
 11
923.0471672734983
 21
-143.9276536304548
 31
0.0
  0
ARC
  5
CE72
330
1E
100
AcDbEntity
  8
指線
 48
0.27
100
AcDbCircle
 10
923.8463244157459
 20
-144.7265651065618
 30
0.0
 40
2.397105012956624
100
AcDbArc
 50
109.4623212432047
 51
160.5189998916704
  0
LINE
  5
CE73
330
1E
100
AcDbEntity
  8
指線
 48
0.27
100
AcDbLine
 10
923.0471672734983
 20
-143.9276536304548
 30
0.0
 11
919.9285495516921
 21
-143.9280600759064
 31
0.0
  0
LINE
  5
CE74
330
1E
100
AcDbEntity
  8
指線
 48
0.27
100
AcDbLine
 10
924.6454815579941
 20
-145.5254765826687
 30
0.0
 11
924.6457075458659
 21
-146.9864541224947
 31
0.0
  0
LINE
  5
CE75
330
1E
100
AcDbEntity
  8
指線
 48
0.27
100
AcDbLine
 10
923.0474144669345
 20
-145.5257239283744
 30
0.0
 11
923.0476404544869
 21
-146.9867014681933
 31
0.0
  0
ARC
  5
CE76
330
1E
100
AcDbEntity
  8
指線
 48
0.27
100
AcDbCircle
 10
923.8463244157463
 20
-144.7265651065618
 30
0.0
 40
2.397105012956624
100
AcDbArc
 50
199.4791870960452
 51
250.5376787567886
  0
ARC
  5
CE77
330
1E
100
AcDbEntity
  8
指線
 48
0.27
100
AcDbCircle
 10
923.8463244157459
 20
-144.7265651065618
 30
0.0
 40
2.397105012956624
100
AcDbArc
 50
289.4623212432114
 51
340.5208129039548
  0
LINE
  5
CE78
330
1E
100
AcDbEntity
  8
指線
 48
0.27
100
AcDbLine
 10
924.6450083770055
 20
-142.4664287449302
 30
0.0
 11
924.6452343645575
 21
-143.9274062847487
 31
0.0
  0
ARC
  5
CE79
330
1E
100
AcDbEntity
  8
指線
 48
0.27
100
AcDbCircle
 10
923.8463244157463
 20
-144.7265651065618
 30
0.0
 40
2.397105012956624
100
AcDbArc
 50
19.48100010832958
 51
70.53767875679525
  0
LINE
  5
CE7A
330
1E
100
AcDbEntity
  8
指線
 48
0.27
100
AcDbLine
 10
924.6452343645575
 20
-143.9274062847487
 30
0.0
 11
927.7574474478178
 21
-143.9268483338524
 31
0.0
  0
LINE
  5
CE7B
330
1E
100
AcDbEntity
  8
指線
 48
0.27
100
AcDbLine
 10
924.6454815579941
 20
-145.5254765826687
 30
0.0
 11
927.7576946412544
 21
-145.5249186317721
 31
0.0
  0
LINE
  5
CE7C
330
1E
100
AcDbEntity
  8
指線
 48
0.27
100
AcDbLine
 10
923.0474144669345
 20
-145.5257239283744
 30
0.0
 11
919.9287967451285
 21
-145.5261303738264
 31
0.0
  0
LINE
  5
D163
330
1E
100
AcDbEntity
  8
0
100
AcDbLine
 10
1067.685721679725
 20
-144.7265341065617
 30
0.0
 11
1064.281419031081
 21
-152.6330500096808
 31
0.0
  0
LINE
  5
D164
330
1E
100
AcDbEntity
  8
0
100
AcDbLine
 10
1064.281419031081
 20
-152.6330500096808
 30
0.0
 11
1069.241890145259
 21
-162.5496300649878
 31
0.0
  0
LINE
  5
D165
330
1E
100
AcDbEntity
  8
0
100
AcDbLine
 10
1069.241890145259
 20
-162.5496300649878
 30
0.0
 11
1064.357811182544
 21
-172.6389568615204
 31
0.0
  0
LINE
  5
D166
330
1E
100
AcDbEntity
  8
0
100
AcDbLine
 10
1064.357811182544
 20
-172.6389568615204
 30
0.0
 11
1069.251238954222
 21
-184.4281836872134
 31
0.0
  0
LINE
  5
D16A
330
1E
100
AcDbEntity
  8
0
100
AcDbLine
 10
1069.251238954222
 20
-184.4281836872134
 30
0.0
 11
1067.700562053634
 21
-188.7265651065617
 31
0.0
  0
LINE
  5
D171
330
1E
100
AcDbEntity
  8
中心線
100
AcDbLine
 10
1193.635395613223
 20
93.84395582043817
 30
0.0
 11
1193.635395613223
 21
-56.15604417956183
 31
0.0
  0
LINE
  5
D172
330
1E
100
AcDbEntity
  8
中心線
100
AcDbLine
 10
1261.385395613223
 20
18.84395582033812
 30
0.0
 11
1125.885395613223
 21
18.84395582033812
 31
0.0
  0
LINE
  5
D18D
330
1E
100
AcDbEntity
  8
虛線
 48
0.27
100
AcDbLine
 10
1291.635395613223
 20
-188.2265651065618
 30
0.0
 11
1291.635395613223
 21
-165.2265651065618
 31
0.0
  0
LINE
  5
D18E
330
1E
100
AcDbEntity
  8
虛線
 48
0.27
100
AcDbLine
 10
1275.635395613223
 20
-188.2265651065618
 30
0.0
 11
1275.635395613224
 21
-178.7265651065618
 31
0.0
  0
LINE
  5
D190
330
1E
100
AcDbEntity
  8
虛線
 48
0.27
100
AcDbLine
 10
1295.135395613223
 20
-164.7265651065618
 30
0.0
 11
1295.135395613223
 21
-145.1265651065619
 31
0.0
  0
LINE
  5
D191
330
1E
100
AcDbEntity
  8
虛線
 48
0.27
100
AcDbLine
 10
1295.135395613223
 20
-164.7265651065618
 30
0.0
 11
1285.485395613223
 21
-164.7265651065618
 31
0.0
  0
LINE
  5
D192
330
1E
100
AcDbEntity
  8
虛線
 48
0.27
100
AcDbLine
 10
1291.635395613223
 20
-165.2265651065618
 30
0.0
 11
1285.485395613223
 21
-165.2265651065618
 31
0.0
  0
LINE
  5
D194
330
1E
100
AcDbEntity
  8
虛線
 48
0.27
100
AcDbLine
 10
1291.635395613223
 20
-165.2265651065618
 30
0.0
 11
1292.135395613223
 21
-164.7265651065618
 31
0.0
  0
LINE
  5
D195
330
1E
100
AcDbEntity
  8
虛線
 48
0.27
100
AcDbLine
 10
1295.135395613223
 20
-145.1265651065619
 30
0.0
 11
1287.122124347222
 21
-145.1265651065619
 31
0.0
  0
LINE
  5
D196
330
1E
100
AcDbEntity
  8
虛線
 48
0.27
100
AcDbLine
 10
1295.135395613223
 20
-145.1265651065619
 30
0.0
 11
1295.366335720899
 21
-144.7265651065618
 31
0.0
  0
LINE
  5
D198
330
1E
100
AcDbEntity
  8
虛線
 48
0.27
100
AcDbLine
 10
1275.635395613223
 20
-188.2265651065618
 30
0.0
 11
1291.635395613223
 21
-188.2265651065618
 31
0.0
  0
LINE
  5
D199
330
1E
100
AcDbEntity
  8
虛線
 48
0.27
100
AcDbLine
 10
1292.135395613223
 20
-188.7265651065618
 30
0.0
 11
1291.635395613223
 21
-188.2265651065618
 31
0.0
  0
LINE
  5
D19A
330
1E
100
AcDbEntity
  8
虛線
 48
0.27
100
AcDbLine
 10
1275.135395613223
 20
-188.7265651065618
 30
0.0
 11
1275.635395613223
 21
-188.2265651065618
 31
0.0
  0
LINE
  5
D1AE
330
1E
100
AcDbEntity
  8
虛線
 48
0.27
100
AcDbLine
 10
1111.635395613223
 20
-188.2265651065618
 30
0.0
 11
1111.635395613223
 21
-178.7265651065618
 31
0.0
  0
LINE
  5
D1AF
330
1E
100
AcDbEntity
  8
虛線
 48
0.27
100
AcDbLine
 10
1095.635395613223
 20
-188.2265651065618
 30
0.0
 11
1095.635395613223
 21
-165.2265651065618
 31
0.0
  0
LINE
  5
D1B0
330
1E
100
AcDbEntity
  8
虛線
 48
0.27
100
AcDbLine
 10
1092.135395613223
 20
-164.7265651065618
 30
0.0
 11
1092.135395613223
 21
-145.1265651065619
 31
0.0
  0
LINE
  5
D1B2
330
1E
100
AcDbEntity
  8
虛線
 48
0.27
100
AcDbLine
 10
1101.785395613223
 20
-164.7265651065618
 30
0.0
 11
1092.135395613223
 21
-164.7265651065618
 31
0.0
  0
LINE
  5
D1B3
330
1E
100
AcDbEntity
  8
虛線
 48
0.27
100
AcDbLine
 10
1101.785395613223
 20
-165.2265651065618
 30
0.0
 11
1095.635395613223
 21
-165.2265651065618
 31
0.0
  0
LINE
  5
D1B4
330
1E
100
AcDbEntity
  8
虛線
 48
0.27
100
AcDbLine
 10
1095.135395613223
 20
-164.7265651065618
 30
0.0
 11
1095.635395613223
 21
-165.2265651065618
 31
0.0
  0
LINE
  5
D1B6
330
1E
100
AcDbEntity
  8
虛線
 48
0.27
100
AcDbLine
 10
1100.148666879224
 20
-145.1265651065619
 30
0.0
 11
1092.135395613223
 21
-145.1265651065619
 31
0.0
  0
LINE
  5
D1B8
330
1E
100
AcDbEntity
  8
虛線
 48
0.27
100
AcDbLine
 10
1091.904455505547
 20
-144.726565106562
 30
0.0
 11
1092.135395613223
 21
-145.1265651065619
 31
0.0
  0
LINE
  5
D1B9
330
1E
100
AcDbEntity
  8
虛線
 48
0.27
100
AcDbLine
 10
1095.635395613223
 20
-188.2265651065618
 30
0.0
 11
1111.635395613223
 21
-188.2265651065618
 31
0.0
  0
LINE
  5
D1BA
330
1E
100
AcDbEntity
  8
虛線
 48
0.27
100
AcDbLine
 10
1112.135395613223
 20
-188.7265651065618
 30
0.0
 11
1111.635395613223
 21
-188.2265651065618
 31
0.0
  0
LINE
  5
D1BB
330
1E
100
AcDbEntity
  8
虛線
 48
0.27
100
AcDbLine
 10
1095.135395613223
 20
-188.7265651065618
 30
0.0
 11
1095.635395613223
 21
-188.2265651065618
 31
0.0
  0
LINE
  5
D1CF
330
1E
100
AcDbEntity
  8
虛線
 48
0.27
100
AcDbLine
 10
1171.635395613223
 20
-188.2265651065618
 30
0.0
 11
1171.635395613223
 21
-178.7265651065618
 31
0.0
  0
LINE
  5
D1D0
330
1E
100
AcDbEntity
  8
虛線
 48
0.27
100
AcDbLine
 10
1155.635395613223
 20
-188.2265651065618
 30
0.0
 11
1155.635395613223
 21
-178.7265651065618
 31
0.0
  0
LINE
  5
D1DA
330
1E
100
AcDbEntity
  8
虛線
 48
0.27
100
AcDbLine
 10
1155.635395613223
 20
-188.2265651065618
 30
0.0
 11
1171.635395613223
 21
-188.2265651065618
 31
0.0
  0
LINE
  5
D1DB
330
1E
100
AcDbEntity
  8
虛線
 48
0.27
100
AcDbLine
 10
1172.135395613223
 20
-188.7265651065618
 30
0.0
 11
1171.635395613223
 21
-188.2265651065618
 31
0.0
  0
LINE
  5
D1DC
330
1E
100
AcDbEntity
  8
虛線
 48
0.27
100
AcDbLine
 10
1155.135395613223
 20
-188.7265651065618
 30
0.0
 11
1155.635395613223
 21
-188.2265651065618
 31
0.0
  0
LINE
  5
D1DD
330
1E
100
AcDbEntity
  8
虛線
 48
0.27
100
AcDbLine
 10
1215.135395613223
 20
-188.7265651065618
 30
0.0
 11
1215.635395613223
 21
-188.2265651065618
 31
0.0
  0
LINE
  5
D1DE
330
1E
100
AcDbEntity
  8
虛線
 48
0.27
100
AcDbLine
 10
1232.135395613223
 20
-188.7265651065618
 30
0.0
 11
1231.635395613223
 21
-188.2265651065618
 31
0.0
  0
LINE
  5
D1DF
330
1E
100
AcDbEntity
  8
虛線
 48
0.27
100
AcDbLine
 10
1215.635395613223
 20
-188.2265651065618
 30
0.0
 11
1231.635395613223
 21
-188.2265651065618
 31
0.0
  0
LINE
  5
D1E0
330
1E
100
AcDbEntity
  8
虛線
 48
0.27
100
AcDbLine
 10
1215.635395613223
 20
-188.2265651065618
 30
0.0
 11
1215.635395613223
 21
-178.7265651065618
 31
0.0
  0
LINE
  5
D1E1
330
1E
100
AcDbEntity
  8
虛線
 48
0.27
100
AcDbLine
 10
1231.635395613223
 20
-188.2265651065618
 30
0.0
 11
1231.635395613223
 21
-178.7265651065618
 31
0.0
  0
LINE
  5
D225
330
1E
100
AcDbEntity
  8
中心線
 48
0.27
100
AcDbLine
 10
1087.91732560971
 20
18.84395582033812
 30
0.0
 11
1090.017255115911
 21
18.84395582033812
 31
0.0
  0
ARC
  5
D227
330
1E
100
AcDbEntity
  8
0
100
AcDbCircle
 10
1103.635395613223
 20
18.84395582033812
 30
0.0
 40
8.000000000000227
100
AcDbArc
 50
103.370675639044
 51
138.1896779860263
  0
ARC
  5
D228
330
1E
100
AcDbEntity
  8
0
100
AcDbCircle
 10
1103.635395613223
 20
18.84395582033824
 30
0.0
 40
11.50000000000022
100
AcDbArc
 50
99.25737248724342
 51
154.8199732206189
  0
ARC
  5
D22A
330
1E
100
AcDbEntity
  8
0
100
AcDbCircle
 10
1103.635395613223
 20
18.84395582033824
 30
0.0
 40
11.50000000000022
100
AcDbArc
 50
228.492154162669
 51
260.7426275127565
  0
ARC
  5
D22B
330
1E
100
AcDbEntity
  8
0
100
AcDbCircle
 10
1103.635395613223
 20
18.84395582033812
 30
0.0
 40
8.000000000000227
100
AcDbArc
 50
221.8103077775812
 51
256.629324360956
  0
LINE
  5
D22D
330
1E
100
AcDbEntity
  8
中心線
 48
0.27
100
AcDbLine
 10
1285.485395613223
 20
18.84395656103811
 30
0.0
 11
1299.353465616737
 21
18.84395656103811
 31
0.0
  0
ARC
  5
D22E
330
1E
100
AcDbEntity
  8
0
100
AcDbCircle
 10
1283.635395613223
 20
18.84395656103811
 30
0.0
 40
8.000000000000227
100
AcDbArc
 50
283.3706756390423
 51
76.62932436095768
  0
ARC
  5
D22F
330
1E
100
AcDbEntity
  8
0
100
AcDbCircle
 10
1283.635395613223
 20
18.84395656103822
 30
0.0
 40
11.50000000000022
100
AcDbArc
 50
279.2573724872422
 51
80.74262751275773
  0
LINE
  5
D368
330
1E
100
AcDbEntity
  8
虛線
 48
0.27
100
AcDbLine
 10
1152.135395613223
 20
-120.2265651065618
 30
0.0
 11
1140.135395613223
 21
-120.2265651065618
 31
0.0
  0
LINE
  5
D383
330
1E
100
AcDbEntity
  8
虛線
 48
0.27
100
AcDbLine
 10
1235.635395613223
 20
-120.2265651065618
 30
0.0
 11
1235.135395613223
 21
-120.2265651065618
 31
0.0
  0
LINE
  5
D384
330
1E
100
AcDbEntity
  8
虛線
 48
0.27
100
AcDbLine
 10
1234.635395613223
 20
-120.2265651065618
 30
0.0
 11
1236.135395613223
 21
-118.7265651065618
 31
0.0
  0
LINE
  5
D385
330
1E
100
AcDbEntity
  8
虛線
 48
0.27
100
AcDbLine
 10
1234.635395613224
 20
-130.7265341065617
 30
0.0
 11
1234.635395613223
 21
-120.2265651065618
 31
0.0
  0
LINE
  5
D386
330
1E
100
AcDbEntity
  8
虛線
 48
0.27
100
AcDbLine
 10
1235.635395613223
 20
-130.7265341065617
 30
0.0
 11
1235.635395613223
 21
-119.2265651065619
 31
0.0
  0
LINE
  5
D387
330
1E
100
AcDbEntity
  8
虛線
 48
0.27
100
AcDbLine
 10
1235.135395613223
 20
-135.7265651065618
 30
0.0
 11
1235.135395613223
 21
-120.2265651065618
 31
0.0
  0
LINE
  5
D388
330
1E
100
AcDbEntity
  8
虛線
 48
0.27
100
AcDbLine
 10
1234.135395613223
 20
-135.7265651065618
 30
0.0
 11
1234.135395613223
 21
-119.2265651065617
 31
0.0
  0
LINE
  5
D389
330
1E
100
AcDbEntity
  8
虛線
 48
0.27
100
AcDbLine
 10
1235.135395613223
 20
-120.2265651065618
 30
0.0
 11
1233.635395613223
 21
-118.7265651065618
 31
0.0
  0
MTEXT
  5
D49A
330
1E
100
AcDbEntity
  8
0
100
AcDbMText
 10
858.5576294103582
 20
-209.9920603417913
 30
0.0
 40
7.800000159341863
 41
100.6095
 71
     1
 72
     5
  1
\A1;{\fTimes New Roman|b0|i0|c0|p18;RGW55CC\PC : 13300 kgf\PC\fProxy 1|b0|i0|c0|p0;\H0.75x;\S^ 0;\fTimes New Roman|b0|i0|c0|p18;\H1.333x;: 25690 kgf}
 73
     1
 44
1.0
1001
ACAD
1000
MTEXTBEGIN
1070
    73
1070
     1
1070
    44
1040
1.0
1070
    74
1070
     0
1000
MTEXTEND
  0
LINE
  5
DEB5
330
1E
100
AcDbEntity
  8
虛線
 48
0.27
100
AcDbLine
 10
896.346324415747
 20
-142.7265651065618
 30
0.0
 11
874.3463244157492
 21
-142.7265651065618
 31
0.0
  0
LINE
  5
E949
330
1E
100
AcDbEntity
  8
0
  6
Continuous
 62
     7
100
AcDbLine
 10
1111.385395613223
 20
-160.1521964361618
 30
0.0
 11
1111.385395613223
 21
-166.1521964361618
 31
0.0
  0
LINE
  5
EAA1
330
1E
100
AcDbEntity
  8
0
  6
Continuous
 62
     7
100
AcDbLine
 10
1373.635395613223
 20
-145.7265341068116
 30
0.0
 11
1287.122124347222
 21
-145.7265341068103
 31
0.0
  0
LINE
  5
EAA2
330
1E
100
AcDbEntity
  8
0
  6
Continuous
 62
     7
100
AcDbLine
 10
1373.635395613223
 20
-149.6091771693231
 30
0.0
 11
1285.485395613223
 21
-149.6091771693217
 31
0.0
  0
LINE
  5
EAA3
330
1E
100
AcDbEntity
  8
0
  6
Continuous
 62
     7
100
AcDbLine
 10
1373.635395613223
 20
-157.1091771730562
 30
0.0
 11
1285.485395613223
 21
-157.1091771730548
 31
0.0
  0
LINE
  5
EAA4
330
1E
100
AcDbEntity
  8
0
  6
Continuous
 62
     7
100
AcDbLine
 10
1373.635395613223
 20
-169.1952156992941
 30
0.0
 11
1285.485395613223
 21
-169.1952156992927
 31
0.0
  0
LINE
  5
EAA5
330
1E
100
AcDbEntity
  8
0
  6
Continuous
 62
     7
100
AcDbLine
 10
1373.635395613223
 20
-176.695215702494
 30
0.0
 11
1285.485395613223
 21
-176.6952157024926
 31
0.0
  0
LINE
  5
EAA6
330
1E
100
AcDbEntity
  8
0
  6
Continuous
 62
     7
100
AcDbLine
 10
1373.635395613223
 20
-186.7265651065689
 30
0.0
 11
1068.422078712721
 21
-186.7265651065642
 31
0.0
  0
LINE
  5
EAA7
330
1E
100
AcDbEntity
  8
0
  6
Continuous
 62
     7
100
AcDbLine
 10
1101.785395613223
 20
-176.6952157024898
 30
0.0
 11
1066.041467791665
 21
-176.6952157024893
 31
0.0
  0
LINE
  5
EAA9
330
1E
100
AcDbEntity
  8
0
  6
Continuous
 62
     7
100
AcDbLine
 10
1101.785395613223
 20
-169.1952156992899
 30
0.0
 11
1066.024870254242
 21
-169.1952156992894
 31
0.0
  0
LINE
  5
EAAA
330
1E
100
AcDbEntity
  8
0
  6
Continuous
 62
     7
100
AcDbLine
 10
1101.785395613223
 20
-157.109177173052
 30
0.0
 11
1066.52046710748
 21
-157.1091771730515
 31
0.0
  0
LINE
  5
EAAB
330
1E
100
AcDbEntity
  8
0
  6
Continuous
 62
     7
100
AcDbLine
 10
1101.785395613223
 20
-149.6091771693189
 30
0.0
 11
1065.583405702043
 21
-149.6091771693183
 31
0.0
  0
LINE
  5
EAAC
330
1E
100
AcDbEntity
  8
0
  6
Continuous
 62
     7
100
AcDbLine
 10
1100.148666879224
 20
-145.7265341068074
 30
0.0
 11
1067.255152426316
 21
-145.7265341068069
 31
0.0
  0
ENDSEC
  0
SECTION
  2
OBJECTS
  0
DICTIONARY
  5
C
330
0
100
AcDbDictionary
281
     1
  3
ACAD_COLOR
350
3D97
  3
ACAD_GROUP
350
D
  3
ACAD_LAYOUT
350
19
  3
ACAD_MATERIAL
350
3D96
  3
ACAD_MLINESTYLE
350
16
  3
ACAD_PLOTSETTINGS
350
18
  3
ACAD_PLOTSTYLENAME
350
E
  3
ACAD_TABLESTYLE
350
E7A3
  3
ACDBHEADERROUNDTRIPXREC
350
EAD3
  3
AcDbVariableDictionary
350
3E63
  0
DICTIONARY
  5
43C2
330
2
100
AcDbDictionary
280
     1
281
     1
  3
ACAD_LAYERSTATES
360
43C3
  0
DICTIONARY
  5
3D1E
330
1E
100
AcDbDictionary
280
     1
281
     1
  3
ACAD_LAYOUTSELFREF
360
3D92
  3
ACAD_SORTENTS
360
EAA8
  0
DICTIONARY
  5
3D20
330
1A
100
AcDbDictionary
280
     1
281
     1
  3
ACAD_LAYOUTSELFREF
360
3D91
  0
DICTIONARY
  5
69B8
330
69B7
100
AcDbDictionary
280
     1
281
     1
  3
ACAD_SORTENTS
360
69B9
  0
DICTIONARY
  5
69CC
330
69CB
100
AcDbDictionary
280
     1
281
     1
  3
ACAD_SORTENTS
360
69CD
  0
DICTIONARY
  5
3D97
102
{ACAD_REACTORS
330
C
102
}
330
C
100
AcDbDictionary
281
     1
  0
DICTIONARY
  5
D
102
{ACAD_REACTORS
330
C
102
}
330
C
100
AcDbDictionary
281
     1
  3
*A1
350
4143
  3
*A10
350
4378
  3
*A11
350
43BF
  3
*A12
350
423A
  3
*A13
350
414C
  3
*A14
350
579E
  3
*A15
350
4235
  3
*A16
350
437C
  3
*A17
350
414F
  3
*A18
350
437E
  3
*A19
350
4149
  3
*A2
350
4241
  3
*A20
350
4239
  3
*A21
350
4237
  3
*A22
350
423C
  3
*A23
350
43B6
  3
*A24
350
423B
  3
*A25
350
43B8
  3
*A26
350
576A
  3
*A27
350
4240
  3
*A28
350
423E
  3
*A29
350
4374
  3
*A3
350
43BB
  3
*A30
350
4373
  3
*A31
350
43BD
  3
*A32
350
4236
  3
*A33
350
4377
  3
*A34
350
4145
  3
*A35
350
437A
  3
*A36
350
4379
  3
*A37
350
43C1
  3
*A38
350
423D
  3
*A39
350
437D
  3
*A4
350
414D
  3
*A40
350
4146
  3
*A41
350
437F
  3
*A42
350
414B
  3
*A43
350
4375
  3
*A44
350
43B7
  3
*A45
350
414E
  3
*A46
350
43B9
  3
*A47
350
57D9
  3
*A48
350
437B
  3
*A49
350
43BC
  3
*A5
350
4144
  3
*A50
350
43BE
  3
*A51
350
4238
  3
*A52
350
43B5
  3
*A53
350
43C0
  3
*A54
350
4148
  3
*A55
350
423F
  3
*A56
350
43BA
  3
*A6
350
414A
  3
*A7
350
5691
  3
*A8
350
4376
  3
*A9
350
4147
  0
DICTIONARY
  5
19
102
{ACAD_REACTORS
330
C
102
}
330
C
100
AcDbDictionary
281
     1
  3
Model
350
21
  3
配置1
350
1D
  0
DICTIONARY
  5
3D96
102
{ACAD_REACTORS
330
C
102
}
330
C
100
AcDbDictionary
281
     1
  0
DICTIONARY
  5
16
102
{ACAD_REACTORS
330
C
102
}
330
C
100
AcDbDictionary
281
     1
  3
Standard
350
17
  0
DICTIONARY
  5
18
102
{ACAD_REACTORS
330
C
102
}
330
C
100
AcDbDictionary
281
     1
  3
LANSRO
350
4150
  0
ACDBDICTIONARYWDFLT
  5
E
102
{ACAD_REACTORS
330
C
102
}
330
C
100
AcDbDictionary
281
     1
  3
Normal
350
F
100
AcDbDictionaryWithDefault
340
F
  0
DICTIONARY
  5
E7A3
102
{ACAD_REACTORS
330
C
102
}
330
C
100
AcDbDictionary
281
     1
  3
Standard
350
E7A4
  0
DICTIONARY
  5
EAD3
102
{ACAD_REACTORS
330
C
102
}
330
C
100
AcDbDictionary
281
     1
  3
COLORDICT
350
EAD5
  3
MATERIALDICT
350
EAD4
  0
DICTIONARY
  5
3E63
102
{ACAD_REACTORS
330
C
102
}
330
C
100
AcDbDictionary
281
     1
  3
CTABLESTYLE
350
E8F8
  3
DIMASSOC
350
3E64
  3
PROJECTNAME
350
3E65
  0
DICTIONARY
  5
43C3
102
{ACAD_REACTORS
330
43C2
102
}
330
43C2
100
AcDbDictionary
281
     1
  0
XRECORD
  5
3D92
102
{ACAD_REACTORS
330
3D1E
102
}
330
3D1E
100
AcDbXrecord
280
     1
340
1E
  0
SORTENTSTABLE
  5
EAA8
102
{ACAD_REACTORS
330
3D1E
102
}
330
3D1E
100
AcDbSortentsTable
330
1E
331
CDE8
  5
CDE8
331
C48B
  5
C48B
331
D385
  5
D385
331
C3D6
  5
C3D6
331
C415
  5
C415
331
C39F
  5
C39F
331
C44C
  5
C44C
331
C454
  5
C454
331
C493
  5
C493
331
EAA4
  5
EAAB
331
C3DE
  5
C3DE
331
C41D
  5
C41D
331
CE08
  5
CE08
331
C45C
  5
C45C
331
C49B
  5
C49B
331
C425
  5
C425
331
C370
  5
C370
331
C3AF
  5
C3AF
331
C3E6
  5
C3E6
331
EAAC
  5
EAA2
331
C464
  5
C464
331
D1DE
  5
D1DE
331
C3EE
  5
C3EE
331
C4C8
  5
C4C8
331
C5BC
  5
C5BC
331
C50F
  5
C50F
331
C546
  5
C546
331
C5FB
  5
C5FB
331
C4D0
  5
C4D0
331
C689
  5
C689
331
C58D
  5
C58D
331
C691
  5
C691
331
C517
  5
C517
331
C54E
  5
C54E
331
C4D8
  5
C4D8
331
C65A
  5
C65A
331
C595
  5
C595
331
C5CC
  5
C5CC
331
C4E0
  5
C4E0
331
C51F
  5
C51F
331
C556
  5
C556
331
C60B
  5
C60B
331
C55E
  5
C55E
331
C662
  5
C662
331
C378
  5
C378
331
C6C9
  5
C6C9
331
CE68
  5
CE68
331
C3F6
  5
C3F6
331
DEB5
  5
DEB5
331
C380
  5
C380
331
C6D1
  5
C6D1
331
CE70
  5
CE70
331
C3B7
  5
C3B7
331
C46C
  5
C46C
331
C474
  5
C474
331
C3BF
  5
C3BF
331
C3FE
  5
C3FE
331
CE78
  5
CE78
331
C6D9
  5
C6D9
331
C388
  5
C388
331
C43D
  5
C43D
331
D22E
  5
D22E
331
C3C7
  5
C3C7
331
D1AF
  5
D1AF
331
C406
  5
C406
331
C390
  5
C390
331
C445
  5
C445
331
C484
  5
C484
331
C3CF
  5
C3CF
331
C40E
  5
C40E
331
C4A1
  5
C4A1
331
C4E8
  5
C4E8
331
C5DC
  5
C5DC
331
C613
  5
C613
331
C66A
  5
C66A
331
C527
  5
C527
331
C566
  5
C566
331
C4A9
  5
C4A9
331
C4F0
  5
C4F0
331
C59D
  5
C59D
331
C61B
  5
C61B
331
C672
  5
C672
331
C52F
  5
C52F
331
C56E
  5
C56E
331
C4B1
  5
C4B1
331
C4F8
  5
C4F8
331
C5A5
  5
C5A5
331
C5AD
  5
C5AD
331
C5EC
  5
C5EC
331
C500
  5
C500
331
C537
  5
C537
331
C576
  5
C576
331
C623
  5
C623
331
C57E
  5
C57E
331
C682
  5
C682
331
C53F
  5
C53F
331
C398
  5
C398
331
C416
  5
C416
331
C44D
  5
C44D
331
D386
  5
D386
331
C3A0
  5
C3A0
331
C3D7
  5
C3D7
331
C48C
  5
C48C
331
C494
  5
C494
331
EAA5
  5
EAAE
331
C3DF
  5
C3DF
331
D1CF
  5
D1CF
331
A2B9
  5
A2B9
331
C41E
  5
C41E
331
CE09
  5
CE09
331
C455
  5
C455
331
C49C
  5
C49C
331
C3E7
  5
C3E7
331
C371
  5
C371
331
C426
  5
C426
331
C45D
  5
C45D
331
C465
  5
C465
331
C3EF
  5
C3EF
331
D1DF
  5
D1DF
331
C4C9
  5
C4C9
331
C508
  5
C508
331
C5FC
  5
C5FC
331
C586
  5
C586
331
C68A
  5
C68A
331
C4D1
  5
C4D1
331
C510
  5
C510
331
C547
  5
C547
331
C54F
  5
C54F
331
C58E
  5
C58E
331
C692
  5
C692
331
C4D9
  5
C4D9
331
C518
  5
C518
331
C5CD
  5
C5CD
331
C60C
  5
C60C
331
C65B
  5
C65B
331
C557
  5
C557
331
C4E1
  5
C4E1
331
C596
  5
C596
331
C55F
  5
C55F
331
C663
  5
C663
331
C3B0
  5
C3B0
331
D190
  5
D190
331
C379
  5
C379
331
C6CA
  5
C6CA
331
CE69
  5
CE69
331
C46D
  5
C46D
331
C3B8
  5
C3B8
331
C381
  5
C381
331
CE71
  5
CE71
331
D198
  5
D198
331
C3F7
  5
C3F7
331
C475
  5
C475
331
D227
  5
D227
331
C389
  5
C389
331
C3C0
  5
C3C0
331
CE79
  5
CE79
331
C3FF
  5
C3FF
331
C407
  5
C407
331
C43E
  5
C43E
331
D22F
  5
D22F
331
D1B0
  5
D1B0
331
C391
  5
C391
331
C3C8
  5
C3C8
331
C485
  5
C485
331
C40F
  5
C40F
331
C446
  5
C446
331
C520
  5
C520
331
C4A2
  5
C4A2
331
C4E9
  5
C4E9
331
C66B
  5
C66B
331
C4F1
  5
C4F1
331
C528
  5
C528
331
C4AA
  5
C4AA
331
C567
  5
C567
331
C614
  5
C614
331
C61C
  5
C61C
331
C673
  5
C673
331
C56F
  5
C56F
331
C5A6
  5
C5A6
331
C4F9
  5
C4F9
331
C530
  5
C530
331
C5E5
  5
C5E5
331
C5ED
  5
C5ED
331
C624
  5
C624
331
C67B
  5
C67B
331
C538
  5
C538
331
C577
  5
C577
331
C4C2
  5
C4C2
331
C501
  5
C501
331
C5AE
  5
C5AE
331
C57F
  5
C57F
331
C5B6
  5
C5B6
331
C3D0
  5
C3D0
331
D1B8
  5
D1B8
331
C399
  5
C399
331
C44E
  5
C44E
331
C48D
  5
C48D
331
D387
  5
D387
331
C3D8
  5
C3D8
331
C417
  5
C417
331
D171
  5
D171
331
C3A1
  5
C3A1
331
C456
  5
C456
331
C495
  5
C495
331
EAA6
  5
EAB1
331
C3E0
  5
C3E0
331
D1D0
  5
D1D0
331
CE0A
  5
CE0A
331
A2BA
  5
A2BA
331
C41F
  5
C41F
331
C427
  5
C427
331
C45E
  5
C45E
331
C372
  5
C372
331
C3E8
  5
C3E8
331
C49D
  5
C49D
331
C466
  5
C466
331
C540
  5
C540
331
C4CA
  5
C4CA
331
C509
  5
C509
331
C5FD
  5
C5FD
331
C511
  5
C511
331
C548
  5
C548
331
C4D2
  5
C4D2
331
C587
  5
C587
331
C68B
  5
C68B
331
C693
  5
C693
331
C58F
  5
C58F
331
C5C6
  5
C5C6
331
C4DA
  5
C4DA
331
C519
  5
C519
331
C550
  5
C550
331
C605
  5
C605
331
C60D
  5
C60D
331
C65C
  5
C65C
331
C597
  5
C597
331
C4E2
  5
C4E2
331
C558
  5
C558
331
C664
  5
C664
331
C3F0
  5
C3F0
331
D1E0
  5
D1E0
331
C3B1
  5
C3B1
331
C37A
  5
C37A
331
C6CB
  5
C6CB
331
CE6A
  5
CE6A
331
D191
  5
D191
331
C3F8
  5
C3F8
331
D199
  5
D199
331
C382
  5
C382
331
CE72
  5
CE72
331
C3B9
  5
C3B9
331
C46E
  5
C46E
331
C476
  5
C476
331
C400
  5
C400
331
C437
  5
C437
331
C3C1
  5
C3C1
331
CE7A
  5
CE7A
331
C38A
  5
C38A
331
D228
  5
D228
331
C43F
  5
C43F
331
C47E
  5
C47E
331
D368
  5
D368
331
C392
  5
C392
331
C3C9
  5
C3C9
331
C408
  5
C408
331
C447
  5
C447
331
C560
  5
C560
331
C4A3
  5
C4A3
331
C4EA
  5
C4EA
331
C521
  5
C521
331
C66C
  5
C66C
331
C529
  5
C529
331
C568
  5
C568
331
C4AB
  5
C4AB
331
C4F2
  5
C4F2
331
C59F
  5
C59F
331
C5E6
  5
C5E6
331
C531
  5
C531
331
C570
  5
C570
331
C61D
  5
C61D
331
C674
  5
C674
331
C4FA
  5
C4FA
331
C67C
  5
C67C
331
C502
  5
C502
331
C539
  5
C539
331
C4C3
  5
C4C3
331
C578
  5
C578
331
C625
  5
C625
331
C3D1
  5
C3D1
331
C39A
  5
C39A
331
D16A
  5
D16A
331
D1B9
  5
D1B9
331
C410
  5
C410
331
C418
  5
C418
331
C44F
  5
C44F
331
D388
  5
D388
331
C3D9
  5
C3D9
331
D172
  5
D172
331
C496
  5
C496
331
EAA7
  5
EAAF
331
C3E1
  5
C3E1
331
A2BB
  5
A2BB
331
C420
  5
C420
331
CE0B
  5
CE0B
331
C457
  5
C457
331
C3E9
  5
C3E9
331
C49E
  5
C49E
331
C373
  5
C373
331
CE63
  5
CE63
331
C467
  5
C467
331
C4CB
  5
C4CB
331
C50A
  5
C50A
331
C541
  5
C541
331
C5FE
  5
C5FE
331
C549
  5
C549
331
C588
  5
C588
331
C68C
  5
C68C
331
C4D3
  5
C4D3
331
C512
  5
C512
331
C606
  5
C606
331
C551
  5
C551
331
C590
  5
C590
331
C4DB
  5
C4DB
331
C51A
  5
C51A
331
C559
  5
C559
331
C60E
  5
C60E
331
C65D
  5
C65D
331
C4E3
  5
C4E3
331
C5D7
  5
C5D7
331
C665
  5
C665
331
C3F1
  5
C3F1
331
C3B2
  5
C3B2
331
D192
  5
D192
331
D1E1
  5
D1E1
331
CE6B
  5
CE6B
331
C6CC
  5
C6CC
331
C37B
  5
C37B
331
C428
  5
C428
331
C46F
  5
C46F
331
C3BA
  5
C3BA
331
C383
  5
C383
331
CE73
  5
CE73
331
D19A
  5
D19A
331
C3F9
  5
C3F9
331
C401
  5
C401
331
C438
  5
C438
331
C38B
  5
C38B
331
C3C2
  5
C3C2
331
C477
  5
C477
331
CE7B
  5
CE7B
331
C409
  5
C409
331
C440
  5
C440
331
D1B2
  5
D1B2
331
C393
  5
C393
331
C3CA
  5
C3CA
331
C47F
  5
C47F
331
D163
  5
D163
331
C598
  5
C598
331
C4EB
  5
C4EB
331
C522
  5
C522
331
C4A4
  5
C4A4
331
C561
  5
C561
331
C616
  5
C616
331
C66D
  5
C66D
331
C5A0
  5
C5A0
331
C4F3
  5
C4F3
331
C52A
  5
C52A
331
C4AC
  5
C4AC
331
C569
  5
C569
331
C61E
  5
C61E
331
C675
  5
C675
331
C571
  5
C571
331
C4FB
  5
C4FB
331
C532
  5
C532
331
C5E7
  5
C5E7
331
C53A
  5
C53A
331
C579
  5
C579
331
C67D
  5
C67D
331
C4C4
  5
C4C4
331
C503
  5
C503
331
C62E
  5
C62E
331
C3D2
  5
C3D2
331
D1BA
  5
D1BA
331
C411
  5
C411
331
C39B
  5
C39B
331
C448
  5
C448
331
C450
  5
C450
331
D389
  5
D389
331
C3DA
  5
C3DA
331
C419
  5
C419
331
C458
  5
C458
331
C497
  5
C497
331
C3E2
  5
C3E2
331
CE0C
  5
CE0C
331
A2BC
  5
A2BC
331
C421
  5
C421
331
D1DA
  5
D1DA
331
C374
  5
C374
331
CE64
  5
CE64
331
C3EA
  5
C3EA
331
C49F
  5
C49F
331
C5B8
  5
C5B8
331
C542
  5
C542
331
C581
  5
C581
331
C4CC
  5
C4CC
331
C50B
  5
C50B
331
C68D
  5
C68D
331
C63E
  5
C63E
331
C5C0
  5
C5C0
331
C5FF
  5
C5FF
331
C513
  5
C513
331
C54A
  5
C54A
331
C4D4
  5
C4D4
331
C589
  5
C589
331
C591
  5
C591
331
C5C8
  5
C5C8
331
C4DC
  5
C4DC
331
C51B
  5
C51B
331
C552
  5
C552
331
C55A
  5
C55A
331
C65E
  5
C65E
331
C4E4
  5
C4E4
331
C666
  5
C666
331
C3F2
  5
C3F2
331
C37C
  5
C37C
331
C6CD
  5
C6CD
331
CE6C
  5
CE6C
331
C3B3
  5
C3B3
331
C468
  5
C468
331
C470
  5
C470
331
C3FA
  5
C3FA
331
C384
  5
C384
331
CE74
  5
CE74
331
C3BB
  5
C3BB
331
C478
  5
C478
331
C402
  5
C402
331
C439
  5
C439
331
C3C3
  5
C3C3
331
CE7C
  5
CE7C
331
C38C
  5
C38C
331
D22A
  5
D22A
331
C441
  5
C441
331
E949
  5
E949
331
C3CB
  5
C3CB
331
C394
  5
C394
331
D164
  5
D164
331
D1B3
  5
D1B3
331
C40A
  5
C40A
331
C562
  5
C562
331
C599
  5
C599
331
C4A5
  5
C4A5
331
C4EC
  5
C4EC
331
C523
  5
C523
331
C5E0
  5
C5E0
331
C52B
  5
C52B
331
C56A
  5
C56A
331
C617
  5
C617
331
C66E
  5
C66E
331
C4F4
  5
C4F4
331
C5A9
  5
C5A9
331
C5E8
  5
C5E8
331
C4FC
  5
C4FC
331
C533
  5
C533
331
C572
  5
C572
331
C61F
  5
C61F
331
C676
  5
C676
331
C627
  5
C627
331
C67E
  5
C67E
331
C5B1
  5
C5B1
331
C504
  5
C504
331
C53B
  5
C53B
331
C4C5
  5
C4C5
331
C57A
  5
C57A
331
C62F
  5
C62F
331
C412
  5
C412
331
C449
  5
C449
331
C3D3
  5
C3D3
331
C39C
  5
C39C
331
D1BB
  5
D1BB
331
EAA1
  5
EAA1
331
C41A
  5
C41A
331
C451
  5
C451
331
C3DB
  5
C3DB
331
C498
  5
C498
331
EAA9
  5
EAAC
331
C422
  5
C422
331
C459
  5
C459
331
C3E3
  5
C3E3
331
CE0D
  5
CE0D
331
D49A
  5
D49A
331
C461
  5
C461
331
C3EB
  5
C3EB
331
D1DB
  5
D1DB
331
C375
  5
C375
331
CE65
  5
CE65
331
C582
  5
C582
331
C4CD
  5
C4CD
331
C50C
  5
C50C
331
C543
  5
C543
331
C5F8
  5
C5F8
331
C68E
  5
C68E
331
C63F
  5
C63F
331
C54B
  5
C54B
331
C58A
  5
C58A
331
C4D5
  5
C4D5
331
C514
  5
C514
331
C5C1
  5
C5C1
331
C608
  5
C608
331
C553
  5
C553
331
C592
  5
C592
331
C4DD
  5
C4DD
331
C51C
  5
C51C
331
C6C6
  5
C6C6
331
C5D1
  5
C5D1
331
C55B
  5
C55B
331
C65F
  5
C65F
331
C4E5
  5
C4E5
331
C667
  5
C667
331
C469
  5
C469
331
C3B4
  5
C3B4
331
D194
  5
D194
331
C3F3
  5
C3F3
331
CE6D
  5
CE6D
331
C6CE
  5
C6CE
331
C37D
  5
C37D
331
C471
  5
C471
331
C385
  5
C385
331
CE75
  5
CE75
331
C3BC
  5
C3BC
331
C3FB
  5
C3FB
331
C6D6
  5
C6D6
331
C403
  5
C403
331
C43A
  5
C43A
331
D22B
  5
D22B
331
C38D
  5
C38D
331
C3C4
  5
C3C4
331
C40B
  5
C40B
331
C442
  5
C442
331
D1B4
  5
D1B4
331
D165
  5
D165
331
C395
  5
C395
331
C3CC
  5
C3CC
331
C59A
  5
C59A
331
C5D9
  5
C5D9
331
C4ED
  5
C4ED
331
C524
  5
C524
331
C4A6
  5
C4A6
331
C563
  5
C563
331
C610
  5
C610
331
C618
  5
C618
331
C66F
  5
C66F
331
C56B
  5
C56B
331
C4F5
  5
C4F5
331
C52C
  5
C52C
331
C5E1
  5
C5E1
331
C4AE
  5
C4AE
331
C573
  5
C573
331
C620
  5
C620
331
C4FD
  5
C4FD
331
C534
  5
C534
331
C5F1
  5
C5F1
331
C67F
  5
C67F
331
C53C
  5
C53C
331
C57B
  5
C57B
331
C4C6
  5
C4C6
331
C505
  5
C505
331
C5B2
  5
C5B2
331
C687
  5
C687
331
C413
  5
C413
331
C44A
  5
C44A
331
C3D4
  5
C3D4
331
C39D
  5
C39D
331
D383
  5
D383
331
C452
  5
C452
331
EAA2
  5
EAA4
331
C3DC
  5
C3DC
331
C41B
  5
C41B
331
C45A
  5
C45A
331
C499
  5
C499
331
C423
  5
C423
331
C3E4
  5
C3E4
331
CE0E
  5
CE0E
331
D18D
  5
D18D
331
EAAA
  5
EAA9
331
C462
  5
C462
331
D1DC
  5
D1DC
331
C376
  5
C376
331
CE66
  5
CE66
331
C3EC
  5
C3EC
331
C5BA
  5
C5BA
331
C5F9
  5
C5F9
331
C50D
  5
C50D
331
C544
  5
C544
331
C4CE
  5
C4CE
331
C583
  5
C583
331
C68F
  5
C68F
331
C640
  5
C640
331
C515
  5
C515
331
C54C
  5
C54C
331
C4D6
  5
C4D6
331
C58B
  5
C58B
331
C593
  5
C593
331
C4DE
  5
C4DE
331
C51D
  5
C51D
331
C554
  5
C554
331
C609
  5
C609
331
C658
  5
C658
331
C6C7
  5
C6C7
331
C55C
  5
C55C
331
C660
  5
C660
331
C4E6
  5
C4E6
331
C3F4
  5
C3F4
331
C3B5
  5
C3B5
331
C46A
  5
C46A
331
C37E
  5
C37E
331
C6CF
  5
C6CF
331
CE6E
  5
CE6E
331
D195
  5
D195
331
C472
  5
C472
331
C3BD
  5
C3BD
331
C3FC
  5
C3FC
331
C386
  5
C386
331
C6D7
  5
C6D7
331
CE76
  5
CE76
331
C47A
  5
C47A
331
C3C5
  5
C3C5
331
C404
  5
C404
331
C38E
  5
C38E
331
C43B
  5
C43B
331
C443
  5
C443
331
C482
  5
C482
331
C396
  5
C396
331
C3CD
  5
C3CD
331
D166
  5
D166
331
C40C
  5
C40C
331
C668
  5
C668
331
C564
  5
C564
331
C59B
  5
C59B
331
C4A7
  5
C4A7
331
C4EE
  5
C4EE
331
C525
  5
C525
331
C619
  5
C619
331
C670
  5
C670
331
C52D
  5
C52D
331
C56C
  5
C56C
331
C4AF
  5
C4AF
331
C4F6
  5
C4F6
331
C5A3
  5
C5A3
331
C5AB
  5
C5AB
331
C4FE
  5
C4FE
331
C535
  5
C535
331
C574
  5
C574
331
C621
  5
C621
331
C680
  5
C680
331
C506
  5
C506
331
C53D
  5
C53D
331
C4C7
  5
C4C7
331
C414
  5
C414
331
C44B
  5
C44B
331
D384
  5
D384
331
C39E
  5
C39E
331
C3D5
  5
C3D5
331
C48A
  5
C48A
331
C492
  5
C492
331
EAA3
  5
EAA7
331
C41C
  5
C41C
331
C453
  5
C453
331
CE07
  5
CE07
331
C3DD
  5
C3DD
331
C49A
  5
C49A
331
EAAB
  5
EAA5
331
C3E5
  5
C3E5
331
D18E
  5
D18E
331
C424
  5
C424
331
C463
  5
C463
331
C3ED
  5
C3ED
331
D1DD
  5
D1DD
331
C377
  5
C377
331
CE67
  5
CE67
331
C688
  5
C688
331
C584
  5
C584
331
C5BB
  5
C5BB
331
C4CF
  5
C4CF
331
C50E
  5
C50E
331
C545
  5
C545
331
C5FA
  5
C5FA
331
C690
  5
C690
331
C602
  5
C602
331
C54D
  5
C54D
331
C58C
  5
C58C
331
C641
  5
C641
331
C4D7
  5
C4D7
331
C516
  5
C516
331
C5CB
  5
C5CB
331
C60A
  5
C60A
331
C659
  5
C659
331
C51E
  5
C51E
331
C555
  5
C555
331
C4DF
  5
C4DF
331
C594
  5
C594
331
C55D
  5
C55D
331
C661
  5
C661
331
C4E7
  5
C4E7
331
C6C8
  5
C6C8
331
C46B
  5
C46B
331
C3B6
  5
C3B6
331
D196
  5
D196
331
C3F5
  5
C3F5
331
CE6F
  5
CE6F
331
C6D0
  5
C6D0
331
C37F
  5
C37F
331
C473
  5
C473
331
D225
  5
D225
331
C387
  5
C387
331
C6D8
  5
C6D8
331
CE77
  5
CE77
331
C3BE
  5
C3BE
331
C3FD
  5
C3FD
331
C405
  5
C405
331
C43C
  5
C43C
331
D22D
  5
D22D
331
C3C6
  5
C3C6
331
C47B
  5
C47B
331
C38F
  5
C38F
331
D1AE
  5
D1AE
331
C483
  5
C483
331
C3CE
  5
C3CE
331
D1B6
  5
D1B6
331
C40D
  5
C40D
331
C397
  5
C397
331
C444
  5
C444
331
C4A0
  5
C4A0
331
C59C
  5
C59C
331
C4EF
  5
C4EF
331
C526
  5
C526
331
C4A8
  5
C4A8
331
C565
  5
C565
331
C669
  5
C669
331
C56D
  5
C56D
331
C61A
  5
C61A
331
C671
  5
C671
331
C4B0
  5
C4B0
331
C4F7
  5
C4F7
331
C52E
  5
C52E
331
C622
  5
C622
331
C575
  5
C575
331
C5AC
  5
C5AC
331
C4FF
  5
C4FF
331
C536
  5
C536
331
C5F3
  5
C5F3
331
C53E
  5
C53E
331
C57D
  5
C57D
331
C681
  5
C681
331
C507
  5
C507
  0
XRECORD
  5
3D91
102
{ACAD_REACTORS
330
3D20
102
}
330
3D20
100
AcDbXrecord
280
     1
340
1A
  0
SORTENTSTABLE
  5
69B9
102
{ACAD_REACTORS
330
69B8
102
}
330
69B8
100
AcDbSortentsTable
330
69B7
  0
SORTENTSTABLE
  5
69CD
102
{ACAD_REACTORS
330
69CC
102
}
330
69CC
100
AcDbSortentsTable
330
69CB
  0
GROUP
  5
4143
102
{ACAD_REACTORS
330
D
102
}
330
D
100
AcDbGroup
300

 70
     1
 71
     1
  0
GROUP
  5
4378
102
{ACAD_REACTORS
330
D
102
}
330
D
100
AcDbGroup
300

 70
     1
 71
     1
  0
GROUP
  5
43BF
102
{ACAD_REACTORS
330
D
102
}
330
D
100
AcDbGroup
300

 70
     1
 71
     1
  0
GROUP
  5
423A
102
{ACAD_REACTORS
330
D
102
}
330
D
100
AcDbGroup
300

 70
     1
 71
     1
  0
GROUP
  5
414C
102
{ACAD_REACTORS
330
D
102
}
330
D
100
AcDbGroup
300

 70
     1
 71
     1
  0
GROUP
  5
579E
102
{ACAD_REACTORS
330
D
102
}
330
D
100
AcDbGroup
300

 70
     1
 71
     1
  0
GROUP
  5
4235
102
{ACAD_REACTORS
330
D
102
}
330
D
100
AcDbGroup
300

 70
     1
 71
     1
  0
GROUP
  5
437C
102
{ACAD_REACTORS
330
D
102
}
330
D
100
AcDbGroup
300

 70
     1
 71
     1
  0
GROUP
  5
414F
102
{ACAD_REACTORS
330
D
102
}
330
D
100
AcDbGroup
300

 70
     1
 71
     1
  0
GROUP
  5
437E
102
{ACAD_REACTORS
330
D
102
}
330
D
100
AcDbGroup
300

 70
     1
 71
     1
  0
GROUP
  5
4149
102
{ACAD_REACTORS
330
D
102
}
330
D
100
AcDbGroup
300

 70
     1
 71
     1
  0
GROUP
  5
4241
102
{ACAD_REACTORS
330
D
102
}
330
D
100
AcDbGroup
300

 70
     1
 71
     1
  0
GROUP
  5
4239
102
{ACAD_REACTORS
330
D
102
}
330
D
100
AcDbGroup
300

 70
     1
 71
     1
  0
GROUP
  5
4237
102
{ACAD_REACTORS
330
D
102
}
330
D
100
AcDbGroup
300

 70
     1
 71
     1
  0
GROUP
  5
423C
102
{ACAD_REACTORS
330
D
102
}
330
D
100
AcDbGroup
300

 70
     1
 71
     1
  0
GROUP
  5
43B6
102
{ACAD_REACTORS
330
D
102
}
330
D
100
AcDbGroup
300

 70
     1
 71
     1
  0
GROUP
  5
423B
102
{ACAD_REACTORS
330
D
102
}
330
D
100
AcDbGroup
300

 70
     1
 71
     1
  0
GROUP
  5
43B8
102
{ACAD_REACTORS
330
D
102
}
330
D
100
AcDbGroup
300

 70
     1
 71
     1
  0
GROUP
  5
576A
102
{ACAD_REACTORS
330
D
102
}
330
D
100
AcDbGroup
300

 70
     1
 71
     1
  0
GROUP
  5
4240
102
{ACAD_REACTORS
330
D
102
}
330
D
100
AcDbGroup
300

 70
     1
 71
     1
  0
GROUP
  5
423E
102
{ACAD_REACTORS
330
D
102
}
330
D
100
AcDbGroup
300

 70
     1
 71
     1
  0
GROUP
  5
4374
102
{ACAD_REACTORS
330
D
102
}
330
D
100
AcDbGroup
300

 70
     1
 71
     1
  0
GROUP
  5
43BB
102
{ACAD_REACTORS
330
D
102
}
330
D
100
AcDbGroup
300

 70
     1
 71
     1
  0
GROUP
  5
4373
102
{ACAD_REACTORS
330
D
102
}
330
D
100
AcDbGroup
300

 70
     1
 71
     1
  0
GROUP
  5
43BD
102
{ACAD_REACTORS
330
D
102
}
330
D
100
AcDbGroup
300

 70
     1
 71
     1
  0
GROUP
  5
4236
102
{ACAD_REACTORS
330
D
102
}
330
D
100
AcDbGroup
300

 70
     1
 71
     1
  0
GROUP
  5
4377
102
{ACAD_REACTORS
330
D
102
}
330
D
100
AcDbGroup
300

 70
     1
 71
     1
  0
GROUP
  5
4145
102
{ACAD_REACTORS
330
D
102
}
330
D
100
AcDbGroup
300

 70
     1
 71
     1
  0
GROUP
  5
437A
102
{ACAD_REACTORS
330
D
102
}
330
D
100
AcDbGroup
300

 70
     1
 71
     1
  0
GROUP
  5
4379
102
{ACAD_REACTORS
330
D
102
}
330
D
100
AcDbGroup
300

 70
     1
 71
     1
  0
GROUP
  5
43C1
102
{ACAD_REACTORS
330
D
102
}
330
D
100
AcDbGroup
300

 70
     1
 71
     1
  0
GROUP
  5
423D
102
{ACAD_REACTORS
330
D
102
}
330
D
100
AcDbGroup
300

 70
     1
 71
     1
  0
GROUP
  5
437D
102
{ACAD_REACTORS
330
D
102
}
330
D
100
AcDbGroup
300

 70
     1
 71
     1
  0
GROUP
  5
414D
102
{ACAD_REACTORS
330
D
102
}
330
D
100
AcDbGroup
300

 70
     1
 71
     1
  0
GROUP
  5
4146
102
{ACAD_REACTORS
330
D
102
}
330
D
100
AcDbGroup
300

 70
     1
 71
     1
  0
GROUP
  5
437F
102
{ACAD_REACTORS
330
D
102
}
330
D
100
AcDbGroup
300

 70
     1
 71
     1
  0
GROUP
  5
414B
102
{ACAD_REACTORS
330
D
102
}
330
D
100
AcDbGroup
300

 70
     1
 71
     1
  0
GROUP
  5
4375
102
{ACAD_REACTORS
330
D
102
}
330
D
100
AcDbGroup
300

 70
     1
 71
     1
  0
GROUP
  5
43B7
102
{ACAD_REACTORS
330
D
102
}
330
D
100
AcDbGroup
300

 70
     1
 71
     1
  0
GROUP
  5
414E
102
{ACAD_REACTORS
330
D
102
}
330
D
100
AcDbGroup
300

 70
     1
 71
     1
  0
GROUP
  5
43B9
102
{ACAD_REACTORS
330
D
102
}
330
D
100
AcDbGroup
300

 70
     1
 71
     1
  0
GROUP
  5
57D9
102
{ACAD_REACTORS
330
D
102
}
330
D
100
AcDbGroup
300

 70
     1
 71
     1
  0
GROUP
  5
437B
102
{ACAD_REACTORS
330
D
102
}
330
D
100
AcDbGroup
300

 70
     1
 71
     1
  0
GROUP
  5
43BC
102
{ACAD_REACTORS
330
D
102
}
330
D
100
AcDbGroup
300

 70
     1
 71
     1
  0
GROUP
  5
4144
102
{ACAD_REACTORS
330
D
102
}
330
D
100
AcDbGroup
300

 70
     1
 71
     1
  0
GROUP
  5
43BE
102
{ACAD_REACTORS
330
D
102
}
330
D
100
AcDbGroup
300

 70
     1
 71
     1
  0
GROUP
  5
4238
102
{ACAD_REACTORS
330
D
102
}
330
D
100
AcDbGroup
300

 70
     1
 71
     1
  0
GROUP
  5
43B5
102
{ACAD_REACTORS
330
D
102
}
330
D
100
AcDbGroup
300

 70
     1
 71
     1
  0
GROUP
  5
43C0
102
{ACAD_REACTORS
330
D
102
}
330
D
100
AcDbGroup
300

 70
     1
 71
     1
  0
GROUP
  5
4148
102
{ACAD_REACTORS
330
D
102
}
330
D
100
AcDbGroup
300

 70
     1
 71
     1
  0
GROUP
  5
423F
102
{ACAD_REACTORS
330
D
102
}
330
D
100
AcDbGroup
300

 70
     1
 71
     1
  0
GROUP
  5
43BA
102
{ACAD_REACTORS
330
D
102
}
330
D
100
AcDbGroup
300

 70
     1
 71
     1
  0
GROUP
  5
414A
102
{ACAD_REACTORS
330
D
102
}
330
D
100
AcDbGroup
300

 70
     1
 71
     1
  0
GROUP
  5
5691
102
{ACAD_REACTORS
330
D
102
}
330
D
100
AcDbGroup
300

 70
     1
 71
     1
  0
GROUP
  5
4376
102
{ACAD_REACTORS
330
D
102
}
330
D
100
AcDbGroup
300

 70
     1
 71
     1
  0
GROUP
  5
4147
102
{ACAD_REACTORS
330
D
102
}
330
D
100
AcDbGroup
300

 70
     1
 71
     1
  0
LAYOUT
  5
21
102
{ACAD_XDICTIONARY
360
EAD8
102
}
102
{ACAD_REACTORS
330
19
102
}
330
19
100
AcDbPlotSettings
  1

  2
HP 2200
  4

  6

 40
0.0
 41
0.0
 42
0.0
 43
0.0
 44
0.0
 45
0.0
 46
0.0
 47
0.0
 48
0.0
 49
0.0
140
0.0
141
0.0
142
1.0
143
1.0
 70
  1712
 72
     0
 73
     0
 74
     0
  7
AAA.ctb
 75
     0
147
1.0
148
0.0
149
0.0
100
AcDbLayout
  1
Model
 70
     1
 71
     0
 10
0.0
 20
0.0
 11
12.0
 21
9.0
 12
0.0
 22
0.0
 32
0.0
 14
0.0
 24
0.0
 34
0.0
 15
0.0
 25
0.0
 35
0.0
146
0.0
 13
0.0
 23
0.0
 33
0.0
 16
1.0
 26
0.0
 36
0.0
 17
0.0
 27
1.0
 37
0.0
 76
     0
330
1E
  0
LAYOUT
  5
1D
102
{ACAD_XDICTIONARY
360
EAD6
102
}
102
{ACAD_REACTORS
330
19
102
}
330
19
100
AcDbPlotSettings
  1

  2
HP 2200
  4

  6

 40
0.0
 41
0.0
 42
0.0
 43
0.0
 44
0.0
 45
0.0
 46
0.0
 47
0.0
 48
0.0
 49
0.0
140
0.0
141
0.0
142
1.0
143
1.0
 70
   688
 72
     0
 73
     0
 74
     5
  7
AAA.ctb
 75
    16
147
1.0
148
0.0
149
0.0
100
AcDbLayout
  1
配置1
 70
     0
 71
     1
 10
0.0
 20
0.0
 11
12.0
 21
9.0
 12
0.0
 22
0.0
 32
0.0
 14
1.000000000000000E+20
 24
1.000000000000000E+20
 34
1.000000000000000E+20
 15
-1.000000000000000E+20
 25
-1.000000000000000E+20
 35
-1.000000000000000E+20
146
0.0
 13
0.0
 23
0.0
 33
0.0
 16
1.0
 26
0.0
 36
0.0
 17
0.0
 27
1.0
 37
0.0
 76
     0
330
1A
  0
MLINESTYLE
  5
17
102
{ACAD_REACTORS
330
16
102
}
330
16
100
AcDbMlineStyle
  2
STANDARD
 70
     0
  3

 62
   256
 51
90.0
 52
90.0
 71
     2
 49
0.5
 62
   256
  6
BYLAYER
 49
-0.5
 62
   256
  6
BYLAYER
  0
PLOTSETTINGS
  5
4150
102
{ACAD_XDICTIONARY
360
EADA
102
}
102
{ACAD_REACTORS
330
18
102
}
330
18
100
AcDbPlotSettings
  1
LANSRO
  2
\\1260\HP2200
  4
A4
  6

 40
6.043083190917968
 41
6.762742042541503
 42
7.736419677734375
 43
5.027069091796875
 44
209.9733276367187
 45
296.9683227539062
 46
5.15
 47
0.0
 48
0.0
 49
0.0
140
0.0
141
0.0
142
1.0
143
0.8829829263240881
 70
  1716
 72
     1
 73
     1
 74
     0
  7
AAA.ctb
 75
     0
147
1.132524729739748
148
-132.297014905803
149
-71.78507365635891
  0
ACDBPLACEHOLDER
  5
F
102
{ACAD_REACTORS
330
E
102
}
330
E
  0
ACAD_PROXY_OBJECT
  5
E7A4
102
{ACAD_REACTORS
330
E7A3
102
}
330
E7A3
100
AcDbProxyObject
 90
      499
 91
      514
 95
   983063
 70
     0
 93
     1841
310
4214DD185B99185C9928B81E85EB51B8AE3F2E07A17AD46E2B8FC02B5E8DC0F42B1CFD028000000C1008070000C3001FDFF8000000C1003FBFF000000182007F7FE00000030400FEFFC00000060801FDFF8000000C1003FBFF00000018200000000000000681FA0B0000001820100E000186003FBFF000000182007F7FE000
310
00030400FEFFC00000060801FDFF8000000C1003FBFF000000182007F7FE000000304000AD7A3703D0AC73F4160000003040201C00030C007F7FE00000030400FEFFC00000060801FDFF8000000C1003FBFF000000182007F7FE00000030400FEFFC000000608045
340
11
340
11
340
11
 94
        0
1001
ACAD
1000
AcRTDxfName
1000
TABLESTYLE
  0
XRECORD
  5
EAD5
102
{ACAD_REACTORS
330
EAD3
102
}
330
EAD3
100
AcDbXrecord
280
     1
340
3D97
  0
XRECORD
  5
EAD4
102
{ACAD_REACTORS
330
EAD3
102
}
330
EAD3
100
AcDbXrecord
280
     1
340
3D96
  0
DICTIONARYVAR
  5
E8F8
102
{ACAD_REACTORS
330
3E63
102
}
330
3E63
100
DictionaryVariables
280
     0
  1
STANDARD
  0
DICTIONARYVAR
  5
3E64
102
{ACAD_REACTORS
330
3E63
102
}
330
3E63
100
DictionaryVariables
280
     0
  1
1
  0
DICTIONARYVAR
  5
3E65
102
{ACAD_REACTORS
330
3E63
102
}
330
3E63
100
DictionaryVariables
280
     0
  1

  0
DICTIONARY
  5
EAD8
330
21
100
AcDbDictionary
280
     1
281
     1
  3
ACAD_XREC_ROUNDTRIP
360
EAD9
  0
DICTIONARY
  5
EAD6
330
1D
100
AcDbDictionary
280
     1
281
     1
  3
ACAD_XREC_ROUNDTRIP
360
EAD7
  0
DICTIONARY
  5
EADA
330
4150
100
AcDbDictionary
280
     1
281
     1
  3
ACAD_XREC_ROUNDTRIP
360
EADB
  0
XRECORD
  5
EAD9
102
{ACAD_REACTORS
330
EAD8
102
}
330
EAD8
100
AcDbXrecord
280
     1
102
SHADEPLOT
 70
     0
102
SHADEPLOTRESLEVEL
 70
     2
102
SHADEPLOTCUSTOMDPI
 70
   300
  0
XRECORD
  5
EAD7
102
{ACAD_REACTORS
330
EAD6
102
}
330
EAD6
100
AcDbXrecord
280
     1
102
SHADEPLOT
 70
     0
102
SHADEPLOTRESLEVEL
 70
     2
102
SHADEPLOTCUSTOMDPI
 70
   300
  0
XRECORD
  5
EADB
102
{ACAD_REACTORS
330
EADA
102
}
330
EADA
100
AcDbXrecord
280
     1
102
SHADEPLOT
 70
     0
102
SHADEPLOTRESLEVEL
 70
     2
102
SHADEPLOTCUSTOMDPI
 70
   300
  0
ENDSEC
  0
EOF
