  0
SECTION
  2
HEADER
  9
$ACADVER
  1
AC1015
  9
$ACADMAINTVER
 70
    20
  9
$DWGCODEPAGE
  3
ANSI_950
  9
$INSBASE
 10
0.0
 20
0.0
 30
0.0
  9
$EXTMIN
 10
1935.9356481212
 20
-368.2910223398299
 30
0.0
  9
$EXTMAX
 10
2607.412532196853
 20
9.900281235879731
 30
0.0
  9
$LIMMIN
 10
-10.0
 20
-15.0
  9
$LIMMAX
 10
120.0
 20
90.0
  9
$ORTHOMODE
 70
     1
  9
$REGENMODE
 70
     0
  9
$FILLMODE
 70
     1
  9
$QTEXTMODE
 70
     0
  9
$MIRRTEXT
 70
     0
  9
$LTSCALE
 40
3.0
  9
$ATTMODE
 70
     1
  9
$TEXTSIZE
 40
3.0
  9
$TRACEWID
 40
1.0
  9
$TEXTSTYLE
  7
STANDARD
  9
$CLAYER
  8
0
  9
$CELTYPE
  6
ByLayer
  9
$CECOLOR
 62
   256
  9
$CELTSCALE
 40
1.0
  9
$DISPSILH
 70
     0
  9
$DIMSCALE
 40
1.0
  9
$DIMASZ
 40
3.0
  9
$DIMEXO
 40
1.0
  9
$DIMDLI
 40
6.0
  9
$DIMRND
 40
0.0
  9
$DIMDLE
 40
0.0
  9
$DIMEXE
 40
1.0
  9
$DIMTP
 40
0.0
  9
$DIMTM
 40
0.0
  9
$DIMTXT
 40
3.0
  9
$DIMCEN
 40
1.5
  9
$DIMTSZ
 40
0.0
  9
$DIMTOL
 70
     0
  9
$DIMLIM
 70
     0
  9
$DIMTIH
 70
     1
  9
$DIMTOH
 70
     1
  9
$DIMSE1
 70
     0
  9
$DIMSE2
 70
     0
  9
$DIMTAD
 70
     0
  9
$DIMZIN
 70
     0
  9
$DIMBLK
  1

  9
$DIMASO
 70
     1
  9
$DIMSHO
 70
     0
  9
$DIMPOST
  1

  9
$DIMAPOST
  1

  9
$DIMALT
 70
     0
  9
$DIMALTD
 70
     2
  9
$DIMALTF
 40
25.4
  9
$DIMLFAC
 40
1.0
  9
$DIMTOFL
 70
     1
  9
$DIMTVP
 40
0.0
  9
$DIMTIX
 70
     0
  9
$DIMSOXD
 70
     0
  9
$DIMSAH
 70
     0
  9
$DIMBLK1
  1

  9
$DIMBLK2
  1

  9
$DIMSTYLE
  2
Standard
  9
$DIMCLRD
 70
     0
  9
$DIMCLRE
 70
     0
  9
$DIMCLRT
 70
     0
  9
$DIMTFAC
 40
1.0
  9
$DIMGAP
 40
0.09
  9
$DIMJUST
 70
     0
  9
$DIMSD1
 70
     0
  9
$DIMSD2
 70
     0
  9
$DIMTOLJ
 70
     1
  9
$DIMTZIN
 70
     0
  9
$DIMALTZ
 70
     0
  9
$DIMALTTZ
 70
     0
  9
$DIMUPT
 70
     0
  9
$DIMDEC
 70
     4
  9
$DIMTDEC
 70
     8
  9
$DIMALTU
 70
     2
  9
$DIMALTTD
 70
     2
  9
$DIMTXSTY
  7
STANDARD
  9
$DIMAUNIT
 70
     0
  9
$DIMADEC
 70
     0
  9
$DIMALTRND
 40
0.0
  9
$DIMAZIN
 70
     0
  9
$DIMDSEP
 70
    46
  9
$DIMATFIT
 70
     3
  9
$DIMFRAC
 70
     0
  9
$DIMLDRBLK
  1

  9
$DIMLUNIT
 70
     2
  9
$DIMLWD
 70
    -2
  9
$DIMLWE
 70
    -2
  9
$DIMTMOVE
 70
     2
  9
$LUNITS
 70
     2
  9
$LUPREC
 70
     4
  9
$SKETCHINC
 40
0.5
  9
$FILLETRAD
 40
2.0
  9
$AUNITS
 70
     0
  9
$AUPREC
 70
     0
  9
$MENU
  1
ACAD
  9
$ELEVATION
 40
0.0
  9
$PELEVATION
 40
0.0
  9
$THICKNESS
 40
0.0
  9
$LIMCHECK
 70
     0
  9
$CHAMFERA
 40
0.0
  9
$CHAMFERB
 40
0.0
  9
$CHAMFERC
 40
0.0
  9
$CHAMFERD
 40
0.0
  9
$SKPOLY
 70
     0
  9
$TDCREATE
 40
2444975.333333334
  9
$TDUCREATE
 40
2444975.000000000
  9
$TDUPDATE
 40
2454042.480802327
  9
$TDUUPDATE
 40
2454042.147468993
  9
$TDINDWG
 40
0.3984819444
  9
$TDUSRTIMER
 40
0.0000000000
  9
$USRTIMER
 70
     0
  9
$ANGBASE
 50
0.0
  9
$ANGDIR
 70
     0
  9
$PDMODE
 70
     0
  9
$PDSIZE
 40
0.001
  9
$PLINEWID
 40
0.0
  9
$SPLFRAME
 70
     0
  9
$SPLINETYPE
 70
     6
  9
$SPLINESEGS
 70
  8000
  9
$HANDSEED
  5
11AAF
  9
$SURFTAB1
 70
     6
  9
$SURFTAB2
 70
     6
  9
$SURFTYPE
 70
     6
  9
$SURFU
 70
     6
  9
$SURFV
 70
     6
  9
$UCSBASE
  2

  9
$UCSNAME
  2

  9
$UCSORG
 10
0.0
 20
0.0
 30
0.0
  9
$UCSXDIR
 10
1.0
 20
0.0
 30
0.0
  9
$UCSYDIR
 10
0.0
 20
1.0
 30
0.0
  9
$UCSORTHOREF
  2

  9
$UCSORTHOVIEW
 70
     0
  9
$UCSORGTOP
 10
0.0
 20
0.0
 30
0.0
  9
$UCSORGBOTTOM
 10
0.0
 20
0.0
 30
0.0
  9
$UCSORGLEFT
 10
0.0
 20
0.0
 30
0.0
  9
$UCSORGRIGHT
 10
0.0
 20
0.0
 30
0.0
  9
$UCSORGFRONT
 10
0.0
 20
0.0
 30
0.0
  9
$UCSORGBACK
 10
0.0
 20
0.0
 30
0.0
  9
$PUCSBASE
  2

  9
$PUCSNAME
  2

  9
$PUCSORG
 10
0.0
 20
0.0
 30
0.0
  9
$PUCSXDIR
 10
1.0
 20
0.0
 30
0.0
  9
$PUCSYDIR
 10
0.0
 20
1.0
 30
0.0
  9
$PUCSORTHOREF
  2

  9
$PUCSORTHOVIEW
 70
     0
  9
$PUCSORGTOP
 10
0.0
 20
0.0
 30
0.0
  9
$PUCSORGBOTTOM
 10
0.0
 20
0.0
 30
0.0
  9
$PUCSORGLEFT
 10
0.0
 20
0.0
 30
0.0
  9
$PUCSORGRIGHT
 10
0.0
 20
0.0
 30
0.0
  9
$PUCSORGFRONT
 10
0.0
 20
0.0
 30
0.0
  9
$PUCSORGBACK
 10
0.0
 20
0.0
 30
0.0
  9
$USERI1
 70
     0
  9
$USERI2
 70
     0
  9
$USERI3
 70
     0
  9
$USERI4
 70
     0
  9
$USERI5
 70
     0
  9
$USERR1
 40
0.0
  9
$USERR2
 40
0.0
  9
$USERR3
 40
0.0
  9
$USERR4
 40
0.0
  9
$USERR5
 40
0.0
  9
$WORLDVIEW
 70
     1
  9
$SHADEDGE
 70
     3
  9
$SHADEDIF
 70
    70
  9
$TILEMODE
 70
     1
  9
$MAXACTVP
 70
    48
  9
$PINSBASE
 10
0.0
 20
0.0
 30
0.0
  9
$PLIMCHECK
 70
     0
  9
$PEXTMIN
 10
1.000000000000000E+20
 20
1.000000000000000E+20
 30
1.000000000000000E+20
  9
$PEXTMAX
 10
-1.000000000000000E+20
 20
-1.000000000000000E+20
 30
-1.000000000000000E+20
  9
$PLIMMIN
 10
0.0
 20
0.0
  9
$PLIMMAX
 10
12.0
 20
9.0
  9
$UNITMODE
 70
     0
  9
$VISRETAIN
 70
     1
  9
$PLINEGEN
 70
     0
  9
$PSLTSCALE
 70
     0
  9
$TREEDEPTH
 70
  3020
  9
$CMLSTYLE
  2
Standard
  9
$CMLJUST
 70
     0
  9
$CMLSCALE
 40
1.0
  9
$PROXYGRAPHICS
 70
     1
  9
$MEASUREMENT
 70
     0
  9
$CELWEIGHT
370
    -1
  9
$ENDCAPS
280
     0
  9
$JOINSTYLE
280
     0
  9
$LWDISPLAY
290
     0
  9
$INSUNITS
 70
     0
  9
$HYPERLINKBASE
  1

  9
$STYLESHEET
  1

  9
$XEDIT
290
     1
  9
$CEPSNTYPE
380
     0
  9
$PSTYLEMODE
290
     1
  9
$FINGERPRINTGUID
  2
{77095E5F-9CE7-11D7-970D-0040F4541FA8}
  9
$VERSIONGUID
  2
{5B5DA740-BC40-45A0-893E-005D06FC913A}
  9
$EXTNAMES
290
     1
  9
$PSVPSCALE
 40
0.0
  9
$OLESTARTUP
290
     0
  0
ENDSEC
  0
SECTION
  2
CLASSES
  0
CLASS
  1
ACDBDICTIONARYWDFLT
  2
AcDbDictionaryWithDefault
  3
ObjectDBX Classes
 90
        0
280
     0
281
     0
  0
CLASS
  1
ACDBPLACEHOLDER
  2
AcDbPlaceHolder
  3
ObjectDBX Classes
 90
        0
280
     0
281
     0
  0
CLASS
  1
LAYOUT
  2
AcDbLayout
  3
ObjectDBX Classes
 90
        0
280
     0
281
     0
  0
CLASS
  1
LONG_TRANSACTION
  2
AcDbLongTransaction
  3
ObjectDBX Classes
 90
    32768
280
     0
281
     0
  0
CLASS
  1
LWPOLYLINE
  2
AcDbPolyline
  3
ObjectDBX Classes
 90
        0
280
     0
281
     1
  0
CLASS
  1
HATCH
  2
AcDbHatch
  3
ObjectDBX Classes
 90
    32768
280
     0
281
     1
  0
CLASS
  1
XRECORD
  2
AcDbXrecord
  3
ObjectDBX Classes
 90
        0
280
     0
281
     0
  0
CLASS
  1
LONG_TRANSACTION
  2
AcDbLongTransaction
  3
ObjectDBX Classes
 90
    32768
280
     0
281
     0
  0
CLASS
  1
LWPOLYLINE
  2
AcDbPolyline
  3
ObjectDBX Classes
 90
        0
280
     0
281
     1
  0
CLASS
  1
HATCH
  2
AcDbHatch
  3
ObjectDBX Classes
 90
    32768
280
     0
281
     1
  0
CLASS
  1
XRECORD
  2
AcDbXrecord
  3
ObjectDBX Classes
 90
        0
280
     0
281
     0
  0
CLASS
  1
DICTIONARYVAR
  2
AcDbDictionaryVar
  3
ObjectDBX Classes
 90
        0
280
     0
281
     0
  0
CLASS
  1
PLOTSETTINGS
  2
AcDbPlotSettings
  3
ObjectDBX Classes
 90
        0
280
     0
281
     0
  0
CLASS
  1
SORTENTSTABLE
  2
AcDbSortentsTable
  3
ObjectDBX Classes
 90
        0
280
     0
281
     0
  0
CLASS
  1
TABLESTYLE
  2
AcDbTableStyle
  3
ObjectDBX Classes
 90
     2047
280
     0
281
     0
  0
ENDSEC
  0
SECTION
  2
TABLES
  0
TABLE
  2
VPORT
  5
8
330
0
100
AcDbSymbolTable
 70
     6
  0
VPORT
  5
11AA5
330
8
100
AcDbSymbolTableRecord
100
AcDbViewportTableRecord
  2
*Active
 70
     0
 10
0.0
 20
0.0
 11
1.0
 21
1.0
 12
2272.183358834473
 22
-166.4528326390121
 13
457.9999999999997
 23
1082.0
 14
10.0
 24
10.0
 15
10.0
 25
10.0
 16
0.0
 26
0.0
 36
1.0
 17
0.0
 27
0.0
 37
0.0
 40
454.0416948810121
 41
1.530456852791878
 42
1.0
 43
0.0
 44
0.0
 50
0.0
 51
0.0
 71
     0
 72
  2000
 73
     1
 74
     1
 75
     0
 76
     0
 77
     0
 78
     0
281
     0
 65
     1
110
0.0
120
0.0
130
0.0
111
1.0
121
0.0
131
0.0
112
0.0
122
1.0
132
0.0
 79
     0
146
0.0
  0
ENDTAB
  0
TABLE
  2
LTYPE
  5
5
330
0
100
AcDbSymbolTable
 70
     8
  0
LTYPE
  5
13
330
5
100
AcDbSymbolTableRecord
100
AcDbLinetypeTableRecord
  2
ByBlock
 70
     0
  3

 72
    65
 73
     0
 40
0.0
  0
LTYPE
  5
14
330
5
100
AcDbSymbolTableRecord
100
AcDbLinetypeTableRecord
  2
ByLayer
 70
     0
  3

 72
    65
 73
     0
 40
0.0
  0
LTYPE
  5
15
330
5
100
AcDbSymbolTableRecord
100
AcDbLinetypeTableRecord
  2
CONTINUOUS
 70
     0
  3
連續線 ________________________
 72
    65
 73
     0
 40
0.0
  0
LTYPE
  5
225
330
5
100
AcDbSymbolTableRecord
100
AcDbLinetypeTableRecord
  2
BYBLOCK
 70
     0
  3
Solid line
 72
    65
 73
     0
 40
0.0
  0
LTYPE
  5
226
330
5
100
AcDbSymbolTableRecord
100
AcDbLinetypeTableRecord
  2
BYLAYER
 70
     0
  3
Solid line
 72
    65
 73
     0
 40
0.0
  0
LTYPE
  5
413C
330
5
100
AcDbSymbolTableRecord
100
AcDbLinetypeTableRecord
  2
CENTER2
 70
     0
  3
Center (.5x) ___ _ ___ _ ___ _ ___ _ ___ _ ___
 72
    65
 73
     4
 40
28.575
 49
19.05
 74
     0
 49
-3.174999999999999
 74
     0
 49
3.174999999999999
 74
     0
 49
-3.174999999999999
 74
     0
  0
LTYPE
  5
413D
330
5
100
AcDbSymbolTableRecord
100
AcDbLinetypeTableRecord
  2
DASHED2
 70
     0
  3
Dashed (.5x) _ _ _ _ _ _ _ _ _ _ _ _ _ _ _ _ _
 72
    65
 73
     2
 40
9.524999999999998
 49
6.349999999999999
 74
     0
 49
-3.174999999999999
 74
     0
  0
LTYPE
  5
69DC
330
5
100
AcDbSymbolTableRecord
100
AcDbLinetypeTableRecord
  2
DASHED
 70
     0
  3
__ __ __ __ __ __ __ __ __ __ __ __ __ __ __
 72
    65
 73
     2
 40
4.0
 49
3.0
 74
     0
 49
-1.0
 74
     0
  0
LTYPE
  5
F3F9
330
5
100
AcDbSymbolTableRecord
100
AcDbLinetypeTableRecord
  2
CENTER
 70
     0
  3
___ _ ___ _ ___ _ ___ _ ___ _ ___ _ ___ _ ___ _
 72
    65
 73
     4
 40
0.95
 49
0.625
 74
     0
 49
-0.125
 74
     0
 49
0.075
 74
     0
 49
-0.125
 74
     0
  0
LTYPE
  5
10F8A
330
5
100
AcDbSymbolTableRecord
100
AcDbLinetypeTableRecord
  2
PHANTOM2
 70
     0
  3
Phantom (.5x) ___ _ _ ___ _ _ ___ _ _ ___ _ _
 72
    65
 73
     6
 40
31.75
 49
15.875
 74
     0
 49
-3.174999999999999
 74
     0
 49
3.174999999999999
 74
     0
 49
-3.174999999999999
 74
     0
 49
3.174999999999999
 74
     0
 49
-3.174999999999999
 74
     0
  0
ENDTAB
  0
TABLE
  2
LAYER
  5
2
102
{ACAD_XDICTIONARY
360
43C2
102
}
330
0
100
AcDbSymbolTable
 70
     9
  0
LAYER
  5
10
330
2
100
AcDbSymbolTableRecord
100
AcDbLayerTableRecord
  2
0
 70
     0
 62
     7
  6
CONTINUOUS
370
    -3
390
F
  0
LAYER
  5
413E
330
2
100
AcDbSymbolTableRecord
100
AcDbLayerTableRecord
  2
指線
 70
     0
 62
     3
  6
CONTINUOUS
370
    15
390
F
  0
LAYER
  5
413F
330
2
100
AcDbSymbolTableRecord
100
AcDbLayerTableRecord
  2
中心線
 70
     0
 62
     4
  6
CENTER2
370
    20
390
F
  0
LAYER
  5
4140
330
2
100
AcDbSymbolTableRecord
100
AcDbLayerTableRecord
  2
虛線
 70
     0
 62
     6
  6
DASHED2
290
     0
370
    -3
390
F
  0
LAYER
  5
43B4
330
2
100
AcDbSymbolTableRecord
100
AcDbLayerTableRecord
  2
建構線
 70
     0
 62
     1
  6
CONTINUOUS
370
    -3
390
F
  0
LAYER
  5
69DF
330
2
100
AcDbSymbolTableRecord
100
AcDbLayerTableRecord
  2
標註線
 70
     0
 62
     3
  6
CONTINUOUS
370
    13
390
F
  0
LAYER
  5
C701
330
2
100
AcDbSymbolTableRecord
100
AcDbLayerTableRecord
  2
Defpoints
 70
     0
 62
     7
  6
CONTINUOUS
290
     0
370
    -3
390
F
  0
LAYER
  5
10F8B
330
2
100
AcDbSymbolTableRecord
100
AcDbLayerTableRecord
  2
文字
 70
     0
 62
     2
  6
CONTINUOUS
370
    20
390
F
  0
LAYER
  5
10F8C
330
2
100
AcDbSymbolTableRecord
100
AcDbLayerTableRecord
  2
AM8
 70
     0
 62
     1
  6
CONTINUOUS
370
    15
390
F
  0
ENDTAB
  0
TABLE
  2
STYLE
  5
3
330
0
100
AcDbSymbolTable
 70
     2
  0
STYLE
  5
11
330
3
100
AcDbSymbolTableRecord
100
AcDbTextStyleTableRecord
  2
STANDARD
 70
     0
 40
0.0
 41
1.0
 50
0.0
 71
     0
 42
3.0
  3

  4

  0
STYLE
  5
F3FA
330
3
100
AcDbSymbolTableRecord
100
AcDbTextStyleTableRecord
  2
型式2
 70
     0
 40
0.0
 41
1.0
 50
0.0
 71
     0
 42
2.5
  3
KAIU.TTF
  4

1001
ACAD
1000
DFKai-SB
1071
    34881
  0
ENDTAB
  0
TABLE
  2
VIEW
  5
6
330
0
100
AcDbSymbolTable
 70
     0
  0
ENDTAB
  0
TABLE
  2
UCS
  5
7
330
0
100
AcDbSymbolTable
 70
     0
  0
ENDTAB
  0
TABLE
  2
APPID
  5
9
330
0
100
AcDbSymbolTable
 70
     5
  0
APPID
  5
12
330
9
100
AcDbSymbolTableRecord
100
AcDbRegAppTableRecord
  2
ACAD
 70
     0
  0
APPID
  5
230
330
9
100
AcDbSymbolTableRecord
100
AcDbRegAppTableRecord
  2
TCAD
 70
     0
  0
APPID
  5
4142
330
9
100
AcDbSymbolTableRecord
100
AcDbRegAppTableRecord
  2
CONTENTBLOCKICON
 70
     0
  0
APPID
  5
5D91
330
9
100
AcDbSymbolTableRecord
100
AcDbRegAppTableRecord
  2
pntflag
 70
     0
  0
APPID
  5
F3FC
330
9
100
AcDbSymbolTableRecord
100
AcDbRegAppTableRecord
  2
ACAD_PSEXT
 70
     0
  0
ENDTAB
  0
TABLE
  2
DIMSTYLE
  5
A
330
0
100
AcDbSymbolTable
 70
     4
100
AcDbDimStyleTable
 71
     1
340
3C9D
  0
DIMSTYLE
105
3C9D
330
A
100
AcDbSymbolTableRecord
100
AcDbDimStyleTableRecord
  2
Standard
 70
     0
340
11
  0
DIMSTYLE
105
F3FB
330
A
100
AcDbSymbolTableRecord
100
AcDbDimStyleTableRecord
  2
ISO-25
 70
     0
 41
2.5
 42
0.7
 43
3.75
 44
0.7
 73
     0
 74
     0
 77
     1
 78
     8
140
2.6
141
2.5
143
0.03937007874016
147
0.7
171
     3
172
     1
176
   256
177
   256
178
   256
179
     3
271
     3
272
     3
274
     3
283
     0
284
     8
340
11
  0
DIMSTYLE
105
10F8D
330
A
100
AcDbSymbolTableRecord
100
AcDbDimStyleTableRecord
  2
ISO-25-3
 70
     0
 41
2.299999999999999
 42
0.5
 43
3.2
 44
0.5
 73
     0
 74
     0
 77
     1
 78
     9
 79
     2
140
2.0
141
3.0
143
0.03937007874016
147
0.7
171
     3
172
     1
176
   256
177
   256
178
   256
179
     3
271
     3
272
     3
274
     3
283
     0
284
     8
340
11
  0
DIMSTYLE
105
10F8E
330
A
100
AcDbSymbolTableRecord
100
AcDbDimStyleTableRecord
  2
複本 ISO-25
 70
     0
 41
2.2
 42
0.7
 43
3.75
 44
0.3
 73
     0
 74
     0
 77
     1
 78
     8
140
3.2
141
2.5
143
0.03937007874016
147
0.5
171
     3
172
     1
176
     3
177
     3
178
     2
271
     2
272
     2
274
     3
283
     0
284
     8
340
11
  0
ENDTAB
  0
TABLE
  2
BLOCK_RECORD
  5
1
330
0
100
AcDbSymbolTable
 70
     6
  0
BLOCK_RECORD
  5
1E
102
{ACAD_XDICTIONARY
360
3D1E
102
}
330
1
100
AcDbSymbolTableRecord
100
AcDbBlockTableRecord
  2
*Model_Space
340
21
  0
BLOCK_RECORD
  5
1A
102
{ACAD_XDICTIONARY
360
3D20
102
}
330
1
100
AcDbSymbolTableRecord
100
AcDbBlockTableRecord
  2
*Paper_Space
340
1D
  0
BLOCK_RECORD
  5
69B7
102
{ACAD_XDICTIONARY
360
69B8
102
}
330
1
100
AcDbSymbolTableRecord
100
AcDbBlockTableRecord
  2
A$C51E2538E
340
0
  0
BLOCK_RECORD
  5
69CB
102
{ACAD_XDICTIONARY
360
69CC
102
}
330
1
100
AcDbSymbolTableRecord
100
AcDbBlockTableRecord
  2
A$C3310154B
340
0
  0
BLOCK_RECORD
  5
F158
102
{ACAD_XDICTIONARY
360
F2D8
102
}
330
1
100
AcDbSymbolTableRecord
100
AcDbBlockTableRecord
  2
A$C0B4034D1
340
0
  0
BLOCK_RECORD
  5
F2DC
102
{ACAD_XDICTIONARY
360
F3F6
102
}
330
1
100
AcDbSymbolTableRecord
100
AcDbBlockTableRecord
  2
A$C51720780
340
0
  0
BLOCK_RECORD
  5
10F81
102
{ACAD_XDICTIONARY
360
10F82
102
}
330
1
100
AcDbSymbolTableRecord
100
AcDbBlockTableRecord
  2
A$C52CB7200
340
0
  0
BLOCK_RECORD
  5
11124
102
{ACAD_XDICTIONARY
360
111BB
102
}
330
1
100
AcDbSymbolTableRecord
100
AcDbBlockTableRecord
  2
A$C121D5C09
340
0
  0
ENDTAB
  0
ENDSEC
  0
SECTION
  2
BLOCKS
  0
BLOCK
  5
254
330
1E
100
AcDbEntity
  8
0
100
AcDbBlockBegin
  2
*Model_Space
 70
     0
 10
0.0
 20
0.0
 30
0.0
  3
*Model_Space
  1

  0
ENDBLK
  5
255
330
1E
100
AcDbEntity
  8
0
100
AcDbBlockEnd
  0
BLOCK
  5
252
330
1A
100
AcDbEntity
 67
     1
  8
0
100
AcDbBlockBegin
  2
*Paper_Space
 70
     0
 10
0.0
 20
0.0
 30
0.0
  3
*Paper_Space
  1

  0
ENDBLK
  5
253
330
1A
100
AcDbEntity
 67
     1
  8
0
100
AcDbBlockEnd
  0
BLOCK
  5
69BA
330
69B7
100
AcDbEntity
  8
0
 62
     1
 48
0.27
100
AcDbBlockBegin
  2
A$C51E2538E
 70
     0
 10
0.0
 20
0.0
 30
0.0
  3
A$C51E2538E
  1

  0
LINE
  5
69BB
330
69B7
100
AcDbEntity
  8
虛線
 48
0.25
100
AcDbLine
 10
9.230939415452212
 20
1.99838789798423
 30
0.0
 11
2.230939415459943
 21
1.998387897983548
 31
0.0
  0
LINE
  5
69BC
330
69B7
100
AcDbEntity
  8
虛線
 48
0.25
100
AcDbLine
 10
9.230939415453576
 20
15.79841841556197
 30
0.0
 11
9.230939415452212
 21
1.99838789798423
 31
0.0
  0
LINE
  5
69BD
330
69B7
100
AcDbEntity
  8
虛線
 48
0.25
100
AcDbLine
 10
0.2309394154581241
 20
24.698418415562
 30
0.0
 11
0.2309394154590336
 21
16.09842604495623
 31
0.0
  0
LINE
  5
69BE
330
69B7
100
AcDbEntity
  8
虛線
 48
0.25
100
AcDbLine
 10
2.230939415453576
 20
15.79841841556191
 30
0.0
 11
2.230939415459943
 21
1.998387897983576
 31
0.0
  0
LINE
  5
69BF
330
69B7
100
AcDbEntity
  8
虛線
 48
0.25
100
AcDbLine
 10
0.2309394154590336
 20
16.09835738040544
 30
0.0
 11
11.23093941545221
 21
16.09835738040573
 31
0.0
  0
LINE
  5
69C0
330
69B7
100
AcDbEntity
  8
中心線
 48
0.25
100
AcDbLine
 10
5.730939415455679
 20
27.09841841556201
 30
0.0
 11
5.730939415449938
 21
0.0
 31
0.0
  0
LINE
  5
69C1
330
69B7
100
AcDbEntity
  8
虛線
 48
0.25
100
AcDbLine
 10
2.230939415459943
 20
1.998387897983548
 30
0.0
 11
1.730939415460852
 21
1.498387897984002
 31
0.0
  0
LINE
  5
69C2
330
69B7
100
AcDbEntity
  8
虛線
 48
0.25
100
AcDbLine
 10
9.230939415452212
 20
1.99838789798423
 30
0.0
 11
9.730939415451302
 21
1.498387897984287
 31
0.0
  0
LINE
  5
69C3
330
69B7
100
AcDbEntity
  8
虛線
 48
0.25
100
AcDbLine
 10
11.23093941545358
 20
24.698418415562
 30
0.0
 11
11.23093941545221
 21
16.09835738040573
 31
0.0
  0
LINE
  5
69C4
330
69B7
100
AcDbEntity
  8
虛線
 48
0.25
100
AcDbLine
 10
0.2309394154535767
 20
24.698418415562
 30
0.0
 11
11.23093941545358
 21
24.698418415562
 31
0.0
  0
LINE
  5
69C5
330
69B7
100
AcDbEntity
  8
虛線
 48
0.25
100
AcDbLine
 10
2.230939415453576
 20
15.79841841556197
 30
0.0
 11
9.230939415453576
 21
15.79841841556197
 31
0.0
  0
LINE
  5
69C6
330
69B7
100
AcDbEntity
  8
虛線
 48
0.25
100
AcDbLine
 10
1.930939415453394
 20
16.09841841556192
 30
0.0
 11
2.230939415453576
 21
15.79841841556191
 31
0.0
  0
LINE
  5
69C7
330
69B7
100
AcDbEntity
  8
虛線
 48
0.25
100
AcDbLine
 10
0.2309394154535767
 20
24.698418415562
 30
0.0
 11
-0.0000006922223292
 21
25.09841841556204
 31
0.0
  0
LINE
  5
69C8
330
69B7
100
AcDbEntity
  8
虛線
 48
0.25
100
AcDbLine
 10
9.230939415453576
 20
15.79841841556197
 30
0.0
 11
9.530939415453758
 21
16.09841841556198
 31
0.0
  0
LINE
  5
69C9
330
69B7
100
AcDbEntity
  8
虛線
 48
0.25
100
AcDbLine
 10
11.23093941545358
 20
24.698418415562
 30
0.0
 11
11.46187952312948
 21
25.09841841556204
 31
0.0
  0
ENDBLK
  5
69CA
330
69B7
100
AcDbEntity
  8
0
 62
     1
 48
0.27
100
AcDbBlockEnd
  0
BLOCK
  5
69CE
330
69CB
100
AcDbEntity
  8
0
 62
     1
 48
0.27
100
AcDbBlockBegin
  2
A$C3310154B
 70
     0
 10
0.0
 20
0.0
 30
0.0
  3
A$C3310154B
  1

  0
LINE
  5
69CF
330
69CB
100
AcDbEntity
  8
虛線
 48
0.2
100
AcDbLine
 10
0.4999707651827521
 20
12.80115016654724
 30
0.0
 11
0.4999707651836616
 21
5.30113016654775
 31
0.0
  0
LINE
  5
69D0
330
69CB
100
AcDbEntity
  8
虛線
 48
0.2
100
AcDbLine
 10
6.499970765181842
 20
12.80111016654831
 30
0.0
 11
6.499970765183661
 21
5.301130166548432
 31
0.0
  0
LINE
  5
69D1
330
69CB
100
AcDbEntity
  8
虛線
 48
0.2
100
AcDbLine
 10
6.499970765183661
 20
5.301130166548432
 30
0.0
 11
0.4999707651836616
 21
5.30113016654775
 31
0.0
  0
LINE
  5
69D2
330
69CB
100
AcDbEntity
  8
中心線
 48
0.25
100
AcDbLine
 10
3.49999076518344
 20
15.30112016654811
 30
0.0
 11
3.499990765177699
 21
0.000000166540076
 31
0.0
  0
LINE
  5
69D3
330
69CB
100
AcDbEntity
  8
虛線
 48
0.2
100
AcDbLine
 10
5.999980765182044
 20
12.30112016654846
 30
0.0
 11
5.999980765187501
 21
2.30113016655747
 31
0.0
  0
LINE
  5
69D4
330
69CB
100
AcDbEntity
  8
虛線
 48
0.2
100
AcDbLine
 10
1.000000765181994
 20
12.30112016654812
 30
0.0
 11
1.000000765187905
 21
2.301130166554685
 31
0.0
  0
LINE
  5
69D5
330
69CB
100
AcDbEntity
  8
虛線
 48
0.2
100
AcDbLine
 10
5.999980765187501
 20
2.30113016655747
 30
0.0
 11
1.000000765187905
 21
2.301130166554685
 31
0.0
  0
LINE
  5
69D6
330
69CB
100
AcDbEntity
  8
虛線
 48
0.2
100
AcDbLine
 10
5.999980765182499
 20
12.3011201665484
 30
0.0
 11
1.000000765181994
 21
12.30112016654817
 31
0.0
  0
LINE
  5
69D7
330
69CB
100
AcDbEntity
  8
虛線
 48
0.2
100
AcDbLine
 10
5.999980765182044
 20
12.3011201665484
 30
0.0
 11
6.999980765182499
 21
13.30112016654863
 31
0.0
  0
LINE
  5
69D8
330
69CB
100
AcDbEntity
  8
虛線
 48
0.2
100
AcDbLine
 10
5.999980765187956
 20
2.301130166557413
 30
0.0
 11
3.499990765183611
 21
0.801130166544965
 31
0.0
  0
LINE
  5
69D9
330
69CB
100
AcDbEntity
  8
虛線
 48
0.2
100
AcDbLine
 10
1.000000765187905
 20
2.30113016657259
 30
0.0
 11
3.499990765178154
 21
0.801130166544965
 31
0.0
  0
LINE
  5
69DA
330
69CB
100
AcDbEntity
  8
虛線
 48
0.2
100
AcDbLine
 10
1.00000076518495
 20
12.30112016654834
 30
0.0
 11
0.0000007651844385
 21
13.30112016654854
 31
0.0
  0
ENDBLK
  5
69DB
330
69CB
100
AcDbEntity
  8
0
 62
     1
 48
0.27
100
AcDbBlockEnd
  0
BLOCK
  5
F2D9
330
F158
100
AcDbEntity
  8
0
100
AcDbBlockBegin
  2
A$C0B4034D1
 70
     0
 10
0.0
 20
0.0
 30
0.0
  3
A$C0B4034D1
  1

  0
LINE
  5
F159
330
F158
100
AcDbEntity
  8
0
  6
Continuous
 62
     7
100
AcDbLine
 10
0.0000002555925676
 20
87.49999229985343
 30
0.0
 11
2.500000255592567
 21
89.99999229985343
 31
0.0
  0
LINE
  5
F15A
330
F158
100
AcDbEntity
  8
0
  6
Continuous
 62
     7
100
AcDbLine
 10
0.0000002555925676
 20
35.00000029985341
 30
0.0
 11
0.0000002555925676
 21
87.49999229985343
 31
0.0
  0
LINE
  5
F15B
330
F158
100
AcDbEntity
  8
0
  6
Continuous
 62
     7
100
AcDbLine
 10
24.00000025559257
 20
85.99999229985343
 30
0.0
 11
26.50000025559257
 21
88.49999229985343
 31
0.0
  0
LINE
  5
F15C
330
F158
100
AcDbEntity
  8
0
  6
Continuous
 62
     7
100
AcDbLine
 10
23.00000025559257
 20
12.00000029985341
 30
0.0
 11
0.0000002555925676
 21
35.00000029985341
 31
0.0
  0
LINE
  5
F15D
330
F158
100
AcDbEntity
  8
0
  6
Continuous
 62
     7
100
AcDbLine
 10
26.40000025559243
 20
12.10000029985343
 30
0.0
 11
24.00000025559257
 21
14.50000029985341
 31
0.0
  0
LINE
  5
F15E
330
F158
100
AcDbEntity
  8
0
  6
Continuous
 62
     7
100
AcDbLine
 10
24.00000025559257
 20
14.50000029985341
 30
0.0
 11
24.00000025559257
 21
85.99999229985343
 31
0.0
  0
LINE
  5
F15F
330
F158
100
AcDbEntity
  8
0
  6
Continuous
 62
     7
100
AcDbLine
 10
55.49990296409237
 20
0.0000544666534097
 30
0.0
 11
53.49998757519256
 21
2.000004521653409
 31
0.0
  0
LINE
  5
F160
330
F158
100
AcDbEntity
  8
0
  6
Continuous
 62
     7
100
AcDbLine
 10
58.99999334649237
 20
88.99998629985342
 30
0.0
 11
60.00000025559256
 21
89.99999229985343
 31
0.0
  0
LINE
  5
F161
330
F158
100
AcDbEntity
  8
0
  6
Continuous
 62
     7
100
AcDbLine
 10
114.5001152554925
 20
0.0000002998534114
 30
0.0
 11
107.5000052554924
 21
0.0000002998534114
 31
0.0
  0
LINE
  5
F162
330
F158
100
AcDbEntity
  8
0
  6
Continuous
 62
     7
100
AcDbLine
 10
97.50001327639257
 20
0.0000183207533837
 30
0.0
 11
72.50002369309254
 21
0.0000183207533837
 31
0.0
  0
LINE
  5
F163
330
F158
100
AcDbEntity
  8
0
  6
Continuous
 62
     7
100
AcDbLine
 10
62.50001296409255
 20
0.0000544666534097
 30
0.0
 11
55.49990296409237
 21
0.0000544666534097
 31
0.0
  0
LINE
  5
F164
330
F158
100
AcDbEntity
  8
0
  6
Continuous
 62
     7
100
AcDbLine
 10
53.79289351969237
 20
13.92391420565343
 30
0.0
 11
53.61611682169246
 21
14.10069089465341
 31
0.0
  0
LINE
  5
F165
330
F158
100
AcDbEntity
  8
0
  6
Continuous
 62
     7
100
AcDbLine
 10
52.79999917089253
 20
14.91680857285343
 30
0.0
 11
53.05043140879252
 21
14.6663763352534
 31
0.0
  0
LINE
  5
F166
330
F158
100
AcDbEntity
  8
0
  6
Continuous
 62
     7
100
AcDbLine
 10
72.00000025559257
 20
88.49999229985343
 30
0.0
 11
73.00000025559256
 21
89.49999229985342
 31
0.0
  0
LINE
  5
F167
330
F158
100
AcDbEntity
  8
0
  6
Continuous
 62
     7
100
AcDbLine
 10
106.5000112572925
 20
1.000005299853455
 30
0.0
 11
98.50000167149255
 21
1.000005299853455
 31
0.0
  0
LINE
  5
F168
330
F158
100
AcDbEntity
  8
0
  6
Continuous
 62
     7
100
AcDbLine
 10
71.50000300639248
 20
1.000041758253416
 30
0.0
 11
63.49999342069259
 21
1.000041758253416
 31
0.0
  0
LINE
  5
F169
330
F158
100
AcDbEntity
  8
0
  6
Continuous
 62
     7
100
AcDbLine
 10
54.78156263719256
 20
16.28993397055342
 30
0.0
 11
55.06846126409254
 21
16.00303534045344
 31
0.0
  0
LINE
  5
F16A
330
F158
100
AcDbEntity
  8
0
  6
Continuous
 62
     7
100
AcDbLine
 10
55.43488262019241
 20
15.99016737295341
 30
0.0
 11
55.27224805869241
 21
16.15280193615342
 31
0.0
  0
LINE
  5
F16B
330
F158
100
AcDbEntity
  8
0
  6
Continuous
 62
     7
100
AcDbLine
 10
72.50002369309254
 20
0.0000183207533837
 30
0.0
 11
71.50000300639248
 21
1.000041758253416
 31
0.0
  0
LINE
  5
F16C
330
F158
100
AcDbEntity
  8
0
  6
Continuous
 62
     7
100
AcDbLine
 10
52.79999917089253
 20
15.0947666063534
 30
0.0
 11
52.79999917089253
 21
13.09999346695338
 31
0.0
  0
LINE
  5
F16D
330
F158
100
AcDbEntity
  8
0
  6
Continuous
 62
     7
100
AcDbLine
 10
52.80000025559252
 20
51.08577873755343
 30
0.0
 11
52.80000025559252
 21
47.30523357535341
 31
0.0
  0
LINE
  5
F16E
330
F158
100
AcDbEntity
  8
0
  6
Continuous
 62
     7
100
AcDbLine
 10
53.25001476739249
 20
13.21612069225341
 30
0.0
 11
53.25001476739249
 21
12.10000029985343
 31
0.0
  0
LINE
  5
F16F
330
F158
100
AcDbEntity
  8
0
  6
Continuous
 62
     7
100
AcDbLine
 10
53.2500292010925
 20
51.08520200805341
 30
0.0
 11
53.2500292010925
 21
49.18377089075343
 31
0.0
  0
LINE
  5
F170
330
F158
100
AcDbEntity
  8
0
  6
Continuous
 62
     7
100
AcDbLine
 10
53.49998757519256
 20
2.000004521653409
 30
0.0
 11
53.49998757519256
 21
13.21671069605338
 31
0.0
  0
LINE
  5
F171
330
F158
100
AcDbEntity
  8
0
  6
Continuous
 62
     7
100
AcDbLine
 10
53.50000028349246
 20
49.18319404325342
 30
0.0
 11
53.50000028349246
 21
51.0857789493534
 31
0.0
  0
LINE
  5
F172
330
F158
100
AcDbEntity
  8
0
  6
Continuous
 62
     7
100
AcDbLine
 10
147.0000002555925
 20
12.00000029985341
 30
0.0
 11
127.3000002555925
 21
12.00000029985341
 31
0.0
  0
LINE
  5
F173
330
F158
100
AcDbEntity
  8
0
  6
Continuous
 62
     7
100
AcDbLine
 10
42.70000025559238
 20
12.00000029985341
 30
0.0
 11
23.00000025559257
 21
12.00000029985341
 31
0.0
  0
LINE
  5
F174
330
F158
100
AcDbEntity
  8
0
  6
Continuous
 62
     7
100
AcDbLine
 10
26.40000025559243
 20
12.10000029985343
 30
0.0
 11
53.49998757519256
 21
12.10000029985343
 31
0.0
  0
LINE
  5
F175
330
F158
100
AcDbEntity
  8
0
  6
Continuous
 62
     7
100
AcDbLine
 10
116.5000202276924
 20
12.10000029985343
 30
0.0
 11
143.6000002555925
 21
12.10000029985343
 31
0.0
  0
LINE
  5
F176
330
F158
100
AcDbEntity
  8
0
  6
Continuous
 62
     7
100
AcDbLine
 10
116.7500001998924
 20
13.2168074555534
 30
0.0
 11
116.5000202276924
 21
13.2168074555534
 31
0.0
  0
LINE
  5
F177
330
F158
100
AcDbEntity
  8
0
  6
Continuous
 62
     7
100
AcDbLine
 10
53.49998757519256
 20
13.2168074304534
 30
0.0
 11
53.25000031129253
 21
13.2168074304534
 31
0.0
  0
LINE
  5
F178
330
F158
100
AcDbEntity
  8
0
  6
Continuous
 62
     7
100
AcDbLine
 10
54.71008201189238
 20
53.70002354985342
 30
0.0
 11
53.29791872759256
 21
52.2878602655534
 31
0.0
  0
LINE
  5
F179
330
F158
100
AcDbEntity
  8
0
  6
Continuous
 62
     7
100
AcDbLine
 10
54.9464781139925
 20
53.30002354985342
 30
0.0
 11
53.61654518719252
 21
51.9700497389534
 31
0.0
  0
LINE
  5
F17A
330
F158
100
AcDbEntity
  8
0
  6
Continuous
 62
     7
100
AcDbLine
 10
53.79289347439248
 20
51.7928855186534
 30
0.0
 11
55.00004053309249
 21
53.00001313315343
 31
0.0
  0
LINE
  5
F17B
330
F158
100
AcDbEntity
  8
0
  6
Continuous
 62
     7
100
AcDbLine
 10
132.2500002555925
 20
28.9659497447534
 30
0.0
 11
131.7500007323924
 21
28.83829018555343
 31
0.0
  0
LINE
  5
F17C
330
F158
100
AcDbEntity
  8
0
  6
Continuous
 62
     7
100
AcDbLine
 10
131.7500007323924
 20
28.19999229985342
 30
0.0
 11
132.3749997786924
 21
28.32765187035341
 31
0.0
  0
LINE
  5
F17D
330
F158
100
AcDbEntity
  8
0
  6
Continuous
 62
     7
100
AcDbLine
 10
114.9315392487924
 20
15.5530353412534
 30
0.0
 11
114.5651178931925
 21
15.5530353412534
 31
0.0
  0
LINE
  5
F17E
330
F158
100
AcDbEntity
  8
0
  6
Continuous
 62
     7
100
AcDbLine
 10
55.43488261799257
 20
15.5530353412534
 30
0.0
 11
55.06846126239247
 21
15.5530353412534
 31
0.0
  0
LINE
  5
F17F
330
F158
100
AcDbEntity
  8
0
  6
Continuous
 62
     7
100
AcDbLine
 10
55.06846126469236
 20
16.00303533985342
 30
0.0
 11
55.43488262019241
 21
16.00303533985342
 31
0.0
  0
LINE
  5
F180
330
F158
100
AcDbEntity
  8
0
  6
Continuous
 62
     7
100
AcDbLine
 10
114.5651178909925
 20
16.00303533985342
 30
0.0
 11
114.9315392464925
 21
16.00303533985342
 31
0.0
  0
LINE
  5
F181
330
F158
100
AcDbEntity
  8
0
  6
Continuous
 62
     7
100
AcDbLine
 10
115.2184378731924
 20
16.2899339697534
 30
0.0
 11
114.8156198408924
 21
16.2899339697534
 31
0.0
  0
LINE
  5
F182
330
F158
100
AcDbEntity
  8
0
  6
Continuous
 62
     7
100
AcDbLine
 10
55.18438067029251
 20
16.2899339697534
 30
0.0
 11
54.78156263789242
 21
16.2899339697534
 31
0.0
  0
LINE
  5
F183
330
F158
100
AcDbEntity
  8
0
  6
Continuous
 62
     7
100
AcDbLine
 10
54.78156263679238
 20
16.4399339693534
 30
0.0
 11
55.18438067029251
 21
16.4399339693534
 31
0.0
  0
LINE
  5
F184
330
F158
100
AcDbEntity
  8
0
  6
Continuous
 62
     7
100
AcDbLine
 10
114.8156198408924
 20
16.4399339693534
 30
0.0
 11
115.2184378743925
 21
16.4399339693534
 31
0.0
  0
LINE
  5
F185
330
F158
100
AcDbEntity
  8
0
  6
Continuous
 62
     7
100
AcDbLine
 10
62.51182751299257
 20
24.17019884585341
 30
0.0
 11
62.73446730279238
 21
24.07797842535342
 31
0.0
  0
LINE
  5
F186
330
F158
100
AcDbEntity
  8
0
  6
Continuous
 62
     7
100
AcDbLine
 10
62.97264010119238
 20
24.65297842535341
 30
0.0
 11
62.75000031139234
 21
24.74519884585343
 31
0.0
  0
LINE
  5
F187
330
F158
100
AcDbEntity
  8
0
  6
Continuous
 62
     7
100
AcDbLine
 10
62.30000031139252
 20
37.59812673795341
 30
0.0
 11
62.30000031139252
 21
24.80187452845342
 31
0.0
  0
LINE
  5
F188
330
F158
100
AcDbEntity
  8
0
  6
Continuous
 62
     7
100
AcDbLine
 10
62.75000031139234
 20
37.65480242055344
 30
0.0
 11
62.75000031139234
 21
24.74519884585343
 31
0.0
  0
LINE
  5
F189
330
F158
100
AcDbEntity
  8
0
  6
Continuous
 62
     7
100
AcDbLine
 10
63.00000031139234
 20
24.71903181595343
 30
0.0
 11
63.00000031139234
 21
37.6809694504534
 31
0.0
  0
LINE
  5
F18A
330
F158
100
AcDbEntity
  8
0
  6
Continuous
 62
     7
100
AcDbLine
 10
53.05043140879252
 20
47.7336249311534
 30
0.0
 11
52.80000025559252
 21
47.48319377825342
 31
0.0
  0
LINE
  5
F18B
330
F158
100
AcDbEntity
  8
0
  6
Continuous
 62
     7
100
AcDbLine
 10
53.61611684519243
 20
48.29931034835343
 30
0.0
 11
53.79289353599256
 21
48.47608704445341
 31
0.0
  0
LINE
  5
F18C
330
F158
100
AcDbEntity
  8
0
  6
Continuous
 62
     7
100
AcDbLine
 10
55.06846126409254
 20
46.39696592595339
 30
0.0
 11
54.78156263719256
 21
46.1100672959534
 31
0.0
  0
LINE
  5
F18D
330
F158
100
AcDbEntity
  8
0
  6
Continuous
 62
     7
100
AcDbLine
 10
55.27224805869241
 20
46.24719933025341
 30
0.0
 11
55.43488262019241
 21
46.40983389345339
 31
0.0
  0
LINE
  5
F18E
330
F158
100
AcDbEntity
  8
0
  6
Continuous
 62
     7
100
AcDbLine
 10
130.4999997787924
 20
31.26382207955342
 30
0.0
 11
131.0000007323924
 21
31.39148163875342
 31
0.0
  0
LINE
  5
F18F
330
F158
100
AcDbEntity
  8
0
  6
Continuous
 62
     7
100
AcDbLine
 10
121.3750002555926
 20
29.09360930405341
 30
0.0
 11
120.8750000171924
 21
28.9659497447534
 31
0.0
  0
LINE
  5
F190
330
F158
100
AcDbEntity
  8
0
  6
Continuous
 62
     7
100
AcDbLine
 10
119.2500004939925
 20
33.30637538515339
 30
0.0
 11
119.7500000171924
 21
33.43403494435341
 31
0.0
  0
LINE
  5
F191
330
F158
100
AcDbEntity
  8
0
  6
Continuous
 62
     7
100
AcDbLine
 10
126.2500002555925
 20
28.19999229985342
 30
0.0
 11
126.8750007323924
 21
28.32765187035341
 31
0.0
  0
LINE
  5
F192
330
F158
100
AcDbEntity
  8
0
  6
Continuous
 62
     7
100
AcDbLine
 10
120.8750000171924
 20
28.19999229985342
 30
0.0
 11
121.5000004939925
 21
28.32765187035341
 31
0.0
  0
LINE
  5
F193
330
F158
100
AcDbEntity
  8
0
  6
Continuous
 62
     7
100
AcDbLine
 10
131.0000007323924
 20
32.02977943505343
 30
0.0
 11
130.3750002555925
 21
31.90211987575344
 31
0.0
  0
LINE
  5
F194
330
F158
100
AcDbEntity
  8
0
  6
Continuous
 62
     7
100
AcDbLine
 10
125.6249997787924
 20
32.02977943505343
 30
0.0
 11
125.0000007323924
 21
31.90211987575344
 31
0.0
  0
LINE
  5
F195
330
F158
100
AcDbEntity
  8
0
  6
Continuous
 62
     7
100
AcDbLine
 10
125.6249997787924
 20
34.19999229985342
 30
0.0
 11
125.0000007323924
 21
34.07233274065343
 31
0.0
  0
LINE
  5
F196
330
F158
100
AcDbEntity
  8
0
  6
Continuous
 62
     7
100
AcDbLine
 10
52.80000025559252
 20
47.30523357535341
 30
0.0
 11
62.15355370199245
 21
37.95168012855339
 31
0.0
  0
LINE
  5
F197
330
F158
100
AcDbEntity
  8
0
  6
Continuous
 62
     7
100
AcDbLine
 10
54.78156263759252
 20
45.96006729635343
 30
0.0
 11
62.51182751299257
 21
38.22980242055343
 31
0.0
  0
LINE
  5
F198
330
F158
100
AcDbEntity
  8
0
  6
Continuous
 62
     7
100
AcDbLine
 10
54.16209041669254
 20
46.62196592155342
 30
0.0
 11
53.05043140879252
 21
47.73362493105341
 31
0.0
  0
LINE
  5
F199
330
F158
100
AcDbEntity
  8
0
  6
Continuous
 62
     7
100
AcDbLine
 10
62.70710709259242
 20
38.38807623165343
 30
0.0
 11
55.27224806079243
 21
45.8229352637534
 31
0.0
  0
LINE
  5
F19A
330
F158
100
AcDbEntity
  8
0
  6
Continuous
 62
     7
100
AcDbLine
 10
53.61654525289236
 20
48.29892282125342
 30
0.0
 11
55.06846126299251
 21
46.84696592455341
 31
0.0
  0
LINE
  5
F19B
330
F158
100
AcDbEntity
  8
0
  6
Continuous
 62
     7
100
AcDbLine
 10
55.43488261799257
 20
46.8340979598534
 30
0.0
 11
53.79289352969249
 21
48.47608705075342
 31
0.0
  0
LINE
  5
F19C
330
F158
100
AcDbEntity
  8
0
  6
Continuous
 62
     7
100
AcDbLine
 10
54.94644680919236
 20
53.29999224405341
 30
0.0
 11
55.0603541902924
 21
53.02499590485343
 31
0.0
  0
LINE
  5
F19D
330
F158
100
AcDbEntity
  8
0
  6
Continuous
 62
     7
100
AcDbLine
 10
119.7500000171924
 20
34.19999229985342
 30
0.0
 11
119.1250002555925
 21
34.07233274065343
 31
0.0
  0
LINE
  5
F19E
330
F158
100
AcDbEntity
  8
0
  6
Continuous
 62
     7
100
AcDbLine
 10
131.7500007323924
 20
28.19999229985342
 30
0.0
 11
131.0000007323924
 21
28.19999229985342
 31
0.0
  0
LINE
  5
F19F
330
F158
100
AcDbEntity
  8
0
  6
Continuous
 62
     7
100
AcDbLine
 10
126.2500002555925
 20
28.19999229985342
 30
0.0
 11
125.6249997787924
 21
28.19999229985342
 31
0.0
  0
LINE
  5
F1A0
330
F158
100
AcDbEntity
  8
0
  6
Continuous
 62
     7
100
AcDbLine
 10
120.8750000171924
 20
28.19999229985342
 30
0.0
 11
119.7500000171924
 21
28.19999229985342
 31
0.0
  0
LINE
  5
F1A1
330
F158
100
AcDbEntity
  8
0
  6
Continuous
 62
     7
100
AcDbLine
 10
116.7500003747925
 20
28.19999229985342
 30
0.0
 11
115.8750001363924
 21
28.19999229985342
 31
0.0
  0
LINE
  5
F1A2
330
F158
100
AcDbEntity
  8
0
  6
Continuous
 62
     7
100
AcDbLine
 10
112.7500002555925
 20
28.19999229985342
 30
0.0
 11
112.0000002555926
 21
28.19999229985342
 31
0.0
  0
LINE
  5
F1A3
330
F158
100
AcDbEntity
  8
0
  6
Continuous
 62
     7
100
AcDbLine
 10
125.5000002555926
 20
28.83829018555343
 30
0.0
 11
126.3749997787924
 21
28.83829018555343
 31
0.0
  0
LINE
  5
F1A4
330
F158
100
AcDbEntity
  8
0
  6
Continuous
 62
     7
100
AcDbLine
 10
131.0000007323924
 20
28.83829018555343
 30
0.0
 11
131.7500007323924
 21
28.83829018555343
 31
0.0
  0
LINE
  5
F1A5
330
F158
100
AcDbEntity
  8
0
  6
Continuous
 62
     7
100
AcDbLine
 10
119.7500000171924
 20
28.9659497447534
 30
0.0
 11
120.8750000171924
 21
28.9659497447534
 31
0.0
  0
LINE
  5
F1A6
330
F158
100
AcDbEntity
  8
0
  6
Continuous
 62
     7
100
AcDbLine
 10
129.1250007323924
 20
29.73190718965341
 30
0.0
 11
129.8750007323924
 21
29.73190718965341
 31
0.0
  0
LINE
  5
F1A7
330
F158
100
AcDbEntity
  8
0
  6
Continuous
 62
     7
100
AcDbLine
 10
121.8750004939925
 20
30.75318384255343
 30
0.0
 11
120.7500004939925
 21
30.75318384255343
 31
0.0
  0
LINE
  5
F1A8
330
F158
100
AcDbEntity
  8
0
  6
Continuous
 62
     7
100
AcDbLine
 10
130.0000002555925
 20
30.8808434017534
 30
0.0
 11
129.1250007323924
 21
30.8808434017534
 31
0.0
  0
LINE
  5
F1A9
330
F158
100
AcDbEntity
  8
0
  6
Continuous
 62
     7
100
AcDbLine
 10
114.8750001959925
 20
30.8808434017534
 30
0.0
 11
112.7500002555925
 21
30.8808434017534
 31
0.0
  0
LINE
  5
F1AA
330
F158
100
AcDbEntity
  8
0
  6
Continuous
 62
     7
100
AcDbLine
 10
131.7500007323924
 20
31.39148163875342
 30
0.0
 11
131.0000007323924
 21
31.39148163875342
 31
0.0
  0
LINE
  5
F1AB
330
F158
100
AcDbEntity
  8
0
  6
Continuous
 62
     7
100
AcDbLine
 10
126.3749997787924
 20
31.39148163875342
 30
0.0
 11
125.5000002555926
 21
31.39148163875342
 31
0.0
  0
LINE
  5
F1AC
330
F158
100
AcDbEntity
  8
0
  6
Continuous
 62
     7
100
AcDbLine
 10
120.7500004939925
 20
31.51914119805343
 30
0.0
 11
122.6250004939925
 21
31.51914119805343
 31
0.0
  0
LINE
  5
F1AD
330
F158
100
AcDbEntity
  8
0
  6
Continuous
 62
     7
100
AcDbLine
 10
112.7500002555925
 20
31.6468007572534
 30
0.0
 11
115.1250001363923
 21
31.6468007572534
 31
0.0
  0
LINE
  5
F1AE
330
F158
100
AcDbEntity
  8
0
  6
Continuous
 62
     7
100
AcDbLine
 10
125.6249997787924
 20
32.02977943505343
 30
0.0
 11
126.2500002555925
 21
32.02977943505343
 31
0.0
  0
LINE
  5
F1AF
330
F158
100
AcDbEntity
  8
0
  6
Continuous
 62
     7
100
AcDbLine
 10
131.0000007323924
 20
32.02977943505343
 30
0.0
 11
131.7500007323924
 21
32.02977943505343
 31
0.0
  0
LINE
  5
F1B0
330
F158
100
AcDbEntity
  8
0
  6
Continuous
 62
     7
100
AcDbLine
 10
122.6250004939925
 20
32.66807723125342
 30
0.0
 11
121.8750004939925
 21
32.66807723125342
 31
0.0
  0
LINE
  5
F1B1
330
F158
100
AcDbEntity
  8
0
  6
Continuous
 62
     7
100
AcDbLine
 10
127.8749997787924
 20
32.79573714815342
 30
0.0
 11
127.2500007323924
 21
32.79573714815342
 31
0.0
  0
LINE
  5
F1B2
330
F158
100
AcDbEntity
  8
0
  6
Continuous
 62
     7
100
AcDbLine
 10
53.7928934644924
 20
51.79288550875341
 30
0.0
 11
53.61611676659254
 21
51.96966219785341
 31
0.0
  0
LINE
  5
F1B3
330
F158
100
AcDbEntity
  8
0
  6
Continuous
 62
     7
100
AcDbLine
 10
107.5000052554924
 20
0.0000002998534114
 30
0.0
 11
106.5000112572925
 21
1.000005299853455
 31
0.0
  0
LINE
  5
F1B4
330
F158
100
AcDbEntity
  8
0
  6
Continuous
 62
     7
100
AcDbLine
 10
42.80000025559252
 20
12.10000029985343
 30
0.0
 11
42.70000025559238
 21
12.00000029985341
 31
0.0
  0
LINE
  5
F1B5
330
F158
100
AcDbEntity
  8
0
  6
Continuous
 62
     7
100
AcDbLine
 10
120.8750000171924
 20
33.43403494435341
 30
0.0
 11
119.7500000171924
 21
33.43403494435341
 31
0.0
  0
LINE
  5
F1B6
330
F158
100
AcDbEntity
  8
0
  6
Continuous
 62
     7
100
AcDbLine
 10
133.3750002555925
 20
33.56169450365343
 30
0.0
 11
129.7499997787924
 21
33.56169450365343
 31
0.0
  0
LINE
  5
F1B7
330
F158
100
AcDbEntity
  8
0
  6
Continuous
 62
     7
100
AcDbLine
 10
126.2500002555925
 20
33.56169450365343
 30
0.0
 11
125.5000002555926
 21
33.56169450365343
 31
0.0
  0
LINE
  5
F1B8
330
F158
100
AcDbEntity
  8
0
  6
Continuous
 62
     7
100
AcDbLine
 10
115.1250001363923
 20
33.56169450365343
 30
0.0
 11
112.7500002555925
 21
33.56169450365343
 31
0.0
  0
LINE
  5
F1B9
330
F158
100
AcDbEntity
  8
0
  6
Continuous
 62
     7
100
AcDbLine
 10
112.0000002555926
 20
34.19999229985342
 30
0.0
 11
115.0000002555925
 21
34.19999229985342
 31
0.0
  0
LINE
  5
F1BA
330
F158
100
AcDbEntity
  8
0
  6
Continuous
 62
     7
100
AcDbLine
 10
119.7500000171924
 20
34.19999229985342
 30
0.0
 11
120.8750000171924
 21
34.19999229985342
 31
0.0
  0
LINE
  5
F1BB
330
F158
100
AcDbEntity
  8
0
  6
Continuous
 62
     7
100
AcDbLine
 10
125.6249997787924
 20
34.19999229985342
 30
0.0
 11
126.1250007323924
 21
34.19999229985342
 31
0.0
  0
LINE
  5
F1BC
330
F158
100
AcDbEntity
  8
0
  6
Continuous
 62
     7
100
AcDbLine
 10
129.1250007323924
 20
34.19999229985342
 30
0.0
 11
133.3750002555925
 21
34.19999229985342
 31
0.0
  0
LINE
  5
F1BD
330
F158
100
AcDbEntity
  8
0
  6
Continuous
 62
     7
100
AcDbLine
 10
119.1250002555925
 20
28.32765187035341
 30
0.0
 11
119.7500000171924
 21
28.19999229985342
 31
0.0
  0
LINE
  5
F1BE
330
F158
100
AcDbEntity
  8
0
  6
Continuous
 62
     7
100
AcDbLine
 10
125.0000007323924
 20
28.32765187035341
 30
0.0
 11
125.6249997787924
 21
28.19999229985342
 31
0.0
  0
LINE
  5
F1BF
330
F158
100
AcDbEntity
  8
0
  6
Continuous
 62
     7
100
AcDbLine
 10
130.3750002555925
 20
28.32765187035341
 30
0.0
 11
131.0000007324925
 21
28.19999229985342
 31
0.0
  0
LINE
  5
F1C0
330
F158
100
AcDbEntity
  8
0
  6
Continuous
 62
     7
100
AcDbLine
 10
119.7500000171924
 20
28.9659497447534
 30
0.0
 11
119.2500004939925
 21
29.09360930405341
 31
0.0
  0
LINE
  5
F1C1
330
F158
100
AcDbEntity
  8
0
  6
Continuous
 62
     7
100
AcDbLine
 10
29.99997886799247
 20
89.99999229985343
 30
0.0
 11
30.9999875952924
 21
88.99998629985342
 31
0.0
  0
LINE
  5
F1C2
330
F158
100
AcDbEntity
  8
0
  6
Continuous
 62
     7
100
AcDbLine
 10
62.15355370199245
 20
24.44832113785341
 30
0.0
 11
52.79999917089253
 21
15.0947666063534
 31
0.0
  0
LINE
  5
F1C3
330
F158
100
AcDbEntity
  8
0
  6
Continuous
 62
     7
100
AcDbLine
 10
62.51182751299257
 20
24.17019884585341
 30
0.0
 11
54.78156263759252
 21
16.43993397005343
 31
0.0
  0
LINE
  5
F1C4
330
F158
100
AcDbEntity
  8
0
  6
Continuous
 62
     7
100
AcDbLine
 10
53.05043140879252
 20
14.6663763352534
 30
0.0
 11
54.16209041669254
 21
15.77803534485343
 31
0.0
  0
LINE
  5
F1C5
330
F158
100
AcDbEntity
  8
0
  6
Continuous
 62
     7
100
AcDbLine
 10
55.27224806079243
 20
16.57706600275341
 30
0.0
 11
62.70710709259242
 21
24.01192503485342
 31
0.0
  0
LINE
  5
F1C6
330
F158
100
AcDbEntity
  8
0
  6
Continuous
 62
     7
100
AcDbLine
 10
55.06846126299251
 20
15.55303534185341
 30
0.0
 11
53.6165452531925
 21
14.1010784456534
 31
0.0
  0
LINE
  5
F1C7
330
F158
100
AcDbEntity
  8
0
  6
Continuous
 62
     7
100
AcDbLine
 10
53.79289352959244
 20
13.92391421555342
 30
0.0
 11
55.43488261799257
 21
15.56590330655342
 31
0.0
  0
LINE
  5
F1C8
330
F158
100
AcDbEntity
  8
0
  6
Continuous
 62
     7
100
AcDbLine
 10
62.73446730279238
 20
38.32202284105341
 30
0.0
 11
62.51182751299257
 21
38.22980242055343
 31
0.0
  0
LINE
  5
F1C9
330
F158
100
AcDbEntity
  8
0
  6
Continuous
 62
     7
100
AcDbLine
 10
62.75000031139234
 20
37.65480242055344
 30
0.0
 11
62.97264010119238
 21
37.74702284105342
 31
0.0
  0
LINE
  5
F1CA
330
F158
100
AcDbEntity
  8
0
  6
Continuous
 62
     7
100
AcDbLine
 10
115.6250003747925
 20
34.07233274065343
 30
0.0
 11
115.0000002555925
 21
34.19999229985342
 31
0.0
  0
LINE
  5
F1CB
330
F158
100
AcDbEntity
  8
0
  6
Continuous
 62
     7
100
AcDbLine
 10
126.8750007324925
 20
31.90211987575344
 30
0.0
 11
126.2500002555925
 21
32.02977943505343
 31
0.0
  0
LINE
  5
F1CC
330
F158
100
AcDbEntity
  8
0
  6
Continuous
 62
     7
100
AcDbLine
 10
121.5000004939925
 20
34.07233274065343
 30
0.0
 11
120.8750000171924
 21
34.19999229985342
 31
0.0
  0
LINE
  5
F1CD
330
F158
100
AcDbEntity
  8
0
  6
Continuous
 62
     7
100
AcDbLine
 10
132.3749997787925
 20
31.90211987575344
 30
0.0
 11
131.7500007323924
 21
32.02977943505343
 31
0.0
  0
LINE
  5
F1CE
330
F158
100
AcDbEntity
  8
0
  6
Continuous
 62
     7
100
AcDbLine
 10
126.7499997787924
 20
34.07233274065343
 30
0.0
 11
126.1250007323924
 21
34.19999229985342
 31
0.0
  0
LINE
  5
F1CF
330
F158
100
AcDbEntity
  8
0
  6
Continuous
 62
     7
100
AcDbLine
 10
131.0000007323924
 20
28.83829018555343
 30
0.0
 11
130.4999997787924
 21
28.9659497447534
 31
0.0
  0
LINE
  5
F1D0
330
F158
100
AcDbEntity
  8
0
  6
Continuous
 62
     7
100
AcDbLine
 10
120.8750000171924
 20
33.43403494435341
 30
0.0
 11
121.3750002555926
 21
33.30637538515339
 31
0.0
  0
LINE
  5
F1D1
330
F158
100
AcDbEntity
  8
0
  6
Continuous
 62
     7
100
AcDbLine
 10
131.7500007323924
 20
31.39148163875342
 30
0.0
 11
132.2500002555925
 21
31.26382207955342
 31
0.0
  0
LINE
  5
F1D2
330
F158
100
AcDbEntity
  8
0
  6
Continuous
 62
     7
100
AcDbLine
 10
125.5000002555926
 20
28.83829018555343
 30
0.0
 11
125.1250002555925
 21
28.9659497447534
 31
0.0
  0
LINE
  5
F1D3
330
F158
100
AcDbEntity
  8
0
  6
Continuous
 62
     7
100
AcDbLine
 10
115.1250001363923
 20
33.56169450365343
 30
0.0
 11
115.5000001363923
 21
33.43403494435341
 31
0.0
  0
LINE
  5
F1D4
330
F158
100
AcDbEntity
  8
0
  6
Continuous
 62
     7
100
AcDbLine
 10
126.3749997787924
 20
31.39148163875342
 30
0.0
 11
126.7499997787924
 21
31.26382207955342
 31
0.0
  0
LINE
  5
F1D5
330
F158
100
AcDbEntity
  8
0
  6
Continuous
 62
     7
100
AcDbLine
 10
118.6250000171924
 20
28.58297102235344
 30
0.0
 11
119.1250002555925
 21
28.32765187035341
 31
0.0
  0
LINE
  5
F1D6
330
F158
100
AcDbEntity
  8
0
  6
Continuous
 62
     7
100
AcDbLine
 10
114.5651178931925
 20
15.56590330655342
 30
0.0
 11
116.2071069815924
 21
13.92391421555342
 31
0.0
  0
LINE
  5
F1D7
330
F158
100
AcDbEntity
  8
0
  6
Continuous
 62
     7
100
AcDbLine
 10
116.3834552583923
 20
14.1010784451534
 30
0.0
 11
114.9315392480926
 21
15.55303534185341
 31
0.0
  0
LINE
  5
F1D8
330
F158
100
AcDbEntity
  8
0
  6
Continuous
 62
     7
100
AcDbLine
 10
138.9999827099925
 20
88.99998629985342
 30
0.0
 11
139.9999914372924
 21
89.99999229985343
 31
0.0
  0
LINE
  5
F1D9
330
F158
100
AcDbEntity
  8
0
  6
Continuous
 62
     7
100
AcDbLine
 10
115.2184378743925
 20
45.96006729705339
 30
0.0
 11
114.8156198408924
 21
45.96006729705339
 31
0.0
  0
LINE
  5
F1DA
330
F158
100
AcDbEntity
  8
0
  6
Continuous
 62
     7
100
AcDbLine
 10
55.18438067029251
 20
45.96006729705339
 30
0.0
 11
54.78156263679238
 21
45.96006729705339
 31
0.0
  0
LINE
  5
F1DB
330
F158
100
AcDbEntity
  8
0
  6
Continuous
 62
     7
100
AcDbLine
 10
54.78156263789242
 20
46.11006729665342
 30
0.0
 11
55.18438067029251
 21
46.11006729665342
 31
0.0
  0
LINE
  5
F1DC
330
F158
100
AcDbEntity
  8
0
  6
Continuous
 62
     7
100
AcDbLine
 10
114.8156198408924
 20
46.11006729665342
 30
0.0
 11
115.2184378731924
 21
46.11006729665342
 31
0.0
  0
LINE
  5
F1DD
330
F158
100
AcDbEntity
  8
0
  6
Continuous
 62
     7
100
AcDbLine
 10
114.9315392464925
 20
46.39696592655343
 30
0.0
 11
114.5651178909925
 21
46.39696592655343
 31
0.0
  0
LINE
  5
F1DE
330
F158
100
AcDbEntity
  8
0
  6
Continuous
 62
     7
100
AcDbLine
 10
55.43488262019241
 20
46.39696592655343
 30
0.0
 11
55.06846126469236
 21
46.39696592655343
 31
0.0
  0
LINE
  5
F1DF
330
F158
100
AcDbEntity
  8
0
  6
Continuous
 62
     7
100
AcDbLine
 10
55.06846126239247
 20
46.84696592515339
 30
0.0
 11
55.43488261799257
 21
46.84696592515339
 31
0.0
  0
LINE
  5
F1E0
330
F158
100
AcDbEntity
  8
0
  6
Continuous
 62
     7
100
AcDbLine
 10
114.5651178931925
 20
46.84696592515339
 30
0.0
 11
114.9315392487924
 21
46.84696592515339
 31
0.0
  0
LINE
  5
F1E1
330
F158
100
AcDbEntity
  8
0
  6
Continuous
 62
     7
100
AcDbLine
 10
53.25000029999251
 20
49.18319378535341
 30
0.0
 11
53.50000028349246
 21
49.18319378535341
 31
0.0
  0
LINE
  5
F1E2
330
F158
100
AcDbEntity
  8
0
  6
Continuous
 62
     7
100
AcDbLine
 10
116.5000002276924
 20
49.18319381045342
 30
0.0
 11
116.7500002111924
 21
49.18319381045342
 31
0.0
  0
LINE
  5
F1E3
330
F158
100
AcDbEntity
  8
0
  6
Continuous
 62
     7
100
AcDbLine
 10
116.7500002390925
 20
51.08577872205342
 30
0.0
 11
116.5000002276924
 21
51.08577872205342
 31
0.0
  0
LINE
  5
F1E4
330
F158
100
AcDbEntity
  8
0
  6
Continuous
 62
     7
100
AcDbLine
 10
53.50000028349246
 20
51.08577869695341
 30
0.0
 11
53.25000027209239
 21
51.08577869695341
 31
0.0
  0
LINE
  5
F1E5
330
F158
100
AcDbEntity
  8
0
  6
Continuous
 62
     7
100
AcDbLine
 10
126.2500002555925
 20
33.56169450365343
 30
0.0
 11
126.6250002555926
 21
33.43403494435341
 31
0.0
  0
LINE
  5
F1E6
330
F158
100
AcDbEntity
  8
0
  6
Continuous
 62
     7
100
AcDbLine
 10
107.0273604099925
 20
37.74702284105342
 30
0.0
 11
107.2500001997925
 21
37.65480242055344
 31
0.0
  0
LINE
  5
F1E7
330
F158
100
AcDbEntity
  8
0
  6
Continuous
 62
     7
100
AcDbLine
 10
107.4881729980925
 20
38.22980242055343
 30
0.0
 11
107.2655332083925
 21
38.32202284105341
 31
0.0
  0
LINE
  5
F1E8
330
F158
100
AcDbEntity
  8
0
  6
Continuous
 62
     7
100
AcDbLine
 10
122.0000000171924
 20
33.81701362215341
 30
0.0
 11
121.5000004939925
 21
34.07233274065343
 31
0.0
  0
LINE
  5
F1E9
330
F158
100
AcDbEntity
  8
0
  6
Continuous
 62
     7
100
AcDbLine
 10
124.3750002555925
 20
28.7106305815534
 30
0.0
 11
125.0000007323924
 21
28.32765187035341
 31
0.0
  0
LINE
  5
F1EA
330
F158
100
AcDbEntity
  8
0
  6
Continuous
 62
     7
100
AcDbLine
 10
119.2500004939925
 20
29.09360930405341
 30
0.0
 11
118.8750004939925
 21
29.34892851195343
 31
0.0
  0
LINE
  5
F1EB
330
F158
100
AcDbEntity
  8
0
  6
Continuous
 62
     7
100
AcDbLine
 10
107.2928934185925
 20
24.0119250347534
 30
0.0
 11
114.7277524503925
 21
16.57706600265339
 31
0.0
  0
LINE
  5
F1EC
330
F158
100
AcDbEntity
  8
0
  6
Continuous
 62
     7
100
AcDbLine
 10
115.8379100944924
 20
15.77803534485343
 30
0.0
 11
116.9495691023924
 21
14.6663763352534
 31
0.0
  0
LINE
  5
F1ED
330
F158
100
AcDbEntity
  8
0
  6
Continuous
 62
     7
100
AcDbLine
 10
115.2184378735924
 20
16.43993397005343
 30
0.0
 11
107.4881729981925
 21
24.17019884585341
 31
0.0
  0
LINE
  5
F1EE
330
F158
100
AcDbEntity
  8
0
  6
Continuous
 62
     7
100
AcDbLine
 10
117.2000001953924
 20
15.09476775125341
 30
0.0
 11
107.8464468091924
 21
24.44832113785341
 31
0.0
  0
LINE
  5
F1EF
330
F158
100
AcDbEntity
  8
0
  6
Continuous
 62
     7
100
AcDbLine
 10
127.3000002555925
 20
12.00000029985341
 30
0.0
 11
127.2000002555924
 21
12.10000029985343
 31
0.0
  0
LINE
  5
F1F0
330
F158
100
AcDbEntity
  8
0
  6
Continuous
 62
     7
100
AcDbLine
 10
55.00004053309249
 20
53.00001313315343
 30
0.0
 11
114.9999794222924
 21
53.00001313315343
 31
0.0
  0
LINE
  5
F1F1
330
F158
100
AcDbEntity
  8
0
  6
Continuous
 62
     7
100
AcDbLine
 10
115.0535223952924
 20
53.30002354985342
 30
0.0
 11
54.9464781139925
 21
53.30002354985342
 31
0.0
  0
LINE
  5
F1F2
330
F158
100
AcDbEntity
  8
0
  6
Continuous
 62
     7
100
AcDbLine
 10
115.2899184992925
 20
53.70002354985342
 30
0.0
 11
54.71008201189238
 21
53.70002354985342
 31
0.0
  0
LINE
  5
F1F3
330
F158
100
AcDbEntity
  8
0
  6
Continuous
 62
     7
100
AcDbLine
 10
129.7499997787924
 20
28.7106305815534
 30
0.0
 11
130.3750002555925
 21
28.32765187035341
 31
0.0
  0
LINE
  5
F1F4
330
F158
100
AcDbEntity
  8
0
  6
Continuous
 62
     7
100
AcDbLine
 10
127.4999997787924
 20
31.51914119805343
 30
0.0
 11
126.8750007324925
 21
31.90211987575344
 31
0.0
  0
LINE
  5
F1F5
330
F158
100
AcDbEntity
  8
0
  6
Continuous
 62
     7
100
AcDbLine
 10
127.3750002555925
 20
33.6893540628534
 30
0.0
 11
126.7499997787924
 21
34.07233274065343
 31
0.0
  0
LINE
  5
F1F6
330
F158
100
AcDbEntity
  8
0
  6
Continuous
 62
     7
100
AcDbLine
 10
133.0000002555925
 20
31.51914119805343
 30
0.0
 11
132.3749997787925
 21
31.90211987575344
 31
0.0
  0
LINE
  5
F1F7
330
F158
100
AcDbEntity
  8
0
  6
Continuous
 62
     7
100
AcDbLine
 10
125.1250002555925
 20
28.9659497447534
 30
0.0
 11
124.7500002555925
 21
29.22126886325344
 31
0.0
  0
LINE
  5
F1F8
330
F158
100
AcDbEntity
  8
0
  6
Continuous
 62
     7
100
AcDbLine
 10
121.3750002555926
 20
33.30637538515339
 30
0.0
 11
121.7500002555925
 21
33.05105626665341
 31
0.0
  0
LINE
  5
F1F9
330
F158
100
AcDbEntity
  8
0
  6
Continuous
 62
     7
100
AcDbLine
 10
126.7499997787924
 20
31.26382207955342
 30
0.0
 11
127.1249997787925
 21
31.00850296105341
 31
0.0
  0
LINE
  5
F1FA
330
F158
100
AcDbEntity
  8
0
  6
Continuous
 62
     7
100
AcDbLine
 10
130.4999997787924
 20
28.9659497447534
 30
0.0
 11
130.1249997787925
 21
29.22126886325344
 31
0.0
  0
LINE
  5
F1FB
330
F158
100
AcDbEntity
  8
0
  6
Continuous
 62
     7
100
AcDbLine
 10
116.1250002555926
 20
33.6893540628534
 30
0.0
 11
115.6250003747925
 21
34.07233274065343
 31
0.0
  0
LINE
  5
F1FC
330
F158
100
AcDbEntity
  8
0
  6
Continuous
 62
     7
100
AcDbLine
 10
118.1250004939925
 20
29.09360930405341
 30
0.0
 11
118.6250000171924
 21
28.58297102235344
 31
0.0
  0
LINE
  5
F1FD
330
F158
100
AcDbEntity
  8
0
  6
Continuous
 62
     7
100
AcDbLine
 10
63.49999342069259
 20
1.000041758253416
 30
0.0
 11
62.50001296409255
 21
0.0000544666534097
 31
0.0
  0
LINE
  5
F1FE
330
F158
100
AcDbEntity
  8
0
  6
Continuous
 62
     7
100
AcDbLine
 10
116.3838837210924
 20
51.96966222135341
 30
0.0
 11
116.2071070274924
 21
51.79288552795341
 31
0.0
  0
LINE
  5
F1FF
330
F158
100
AcDbEntity
  8
0
  6
Continuous
 62
     7
100
AcDbLine
 10
116.2071069815924
 20
48.47608705075342
 30
0.0
 11
114.5651178931925
 21
46.8340979598534
 31
0.0
  0
LINE
  5
F200
330
F158
100
AcDbEntity
  8
0
  6
Continuous
 62
     7
100
AcDbLine
 10
114.9315392480926
 20
46.84696592455341
 30
0.0
 11
116.3834552578923
 21
48.29892282075343
 31
0.0
  0
LINE
  5
F201
330
F158
100
AcDbEntity
  8
0
  6
Continuous
 62
     7
100
AcDbLine
 10
126.6250002555926
 20
33.43403494435341
 30
0.0
 11
127.0000002555925
 21
33.17871582585343
 31
0.0
  0
LINE
  5
F202
330
F158
100
AcDbEntity
  8
0
  6
Continuous
 62
     7
100
AcDbLine
 10
132.2500002555925
 20
31.26382207955342
 30
0.0
 11
132.6250002555925
 21
31.00850296105341
 31
0.0
  0
LINE
  5
F203
330
F158
100
AcDbEntity
  8
0
  6
Continuous
 62
     7
100
AcDbLine
 10
115.5000001363923
 20
33.43403494435341
 30
0.0
 11
115.7500002555925
 21
33.17871582585343
 31
0.0
  0
LINE
  5
F204
330
F158
100
AcDbEntity
  8
0
  6
Continuous
 62
     7
100
AcDbLine
 10
122.5000002555926
 20
33.30637538515339
 30
0.0
 11
122.0000000171924
 21
33.81701362215341
 31
0.0
  0
LINE
  5
F205
330
F158
100
AcDbEntity
  8
0
  6
Continuous
 62
     7
100
AcDbLine
 10
116.5000002555925
 20
33.17871582585343
 30
0.0
 11
116.1250002555926
 21
33.6893540628534
 31
0.0
  0
LINE
  5
F206
330
F158
100
AcDbEntity
  8
0
  6
Continuous
 62
     7
100
AcDbLine
 10
118.8750004939925
 20
29.34892851195343
 30
0.0
 11
118.6250000171924
 21
29.73190718965341
 31
0.0
  0
LINE
  5
F207
330
F158
100
AcDbEntity
  8
0
  6
Continuous
 62
     7
100
AcDbLine
 10
107.0000001997925
 20
37.6809694504534
 30
0.0
 11
107.0000001997925
 21
24.71903181595343
 31
0.0
  0
LINE
  5
F208
330
F158
100
AcDbEntity
  8
0
  6
Continuous
 62
     7
100
AcDbLine
 10
107.2500001997925
 20
24.74519884585343
 30
0.0
 11
107.2500001997925
 21
37.65480242055344
 31
0.0
  0
LINE
  5
F209
330
F158
100
AcDbEntity
  8
0
  6
Continuous
 62
     7
100
AcDbLine
 10
107.7000001997924
 20
24.80187452845342
 30
0.0
 11
107.7000001997924
 21
37.59812673795341
 31
0.0
  0
LINE
  5
F20A
330
F158
100
AcDbEntity
  8
0
  6
Continuous
 62
     7
100
AcDbLine
 10
115.0534846067924
 20
53.30003920275342
 30
0.0
 11
114.9395738499925
 21
53.0250339035534
 31
0.0
  0
LINE
  5
F20B
330
F158
100
AcDbEntity
  8
0
  6
Continuous
 62
     7
100
AcDbLine
 10
114.7277524503925
 20
45.82293526365339
 30
0.0
 11
107.2928934185925
 21
38.38807623155344
 31
0.0
  0
LINE
  5
F20C
330
F158
100
AcDbEntity
  8
0
  6
Continuous
 62
     7
100
AcDbLine
 10
116.9495691023924
 20
47.7336249311534
 30
0.0
 11
115.8379100944924
 21
46.62196592155342
 31
0.0
  0
LINE
  5
F20D
330
F158
100
AcDbEntity
  8
0
  6
Continuous
 62
     7
100
AcDbLine
 10
107.4881729981925
 20
38.22980242055343
 30
0.0
 11
115.2184378735924
 21
45.96006729635343
 31
0.0
  0
LINE
  5
F20E
330
F158
100
AcDbEntity
  8
0
  6
Continuous
 62
     7
100
AcDbLine
 10
107.8464468091924
 20
37.95168012855339
 30
0.0
 11
117.2000002555924
 21
47.30523357535341
 31
0.0
  0
LINE
  5
F20F
330
F158
100
AcDbEntity
  8
0
  6
Continuous
 62
     7
100
AcDbLine
 10
119.1250002555925
 20
34.07233274065343
 30
0.0
 11
118.6250000171924
 21
33.81701362215341
 31
0.0
  0
LINE
  5
F210
330
F158
100
AcDbEntity
  8
0
  6
Continuous
 62
     7
100
AcDbLine
 10
115.6250003747925
 20
31.13616252025341
 30
0.0
 11
116.1250002555926
 21
31.39148163875342
 31
0.0
  0
LINE
  5
F211
330
F158
100
AcDbEntity
  8
0
  6
Continuous
 62
     7
100
AcDbLine
 10
115.5000001363923
 20
31.77446031655342
 30
0.0
 11
115.1250001363923
 21
31.6468007572534
 31
0.0
  0
LINE
  5
F212
330
F158
100
AcDbEntity
  8
0
  6
Continuous
 62
     7
100
AcDbLine
 10
125.1250002555925
 20
33.43403494435341
 30
0.0
 11
125.5000002555926
 21
33.56169450365343
 31
0.0
  0
LINE
  5
F213
330
F158
100
AcDbEntity
  8
0
  6
Continuous
 62
     7
100
AcDbLine
 10
125.1250002555925
 20
31.26382207955342
 30
0.0
 11
125.5000002555926
 21
31.39148163875342
 31
0.0
  0
LINE
  5
F214
330
F158
100
AcDbEntity
  8
0
  6
Continuous
 62
     7
100
AcDbLine
 10
114.5651178909925
 20
46.40983389355341
 30
0.0
 11
114.7277524524925
 21
46.24719933025341
 31
0.0
  0
LINE
  5
F215
330
F158
100
AcDbEntity
  8
0
  6
Continuous
 62
     7
100
AcDbLine
 10
115.2184378739925
 20
46.11006729585341
 30
0.0
 11
114.9315392470926
 21
46.39696592595339
 31
0.0
  0
LINE
  5
F216
330
F158
100
AcDbEntity
  8
0
  6
Continuous
 62
     7
100
AcDbLine
 10
117.2000002555924
 20
47.48319377825342
 30
0.0
 11
116.9495691023924
 21
47.7336249311534
 31
0.0
  0
LINE
  5
F217
330
F158
100
AcDbEntity
  8
0
  6
Continuous
 62
     7
100
AcDbLine
 10
116.2071069914925
 20
48.47608706075343
 30
0.0
 11
116.3838836894924
 21
48.29931037175342
 31
0.0
  0
LINE
  5
F218
330
F158
100
AcDbEntity
  8
0
  6
Continuous
 62
     7
100
AcDbLine
 10
127.1249997787925
 20
31.00850296105341
 30
0.0
 11
127.3750002555925
 21
30.75318384255343
 31
0.0
  0
LINE
  5
F219
330
F158
100
AcDbEntity
  8
0
  6
Continuous
 62
     7
100
AcDbLine
 10
127.8749997787924
 20
31.13616252025341
 30
0.0
 11
127.4999997787924
 21
31.51914119805343
 31
0.0
  0
LINE
  5
F21A
330
F158
100
AcDbEntity
  8
0
  6
Continuous
 62
     7
100
AcDbLine
 10
124.0000002555925
 20
29.22126886325344
 30
0.0
 11
124.3750002555925
 21
28.7106305815534
 31
0.0
  0
LINE
  5
F21B
330
F158
100
AcDbEntity
  8
0
  6
Continuous
 62
     7
100
AcDbLine
 10
129.3749997787924
 20
29.22126886325344
 30
0.0
 11
129.7499997787924
 21
28.7106305815534
 31
0.0
  0
LINE
  5
F21C
330
F158
100
AcDbEntity
  8
0
  6
Continuous
 62
     7
100
AcDbLine
 10
124.7500002555925
 20
29.22126886325344
 30
0.0
 11
124.4999997786924
 21
29.60424763045342
 31
0.0
  0
LINE
  5
F21D
330
F158
100
AcDbEntity
  8
0
  6
Continuous
 62
     7
100
AcDbLine
 10
117.8750003747925
 20
29.60424763045342
 30
0.0
 11
118.1250004939925
 21
29.09360930405341
 31
0.0
  0
LINE
  5
F21E
330
F158
100
AcDbEntity
  8
0
  6
Continuous
 62
     7
100
AcDbLine
 10
116.7500003747925
 20
28.19999229985342
 30
0.0
 11
115.6250003747925
 21
31.13616252025341
 31
0.0
  0
LINE
  5
F21F
330
F158
100
AcDbEntity
  8
0
  6
Continuous
 62
     7
100
AcDbLine
 10
114.8750001959925
 20
30.8808434017534
 30
0.0
 11
115.8750001363924
 21
28.19999229985342
 31
0.0
  0
LINE
  5
F220
330
F158
100
AcDbEntity
  8
0
  6
Continuous
 62
     7
100
AcDbLine
 10
115.7500002555925
 20
33.17871582585343
 30
0.0
 11
115.8750001363924
 21
32.79573714815342
 31
0.0
  0
LINE
  5
F221
330
F158
100
AcDbEntity
  8
0
  6
Continuous
 62
     7
100
AcDbLine
 10
116.6250001363923
 20
32.79573714815342
 30
0.0
 11
116.5000002555925
 21
33.17871582585343
 31
0.0
  0
LINE
  5
F222
330
F158
100
AcDbEntity
  8
0
  6
Continuous
 62
     7
100
AcDbLine
 10
112.0000002555926
 20
28.19999229985342
 30
0.0
 11
112.0000002555926
 21
34.19999229985342
 31
0.0
  0
LINE
  5
F223
330
F158
100
AcDbEntity
  8
0
  6
Continuous
 62
     7
100
AcDbLine
 10
112.7500002555925
 20
33.56169450365343
 30
0.0
 11
112.7500002555925
 21
31.6468007572534
 31
0.0
  0
LINE
  5
F224
330
F158
100
AcDbEntity
  8
0
  6
Continuous
 62
     7
100
AcDbLine
 10
112.7500002555925
 20
30.8808434017534
 30
0.0
 11
112.7500002555925
 21
28.19999229985342
 31
0.0
  0
LINE
  5
F225
330
F158
100
AcDbEntity
  8
0
  6
Continuous
 62
     7
100
AcDbLine
 10
115.8750001363924
 20
32.41275811275341
 30
0.0
 11
115.8750001363924
 21
32.79573714815342
 31
0.0
  0
LINE
  5
F226
330
F158
100
AcDbEntity
  8
0
  6
Continuous
 62
     7
100
AcDbLine
 10
116.5000002276924
 20
51.0857789493534
 30
0.0
 11
116.5000002276924
 21
49.18319404325342
 31
0.0
  0
LINE
  5
F227
330
F158
100
AcDbEntity
  8
0
  6
Continuous
 62
     7
100
AcDbLine
 10
116.5000202276924
 20
13.21665531085341
 30
0.0
 11
116.5000202276924
 21
1.999931605053404
 31
0.0
  0
LINE
  5
F228
330
F158
100
AcDbEntity
  8
0
  6
Continuous
 62
     7
100
AcDbLine
 10
116.6250001363923
 20
32.79573714815342
 30
0.0
 11
116.6250001363923
 21
32.28509855355341
 31
0.0
  0
LINE
  5
F229
330
F158
100
AcDbEntity
  8
0
  6
Continuous
 62
     7
100
AcDbLine
 10
116.7499713100924
 20
49.18377091105341
 30
0.0
 11
116.7499713100924
 21
51.0852020284534
 31
0.0
  0
LINE
  5
F22A
330
F158
100
AcDbEntity
  8
0
  6
Continuous
 62
     7
100
AcDbLine
 10
116.7499857437924
 20
12.10000029985343
 30
0.0
 11
116.7499857437924
 21
13.21612071225343
 31
0.0
  0
LINE
  5
F22B
330
F158
100
AcDbEntity
  8
0
  6
Continuous
 62
     7
100
AcDbLine
 10
117.2000001953924
 20
13.1000003261534
 30
0.0
 11
117.2000001953924
 21
15.09476775125341
 31
0.0
  0
LINE
  5
F22C
330
F158
100
AcDbEntity
  8
0
  6
Continuous
 62
     7
100
AcDbLine
 10
117.2000002555924
 20
47.30523357535341
 30
0.0
 11
117.2000002555924
 21
51.08577873755343
 31
0.0
  0
LINE
  5
F22D
330
F158
100
AcDbEntity
  8
0
  6
Continuous
 62
     7
100
AcDbLine
 10
117.7500001363924
 20
30.24254542665341
 30
0.0
 11
117.7500001363924
 21
32.15743899425343
 31
0.0
  0
LINE
  5
F22E
330
F158
100
AcDbEntity
  8
0
  6
Continuous
 62
     7
100
AcDbLine
 10
115.7500002555925
 20
32.02977943505343
 30
0.0
 11
115.5000001363923
 21
31.77446031655342
 31
0.0
  0
LINE
  5
F22F
330
F158
100
AcDbEntity
  8
0
  6
Continuous
 62
     7
100
AcDbLine
 10
118.6250000171924
 20
33.81701362215341
 30
0.0
 11
118.1250004939925
 21
33.30637538515339
 31
0.0
  0
LINE
  5
F230
330
F158
100
AcDbEntity
  8
0
  6
Continuous
 62
     7
100
AcDbLine
 10
118.8750004939925
 20
33.05105626665341
 30
0.0
 11
119.2500004939925
 21
33.30637538515339
 31
0.0
  0
LINE
  5
F231
330
F158
100
AcDbEntity
  8
0
  6
Continuous
 62
     7
100
AcDbLine
 10
124.7500002555925
 20
33.17871582585343
 30
0.0
 11
125.1250002555925
 21
33.43403494435341
 31
0.0
  0
LINE
  5
F232
330
F158
100
AcDbEntity
  8
0
  6
Continuous
 62
     7
100
AcDbLine
 10
125.0000007323924
 20
34.07233274065343
 30
0.0
 11
124.3750002555925
 21
33.6893540628534
 31
0.0
  0
LINE
  5
F233
330
F158
100
AcDbEntity
  8
0
  6
Continuous
 62
     7
100
AcDbLine
 10
121.5000004939925
 20
28.32765187035341
 30
0.0
 11
122.0000000171924
 21
28.58297102235344
 31
0.0
  0
LINE
  5
F234
330
F158
100
AcDbEntity
  8
0
  6
Continuous
 62
     7
100
AcDbLine
 10
107.2500001997925
 20
24.74519884585343
 30
0.0
 11
107.0273604099925
 21
24.65297842535341
 31
0.0
  0
LINE
  5
F235
330
F158
100
AcDbEntity
  8
0
  6
Continuous
 62
     7
100
AcDbLine
 10
107.2655332083925
 20
24.07797842545341
 30
0.0
 11
107.4881729981925
 21
24.17019884585341
 31
0.0
  0
LINE
  5
F236
330
F158
100
AcDbEntity
  8
0
  6
Continuous
 62
     7
100
AcDbLine
 10
126.7499997787924
 20
28.9659497447534
 30
0.0
 11
126.3749997787924
 21
28.83829018555343
 31
0.0
  0
LINE
  5
F237
330
F158
100
AcDbEntity
  8
0
  6
Continuous
 62
     7
100
AcDbLine
 10
114.9999794222924
 20
53.00001313315343
 30
0.0
 11
116.2071070367924
 21
51.7928855186534
 31
0.0
  0
LINE
  5
F238
330
F158
100
AcDbEntity
  8
0
  6
Continuous
 62
     7
100
AcDbLine
 10
116.3834553099925
 20
51.97004975285341
 30
0.0
 11
115.0535223952924
 21
53.30002354985342
 31
0.0
  0
LINE
  5
F239
330
F158
100
AcDbEntity
  8
0
  6
Continuous
 62
     7
100
AcDbLine
 10
116.7020817835923
 20
52.2878602655534
 30
0.0
 11
115.2899184992925
 21
53.70002354985342
 31
0.0
  0
LINE
  5
F23A
330
F158
100
AcDbEntity
  8
0
  6
Continuous
 62
     7
100
AcDbLine
 10
127.7500002555925
 20
33.17871582585343
 30
0.0
 11
127.3750002555925
 21
33.6893540628534
 31
0.0
  0
LINE
  5
F23B
330
F158
100
AcDbEntity
  8
0
  6
Continuous
 62
     7
100
AcDbLine
 10
133.3750002555925
 20
31.00850296105341
 30
0.0
 11
133.0000002555925
 21
31.51914119805343
 31
0.0
  0
LINE
  5
F23C
330
F158
100
AcDbEntity
  8
0
  6
Continuous
 62
     7
100
AcDbLine
 10
127.0000002555925
 20
33.17871582585343
 30
0.0
 11
127.2500007323924
 21
32.79573714815342
 31
0.0
  0
LINE
  5
F23D
330
F158
100
AcDbEntity
  8
0
  6
Continuous
 62
     7
100
AcDbLine
 10
132.6250002555925
 20
31.00850296105341
 30
0.0
 11
132.8750007323924
 21
30.62552428325342
 31
0.0
  0
LINE
  5
F23E
330
F158
100
AcDbEntity
  8
0
  6
Continuous
 62
     7
100
AcDbLine
 10
129.1250007323924
 20
29.73190718965341
 30
0.0
 11
129.3749997787924
 21
29.22126886325344
 31
0.0
  0
LINE
  5
F23F
330
F158
100
AcDbEntity
  8
0
  6
Continuous
 62
     7
100
AcDbLine
 10
123.7500004939925
 20
29.8595667489534
 30
0.0
 11
124.0000002555925
 21
29.22126886325344
 31
0.0
  0
LINE
  5
F240
330
F158
100
AcDbEntity
  8
0
  6
Continuous
 62
     7
100
AcDbLine
 10
121.7500002555925
 20
33.05105626665341
 30
0.0
 11
121.8750004939925
 21
32.66807723125342
 31
0.0
  0
LINE
  5
F241
330
F158
100
AcDbEntity
  8
0
  6
Continuous
 62
     7
100
AcDbLine
 10
124.4999997786924
 20
29.60424763045342
 30
0.0
 11
124.3750002555925
 21
29.98722630815342
 31
0.0
  0
LINE
  5
F242
330
F158
100
AcDbEntity
  8
0
  6
Continuous
 62
     7
100
AcDbLine
 10
118.6250000171924
 20
29.73190718965341
 30
0.0
 11
118.5000004939925
 21
30.24254542665341
 31
0.0
  0
LINE
  5
F243
330
F158
100
AcDbEntity
  8
0
  6
Continuous
 62
     7
100
AcDbLine
 10
117.7500001363924
 20
30.24254542665341
 30
0.0
 11
117.8750003747925
 21
29.60424763045342
 31
0.0
  0
LINE
  5
F244
330
F158
100
AcDbEntity
  8
0
  6
Continuous
 62
     7
100
AcDbLine
 10
118.5000004939925
 20
32.15743899425343
 30
0.0
 11
118.5000004939925
 21
30.24254542665341
 31
0.0
  0
LINE
  5
F245
330
F158
100
AcDbEntity
  8
0
  6
Continuous
 62
     7
100
AcDbLine
 10
120.7500004939925
 20
30.75318384255343
 30
0.0
 11
120.7500004939925
 21
31.51914119805343
 31
0.0
  0
LINE
  5
F246
330
F158
100
AcDbEntity
  8
0
  6
Continuous
 62
     7
100
AcDbLine
 10
121.8750004939925
 20
29.73190718965341
 30
0.0
 11
121.8750004939925
 21
30.75318384255343
 31
0.0
  0
LINE
  5
F247
330
F158
100
AcDbEntity
  8
0
  6
Continuous
 62
     7
100
AcDbLine
 10
122.6250004939925
 20
31.51914119805343
 30
0.0
 11
122.6250004939925
 21
29.60424763045342
 31
0.0
  0
LINE
  5
F248
330
F158
100
AcDbEntity
  8
0
  6
Continuous
 62
     7
100
AcDbLine
 10
123.6250002555925
 20
30.75318384255343
 30
0.0
 11
123.6250002555925
 21
31.6468007572534
 31
0.0
  0
LINE
  5
F249
330
F158
100
AcDbEntity
  8
0
  6
Continuous
 62
     7
100
AcDbLine
 10
124.2500007323924
 20
31.6468007572534
 30
0.0
 11
124.2500007323924
 21
31.39148163875342
 31
0.0
  0
LINE
  5
F24A
330
F158
100
AcDbEntity
  8
0
  6
Continuous
 62
     7
100
AcDbLine
 10
117.8750003747925
 20
32.79573714815342
 30
0.0
 11
117.7500001363924
 21
32.15743899425343
 31
0.0
  0
LINE
  5
F24B
330
F158
100
AcDbEntity
  8
0
  6
Continuous
 62
     7
100
AcDbLine
 10
118.5000004939925
 20
32.15743899425343
 30
0.0
 11
118.6250000171924
 21
32.66807723125342
 31
0.0
  0
LINE
  5
F24C
330
F158
100
AcDbEntity
  8
0
  6
Continuous
 62
     7
100
AcDbLine
 10
115.8750001363924
 20
32.41275811275341
 30
0.0
 11
115.7500002555925
 21
32.02977943505343
 31
0.0
  0
LINE
  5
F24D
330
F158
100
AcDbEntity
  8
0
  6
Continuous
 62
     7
100
AcDbLine
 10
116.5000002555925
 20
31.90211987575344
 30
0.0
 11
116.6250001363923
 21
32.28509855355341
 31
0.0
  0
LINE
  5
F24E
330
F158
100
AcDbEntity
  8
0
  6
Continuous
 62
     7
100
AcDbLine
 10
118.1250004939925
 20
33.30637538515339
 30
0.0
 11
117.8750003747925
 21
32.79573714815342
 31
0.0
  0
LINE
  5
F24F
330
F158
100
AcDbEntity
  8
0
  6
Continuous
 62
     7
100
AcDbLine
 10
118.6250000171924
 20
32.66807723125342
 30
0.0
 11
118.8750004939925
 21
33.05105626665341
 31
0.0
  0
LINE
  5
F250
330
F158
100
AcDbEntity
  8
0
  6
Continuous
 62
     7
100
AcDbLine
 10
116.1250002555926
 20
31.39148163875342
 30
0.0
 11
116.5000002555925
 21
31.90211987575344
 31
0.0
  0
LINE
  5
F251
330
F158
100
AcDbEntity
  8
0
  6
Continuous
 62
     7
100
AcDbLine
 10
124.3750002555925
 20
33.6893540628534
 30
0.0
 11
124.0000002555925
 21
33.17871582585343
 31
0.0
  0
LINE
  5
F252
330
F158
100
AcDbEntity
  8
0
  6
Continuous
 62
     7
100
AcDbLine
 10
122.0000000171924
 20
28.58297102235344
 30
0.0
 11
122.5000002555926
 21
29.09360930405341
 31
0.0
  0
LINE
  5
F253
330
F158
100
AcDbEntity
  8
0
  6
Continuous
 62
     7
100
AcDbLine
 10
124.4999997787924
 20
30.75318384255343
 30
0.0
 11
124.7500002555925
 21
31.00850296105341
 31
0.0
  0
LINE
  5
F254
330
F158
100
AcDbEntity
  8
0
  6
Continuous
 62
     7
100
AcDbLine
 10
130.0000002555925
 20
30.8808434017534
 30
0.0
 11
130.4999997787924
 21
31.26382207955342
 31
0.0
  0
LINE
  5
F255
330
F158
100
AcDbEntity
  8
0
  6
Continuous
 62
     7
100
AcDbLine
 10
125.0000007323924
 20
31.90211987575344
 30
0.0
 11
124.2500007323924
 21
31.39148163875342
 31
0.0
  0
LINE
  5
F256
330
F158
100
AcDbEntity
  8
0
  6
Continuous
 62
     7
100
AcDbLine
 10
121.7500002555925
 20
29.34892851195343
 30
0.0
 11
121.3750002555926
 21
29.09360930405341
 31
0.0
  0
LINE
  5
F257
330
F158
100
AcDbEntity
  8
0
  6
Continuous
 62
     7
100
AcDbLine
 10
124.7500002555925
 20
31.00850296105341
 30
0.0
 11
125.1250002555925
 21
31.26382207955342
 31
0.0
  0
LINE
  5
F258
330
F158
100
AcDbEntity
  8
0
  6
Continuous
 62
     7
100
AcDbLine
 10
127.1249997787925
 20
29.22126886335343
 30
0.0
 11
126.7499997787924
 21
28.9659497447534
 31
0.0
  0
LINE
  5
F259
330
F158
100
AcDbEntity
  8
0
  6
Continuous
 62
     7
100
AcDbLine
 10
130.3750002555925
 20
31.90211987575344
 30
0.0
 11
129.7499997787924
 21
31.51914119805343
 31
0.0
  0
LINE
  5
F25A
330
F158
100
AcDbEntity
  8
0
  6
Continuous
 62
     7
100
AcDbLine
 10
126.8750007323924
 20
28.32765187035341
 30
0.0
 11
127.4999997787924
 21
28.7106305815534
 31
0.0
  0
LINE
  5
F25B
330
F158
100
AcDbEntity
  8
0
  6
Continuous
 62
     7
100
AcDbLine
 10
132.3749997786924
 20
28.32765187035341
 30
0.0
 11
133.0000002555925
 21
28.7106305815534
 31
0.0
  0
LINE
  5
F25C
330
F158
100
AcDbEntity
  8
0
  6
Continuous
 62
     7
100
AcDbLine
 10
130.1249997787925
 20
29.22126886325344
 30
0.0
 11
129.8750007323924
 21
29.73190718965341
 31
0.0
  0
LINE
  5
F25D
330
F158
100
AcDbEntity
  8
0
  6
Continuous
 62
     7
100
AcDbLine
 10
128.1250002555925
 20
30.49786472405344
 30
0.0
 11
127.8749997787924
 21
31.13616252025341
 31
0.0
  0
LINE
  5
F25E
330
F158
100
AcDbEntity
  8
0
  6
Continuous
 62
     7
100
AcDbLine
 10
127.3750002555925
 20
30.75318384255343
 30
0.0
 11
127.4999997787924
 21
30.37020498595342
 31
0.0
  0
LINE
  5
F25F
330
F158
100
AcDbEntity
  8
0
  6
Continuous
 62
     7
100
AcDbLine
 10
127.8749997787924
 20
32.79573714815342
 30
0.0
 11
127.7500002555925
 21
33.17871582585343
 31
0.0
  0
LINE
  5
F260
330
F158
100
AcDbEntity
  8
0
  6
Continuous
 62
     7
100
AcDbLine
 10
122.6250004939925
 20
32.66807723125342
 30
0.0
 11
122.5000002555926
 21
33.30637538515339
 31
0.0
  0
LINE
  5
F261
330
F158
100
AcDbEntity
  8
0
  6
Continuous
 62
     7
100
AcDbLine
 10
123.6250002555925
 20
30.75318384255343
 30
0.0
 11
123.7500004939925
 21
29.8595667489534
 31
0.0
  0
LINE
  5
F262
330
F158
100
AcDbEntity
  8
0
  6
Continuous
 62
     7
100
AcDbLine
 10
124.3750002555925
 20
30.37020498595342
 30
0.0
 11
124.3750002555925
 21
29.98722630815342
 31
0.0
  0
LINE
  5
F263
330
F158
100
AcDbEntity
  8
0
  6
Continuous
 62
     7
100
AcDbLine
 10
127.4999997787924
 20
29.98722630815342
 30
0.0
 11
127.4999997787924
 21
30.37020498595342
 31
0.0
  0
LINE
  5
F264
330
F158
100
AcDbEntity
  8
0
  6
Continuous
 62
     7
100
AcDbLine
 10
128.1250002555925
 20
30.49786472405344
 30
0.0
 11
128.1250002555925
 21
29.8595667489534
 31
0.0
  0
LINE
  5
F265
330
F158
100
AcDbEntity
  8
0
  6
Continuous
 62
     7
100
AcDbLine
 10
129.1250007323924
 20
30.8808434017534
 30
0.0
 11
129.1250007323924
 21
34.19999229985342
 31
0.0
  0
LINE
  5
F266
330
F158
100
AcDbEntity
  8
0
  6
Continuous
 62
     7
100
AcDbLine
 10
129.7499997787924
 20
33.56169450365343
 30
0.0
 11
129.7499997787924
 21
31.51914119805343
 31
0.0
  0
LINE
  5
F267
330
F158
100
AcDbEntity
  8
0
  6
Continuous
 62
     7
100
AcDbLine
 10
123.7500004939925
 20
32.54041767205342
 30
0.0
 11
123.6250002555925
 21
31.6468007572534
 31
0.0
  0
LINE
  5
F268
330
F158
100
AcDbEntity
  8
0
  6
Continuous
 62
     7
100
AcDbLine
 10
124.2500007323924
 20
31.6468007572534
 30
0.0
 11
124.3750002555925
 21
32.41275811275341
 31
0.0
  0
LINE
  5
F269
330
F158
100
AcDbEntity
  8
0
  6
Continuous
 62
     7
100
AcDbLine
 10
122.5000002555926
 20
29.09360930405341
 30
0.0
 11
122.6250004939925
 21
29.60424763045342
 31
0.0
  0
LINE
  5
F26A
330
F158
100
AcDbEntity
  8
0
  6
Continuous
 62
     7
100
AcDbLine
 10
121.8750004939925
 20
29.73190718965341
 30
0.0
 11
121.7500002555925
 21
29.34892851195343
 31
0.0
  0
LINE
  5
F26B
330
F158
100
AcDbEntity
  8
0
  6
Continuous
 62
     7
100
AcDbLine
 10
124.3750002555925
 20
32.41275811275341
 30
0.0
 11
124.4999997787924
 21
32.79573714815342
 31
0.0
  0
LINE
  5
F26C
330
F158
100
AcDbEntity
  8
0
  6
Continuous
 62
     7
100
AcDbLine
 10
124.3750002555925
 20
30.37020498595342
 30
0.0
 11
124.4999997787924
 21
30.75318384255343
 31
0.0
  0
LINE
  5
F26D
330
F158
100
AcDbEntity
  8
0
  6
Continuous
 62
     7
100
AcDbLine
 10
127.4999997787924
 20
29.98722630815342
 30
0.0
 11
127.3750002555925
 21
29.60424763045342
 31
0.0
  0
LINE
  5
F26E
330
F158
100
AcDbEntity
  8
0
  6
Continuous
 62
     7
100
AcDbLine
 10
124.0000002555925
 20
33.17871582585343
 30
0.0
 11
123.7500004939925
 21
32.54041767205342
 31
0.0
  0
LINE
  5
F26F
330
F158
100
AcDbEntity
  8
0
  6
Continuous
 62
     7
100
AcDbLine
 10
127.8749997787924
 20
29.22126886325344
 30
0.0
 11
128.1250002555925
 21
29.8595667489534
 31
0.0
  0
LINE
  5
F270
330
F158
100
AcDbEntity
  8
0
  6
Continuous
 62
     7
100
AcDbLine
 10
124.4999997787924
 20
32.79573714815342
 30
0.0
 11
124.7500002555925
 21
33.17871582585343
 31
0.0
  0
LINE
  5
F271
330
F158
100
AcDbEntity
  8
0
  6
Continuous
 62
     7
100
AcDbLine
 10
127.3750002555925
 20
29.60424763045342
 30
0.0
 11
127.1249997787925
 21
29.22126886335343
 31
0.0
  0
LINE
  5
F272
330
F158
100
AcDbEntity
  8
0
  6
Continuous
 62
     7
100
AcDbLine
 10
127.4999997787924
 20
28.7106305815534
 30
0.0
 11
127.8749997787924
 21
29.22126886325344
 31
0.0
  0
LINE
  5
F273
330
F158
100
AcDbEntity
  8
0
  6
Continuous
 62
     7
100
AcDbLine
 10
98.50000167149255
 20
1.000005299853455
 30
0.0
 11
97.50001327639257
 21
0.0000183207533837
 31
0.0
  0
LINE
  5
F274
330
F158
100
AcDbEntity
  8
0
  6
Continuous
 62
     7
100
AcDbLine
 10
114.7277524524925
 20
16.15280193615342
 30
0.0
 11
114.5651178909925
 21
15.99016737295341
 31
0.0
  0
LINE
  5
F275
330
F158
100
AcDbEntity
  8
0
  6
Continuous
 62
     7
100
AcDbLine
 10
114.9315392470926
 20
16.00303534045344
 30
0.0
 11
115.2184378739925
 21
16.28993397045343
 31
0.0
  0
LINE
  5
F276
330
F158
100
AcDbEntity
  8
0
  6
Continuous
 62
     7
100
AcDbLine
 10
116.3838836659925
 20
14.10069091805343
 30
0.0
 11
116.2071069751923
 21
13.92391422195339
 31
0.0
  0
LINE
  5
F277
330
F158
100
AcDbEntity
  8
0
  6
Continuous
 62
     7
100
AcDbLine
 10
116.9495691023924
 20
14.6663763352534
 30
0.0
 11
117.2000001953924
 21
14.91680742795341
 31
0.0
  0
LINE
  5
F278
330
F158
100
AcDbEntity
  8
0
  6
Continuous
 62
     7
100
AcDbLine
 10
132.6250002555925
 20
29.22126886335343
 30
0.0
 11
132.2500002555925
 21
28.9659497447534
 31
0.0
  0
LINE
  5
F279
330
F158
100
AcDbEntity
  8
0
  6
Continuous
 62
     7
100
AcDbLine
 10
26.50000025559257
 20
88.49999229985343
 30
0.0
 11
143.5000002555925
 21
88.49999229985343
 31
0.0
  0
LINE
  5
F27A
330
F158
100
AcDbEntity
  8
0
  6
Continuous
 62
     7
100
AcDbLine
 10
30.9999875952924
 20
88.99998629985342
 30
0.0
 11
58.99999334649237
 21
88.99998629985342
 31
0.0
  0
LINE
  5
F27B
330
F158
100
AcDbEntity
  8
0
  6
Continuous
 62
     7
100
AcDbLine
 10
111.0000071646925
 20
88.99998629985342
 30
0.0
 11
138.9999827099925
 21
88.99998629985342
 31
0.0
  0
LINE
  5
F27C
330
F158
100
AcDbEntity
  8
0
  6
Continuous
 62
     7
100
AcDbLine
 10
97.00000025559257
 20
89.49999229985342
 30
0.0
 11
73.00000025559256
 21
89.49999229985342
 31
0.0
  0
LINE
  5
F27D
330
F158
100
AcDbEntity
  8
0
  6
Continuous
 62
     7
100
AcDbLine
 10
2.500000255592567
 20
89.99999229985343
 30
0.0
 11
29.99997886799247
 21
89.99999229985343
 31
0.0
  0
LINE
  5
F27E
330
F158
100
AcDbEntity
  8
0
  6
Continuous
 62
     7
100
AcDbLine
 10
60.00000025559256
 20
89.99999229985343
 30
0.0
 11
110.0000002555926
 21
89.99999229985343
 31
0.0
  0
LINE
  5
F27F
330
F158
100
AcDbEntity
  8
0
  6
Continuous
 62
     7
100
AcDbLine
 10
139.9999914372924
 20
89.99999229985343
 30
0.0
 11
167.4999972555924
 21
89.99999229985343
 31
0.0
  0
LINE
  5
F280
330
F158
100
AcDbEntity
  8
0
  6
Continuous
 62
     7
100
AcDbLine
 10
97.00000025559257
 20
89.49999229985342
 30
0.0
 11
98.00000025559256
 21
88.49999229985343
 31
0.0
  0
LINE
  5
F281
330
F158
100
AcDbEntity
  8
0
  6
Continuous
 62
     7
100
AcDbLine
 10
133.6250007323924
 20
30.37020498595342
 30
0.0
 11
133.3750002555925
 21
31.00850296105341
 31
0.0
  0
LINE
  5
F282
330
F158
100
AcDbEntity
  8
0
  6
Continuous
 62
     7
100
AcDbLine
 10
132.8750007323924
 20
30.62552428325342
 30
0.0
 11
133.0000002555925
 21
30.2425454267534
 31
0.0
  0
LINE
  5
F283
330
F158
100
AcDbEntity
  8
0
  6
Continuous
 62
     7
100
AcDbLine
 10
133.0000002555925
 20
29.98722630815342
 30
0.0
 11
133.0000002555925
 21
30.24254542665341
 31
0.0
  0
LINE
  5
F284
330
F158
100
AcDbEntity
  8
0
  6
Continuous
 62
     7
100
AcDbLine
 10
133.3750002555925
 20
34.19999229985342
 30
0.0
 11
133.3750002555925
 21
33.56169450365343
 31
0.0
  0
LINE
  5
F285
330
F158
100
AcDbEntity
  8
0
  6
Continuous
 62
     7
100
AcDbLine
 10
133.6250007323924
 20
30.37020498595342
 30
0.0
 11
133.6250007323924
 21
29.8595667489534
 31
0.0
  0
LINE
  5
F286
330
F158
100
AcDbEntity
  8
0
  6
Continuous
 62
     7
100
AcDbLine
 10
133.0000002555925
 20
29.98722630815342
 30
0.0
 11
132.8750007323924
 21
29.60424763045342
 31
0.0
  0
LINE
  5
F287
330
F158
100
AcDbEntity
  8
0
  6
Continuous
 62
     7
100
AcDbLine
 10
133.3750002555925
 20
29.22126886325344
 30
0.0
 11
133.6250007323924
 21
29.8595667489534
 31
0.0
  0
LINE
  5
F288
330
F158
100
AcDbEntity
  8
0
  6
Continuous
 62
     7
100
AcDbLine
 10
132.8750007323924
 20
29.60424763045342
 30
0.0
 11
132.6250002555925
 21
29.22126886335343
 31
0.0
  0
LINE
  5
F289
330
F158
100
AcDbEntity
  8
0
  6
Continuous
 62
     7
100
AcDbLine
 10
133.0000002555925
 20
28.7106305815534
 30
0.0
 11
133.3750002555925
 21
29.22126886325344
 31
0.0
  0
LINE
  5
F28A
330
F158
100
AcDbEntity
  8
0
  6
Continuous
 62
     7
100
AcDbLine
 10
170.0000002555925
 20
65.00001929985342
 30
0.0
 11
169.0000002555925
 21
64.00001929985342
 31
0.0
  0
LINE
  5
F28B
330
F158
100
AcDbEntity
  8
0
  6
Continuous
 62
     7
100
AcDbLine
 10
110.0000002555926
 20
89.99999229985343
 30
0.0
 11
111.0000071646925
 21
88.99998629985342
 31
0.0
  0
LINE
  5
F28C
330
F158
100
AcDbEntity
  8
0
  6
Continuous
 62
     7
100
AcDbLine
 10
116.5000202276924
 20
1.999931605053404
 30
0.0
 11
114.5001152554925
 21
0.0000002998534114
 31
0.0
  0
LINE
  5
F28D
330
F158
100
AcDbEntity
  8
0
  6
Continuous
 62
     7
100
AcDbLine
 10
146.0000002555925
 20
85.99999229985343
 30
0.0
 11
146.0000002555925
 21
14.50000029985341
 31
0.0
  0
LINE
  5
F28E
330
F158
100
AcDbEntity
  8
0
  6
Continuous
 62
     7
100
AcDbLine
 10
146.0000002555925
 20
14.50000029985341
 30
0.0
 11
143.6000002555925
 21
12.10000029985343
 31
0.0
  0
LINE
  5
F28F
330
F158
100
AcDbEntity
  8
0
  6
Continuous
 62
     7
100
AcDbLine
 10
169.0000002555925
 20
34.00000029985341
 30
0.0
 11
147.0000002555925
 21
12.00000029985341
 31
0.0
  0
LINE
  5
F290
330
F158
100
AcDbEntity
  8
0
  6
Continuous
 62
     7
100
AcDbLine
 10
143.5000002555925
 20
88.49999229985343
 30
0.0
 11
146.0000002555925
 21
85.99999229985343
 31
0.0
  0
LINE
  5
F291
330
F158
100
AcDbEntity
  8
0
  6
Continuous
 62
     7
100
AcDbLine
 10
169.0000002555925
 20
64.00001929985342
 30
0.0
 11
169.0000002555925
 21
34.00000029985341
 31
0.0
  0
LINE
  5
F292
330
F158
100
AcDbEntity
  8
0
  6
Continuous
 62
     7
100
AcDbLine
 10
170.0000002555925
 20
87.49998929985341
 30
0.0
 11
170.0000002555925
 21
65.00001929985342
 31
0.0
  0
LINE
  5
F293
330
F158
100
AcDbEntity
  8
0
  6
Continuous
 62
     7
100
AcDbLine
 10
167.4999972555924
 20
89.99999229985343
 30
0.0
 11
170.0000002555925
 21
87.49998929985341
 31
0.0
  0
ARC
  5
F294
330
F158
100
AcDbEntity
  8
0
  6
Continuous
 62
     7
100
AcDbCircle
 10
115.5000001997925
 20
13.21680743495341
 30
0.0
 40
1.0
100
AcDbArc
 50
359.9912841035004
 51
44.99999995330273
  0
ARC
  5
F295
330
F158
100
AcDbEntity
  8
0
  6
Continuous
 62
     7
100
AcDbCircle
 10
114.7772499275925
 20
15.77803534085342
 30
0.0
 40
0.3
100
AcDbArc
 50
135.0000006083059
 51
224.9999999795957
  0
ARC
  5
F296
330
F158
100
AcDbEntity
  8
0
  6
Continuous
 62
     7
100
AcDbCircle
 10
114.5156204159925
 20
16.36493396835343
 30
0.0
 40
0.3
100
AcDbArc
 50
315.0000005726951
 51
44.99999998919448
  0
ARC
  5
F297
330
F158
100
AcDbEntity
  8
0
  6
Continuous
 62
     7
100
AcDbCircle
 10
108.0000001997925
 20
24.71903181595343
 30
0.0
 40
1.0
100
AcDbArc
 50
180.0
 51
225.0000000003961
  0
ARC
  5
F298
330
F158
100
AcDbEntity
  8
0
  6
Continuous
 62
     7
100
AcDbCircle
 10
108.0000001997925
 20
37.6809694504534
 30
0.0
 40
1.0
100
AcDbArc
 50
135.0000000022016
 51
180.0
  0
ARC
  5
F299
330
F158
100
AcDbEntity
  8
0
  6
Continuous
 62
     7
100
AcDbCircle
 10
114.5156204159925
 20
46.03506729805343
 30
0.0
 40
0.3
100
AcDbArc
 50
315.0000000033048
 51
44.99999943570615
  0
ARC
  5
F29A
330
F158
100
AcDbEntity
  8
0
  6
Continuous
 62
     7
100
AcDbCircle
 10
114.7772499275925
 20
46.62196592555341
 30
0.0
 40
0.3
100
AcDbArc
 50
135.000000012003
 51
224.9999993845066
  0
ARC
  5
F29B
330
F158
100
AcDbEntity
  8
0
  6
Continuous
 62
     7
100
AcDbCircle
 10
115.5000001997925
 20
49.18319383145342
 30
0.0
 40
1.0
100
AcDbArc
 50
315.0000000457945
 51
0.0000121397992166
  0
ARC
  5
F29C
330
F158
100
AcDbEntity
  8
0
  6
Continuous
 62
     7
100
AcDbCircle
 10
115.5000002555925
 20
51.08577873755343
 30
0.0
 40
1.0
100
AcDbArc
 50
0.0000121397992166
 51
44.9999999986067
  0
ARC
  5
F29D
330
F158
100
AcDbEntity
  8
0
  6
Continuous
 62
     7
100
AcDbCircle
 10
54.50000025559257
 20
51.08577873755343
 30
0.0
 40
1.0
100
AcDbArc
 50
135.0000000012989
 51
179.9999878602007
  0
ARC
  5
F29E
330
F158
100
AcDbEntity
  8
0
  6
Continuous
 62
     7
100
AcDbCircle
 10
54.50000031139257
 20
49.18319383145342
 30
0.0
 40
1.0
100
AcDbArc
 50
179.9999878602007
 51
224.999999956695
  0
ARC
  5
F29F
330
F158
100
AcDbEntity
  8
0
  6
Continuous
 62
     7
100
AcDbCircle
 10
55.22275058359241
 20
46.62196592555341
 30
0.0
 40
0.3
100
AcDbArc
 50
315.0000006083059
 51
44.99999997959571
  0
ARC
  5
F2A0
330
F158
100
AcDbEntity
  8
0
  6
Continuous
 62
     7
100
AcDbCircle
 10
55.48438009519259
 20
46.03506729805343
 30
0.0
 40
0.3
100
AcDbArc
 50
135.0000005726006
 51
224.9999999877942
  0
ARC
  5
F2A1
330
F158
100
AcDbEntity
  8
0
  6
Continuous
 62
     7
100
AcDbCircle
 10
62.00000031139234
 20
37.6809694504534
 30
0.0
 40
1.0
100
AcDbArc
 50
0.0
 51
45.00000000039611
  0
ARC
  5
F2A2
330
F158
100
AcDbEntity
  8
0
  6
Continuous
 62
     7
100
AcDbCircle
 10
62.00000031139234
 20
24.71903181595343
 30
0.0
 40
1.0
100
AcDbArc
 50
315.0000000022016
 51
0.0
  0
ARC
  5
F2A3
330
F158
100
AcDbEntity
  8
0
  6
Continuous
 62
     7
100
AcDbCircle
 10
55.48438009519259
 20
16.36493396835343
 30
0.0
 40
0.3
100
AcDbArc
 50
135.0000000033047
 51
224.9999994241015
  0
ARC
  5
F2A4
330
F158
100
AcDbEntity
  8
0
  6
Continuous
 62
     7
100
AcDbCircle
 10
55.22275058359241
 20
15.77803534085342
 30
0.0
 40
0.3
100
AcDbArc
 50
315.0000000120031
 51
44.99999939480545
  0
ARC
  5
F2A5
330
F158
100
AcDbEntity
  8
0
  6
Continuous
 62
     7
100
AcDbCircle
 10
54.50000031139257
 20
13.21680743495341
 30
0.0
 40
1.0
100
AcDbArc
 50
135.0000000487975
 51
180.0055426611994
  0
CIRCLE
  5
F2A6
330
F158
100
AcDbEntity
  8
0
  6
Continuous
 62
     7
100
AcDbCircle
 10
140.5000301997925
 20
31.20000063325341
 30
0.0
 40
2.75
  0
CIRCLE
  5
F2A7
330
F158
100
AcDbEntity
  8
0
  6
Continuous
 62
     7
100
AcDbCircle
 10
29.49997031139242
 20
31.20000063315342
 30
0.0
 40
2.75
  0
ARC
  5
F2A8
330
F158
100
AcDbEntity
  8
0
  6
Continuous
 62
     7
100
AcDbCircle
 10
115.5000001997925
 20
49.18319383145342
 30
0.0
 40
1.24989513
100
AcDbArc
 50
314.9735532358935
 51
0.0264519901014311
  0
ARC
  5
F2A9
330
F158
100
AcDbEntity
  8
0
  6
Continuous
 62
     7
100
AcDbCircle
 10
115.5000002555925
 20
51.08577873755343
 30
0.0
 40
1.24989513
100
AcDbArc
 50
359.9735649950988
 51
45.02644703650385
  0
ARC
  5
F2AA
330
F158
100
AcDbEntity
  8
0
  6
Continuous
 62
     7
100
AcDbCircle
 10
54.50000025559257
 20
51.08577873755343
 30
0.0
 40
1.24989513
100
AcDbArc
 50
134.973553869007
 51
180.0264359405009
  0
ARC
  5
F2AB
330
F158
100
AcDbEntity
  8
0
  6
Continuous
 62
     7
100
AcDbCircle
 10
54.50000031139257
 20
49.18319383145342
 30
0.0
 40
1.24989513
100
AcDbArc
 50
179.9735489407987
 51
225.0264467349947
  0
ARC
  5
F2AC
330
F158
100
AcDbEntity
  8
0
  6
Continuous
 62
     7
100
AcDbCircle
 10
54.50000031139257
 20
13.21680743495341
 30
0.0
 40
1.24989513
100
AcDbArc
 50
134.973553238102
 51
180.0314783310989
  0
ARC
  5
F2AD
330
F158
100
AcDbEntity
  8
0
  6
Continuous
 62
     7
100
AcDbCircle
 10
54.50000031139257
 20
13.21680743495341
 30
0.0
 40
2.049999999999999
100
AcDbArc
 50
135.0000000449055
 51
146.5677432299051
  0
ARC
  5
F2AE
330
F158
100
AcDbEntity
  8
0
  6
Continuous
 62
     7
100
AcDbCircle
 10
54.74898904469251
 20
16.3649339735534
 30
0.0
 40
0.8299999999999998
100
AcDbArc
 50
189.5989982235983
 51
225.0000000288032
  0
ARC
  5
F2AF
330
F158
100
AcDbEntity
  8
0
  6
Continuous
 62
     7
100
AcDbCircle
 10
54.74898904469251
 20
46.03506729285339
 30
0.0
 40
0.8299999999999998
100
AcDbArc
 50
134.9999999718024
 51
170.4006616043005
  0
ARC
  5
F2B0
330
F158
100
AcDbEntity
  8
0
  6
Continuous
 62
     7
100
AcDbCircle
 10
54.50000031139257
 20
49.18319383145342
 30
0.0
 40
2.049999999999999
100
AcDbArc
 50
213.432306324097
 51
224.9999999563058
  0
ARC
  5
F2B1
330
F158
100
AcDbEntity
  8
0
  6
Continuous
 62
     7
100
AcDbCircle
 10
115.5000001997925
 20
49.18319383145342
 30
0.0
 40
2.049999999999999
100
AcDbArc
 50
315.0000000440995
 51
326.567693675903
  0
ARC
  5
F2B2
330
F158
100
AcDbEntity
  8
0
  6
Continuous
 62
     7
100
AcDbCircle
 10
115.2510114663923
 20
46.03506729285339
 30
0.0
 40
0.8299999999999998
100
AcDbArc
 50
9.59899822319894
 51
45.00000002830576
  0
ARC
  5
F2B3
330
F158
100
AcDbEntity
  8
0
  6
Continuous
 62
     7
100
AcDbCircle
 10
115.2510114663923
 20
16.3649339735534
 30
0.0
 40
0.8299999999999998
100
AcDbArc
 50
314.999999971305
 51
350.4006616041988
  0
ARC
  5
F2B4
330
F158
100
AcDbEntity
  8
0
  6
Continuous
 62
     7
100
AcDbCircle
 10
115.5000001997925
 20
13.21680743495341
 30
0.0
 40
2.049999999999999
100
AcDbArc
 50
33.43230899899781
 51
44.99999995459469
  0
ARC
  5
F2B5
330
F158
100
AcDbEntity
  8
0
  6
Continuous
 62
     7
100
AcDbCircle
 10
115.5000001997925
 20
13.21680743495341
 30
0.0
 40
1.24989513
100
AcDbArc
 50
359.9685225893987
 51
45.02644673230252
  0
CIRCLE
  5
F2B6
330
F158
100
AcDbEntity
  8
0
  6
Continuous
 62
     7
100
AcDbCircle
 10
85.00000025559257
 20
74.99999229985343
 30
0.0
 40
3.0
  0
CIRCLE
  5
F2B7
330
F158
100
AcDbEntity
  8
0
  6
Continuous
 62
     7
100
AcDbCircle
 10
85.00000025559257
 20
74.99999229985343
 30
0.0
 40
3.900792305099999
  0
CIRCLE
  5
F2B8
330
F158
100
AcDbEntity
  8
0
  6
Continuous
 62
     7
100
AcDbCircle
 10
85.00000025559257
 20
74.99999229985343
 30
0.0
 40
4.25
  0
ARC
  5
F2B9
330
F158
100
AcDbEntity
  8
0
  6
Continuous
 62
     7
100
AcDbCircle
 10
118.2000002003924
 20
13.10000029985343
 30
0.0
 40
1.0
100
AcDbArc
 50
179.9999984969006
 51
270.0
  0
ARC
  5
F2BA
330
F158
100
AcDbEntity
  8
0
  6
Continuous
 62
     7
100
AcDbCircle
 10
108.2000001997924
 20
24.80187452845342
 30
0.0
 40
0.5
100
AcDbArc
 50
180.0000000004006
 51
225.0000000012989
  0
ARC
  5
F2BB
330
F158
100
AcDbEntity
  8
0
  6
Continuous
 62
     7
100
AcDbCircle
 10
108.2000001997924
 20
37.59812673795341
 30
0.0
 40
0.5
100
AcDbArc
 50
135.000000005002
 51
180.0
  0
ARC
  5
F2BC
330
F158
100
AcDbEntity
  8
0
  6
Continuous
 62
     7
100
AcDbCircle
 10
115.5000002555925
 20
51.08577873755343
 30
0.0
 40
1.7
100
AcDbArc
 50
0.0
 51
44.99999999919856
  0
ARC
  5
F2BD
330
F158
100
AcDbEntity
  8
0
  6
Continuous
 62
     7
100
AcDbCircle
 10
54.50000025559257
 20
51.08577873755343
 30
0.0
 40
1.7
100
AcDbArc
 50
135.0000000010041
 51
180.0
  0
ARC
  5
F2BE
330
F158
100
AcDbEntity
  8
0
  6
Continuous
 62
     7
100
AcDbCircle
 10
61.80000031139252
 20
37.59812673795341
 30
0.0
 40
0.5
100
AcDbArc
 50
0.0000000004005972
 51
44.99999999429785
  0
ARC
  5
F2BF
330
F158
100
AcDbEntity
  8
0
  6
Continuous
 62
     7
100
AcDbCircle
 10
61.80000031139252
 20
24.80187452845342
 30
0.0
 40
0.5
100
AcDbArc
 50
314.9999999987955
 51
0.0
  0
ARC
  5
F2C0
330
F158
100
AcDbEntity
  8
0
  6
Continuous
 62
     7
100
AcDbCircle
 10
51.80000046269242
 20
13.10000029985343
 30
0.0
 40
1.0
100
AcDbArc
 50
270.0000000004039
 51
359.9996085027986
  0
CIRCLE
  5
F2C1
330
F158
100
AcDbEntity
  8
0
  6
Continuous
 62
     7
100
AcDbCircle
 10
85.00000025559257
 20
74.99999229985343
 30
0.0
 40
5.099999999999999
  0
CIRCLE
  5
F2C2
330
F158
100
AcDbEntity
  8
0
  6
Continuous
 62
     7
100
AcDbCircle
 10
140.5000301997925
 20
31.20000063325341
 30
0.0
 40
2.9
  0
CIRCLE
  5
F2C3
330
F158
100
AcDbEntity
  8
0
  6
Continuous
 62
     7
100
AcDbCircle
 10
29.49997031139242
 20
31.20000063325341
 30
0.0
 40
2.9
  0
CIRCLE
  5
F2C4
330
F158
100
AcDbEntity
  8
0
  6
Continuous
 62
     7
100
AcDbCircle
 10
114.0000002555925
 20
71.99999229985343
 30
0.0
 40
1.649999999999999
  0
CIRCLE
  5
F2C5
330
F158
100
AcDbEntity
  8
0
  6
Continuous
 62
     7
100
AcDbCircle
 10
56.00000025559257
 20
71.99999229985343
 30
0.0
 40
1.649999999999999
  0
CIRCLE
  5
F2C6
330
F158
100
AcDbEntity
  8
0
  6
Continuous
 62
     7
100
AcDbCircle
 10
140.5000301997925
 20
31.20000063315342
 30
0.0
 40
2.5
  0
CIRCLE
  5
F2C7
330
F158
100
AcDbEntity
  8
0
  6
Continuous
 62
     7
100
AcDbCircle
 10
29.49997031139242
 20
31.20000063315342
 30
0.0
 40
2.5
  0
SPLINE
  5
F2C8
330
F158
100
AcDbEntity
  8
0
  6
Continuous
 62
     7
100
AcDbSpline
210
0.0
220
0.0
230
1.0
 70
     8
 71
     3
 72
    10
 73
     6
 74
     4
 42
0.0000000001
 43
0.0000000001
 44
0.0000000001
 12
0.7071067811865476
 22
0.7071067811865476
 32
0.0
 13
-0.7071067773651683
 23
0.7071067850079268
 33
0.0
 40
0.0
 40
0.0
 40
0.0
 40
0.0
 40
0.0610210523744982
 40
0.1145681070264933
 40
0.1700956516990944
 40
0.1700956516990944
 40
0.1700956516990944
 40
0.1700956516990944
 10
115.2184378735924
 20
45.96006729635343
 30
0.0
 10
115.2328206735688
 20
45.97445009632981
 30
0.0
 10
115.2580749262698
 20
46.00616326947537
 30
0.0
 10
115.2555239073791
 20
46.06764299771296
 30
0.0
 10
115.2315258417154
 20
46.09697932798914
 30
0.0
 10
115.2184378739925
 20
46.11006729585341
 30
0.0
 11
115.2184378735924
 21
45.96006729635343
 31
0.0
 11
115.2520708064924
 21
46.0109828603534
 31
0.0
 11
115.2501642310924
 21
46.06449596185339
 31
0.0
 11
115.2184378739925
 21
46.11006729585341
 31
0.0
  0
SPLINE
  5
F2C9
330
F158
100
AcDbEntity
  8
0
  6
Continuous
 62
     7
100
AcDbSpline
210
0.0
220
0.0
230
1.0
 70
     8
 71
     3
 72
    14
 73
    10
 74
     8
 42
0.0000000001
 43
0.0000000001
 44
0.0000000001
 12
-0.7071067773501351
 22
0.7071067850229601
 32
0.0
 13
0.7071067806946998
 23
0.7071067816783953
 33
0.0
 40
0.0
 40
0.0
 40
0.0
 40
0.0
 40
0.0826209920551987
 40
0.1549736564008952
 40
0.221816708118877
 40
0.2863859284801565
 40
0.3532271193712866
 40
0.4256024062916941
 40
0.5082873574383551
 40
0.5082873574383551
 40
0.5082873574383551
 40
0.5082873574383551
 10
114.9315392470926
 20
46.39696592595339
 30
0.0
 10
114.9120652926147
 20
46.41643988064259
 30
0.0
 10
114.8785485024988
 20
46.45626875204806
 30
0.0
 10
114.8435953970626
 20
46.52209246090065
 30
0.0
 10
114.8264648526689
 20
46.58852943133681
 30
0.0
 10
114.8264537072793
 20
46.65531627569025
 30
0.0
 10
114.8435650491176
 20
46.72176559834231
 30
0.0
 10
114.8785168238813
 20
46.78762300540557
 30
0.0
 10
114.9120502182201
 20
46.82747689465389
 30
0.0
 10
114.9315392480926
 20
46.84696592455341
 30
0.0
 11
114.9315392470926
 21
46.39696592595339
 31
0.0
 11
114.8789132210925
 21
46.46065838795339
 31
0.0
 11
114.8454916586925
 21
46.52482930975341
 31
0.0
 11
114.8291301491924
 21
46.5896389893534
 31
0.0
 11
114.8291196029925
 21
46.65420820885342
 31
0.0
 11
114.8454605137924
 21
46.71902116615342
 31
0.0
 11
114.8788776159924
 21
46.78321991565343
 31
0.0
 11
114.9315392480926
 21
46.84696592455341
 31
0.0
  0
SPLINE
  5
F2CA
330
F158
100
AcDbEntity
  8
0
  6
Continuous
 62
     7
100
AcDbSpline
210
0.0
220
0.0
230
1.0
 70
     8
 71
     3
 72
    14
 73
    10
 74
     8
 42
0.0000000001
 43
0.0000000001
 44
0.0000000001
 12
0.7071067805963303
 22
-0.7071067817767649
 32
0.0
 13
-0.7071067773501351
 23
-0.7071067850229601
 33
0.0
 40
0.0
 40
0.0
 40
0.0
 40
0.0
 40
0.0826209920920432
 40
0.1549736563988871
 40
0.2218167081902784
 40
0.2863859285516069
 40
0.3532271193693904
 40
0.4256024063286035
 40
0.5082873574383477
 40
0.5082873574383477
 40
0.5082873574383477
 40
0.5082873574383477
 10
55.06846126299251
 20
46.84696592455341
 30
0.0
 10
55.08793521756847
 20
46.82749196994494
 30
0.0
 10
55.12145200783328
 20
46.78766309867046
 30
0.0
 10
55.15640511364046
 20
46.72183938998688
 30
0.0
 10
55.17353565829678
 20
46.65540241960468
 30
0.0
 10
55.17354680402476
 20
46.5886155752512
 30
0.0
 10
55.15643546244891
 20
46.52216625254554
 30
0.0
 10
55.12148368805785
 20
46.45630884531187
 30
0.0
 10
55.08795029386407
 20
46.41645495593639
 30
0.0
 10
55.06846126409254
 20
46.39696592595339
 30
0.0
 11
55.06846126299251
 21
46.84696592455341
 31
0.0
 11
55.12108728929252
 21
46.78327346275341
 31
0.0
 11
55.15450885199243
 21
46.7191025411534
 31
0.0
 11
55.17087036179237
 21
46.65429286155341
 31
0.0
 11
55.17088090829247
 21
46.58972364205339
 31
0.0
 11
55.15453999779243
 21
46.52491068475342
 31
0.0
 11
55.12112289589254
 21
46.46071193505344
 31
0.0
 11
55.06846126409254
 21
46.39696592595339
 31
0.0
  0
SPLINE
  5
F2CB
330
F158
100
AcDbEntity
  8
0
  6
Continuous
 62
     7
100
AcDbSpline
210
0.0
220
0.0
230
1.0
 70
     8
 71
     3
 72
    10
 73
     6
 74
     4
 42
0.0000000001
 43
0.0000000001
 44
0.0000000001
 12
-0.7071067773651684
 22
-0.7071067850079269
 32
0.0
 13
0.7071067811865476
 23
-0.7071067811865476
 33
0.0
 40
0.0
 40
0.0
 40
0.0
 40
0.0
 40
0.0610210523760809
 40
0.1145681070352003
 40
0.1700956517972034
 40
0.1700956517972034
 40
0.1700956517972034
 40
0.1700956517972034
 10
54.78156263719256
 20
46.1100672959534
 30
0.0
 10
54.76717983729354
 20
46.09568449589891
 30
0.0
 10
54.74192558483823
 20
46.06397132259169
 30
0.0
 10
54.74447660388666
 20
46.0024915943363
 30
0.0
 10
54.7684746697779
 20
45.97315526416805
 30
0.0
 10
54.78156263759252
 20
45.96006729635343
 30
0.0
 11
54.78156263719256
 21
46.1100672959534
 31
0.0
 11
54.74792970459247
 21
46.05915173175342
 31
0.0
 11
54.74983628019254
 21
46.00563863025342
 31
0.0
 11
54.78156263759252
 21
45.96006729635343
 31
0.0
  0
SPLINE
  5
F2CC
330
F158
100
AcDbEntity
  8
0
  6
Continuous
 62
     7
100
AcDbSpline
210
0.0
220
0.0
230
1.0
 70
     8
 71
     3
 72
    10
 73
     6
 74
     4
 42
0.0000000001
 43
0.0000000001
 44
0.0000000001
 12
0.707106781108166
 22
-0.7071067812649292
 32
0.0
 13
0.0
 23
-1.0
 33
0.0
 40
0.0
 40
0.0
 40
0.0
 40
0.0
 40
0.2152230375767132
 40
0.4226815426680485
 40
0.6379045802954531
 40
0.6379045802954531
 40
0.6379045802954531
 40
0.6379045802954531
 10
62.51182751299257
 20
38.22980242055343
 30
0.0
 10
62.56255606943296
 20
38.17907386410178
 30
0.0
 10
62.65139127972111
 20
38.06730715031444
 30
0.0
 10
62.73378528967386
 20
37.86839041393172
 30
0.0
 10
62.75000031139234
 20
37.72654343309591
 30
0.0
 10
62.75000031139234
 20
37.65480242055344
 30
0.0
 11
62.51182751299257
 21
38.22980242055343
 31
0.0
 11
62.64414573429258
 21
38.06005895465342
 31
0.0
 11
62.7235366670925
 21
37.86839228795341
 31
0.0
 11
62.75000031139234
 21
37.65480242055344
 31
0.0
  0
SPLINE
  5
F2CD
330
F158
100
AcDbEntity
  8
0
  6
Continuous
 62
     7
100
AcDbSpline
210
0.0
220
0.0
230
1.0
 70
     8
 71
     3
 72
    10
 73
     6
 74
     4
 42
0.0000000001
 43
0.0000000001
 44
0.0000000001
 12
0.0
 22
-1.0
 32
0.0
 13
-0.707106781108166
 23
-0.7071067812649292
 33
0.0
 40
0.0
 40
0.0
 40
0.0
 40
0.0
 40
0.2152230376274609
 40
0.4226815427187699
 40
0.6379045802954832
 40
0.6379045802954832
 40
0.6379045802954832
 40
0.6379045802954832
 10
62.75000031139234
 20
24.74519884585343
 30
0.0
 10
62.75000031139234
 20
24.67345783331094
 30
0.0
 10
62.73378528967388
 20
24.53161085247512
 30
0.0
 10
62.65139127972112
 20
24.3326941160924
 30
0.0
 10
62.56255606943296
 20
24.22092740230505
 30
0.0
 10
62.51182751299257
 20
24.17019884585341
 30
0.0
 11
62.75000031139234
 21
24.74519884585343
 31
0.0
 11
62.7235366670925
 21
24.53160897845339
 31
0.0
 11
62.64414573429258
 21
24.33994231175342
 31
0.0
 11
62.51182751299257
 21
24.17019884585341
 31
0.0
  0
SPLINE
  5
F2CE
330
F158
100
AcDbEntity
  8
0
  6
Continuous
 62
     7
100
AcDbSpline
210
0.0
220
0.0
230
1.0
 70
     8
 71
     3
 72
    10
 73
     6
 74
     4
 42
0.0000000001
 43
0.0000000001
 44
0.0000000001
 12
-0.7071067811865476
 22
-0.7071067811865476
 32
0.0
 13
0.7071067776591205
 23
-0.7071067847139747
 33
0.0
 40
0.0
 40
0.0
 40
0.0
 40
0.0
 40
0.0610210523745219
 40
0.1145681070265454
 40
0.1700956516992531
 40
0.1700956516992531
 40
0.1700956516992531
 40
0.1700956516992531
 10
54.78156263759252
 20
16.43993397005343
 30
0.0
 10
54.76717983761613
 20
16.42555117007704
 30
0.0
 10
54.74192558491427
 20
16.39383799693067
 30
0.0
 10
54.74447660380818
 20
16.33235826869622
 30
0.0
 10
54.76847466946428
 20
16.30302193841228
 30
0.0
 10
54.78156263719256
 20
16.28993397055342
 30
0.0
 11
54.78156263759252
 21
16.43993397005343
 31
0.0
 11
54.74792970469252
 21
16.38901840605342
 31
0.0
 11
54.74983628009249
 21
16.33550530455341
 31
0.0
 11
54.78156263719256
 21
16.28993397055342
 31
0.0
  0
SPLINE
  5
F2CF
330
F158
100
AcDbEntity
  8
0
  6
Continuous
 62
     7
100
AcDbSpline
210
0.0
220
0.0
230
1.0
 70
     8
 71
     3
 72
    14
 73
    10
 74
     8
 42
0.0000000001
 43
0.0000000001
 44
0.0000000001
 12
0.7071067774485045
 22
-0.7071067849245906
 32
0.0
 13
-0.7071067805963303
 23
-0.7071067817767648
 33
0.0
 40
0.0
 40
0.0
 40
0.0
 40
0.0
 40
0.0826209920550758
 40
0.154973656400747
 40
0.2218167081187564
 40
0.2863859284799954
 40
0.3532271193956113
 40
0.4256024063159936
 40
0.5082873575262493
 40
0.5082873575262493
 40
0.5082873575262493
 40
0.5082873575262493
 10
55.06846126409254
 20
16.00303534045344
 30
0.0
 10
55.0879352185731
 20
15.98356138576699
 30
0.0
 10
55.12145200868021
 20
15.94373251435781
 30
0.0
 10
55.1564051141365
 20
15.87790880550567
 30
0.0
 10
55.17353565846895
 20
15.81147183507248
 30
0.0
 10
55.17354680407695
 20
15.74468499069905
 30
0.0
 10
55.15643546201601
 20
15.67823566808621
 30
0.0
 10
55.1214836873348
 20
15.61237826095869
 30
0.0
 10
55.08795029287719
 20
15.57252437177063
 30
0.0
 10
55.06846126299251
 20
15.55303534185341
 30
0.0
 11
55.06846126409254
 21
16.00303534045344
 31
0.0
 11
55.12108729009241
 21
15.9393428784534
 31
0.0
 11
55.15450885249243
 21
15.87517195665341
 31
0.0
 11
55.17087036199246
 21
15.8103622770534
 31
0.0
 11
55.17088090829247
 21
15.74579305755344
 31
0.0
 11
55.15453999739247
 21
15.6809801002534
 31
0.0
 11
55.12112289519246
 21
15.61678135075343
 31
0.0
 11
55.06846126299251
 21
15.55303534185341
 31
0.0
  0
SPLINE
  5
F2D0
330
F158
100
AcDbEntity
  8
0
  6
Continuous
 62
     7
100
AcDbSpline
210
0.0
220
0.0
230
1.0
 70
     8
 71
     3
 72
     9
 73
     5
 74
     3
 42
0.0000000001
 43
0.0000000001
 44
0.0000000001
 12
-1.0
 22
-0.0000000006508468
 32
0.0
 13
-0.9826457560086566
 23
0.185492097400874
 33
0.0
 40
0.0
 40
0.0
 40
0.0
 40
0.0
 40
0.4719035346916069
 40
0.61469120738006
 40
0.61469120738006
 40
0.61469120738006
 40
0.61469120738006
 10
54.16209041669254
 20
15.77803534485343
 30
0.0
 10
54.004789238462
 20
15.77803534475106
 30
0.0
 10
53.79974183215911
 20
15.79807429432238
 30
0.0
 10
53.59789891048502
 20
15.83296433252343
 30
0.0
 10
53.55112901029247
 20
15.84179299415342
 30
0.0
 11
54.16209041669254
 21
15.77803534485343
 31
0.0
 11
53.69184469819242
 21
15.81755635555342
 31
0.0
 11
53.55112901029247
 21
15.84179299415342
 31
0.0
  0
SPLINE
  5
F2D1
330
F158
100
AcDbEntity
  8
0
  6
Continuous
 62
     7
100
AcDbSpline
210
0.0
220
0.0
230
1.0
 70
     8
 71
     3
 72
     9
 73
     5
 74
     3
 42
0.0000000001
 43
0.0000000001
 44
0.0000000001
 12
-1.0
 22
-0.0000000022779046
 32
0.0
 13
-0.9826459874624955
 23
-0.1854908712682572
 33
0.0
 40
0.0
 40
0.0
 40
0.0
 40
0.0
 40
0.4763447225484472
 40
0.6147081606432077
 40
0.6147081606432077
 40
0.6147081606432077
 40
0.6147081606432077
 10
54.16209041669254
 20
46.62196592155342
 30
0.0
 10
54.00330884250972
 20
46.62196592119173
 30
0.0
 10
53.7982522243492
 20
46.60175651696655
 30
0.0
 10
53.59642208727765
 20
46.56676819301471
 30
0.0
 10
53.55110132819254
 20
46.55821314145342
 30
0.0
 11
54.16209041669254
 21
46.62196592155342
 31
0.0
 11
53.68744464449242
 21
46.58177032935341
 31
0.0
 11
53.55110132819254
 21
46.55821314145342
 31
0.0
  0
SPLINE
  5
F2D2
330
F158
100
AcDbEntity
  8
0
  6
Continuous
 62
     7
100
AcDbSpline
210
0.0
220
0.0
230
1.0
 70
     8
 71
     3
 72
    11
 73
     7
 74
     5
 42
0.0000000001
 43
0.0000000001
 44
0.0000000001
 12
1.0
 22
0.0000000006474222
 32
0.0
 13
0.982492180738817
 23
-0.1863038238659741
 33
0.0
 40
0.0
 40
0.0
 40
0.0
 40
0.0
 40
0.1660639240530493
 40
0.3467436330748491
 40
0.5433844662921131
 40
0.6178403650841336
 40
0.6178403650841336
 40
0.6178403650841336
 40
0.6178403650841336
 10
115.8379100944924
 20
46.62196592155342
 30
0.0
 10
115.8932647358434
 20
46.62196592158927
 30
0.0
 10
116.0088687343433
 20
46.61789371053857
 30
0.0
 10
116.1892642620557
 20
46.6006821976277
 30
0.0
 10
116.3382745203565
 20
46.57843136337268
 30
0.0
 10
116.4271920212013
 20
46.56230781957154
 30
0.0
 10
116.4515761339923
 20
46.55768401335342
 30
0.0
 11
115.8379100944924
 21
46.62196592155342
 31
0.0
 11
116.0038833882925
 21
46.6164802477534
 31
0.0
 11
116.1837791142925
 21
46.59966700835343
 31
0.0
 11
116.3783125473924
 21
46.57095532615341
 31
0.0
 11
116.4515761339923
 21
46.55768401335342
 31
0.0
  0
SPLINE
  5
F2D3
330
F158
100
AcDbEntity
  8
0
  6
Continuous
 62
     7
100
AcDbSpline
210
0.0
220
0.0
230
1.0
 70
     8
 71
     3
 72
     9
 73
     5
 74
     3
 42
0.0000000001
 43
0.0000000001
 44
0.0000000001
 12
1.0
 22
0.0000000022778989
 32
0.0
 13
0.982646150886133
 23
0.1854900055223118
 33
0.0
 40
0.0
 40
0.0
 40
0.0
 40
0.0
 40
0.4765706619645126
 40
0.6147097311506857
 40
0.6147097311506857
 40
0.6147097311506857
 40
0.6147097311506857
 10
115.8379100944924
 20
15.77803534485343
 30
0.0
 10
115.9967669818138
 20
15.77803534521529
 30
0.0
 10
116.2018242172233
 20
15.79825457504584
 30
0.0
 10
116.4036539270183
 20
15.83324793235133
 30
0.0
 10
116.4489012018925
 20
15.8417890712534
 30
0.0
 11
115.8379100944924
 21
15.77803534485343
 31
0.0
 11
116.3127796076924
 21
15.81826644325343
 31
0.0
 11
116.4489012018925
 21
15.8417890712534
 31
0.0
  0
SPLINE
  5
F2D4
330
F158
100
AcDbEntity
  8
0
  6
Continuous
 62
     7
100
AcDbSpline
210
0.0
220
0.0
230
1.0
 70
     8
 71
     3
 72
    14
 73
    10
 74
     8
 42
0.0000000001
 43
0.0000000001
 44
0.0000000001
 12
-0.7071067806946998
 22
0.7071067816783953
 32
0.0
 13
0.7071067773501351
 23
0.7071067850229601
 33
0.0
 40
0.0
 40
0.0
 40
0.0
 40
0.0
 40
0.0826209920920432
 40
0.1549736563989921
 40
0.2218167081903835
 40
0.2863859285516999
 40
0.353227119490867
 40
0.4256024063615188
 40
0.508287357534959
 40
0.508287357534959
 40
0.508287357534959
 40
0.508287357534959
 10
114.9315392480926
 20
15.55303534185341
 30
0.0
 10
114.9120652935139
 20
15.57250929645917
 30
0.0
 10
114.8785485032573
 20
15.61233816773741
 30
0.0
 10
114.8435953974314
 20
15.67816187642003
 30
0.0
 10
114.8264648528309
 20
15.74459884680093
 30
0.0
 10
114.8264537069038
 20
15.8113856912012
 30
0.0
 10
114.8435650486414
 20
15.87783501389183
 30
0.0
 10
114.8785168230354
 20
15.94369242115026
 30
0.0
 10
114.912050217306
 20
15.98354631045542
 30
0.0
 10
114.9315392470926
 20
16.00303534045344
 30
0.0
 11
114.9315392480926
 21
15.55303534185341
 31
0.0
 11
114.8789132217926
 21
15.61672780365342
 31
0.0
 11
114.8454916590924
 21
15.68089872525343
 31
0.0
 11
114.8291301492925
 21
15.74570840485342
 31
0.0
 11
114.8291196026925
 21
15.8102776243534
 31
0.0
 11
114.8454605132924
 21
15.8750905817534
 31
0.0
 11
114.8788776151925
 21
15.93928933135342
 31
0.0
 11
114.9315392470926
 21
16.00303534045344
 31
0.0
  0
SPLINE
  5
F2D5
330
F158
100
AcDbEntity
  8
0
  6
Continuous
 62
     7
100
AcDbSpline
210
0.0
220
0.0
230
1.0
 70
     8
 71
     3
 72
    10
 73
     6
 74
     4
 42
0.0000000001
 43
0.0000000001
 44
0.0000000001
 12
0.7071067773651684
 22
0.7071067850079269
 32
0.0
 13
-0.7071067811865476
 23
0.7071067811865476
 33
0.0
 40
0.0
 40
0.0
 40
0.0
 40
0.0
 40
0.0610210523759556
 40
0.1145681070350669
 40
0.1700956517972232
 40
0.1700956517972232
 40
0.1700956517972232
 40
0.1700956517972232
 10
115.2184378739925
 20
16.28993397045343
 30
0.0
 10
115.2328206738916
 20
16.30431677050788
 30
0.0
 10
115.2580749263465
 20
16.33602994381522
 30
0.0
 10
115.2555239072986
 20
16.3975096720706
 30
0.0
 10
115.231525841407
 20
16.42684600223878
 30
0.0
 10
115.2184378735924
 20
16.43993397005343
 30
0.0
 11
115.2184378739925
 21
16.28993397045343
 31
0.0
 11
115.2520708065924
 21
16.34084953465341
 31
0.0
 11
115.2501642309926
 21
16.3943626361534
 31
0.0
 11
115.2184378735924
 21
16.43993397005343
 31
0.0
  0
SPLINE
  5
F2D6
330
F158
100
AcDbEntity
  8
0
  6
Continuous
 62
     7
100
AcDbSpline
210
0.0
220
0.0
230
1.0
 70
     8
 71
     3
 72
    10
 73
     6
 74
     4
 42
0.0000000001
 43
0.0000000001
 44
0.0000000001
 12
-0.7071067811865476
 22
0.7071067811865476
 32
0.0
 13
0.0
 23
1.0
 33
0.0
 40
0.0
 40
0.0
 40
0.0
 40
0.0
 40
0.2152230376382201
 40
0.4226815426913309
 40
0.6379045803187918
 40
0.6379045803187918
 40
0.6379045803187918
 40
0.6379045803187918
 10
107.4881729981925
 20
24.17019884585341
 30
0.0
 10
107.437444441732
 20
24.22092740231392
 30
0.0
 10
107.3486092313194
 20
24.33269411602939
 30
0.0
 10
107.2662152215507
 20
24.53161085250759
 30
0.0
 10
107.2500001997925
 20
24.67345783331094
 30
0.0
 10
107.2500001997925
 20
24.74519884585343
 30
0.0
 11
107.4881729981925
 21
24.17019884585341
 31
0.0
 11
107.3558547767925
 21
24.33994231175342
 31
0.0
 11
107.2764638440924
 21
24.53160897845339
 31
0.0
 11
107.2500001997925
 21
24.74519884585343
 31
0.0
  0
SPLINE
  5
F2D7
330
F158
100
AcDbEntity
  8
0
  6
Continuous
 62
     7
100
AcDbSpline
210
0.0
220
0.0
230
1.0
 70
     8
 71
     3
 72
    10
 73
     6
 74
     4
 42
0.0000000001
 43
0.0000000001
 44
0.0000000001
 12
0.0
 22
1.0
 32
0.0
 13
0.7071067811865476
 23
0.7071067811865476
 33
0.0
 40
0.0
 40
0.0
 40
0.0
 40
0.0
 40
0.2152230376274045
 40
0.4226815427188268
 40
0.63790458029554
 40
0.63790458029554
 40
0.63790458029554
 40
0.63790458029554
 10
107.2500001997925
 20
37.65480242055344
 30
0.0
 10
107.2500001997925
 20
37.72654343309591
 30
0.0
 10
107.2662152215102
 20
37.8683904139325
 30
0.0
 10
107.3486092314666
 20
38.06730715031186
 30
0.0
 10
107.4374444417465
 20
38.17907386410741
 30
0.0
 10
107.4881729981925
 20
38.22980242055343
 30
0.0
 11
107.2500001997925
 21
37.65480242055344
 31
0.0
 11
107.2764638440924
 21
37.86839228795341
 31
0.0
 11
107.3558547768925
 21
38.06005895465342
 31
0.0
 11
107.4881729981925
 21
38.22980242055343
 31
0.0
  0
ENDBLK
  5
F2DA
330
F158
100
AcDbEntity
  8
0
100
AcDbBlockEnd
  0
BLOCK
  5
F3F7
330
F2DC
100
AcDbEntity
  8
0
100
AcDbBlockBegin
  2
A$C51720780
 70
     0
 10
0.0
 20
0.0
 30
0.0
  3
A$C51720780
  1

  0
LINE
  5
F2DD
330
F2DC
100
AcDbEntity
  8
虛線
 48
0.27
100
AcDbLine
 10
81.00000276202321
 20
47.85132969183996
 30
0.0
 11
59.00000276202536
 21
47.85132969183996
 31
0.0
  0
LINE
  5
F2DE
330
F2DC
100
AcDbEntity
  8
指線
 48
0.27
100
AcDbLine
 10
107.7010928132107
 20
45.05217087002733
 30
0.0
 11
104.5824750914047
 21
45.05176442457536
 31
0.0
  0
LINE
  5
F2DF
330
F2DC
100
AcDbEntity
  8
指線
 48
0.27
100
AcDbLine
 10
109.2991599042702
 20
45.05241821573304
 30
0.0
 11
112.4113729875306
 21
45.0529761666296
 31
0.0
  0
LINE
  5
F2E0
330
F2DC
100
AcDbEntity
  8
指線
 48
0.27
100
AcDbLine
 10
109.2989127108336
 20
46.65048851365305
 30
0.0
 11
112.411125794094
 21
46.65104646454937
 31
0.0
  0
ARC
  5
F2E1
330
F2DC
100
AcDbEntity
  8
指線
 48
0.27
100
AcDbCircle
 10
108.5000027620225
 20
45.85132969183996
 30
0.0
 40
2.397105012956624
100
AcDbArc
 50
19.48100010832958
 51
70.53767875679525
  0
LINE
  5
F2E2
330
F2DC
100
AcDbEntity
  8
指線
 48
0.27
100
AcDbLine
 10
109.2986867232815
 20
48.11146605347153
 30
0.0
 11
109.2989127108336
 21
46.65048851365305
 31
0.0
  0
ARC
  5
F2E3
330
F2DC
100
AcDbEntity
  8
指線
 48
0.27
100
AcDbCircle
 10
108.500002762022
 20
45.85132969183996
 30
0.0
 40
2.397105012956624
100
AcDbArc
 50
289.4623212432114
 51
340.5208129039548
  0
ARC
  5
F2E4
330
F2DC
100
AcDbEntity
  8
指線
 48
0.27
100
AcDbCircle
 10
108.5000027620225
 20
45.85132969183996
 30
0.0
 40
2.397105012956624
100
AcDbArc
 50
199.4791870960452
 51
250.5376787567886
  0
LINE
  5
F2E5
330
F2DC
100
AcDbEntity
  8
指線
 48
0.27
100
AcDbLine
 10
107.7010928132107
 20
45.05217087002733
 30
0.0
 11
107.701318800763
 21
43.59119333020839
 31
0.0
  0
LINE
  5
F2E6
330
F2DC
100
AcDbEntity
  8
指線
 48
0.27
100
AcDbLine
 10
109.2991599042702
 20
45.05241821573304
 30
0.0
 11
109.299385892142
 21
43.59144067590705
 31
0.0
  0
LINE
  5
F2E7
330
F2DC
100
AcDbEntity
  8
指線
 48
0.27
100
AcDbLine
 10
107.7008456197744
 20
46.65024116794689
 30
0.0
 11
104.5822278979683
 21
46.64983472249537
 31
0.0
  0
ARC
  5
F2E8
330
F2DC
100
AcDbEntity
  8
指線
 48
0.27
100
AcDbCircle
 10
108.500002762022
 20
45.85132969183996
 30
0.0
 40
2.397105012956624
100
AcDbArc
 50
109.4623212432047
 51
160.5189998916704
  0
LINE
  5
F2E9
330
F2DC
100
AcDbEntity
  8
指線
 48
0.27
100
AcDbLine
 10
107.7006196319026
 20
48.11121870777333
 30
0.0
 11
107.7008456197744
 21
46.65024116794689
 31
0.0
  0
CIRCLE
  5
F2EA
330
F2DC
100
AcDbEntity
  8
指線
 48
0.27
100
AcDbCircle
 10
108.5000027620223
 20
45.85132969183996
 30
0.0
 40
4.0
  0
LINE
  5
F2EB
330
F2DC
100
AcDbEntity
  8
指線
 48
0.27
100
AcDbLine
 10
30.70109281321084
 20
45.05217087002733
 30
0.0
 11
27.58247509140483
 21
45.05176442457536
 31
0.0
  0
LINE
  5
F2EC
330
F2DC
100
AcDbEntity
  8
指線
 48
0.27
100
AcDbLine
 10
32.29915990427037
 20
45.05241821573304
 30
0.0
 11
35.41137298753074
 21
45.0529761666296
 31
0.0
  0
LINE
  5
F2ED
330
F2DC
100
AcDbEntity
  8
指線
 48
0.27
100
AcDbLine
 10
32.29891271083375
 20
46.65048851365305
 30
0.0
 11
35.41112579409412
 21
46.65104646454937
 31
0.0
  0
ARC
  5
F2EE
330
F2DC
100
AcDbEntity
  8
指線
 48
0.27
100
AcDbCircle
 10
31.50000276202263
 20
45.85132969183996
 30
0.0
 40
2.397105012956624
100
AcDbArc
 50
19.48100010832958
 51
70.53767875679525
  0
LINE
  5
F2EF
330
F2DC
100
AcDbEntity
  8
指線
 48
0.27
100
AcDbLine
 10
32.29868672328166
 20
48.11146605347153
 30
0.0
 11
32.29891271083375
 21
46.65048851365305
 31
0.0
  0
ARC
  5
F2F0
330
F2DC
100
AcDbEntity
  8
指線
 48
0.27
100
AcDbCircle
 10
31.50000276202218
 20
45.85132969183996
 30
0.0
 40
2.397105012956624
100
AcDbArc
 50
289.4623212432114
 51
340.5208129039548
  0
ARC
  5
F2F1
330
F2DC
100
AcDbEntity
  8
指線
 48
0.27
100
AcDbCircle
 10
31.50000276202263
 20
45.85132969183996
 30
0.0
 40
2.397105012956624
100
AcDbArc
 50
199.4791870960452
 51
250.5376787567886
  0
LINE
  5
F2F2
330
F2DC
100
AcDbEntity
  8
指線
 48
0.27
100
AcDbLine
 10
30.70109281321084
 20
45.05217087002733
 30
0.0
 11
30.70131880076315
 21
43.59119333020839
 31
0.0
  0
LINE
  5
F2F3
330
F2DC
100
AcDbEntity
  8
指線
 48
0.27
100
AcDbLine
 10
32.29915990427037
 20
45.05241821573304
 30
0.0
 11
32.29938589214214
 21
43.59144067590705
 31
0.0
  0
LINE
  5
F2F4
330
F2DC
100
AcDbEntity
  8
指線
 48
0.27
100
AcDbLine
 10
30.70084561977456
 20
46.65024116794689
 30
0.0
 11
27.58222789796844
 21
46.64983472249537
 31
0.0
  0
ARC
  5
F2F5
330
F2DC
100
AcDbEntity
  8
指線
 48
0.27
100
AcDbCircle
 10
31.50000276202218
 20
45.85132969183996
 30
0.0
 40
2.397105012956624
100
AcDbArc
 50
109.4623212432047
 51
160.5189998916704
  0
LINE
  5
F2F6
330
F2DC
100
AcDbEntity
  8
指線
 48
0.27
100
AcDbLine
 10
30.70061963190279
 20
48.11121870777333
 30
0.0
 11
30.70084561977456
 21
46.65024116794689
 31
0.0
  0
CIRCLE
  5
F2F7
330
F2DC
100
AcDbEntity
  8
指線
 48
0.27
100
AcDbCircle
 10
31.5000027620224
 20
45.85132969183996
 30
0.0
 40
4.0
  0
LINE
  5
F2F8
330
F2DC
100
AcDbEntity
  8
0
  6
Continuous
 62
     7
100
AcDbLine
 10
42.65423111735867
 20
14.23898897906596
 30
0.0
 11
42.65423111735811
 21
12.4513296918399
 31
0.0
  0
ARC
  5
F2F9
330
F2DC
100
AcDbEntity
  8
0
  6
Continuous
 62
     7
100
AcDbCircle
 10
89.60000276202231
 20
33.22018948803998
 30
0.0
 40
0.6
100
AcDbArc
 50
135.0000000155024
 51
179.9999999994984
  0
ARC
  5
F2FA
330
F2DC
100
AcDbEntity
  8
0
  6
Continuous
 62
     7
100
AcDbCircle
 10
89.60000276202231
 20
21.63120723663997
 30
0.0
 40
0.6
100
AcDbArc
 50
180.0000000004006
 51
224.9999999934031
  0
ARC
  5
F2FB
330
F2DC
100
AcDbEntity
  8
0
  6
Continuous
 62
     7
100
AcDbCircle
 10
50.40000276202227
 20
21.63120723663997
 30
0.0
 40
0.6
100
AcDbArc
 50
315.0000000097001
 51
0.0
  0
ARC
  5
F2FC
330
F2DC
100
AcDbEntity
  8
0
  6
Continuous
 62
     7
100
AcDbCircle
 10
50.40000276202227
 20
33.22018948803998
 30
0.0
 40
0.6
100
AcDbArc
 50
0.0
 51
44.99999998500192
  0
LINE
  5
F2FD
330
F2DC
100
AcDbEntity
  8
0
  6
Continuous
 62
     7
100
AcDbLine
 10
138.0000027620223
 20
71.85132969183996
 30
0.0
 11
140.0000027620223
 21
69.85126869184
 31
0.0
  0
LINE
  5
F2FE
330
F2DC
100
AcDbEntity
  8
0
  6
Continuous
 62
     7
100
AcDbLine
 10
0.0000027620221772
 20
69.85126869184
 30
0.0
 11
0.0000027620222909
 21
55.85132969183996
 31
0.0
  0
LINE
  5
F2FF
330
F2DC
100
AcDbEntity
  8
0
  6
Continuous
 62
     7
100
AcDbLine
 10
1.000002762022177
 20
54.8513446918405
 30
0.0
 11
1.000002762022177
 21
30.85132969184019
 31
0.0
  0
LINE
  5
F300
330
F2DC
100
AcDbEntity
  8
0
  6
Continuous
 62
     7
100
AcDbLine
 10
140.0000027620219
 20
31.85132969183974
 30
0.0
 11
120.0000027620224
 21
11.85132969183996
 31
0.0
  0
LINE
  5
F301
330
F2DC
100
AcDbEntity
  8
0
  6
Continuous
 62
     7
100
AcDbLine
 10
116.9000218354223
 20
70.65134169183989
 30
0.0
 11
118.9000218354223
 21
68.65134169183988
 31
0.0
  0
LINE
  5
F302
330
F2DC
100
AcDbEntity
  8
0
  6
Continuous
 62
     7
100
AcDbLine
 10
118.9000218354223
 20
13.85132969183996
 30
0.0
 11
116.9000218354223
 21
11.85132969183996
 31
0.0
  0
LINE
  5
F303
330
F2DC
100
AcDbEntity
  8
0
  6
Continuous
 62
     7
100
AcDbLine
 10
96.50000276202241
 20
3.851329691839964
 30
0.0
 11
94.5000027620224
 21
1.851329691839964
 31
0.0
  0
LINE
  5
F304
330
F2DC
100
AcDbEntity
  8
0
  6
Continuous
 62
     7
100
AcDbLine
 10
118.9000218354223
 20
68.65134169183988
 30
0.0
 11
118.9000218354223
 21
13.85132969183996
 31
0.0
  0
LINE
  5
F305
330
F2DC
100
AcDbEntity
  8
0
  6
Continuous
 62
     7
100
AcDbLine
 10
0.0000027620222909
 20
55.85132969183996
 30
0.0
 11
1.000002762022177
 21
54.85132969183997
 31
0.0
  0
LINE
  5
F306
330
F2DC
100
AcDbEntity
  8
0
  6
Continuous
 62
     7
100
AcDbLine
 10
87.20010076202232
 20
71.85134469184004
 30
0.0
 11
88.00014026182225
 21
71.05131119183988
 31
0.0
  0
LINE
  5
F307
330
F2DC
100
AcDbEntity
  8
0
  6
Continuous
 62
     7
100
AcDbLine
 10
82.50000276202241
 20
71.45132969183987
 30
0.0
 11
83.29999676142245
 21
70.65134169183989
 31
0.0
  0
LINE
  5
F308
330
F2DC
100
AcDbEntity
  8
0
  6
Continuous
 62
     7
100
AcDbLine
 10
81.50001676202236
 20
2.851329691839964
 30
0.0
 11
80.5000027620224
 21
1.851315691839999
 31
0.0
  0
LINE
  5
F309
330
F2DC
100
AcDbEntity
  8
0
  6
Continuous
 62
     7
100
AcDbLine
 10
52.79990476202238
 20
71.85134469184004
 30
0.0
 11
87.20010076202232
 21
71.85134469184004
 31
0.0
  0
LINE
  5
F30A
330
F2DC
100
AcDbEntity
  8
0
  6
Continuous
 62
     7
100
AcDbLine
 10
111.8001817616223
 20
71.85132969183996
 30
0.0
 11
138.0000027620223
 21
71.85132969183996
 31
0.0
  0
LINE
  5
F30B
330
F2DC
100
AcDbEntity
  8
0
  6
Continuous
 62
     7
100
AcDbLine
 10
2.000002762022404
 20
71.85132969183996
 30
0.0
 11
28.19982376222231
 21
71.85132969183996
 31
0.0
  0
LINE
  5
F30C
330
F2DC
100
AcDbEntity
  8
0
  6
Continuous
 62
     7
100
AcDbLine
 10
82.50000276202241
 20
71.45132969183987
 30
0.0
 11
57.50000276202229
 21
71.45132969183987
 31
0.0
  0
LINE
  5
F30D
330
F2DC
100
AcDbEntity
  8
0
  6
Continuous
 62
     7
100
AcDbLine
 10
28.9998087622223
 20
71.05134169183997
 30
0.0
 11
52.0000027620224
 21
71.05134169183997
 31
0.0
  0
LINE
  5
F30E
330
F2DC
100
AcDbEntity
  8
0
  6
Continuous
 62
     7
100
AcDbLine
 10
88.00014026182225
 20
71.05131119183988
 30
0.0
 11
111.0001662618223
 21
71.05131119183988
 31
0.0
  0
LINE
  5
F30F
330
F2DC
100
AcDbEntity
  8
0
  6
Continuous
 62
     7
100
AcDbLine
 10
23.0999836884223
 20
70.65134169183989
 30
0.0
 11
116.9000218354223
 21
70.65134169183989
 31
0.0
  0
LINE
  5
F310
330
F2DC
100
AcDbEntity
  8
0
  6
Continuous
 62
     7
100
AcDbLine
 10
99.75000276202251
 20
39.62252355175215
 30
0.0
 11
99.7500027620223
 21
46.19755476943973
 31
0.0
  0
LINE
  5
F311
330
F2DC
100
AcDbEntity
  8
0
  6
Continuous
 62
     7
100
AcDbLine
 10
99.75000276202251
 20
15.22887317303696
 30
0.0
 11
99.75000276202241
 21
12.45132969183987
 31
0.0
  0
LINE
  5
F312
330
F2DC
100
AcDbEntity
  8
0
  6
Continuous
 62
     7
100
AcDbLine
 10
99.7500027620223
 20
46.19755476943973
 30
0.0
 11
96.79619683962233
 21
49.15136069183995
 31
0.0
  0
LINE
  5
F313
330
F2DC
100
AcDbEntity
  8
0
  6
Continuous
 62
     7
100
AcDbLine
 10
92.25000276202241
 20
32.12252354803991
 30
0.0
 11
99.75000276202251
 21
39.62252355175215
 31
0.0
  0
LINE
  5
F314
330
F2DC
100
AcDbEntity
  8
0
  6
Continuous
 62
     7
100
AcDbLine
 10
97.35000276202232
 20
40.61663610122266
 30
0.0
 11
97.35000276202232
 21
45.20344221956412
 31
0.0
  0
LINE
  5
F315
330
F2DC
100
AcDbEntity
  8
0
  6
Continuous
 62
     7
100
AcDbLine
 10
97.35000276202185
 20
14.23476062345779
 30
0.0
 11
97.35000276202255
 21
12.45132969183984
 31
0.0
  0
LINE
  5
F316
330
F2DC
100
AcDbEntity
  8
0
  6
Continuous
 62
     7
100
AcDbLine
 10
96.50000276202241
 20
13.88267909591485
 30
0.0
 11
96.50000276202241
 21
3.851329691839964
 31
0.0
  0
LINE
  5
F317
330
F2DC
100
AcDbEntity
  8
0
  6
Continuous
 62
     7
100
AcDbLine
 10
96.50000276202241
 20
44.85136069159724
 30
0.0
 11
96.50000276202263
 21
40.96871762908577
 31
0.0
  0
LINE
  5
F318
330
F2DC
100
AcDbEntity
  8
0
  6
Continuous
 62
     7
100
AcDbLine
 10
92.25000276202241
 20
22.72887317643995
 30
0.0
 11
92.25000276202241
 21
32.12252354803991
 31
0.0
  0
LINE
  5
F319
330
F2DC
100
AcDbEntity
  8
0
  6
Continuous
 62
     7
100
AcDbLine
 10
95.80208429002231
 20
46.75136069183986
 30
0.0
 11
97.35000276202232
 21
45.20344221956412
 31
0.0
  0
LINE
  5
F31A
330
F2DC
100
AcDbEntity
  8
0
  6
Continuous
 62
     7
100
AcDbLine
 10
95.5000027620224
 20
45.85136069184
 30
0.0
 11
96.50000276202241
 21
44.85136069159724
 31
0.0
  0
LINE
  5
F31B
330
F2DC
100
AcDbEntity
  8
0
  6
Continuous
 62
     7
100
AcDbLine
 10
97.35000276202232
 20
40.61663610122266
 30
0.0
 11
89.85000276202232
 21
33.11663609743983
 31
0.0
  0
LINE
  5
F31C
330
F2DC
100
AcDbEntity
  8
0
  6
Continuous
 62
     7
100
AcDbLine
 10
96.50000276202263
 20
40.96871762908577
 30
0.0
 11
89.17573869322223
 21
33.64445355663998
 31
0.0
  0
LINE
  5
F31D
330
F2DC
100
AcDbEntity
  8
0
  6
Continuous
 62
     7
100
AcDbLine
 10
89.85000276202232
 20
21.73476062723989
 30
0.0
 11
89.85000276202232
 21
33.11663609743983
 31
0.0
  0
LINE
  5
F31E
330
F2DC
100
AcDbEntity
  8
0
  6
Continuous
 62
     7
100
AcDbLine
 10
89.0000027620224
 20
33.22018948803998
 30
0.0
 11
89.0000027620224
 21
21.63120723663997
 31
0.0
  0
LINE
  5
F31F
330
F2DC
100
AcDbEntity
  8
0
  6
Continuous
 62
     7
100
AcDbLine
 10
53.50006376202236
 20
2.851329691839964
 30
0.0
 11
52.50006376202236
 21
1.851329691839964
 31
0.0
  0
LINE
  5
F320
330
F2DC
100
AcDbEntity
  8
0
  6
Continuous
 62
     7
100
AcDbLine
 10
96.79619683962233
 20
49.15136069183995
 30
0.0
 11
43.2038086842224
 21
49.15136069183995
 31
0.0
  0
LINE
  5
F321
330
F2DC
100
AcDbEntity
  8
0
  6
Continuous
 62
     7
100
AcDbLine
 10
111.0001662618223
 20
71.05131119183988
 30
0.0
 11
111.8001817616223
 21
71.85132969183996
 31
0.0
  0
LINE
  5
F322
330
F2DC
100
AcDbEntity
  8
0
  6
Continuous
 62
     7
100
AcDbLine
 10
99.75000276202251
 20
15.22887317303696
 30
0.0
 11
92.25000276202241
 21
22.72887317643995
 31
0.0
  0
LINE
  5
F323
330
F2DC
100
AcDbEntity
  8
0
  6
Continuous
 62
     7
100
AcDbLine
 10
95.80208429002231
 20
46.75136069183986
 30
0.0
 11
44.19792123402226
 21
46.75136069183986
 31
0.0
  0
LINE
  5
F324
330
F2DC
100
AcDbEntity
  8
0
  6
Continuous
 62
     7
100
AcDbLine
 10
44.5000027620224
 20
45.85136069184
 30
0.0
 11
95.5000027620224
 21
45.85136069184
 31
0.0
  0
LINE
  5
F325
330
F2DC
100
AcDbEntity
  8
0
  6
Continuous
 62
     7
100
AcDbLine
 10
43.5000027620224
 20
13.88267909585479
 30
0.0
 11
50.82426683082235
 21
21.20694316803997
 31
0.0
  0
LINE
  5
F326
330
F2DC
100
AcDbEntity
  8
0
  6
Continuous
 62
     7
100
AcDbLine
 10
89.85000276202232
 20
21.73476062723989
 30
0.0
 11
97.35000276202185
 21
14.23476062345779
 31
0.0
  0
LINE
  5
F327
330
F2DC
100
AcDbEntity
  8
0
  6
Continuous
 62
     7
100
AcDbLine
 10
89.17573869322223
 20
21.20694316783988
 30
0.0
 11
96.50000276202241
 21
13.88267909591485
 31
0.0
  0
LINE
  5
F328
330
F2DC
100
AcDbEntity
  8
0
  6
Continuous
 62
     7
100
AcDbLine
 10
42.65423111735867
 20
14.23898897906596
 30
0.0
 11
50.15000276202226
 21
21.73476062723989
 31
0.0
  0
LINE
  5
F329
330
F2DC
100
AcDbEntity
  8
0
  6
Continuous
 62
     7
100
AcDbLine
 10
47.7500027620224
 20
22.72887317643995
 30
0.0
 11
40.2500027620224
 21
15.22887317303696
 31
0.0
  0
LINE
  5
F32A
330
F2DC
100
AcDbEntity
  8
0
  6
Continuous
 62
     7
100
AcDbLine
 10
28.19982376222231
 20
71.85132969183996
 30
0.0
 11
28.9998087622223
 21
71.05134169183997
 31
0.0
  0
LINE
  5
F32B
330
F2DC
100
AcDbEntity
  8
0
  6
Continuous
 62
     7
100
AcDbLine
 10
87.49994176202234
 20
1.851329691839964
 30
0.0
 11
86.49994176202232
 21
2.851329691839964
 31
0.0
  0
LINE
  5
F32C
330
F2DC
100
AcDbEntity
  8
0
  6
Continuous
 62
     7
100
AcDbLine
 10
50.82426683082235
 20
33.64445355663998
 30
0.0
 11
43.50000276202251
 21
40.96871762882514
 31
0.0
  0
LINE
  5
F32D
330
F2DC
100
AcDbEntity
  8
0
  6
Continuous
 62
     7
100
AcDbLine
 10
50.15000276202226
 20
33.11663609743983
 30
0.0
 11
42.65000276202226
 21
40.6166361009522
 31
0.0
  0
LINE
  5
F32E
330
F2DC
100
AcDbEntity
  8
0
  6
Continuous
 62
     7
100
AcDbLine
 10
51.00000276202241
 20
21.63120723663997
 30
0.0
 11
51.00000276202241
 21
33.22018948803998
 31
0.0
  0
LINE
  5
F32F
330
F2DC
100
AcDbEntity
  8
0
  6
Continuous
 62
     7
100
AcDbLine
 10
50.15000276202226
 20
33.11663609743983
 30
0.0
 11
50.15000276202226
 21
21.73476062723989
 31
0.0
  0
LINE
  5
F330
330
F2DC
100
AcDbEntity
  8
0
  6
Continuous
 62
     7
100
AcDbLine
 10
40.25000276202229
 20
39.62252355175184
 30
0.0
 11
47.7500027620224
 21
32.12252354803991
 31
0.0
  0
LINE
  5
F331
330
F2DC
100
AcDbEntity
  8
0
  6
Continuous
 62
     7
100
AcDbLine
 10
43.50000276202251
 20
44.85136069184048
 30
0.0
 11
44.5000027620224
 21
45.85136069184
 31
0.0
  0
LINE
  5
F332
330
F2DC
100
AcDbEntity
  8
0
  6
Continuous
 62
     7
100
AcDbLine
 10
42.65000276202226
 20
45.20344221983984
 30
0.0
 11
44.19792123402226
 21
46.75136069183986
 31
0.0
  0
LINE
  5
F333
330
F2DC
100
AcDbEntity
  8
0
  6
Continuous
 62
     7
100
AcDbLine
 10
43.2038086842224
 20
49.15136069183995
 30
0.0
 11
40.25000276202251
 21
46.19755476931644
 31
0.0
  0
LINE
  5
F334
330
F2DC
100
AcDbEntity
  8
0
  6
Continuous
 62
     7
100
AcDbLine
 10
47.7500027620224
 20
32.12252354803991
 30
0.0
 11
47.7500027620224
 21
22.72887317643995
 31
0.0
  0
LINE
  5
F335
330
F2DC
100
AcDbEntity
  8
0
  6
Continuous
 62
     7
100
AcDbLine
 10
97.35000276202255
 20
12.45132969183984
 30
0.0
 11
99.75000276202241
 21
12.45132969183987
 31
0.0
  0
LINE
  5
F336
330
F2DC
100
AcDbEntity
  8
0
  6
Continuous
 62
     7
100
AcDbLine
 10
40.2500027620224
 20
12.45132969183987
 30
0.0
 11
42.65423111735811
 21
12.4513296918399
 31
0.0
  0
LINE
  5
F337
330
F2DC
100
AcDbEntity
  8
0
  6
Continuous
 62
     7
100
AcDbLine
 10
96.50000276202252
 20
11.85132969183993
 30
0.0
 11
120.0000027620224
 21
11.85132969183996
 31
0.0
  0
LINE
  5
F338
330
F2DC
100
AcDbEntity
  8
0
  6
Continuous
 62
     7
100
AcDbLine
 10
20.00000276202241
 20
11.85132969183996
 30
0.0
 11
43.5000027620224
 21
11.85132969183996
 31
0.0
  0
LINE
  5
F339
330
F2DC
100
AcDbEntity
  8
0
  6
Continuous
 62
     7
100
AcDbLine
 10
43.50000276202251
 20
40.96871762882514
 30
0.0
 11
43.50000276202251
 21
44.85136069184048
 31
0.0
  0
LINE
  5
F33A
330
F2DC
100
AcDbEntity
  8
0
  6
Continuous
 62
     7
100
AcDbLine
 10
43.5000027620224
 20
3.851329691839964
 30
0.0
 11
43.5000027620224
 21
13.88267909585479
 31
0.0
  0
LINE
  5
F33B
330
F2DC
100
AcDbEntity
  8
0
  6
Continuous
 62
     7
100
AcDbLine
 10
42.65000276202226
 20
45.20344221983984
 30
0.0
 11
42.65000276202226
 21
40.6166361009522
 31
0.0
  0
LINE
  5
F33C
330
F2DC
100
AcDbEntity
  8
0
  6
Continuous
 62
     7
100
AcDbLine
 10
40.2500027620224
 20
15.22887317303696
 30
0.0
 11
40.2500027620224
 21
12.45132969183987
 31
0.0
  0
LINE
  5
F33D
330
F2DC
100
AcDbEntity
  8
0
  6
Continuous
 62
     7
100
AcDbLine
 10
40.25000276202251
 20
46.19755476931644
 30
0.0
 11
40.25000276202229
 21
39.62252355175184
 31
0.0
  0
LINE
  5
F33E
330
F2DC
100
AcDbEntity
  8
0
  6
Continuous
 62
     7
100
AcDbLine
 10
59.5000027620224
 20
1.851315691839999
 30
0.0
 11
58.49998876202232
 21
2.851329691839964
 31
0.0
  0
LINE
  5
F33F
330
F2DC
100
AcDbEntity
  8
0
  6
Continuous
 62
     7
100
AcDbLine
 10
56.70000876262225
 20
70.65134169183989
 30
0.0
 11
57.50000276202229
 21
71.45132969183987
 31
0.0
  0
LINE
  5
F340
330
F2DC
100
AcDbEntity
  8
0
  6
Continuous
 62
     7
100
AcDbLine
 10
52.0000027620224
 20
71.05134169183997
 30
0.0
 11
52.79990476202238
 21
71.85134469184004
 31
0.0
  0
LINE
  5
F341
330
F2DC
100
AcDbEntity
  8
0
  6
Continuous
 62
     7
100
AcDbLine
 10
58.49998876202232
 20
2.851329691839964
 30
0.0
 11
53.50006376202236
 21
2.851329691839964
 31
0.0
  0
LINE
  5
F342
330
F2DC
100
AcDbEntity
  8
0
  6
Continuous
 62
     7
100
AcDbLine
 10
86.49994176202232
 20
2.851329691839964
 30
0.0
 11
81.50001676202236
 21
2.851329691839964
 31
0.0
  0
LINE
  5
F343
330
F2DC
100
AcDbEntity
  8
0
  6
Continuous
 62
     7
100
AcDbLine
 10
52.50006376202236
 20
1.851329691839964
 30
0.0
 11
45.5000027620224
 21
1.851329691839964
 31
0.0
  0
LINE
  5
F344
330
F2DC
100
AcDbEntity
  8
0
  6
Continuous
 62
     7
100
AcDbLine
 10
94.5000027620224
 20
1.851329691839964
 30
0.0
 11
87.49994176202234
 21
1.851329691839964
 31
0.0
  0
LINE
  5
F345
330
F2DC
100
AcDbEntity
  8
0
  6
Continuous
 62
     7
100
AcDbLine
 10
80.5000027620224
 20
1.851315691839999
 30
0.0
 11
59.5000027620224
 21
1.851315691839999
 31
0.0
  0
LINE
  5
F346
330
F2DC
100
AcDbEntity
  8
0
  6
Continuous
 62
     7
100
AcDbLine
 10
45.5000027620224
 20
1.851329691839964
 30
0.0
 11
43.5000027620224
 21
3.851329691839964
 31
0.0
  0
LINE
  5
F347
330
F2DC
100
AcDbEntity
  8
0
  6
Continuous
 62
     7
100
AcDbLine
 10
21.0999836884223
 20
13.85132969183996
 30
0.0
 11
21.0999836884223
 21
68.65134169183988
 31
0.0
  0
LINE
  5
F348
330
F2DC
100
AcDbEntity
  8
0
  6
Continuous
 62
     7
100
AcDbLine
 10
23.0999836884223
 20
11.85132969183996
 30
0.0
 11
21.0999836884223
 21
13.85132969183996
 31
0.0
  0
LINE
  5
F349
330
F2DC
100
AcDbEntity
  8
0
  6
Continuous
 62
     7
100
AcDbLine
 10
20.00000276202241
 20
11.85132969183996
 30
0.0
 11
1.000002762022177
 21
30.85132969184019
 31
0.0
  0
LINE
  5
F34A
330
F2DC
100
AcDbEntity
  8
0
  6
Continuous
 62
     7
100
AcDbLine
 10
21.0999836884223
 20
68.65134169183988
 30
0.0
 11
23.0999836884223
 21
70.65134169183989
 31
0.0
  0
LINE
  5
F34B
330
F2DC
100
AcDbEntity
  8
0
  6
Continuous
 62
     7
100
AcDbLine
 10
0.0000027620224046
 20
69.85126869184
 30
0.0
 11
2.000002762022404
 21
71.85132969183996
 31
0.0
  0
LINE
  5
F34C
330
F2DC
100
AcDbEntity
  8
0
  6
Continuous
 62
     7
100
AcDbLine
 10
140.0000027620219
 20
31.85132969183974
 30
0.0
 11
140.0000027620222
 21
69.85126869183978
 31
0.0
  0
LWPOLYLINE
  5
F34D
330
F2DC
100
AcDbEntity
  8
0
 48
0.27
100
AcDbPolyline
 90
       17
 70
     0
 43
0.0
 10
81.19126775869768
 20
59.85182184462297
 10
81.23320314245097
 20
59.58052524619143
 10
81.27431688581692
 20
59.50189494056019
 10
81.32002981070092
 20
59.46496788851835
 10
81.36250126454365
 20
59.46535198858254
 10
81.40811732941164
 20
59.50310736088766
 10
81.44729721220461
 20
59.57781984523961
 10
81.48403054421407
 20
59.74041109826737
 10
81.49023960625095
 20
59.85182184462297
 10
81.44830589249806
 20
60.12311677305422
 10
81.40719047913171
 20
60.20174707868552
 10
81.36147755424781
 20
60.2386741307273
 10
81.31900777040527
 20
60.23829003053816
 10
81.27339003553709
 20
60.20053465823298
 10
81.23421182274432
 20
60.12582217388104
 10
81.19747682073466
 20
59.96323092097828
 10
81.19126775869768
 20
59.85182184462297
  0
ARC
  5
F34E
330
F2DC
100
AcDbEntity
  8
0
 48
0.27
100
AcDbCircle
 10
70.00165623090754
 20
59.85182184462292
 30
0.0
 40
5.0
100
AcDbArc
 50
48.59037799890224
 51
311.4096220031988
  0
LINE
  5
F34F
330
F2DC
100
AcDbEntity
  8
0
 48
0.27
100
AcDbLine
 10
73.61009654726706
 20
63.60182142712301
 30
0.0
 11
72.88840748199504
 21
64.85182184462292
 31
0.0
  0
LINE
  5
F350
330
F2DC
100
AcDbEntity
  8
0
 48
0.27
100
AcDbLine
 10
67.11490497982004
 20
64.85182184462292
 30
0.0
 11
72.88840748199504
 21
64.85182184462292
 31
0.0
  0
LINE
  5
F351
330
F2DC
100
AcDbEntity
  8
0
 48
0.27
100
AcDbLine
 10
67.11490497982004
 20
64.85182184462292
 30
0.0
 11
64.22815372873265
 21
59.85182184462292
 31
0.0
  0
LINE
  5
F352
330
F2DC
100
AcDbEntity
  8
0
 48
0.27
100
AcDbLine
 10
64.22815372873265
 20
59.85182184462292
 30
0.0
 11
67.11490497982004
 21
54.85182017462261
 31
0.0
  0
LINE
  5
F353
330
F2DC
100
AcDbEntity
  8
0
 48
0.27
100
AcDbLine
 10
72.88840915199535
 20
54.85182017462261
 30
0.0
 11
67.11490497982004
 21
54.85182017462261
 31
0.0
  0
LINE
  5
F354
330
F2DC
100
AcDbEntity
  8
0
 48
0.27
100
AcDbLine
 10
73.61009654726706
 20
56.10182059212275
 30
0.0
 11
72.88840915199535
 21
54.85182017462261
 31
0.0
  0
LINE
  5
F355
330
F2DC
100
AcDbEntity
  8
0
 48
0.27
100
AcDbLine
 10
71.62853903134703
 20
56.10182059212275
 30
0.0
 11
75.39612538953384
 21
56.10182059212275
 31
0.0
  0
LINE
  5
F356
330
F2DC
100
AcDbEntity
  8
0
 48
0.27
100
AcDbLine
 10
75.47474901516398
 20
63.24596268106962
 30
0.0
 11
75.39612538953384
 21
63.60182142712301
 31
0.0
  0
LINE
  5
F357
330
F2DC
100
AcDbEntity
  8
0
 48
0.27
100
AcDbLine
 10
75.39612538953384
 20
56.10182059212275
 30
0.0
 11
75.47474901516398
 21
56.45767933817615
 31
0.0
  0
LINE
  5
F358
330
F2DC
100
AcDbEntity
  8
0
 48
0.27
100
AcDbLine
 10
71.62853903134703
 20
63.60182142712301
 30
0.0
 11
75.39612538953384
 21
63.60182142712301
 31
0.0
  0
LINE
  5
F359
330
F2DC
100
AcDbEntity
  8
0
 48
0.27
100
AcDbLine
 10
74.84755860067321
 20
56.17387610565606
 30
0.0
 11
77.34981727642548
 21
57.30614482474493
 31
0.0
  0
LINE
  5
F35A
330
F2DC
100
AcDbEntity
  8
0
 48
0.27
100
AcDbLine
 10
82.18133593153902
 20
59.41490127215729
 30
0.0
 11
82.19780380691418
 21
59.85182184462292
 31
0.0
  0
LINE
  5
F35B
330
F2DC
100
AcDbEntity
  8
0
 48
0.27
100
AcDbLine
 10
82.13256523564439
 20
58.99477088524554
 30
0.0
 11
82.18133593153902
 21
59.41490127215729
 31
0.0
  0
LINE
  5
F35C
330
F2DC
100
AcDbEntity
  8
0
 48
0.27
100
AcDbLine
 10
82.19780380691418
 20
59.85182184462292
 30
0.0
 11
82.18133593153902
 21
60.28874241708876
 31
0.0
  0
LINE
  5
F35D
330
F2DC
100
AcDbEntity
  8
0
 48
0.27
100
AcDbLine
 10
74.56759135941865
 20
56.10182059212275
 30
0.0
 11
74.84755860067321
 21
56.17387610565606
 31
0.0
  0
LINE
  5
F35E
330
F2DC
100
AcDbEntity
  8
0
 48
0.27
100
AcDbLine
 10
74.56759135941865
 20
63.60182142712301
 30
0.0
 11
74.84755860067321
 21
63.5297659135897
 31
0.0
  0
LINE
  5
F35F
330
F2DC
100
AcDbEntity
  8
0
 48
0.27
100
AcDbLine
 10
74.84755860067321
 20
63.5297659135897
 30
0.0
 11
77.34981727642548
 21
62.39749719450083
 31
0.0
  0
LINE
  5
F360
330
F2DC
100
AcDbEntity
  8
0
 48
0.27
100
AcDbLine
 10
82.05336545979298
 20
58.60757791895912
 30
0.0
 11
82.13256523564439
 21
58.99477088524554
 31
0.0
  0
LINE
  5
F361
330
F2DC
100
AcDbEntity
  8
0
 48
0.27
100
AcDbLine
 10
82.18133593153902
 20
60.28874241708876
 30
0.0
 11
82.13256523564439
 21
60.70887113400022
 31
0.0
  0
LINE
  5
F362
330
F2DC
100
AcDbEntity
  8
0
 48
0.27
100
AcDbLine
 10
81.94677934499305
 20
58.26819873840804
 30
0.0
 11
82.05336545979298
 21
58.60757791895912
 31
0.0
  0
LINE
  5
F363
330
F2DC
100
AcDbEntity
  8
0
 48
0.27
100
AcDbLine
 10
80.99758610560275
 20
57.80393524700094
 30
0.0
 11
80.9999591763742
 21
57.80509589731969
 31
0.0
  0
LINE
  5
F364
330
F2DC
100
AcDbEntity
  8
0
 48
0.27
100
AcDbLine
 10
82.13256523564439
 20
60.70887113400022
 30
0.0
 11
82.05336545979298
 21
61.09606577028671
 31
0.0
  0
LINE
  5
F365
330
F2DC
100
AcDbEntity
  8
0
 48
0.27
100
AcDbLine
 10
74.28762411816421
 20
56.17387610565606
 30
0.0
 11
74.56759135941865
 21
56.10182059212275
 31
0.0
  0
LINE
  5
F366
330
F2DC
100
AcDbEntity
  8
0
 48
0.27
100
AcDbLine
 10
74.28762411816421
 20
63.5297659135897
 30
0.0
 11
74.56759135941865
 21
63.60182142712301
 31
0.0
  0
LINE
  5
F367
330
F2DC
100
AcDbEntity
  8
0
 48
0.27
100
AcDbLine
 10
81.8169050726791
 20
57.98967771751995
 30
0.0
 11
81.94677934499305
 21
58.26819873840804
 31
0.0
  0
LINE
  5
F368
330
F2DC
100
AcDbEntity
  8
0
 48
0.27
100
AcDbLine
 10
82.05336545979298
 20
61.09606577028671
 30
0.0
 11
81.94677934499305
 21
61.43544328083772
 31
0.0
  0
LINE
  5
F369
330
F2DC
100
AcDbEntity
  8
0
 48
0.27
100
AcDbLine
 10
77.34981727642548
 20
57.30614482474493
 30
0.0
 11
77.6512206446348
 21
57.4291487147866
 31
0.0
  0
LINE
  5
F36A
330
F2DC
100
AcDbEntity
  8
0
 48
0.27
100
AcDbLine
 10
77.34981727642548
 20
62.39749719450083
 30
0.0
 11
77.6512206446348
 21
62.27449497445945
 31
0.0
  0
LINE
  5
F36B
330
F2DC
100
AcDbEntity
  8
0
 48
0.27
100
AcDbLine
 10
81.66873260443436
 20
57.78271956008279
 30
0.0
 11
81.8169050726791
 21
57.98967771751995
 31
0.0
  0
LINE
  5
F36C
330
F2DC
100
AcDbEntity
  8
0
 48
0.27
100
AcDbLine
 10
81.94677934499305
 20
61.43544328083772
 30
0.0
 11
81.8169050726791
 21
61.71396430172581
 31
0.0
  0
LINE
  5
F36D
330
F2DC
100
AcDbEntity
  8
0
 48
0.27
100
AcDbLine
 10
74.0184166903316
 20
56.38727211516812
 30
0.0
 11
74.28762411816421
 21
56.17387610565606
 31
0.0
  0
LINE
  5
F36E
330
F2DC
100
AcDbEntity
  8
0
 48
0.27
100
AcDbLine
 10
74.0184166903316
 20
63.31636990407742
 30
0.0
 11
74.28762411816421
 21
63.5297659135897
 31
0.0
  0
LINE
  5
F36F
330
F2DC
100
AcDbEntity
  8
0
 48
0.27
100
AcDbLine
 10
77.6512206446348
 20
57.4291487147866
 30
0.0
 11
77.91987530225014
 21
57.41773927113126
 31
0.0
  0
LINE
  5
F370
330
F2DC
100
AcDbEntity
  8
0
 48
0.27
100
AcDbLine
 10
77.6512206446348
 20
62.27449497445945
 30
0.0
 11
77.91987530225014
 21
62.28590274811449
 31
0.0
  0
LINE
  5
F371
330
F2DC
100
AcDbEntity
  8
0
 48
0.27
100
AcDbLine
 10
79.94486285242306
 20
56.72141083409428
 30
0.0
 11
81.50795664195971
 21
57.65527346854923
 31
0.0
  0
LINE
  5
F372
330
F2DC
100
AcDbEntity
  8
0
 48
0.27
100
AcDbLine
 10
81.50795664195971
 20
57.65527346854923
 30
0.0
 11
81.66873260443436
 21
57.78271956008279
 31
0.0
  0
LINE
  5
F373
330
F2DC
100
AcDbEntity
  8
0
 48
0.27
100
AcDbLine
 10
81.8169050726791
 20
61.71396430172581
 30
0.0
 11
81.66873260443436
 21
61.92092245916274
 31
0.0
  0
LINE
  5
F374
330
F2DC
100
AcDbEntity
  8
0
 48
0.27
100
AcDbLine
 10
70.80000500123174
 20
59.85182184462292
 30
0.0
 11
71.62853903134703
 21
63.60182142712301
 31
0.0
  0
LINE
  5
F375
330
F2DC
100
AcDbEntity
  8
0
 48
0.27
100
AcDbLine
 10
70.80000500123174
 20
59.85182184462292
 30
0.0
 11
72.9105232991883
 21
59.85182184462292
 31
0.0
  0
LINE
  5
F376
330
F2DC
100
AcDbEntity
  8
0
 48
0.27
100
AcDbLine
 10
71.62853903134703
 20
56.10182059212275
 30
0.0
 11
70.80000500123174
 21
59.85182184462292
 31
0.0
  0
LINE
  5
F377
330
F2DC
100
AcDbEntity
  8
0
 48
0.27
100
AcDbLine
 10
74.0184166903316
 20
56.38727211516812
 30
0.0
 11
73.77031305952323
 21
56.73380891816487
 31
0.0
  0
LINE
  5
F378
330
F2DC
100
AcDbEntity
  8
0
 48
0.27
100
AcDbLine
 10
73.77031305952323
 20
62.96983310108089
 30
0.0
 11
74.0184166903316
 21
63.31636990407742
 31
0.0
  0
LINE
  5
F379
330
F2DC
100
AcDbEntity
  8
0
 48
0.27
100
AcDbLine
 10
79.70657548475401
 20
56.66008173410228
 30
0.0
 11
79.94486285242306
 21
56.72141083409428
 31
0.0
  0
LINE
  5
F37A
330
F2DC
100
AcDbEntity
  8
0
 48
0.27
100
AcDbLine
 10
79.25553505768028
 20
56.69493631542309
 30
0.0
 11
79.70657548475401
 21
56.66008173410228
 31
0.0
  0
LINE
  5
F37B
330
F2DC
100
AcDbEntity
  8
0
 48
0.27
100
AcDbLine
 10
77.91987530225014
 20
57.41773927113126
 30
0.0
 11
78.61230929801161
 21
56.96121790226698
 31
0.0
  0
LINE
  5
F37C
330
F2DC
100
AcDbEntity
  8
0
 48
0.27
100
AcDbLine
 10
81.34075451741205
 20
57.61224089448797
 30
0.0
 11
81.50795664195971
 21
57.65527346854923
 31
0.0
  0
LINE
  5
F37D
330
F2DC
100
AcDbEntity
  8
0
 48
0.27
100
AcDbLine
 10
79.94486285242306
 20
62.98223285515155
 30
0.0
 11
81.50795664195971
 21
62.04836855069629
 31
0.0
  0
LINE
  5
F37E
330
F2DC
100
AcDbEntity
  8
0
 48
0.27
100
AcDbLine
 10
81.50795664195971
 20
62.04836855069629
 30
0.0
 11
81.66873260443436
 21
61.92092245916274
 31
0.0
  0
LINE
  5
F37F
330
F2DC
100
AcDbEntity
  8
0
 48
0.27
100
AcDbLine
 10
79.70657548475401
 20
63.04356028514326
 30
0.0
 11
79.94486285242306
 21
62.98223285515155
 31
0.0
  0
LINE
  5
F380
330
F2DC
100
AcDbEntity
  8
0
 48
0.27
100
AcDbLine
 10
79.25553505768028
 20
63.00870737369791
 30
0.0
 11
79.70657548475401
 21
63.04356028514326
 31
0.0
  0
LINE
  5
F381
330
F2DC
100
AcDbEntity
  8
0
 48
0.27
100
AcDbLine
 10
77.68133075453818
 20
57.59836820004625
 30
0.0
 11
77.85643198153014
 21
57.45956777474157
 31
0.0
  0
LINE
  5
F382
330
F2DC
100
AcDbEntity
  8
0
 48
0.27
100
AcDbLine
 10
78.61230929801161
 20
56.96121790226698
 30
0.0
 11
79.01984955082082
 21
56.75559407530295
 31
0.0
  0
LINE
  5
F383
330
F2DC
100
AcDbEntity
  8
0
 48
0.27
100
AcDbLine
 10
79.01984955082082
 20
56.75559407530295
 30
0.0
 11
79.25553505768028
 21
56.69493631542309
 31
0.0
  0
LINE
  5
F384
330
F2DC
100
AcDbEntity
  8
0
 48
0.27
100
AcDbLine
 10
77.91987530225014
 20
62.28590274811449
 30
0.0
 11
78.61230929801161
 21
62.74242411697855
 31
0.0
  0
LINE
  5
F385
330
F2DC
100
AcDbEntity
  8
0
 48
0.27
100
AcDbLine
 10
77.68133075453818
 20
62.10527381919951
 30
0.0
 11
77.85643198153014
 21
62.24407424450419
 31
0.0
  0
LINE
  5
F386
330
F2DC
100
AcDbEntity
  8
0
 48
0.27
100
AcDbLine
 10
73.77031305952323
 20
56.73380891816487
 30
0.0
 11
73.55284892858174
 21
57.20016993017202
 31
0.0
  0
LINE
  5
F387
330
F2DC
100
AcDbEntity
  8
0
 48
0.27
100
AcDbLine
 10
73.55284892858174
 20
62.50347208907351
 30
0.0
 11
73.77031305952323
 21
62.96983310108089
 31
0.0
  0
LINE
  5
F388
330
F2DC
100
AcDbEntity
  8
0
 48
0.27
100
AcDbLine
 10
79.46828644708478
 20
56.72141083409428
 30
0.0
 11
79.70657548475401
 21
56.66008173410228
 31
0.0
  0
LINE
  5
F389
330
F2DC
100
AcDbEntity
  8
0
 48
0.27
100
AcDbLine
 10
79.01984955082082
 20
62.94804794394281
 30
0.0
 11
79.25553505768028
 21
63.00870737369791
 31
0.0
  0
LINE
  5
F38A
330
F2DC
100
AcDbEntity
  8
0
 48
0.27
100
AcDbLine
 10
78.61230929801161
 20
62.74242411697855
 30
0.0
 11
79.01984955082082
 21
62.94804794394281
 31
0.0
  0
LINE
  5
F38B
330
F2DC
100
AcDbEntity
  8
0
 48
0.27
100
AcDbLine
 10
73.73905732930359
 20
56.10182059212275
 30
0.0
 11
72.9105232991883
 21
59.85182184462292
 31
0.0
  0
LINE
  5
F38C
330
F2DC
100
AcDbEntity
  8
0
 48
0.27
100
AcDbLine
 10
72.9105232991883
 20
59.85182184462292
 30
0.0
 11
73.73905732930359
 21
63.60182142712301
 31
0.0
  0
LINE
  5
F38D
330
F2DC
100
AcDbEntity
  8
0
 48
0.27
100
AcDbLine
 10
77.68133075453818
 20
57.59836820004625
 30
0.0
 11
77.51995526183851
 21
57.82376650343758
 31
0.0
  0
LINE
  5
F38E
330
F2DC
100
AcDbEntity
  8
0
 48
0.27
100
AcDbLine
 10
81.17355239298921
 20
57.65527346854923
 30
0.0
 11
81.34075451741205
 21
57.61224089448797
 31
0.0
  0
LINE
  5
F38F
330
F2DC
100
AcDbEntity
  8
0
 48
0.27
100
AcDbLine
 10
81.34075451741205
 20
62.09140112475779
 30
0.0
 11
81.50795664195971
 21
62.04836855069629
 31
0.0
  0
LINE
  5
F390
330
F2DC
100
AcDbEntity
  8
0
 48
0.27
100
AcDbLine
 10
79.46828644708478
 20
62.98223285515155
 30
0.0
 11
79.70657548475401
 21
63.04356028514326
 31
0.0
  0
LINE
  5
F391
330
F2DC
100
AcDbEntity
  8
0
 48
0.27
100
AcDbLine
 10
78.40073024905291
 20
62.57470930222007
 30
0.0
 11
78.61230929801161
 21
62.74242411697855
 31
0.0
  0
LINE
  5
F392
330
F2DC
100
AcDbEntity
  8
0
 48
0.27
100
AcDbLine
 10
77.51995526183851
 20
61.87987551580795
 30
0.0
 11
77.68133075453818
 21
62.10527381919951
 31
0.0
  0
LINE
  5
F393
330
F2DC
100
AcDbEntity
  8
0
 48
0.27
100
AcDbLine
 10
73.55284892858174
 20
57.20016993017202
 30
0.0
 11
73.37437931040233
 21
57.76843270544691
 31
0.0
  0
LINE
  5
F394
330
F2DC
100
AcDbEntity
  8
0
 48
0.27
100
AcDbLine
 10
73.37437931040233
 20
61.93520931379862
 30
0.0
 11
73.55284892858174
 21
62.50347208907351
 31
0.0
  0
LINE
  5
F395
330
F2DC
100
AcDbEntity
  8
0
 48
0.27
100
AcDbLine
 10
77.51995526183851
 20
57.82376650343758
 30
0.0
 11
77.37850955584213
 21
58.12710206234488
 31
0.0
  0
LINE
  5
F396
330
F2DC
100
AcDbEntity
  8
0
 48
0.27
100
AcDbLine
 10
79.23915569231997
 20
56.90303842330104
 30
0.0
 11
79.46828644708478
 21
56.72141083409428
 31
0.0
  0
LINE
  5
F397
330
F2DC
100
AcDbEntity
  8
0
 48
0.27
100
AcDbLine
 10
77.37850955584213
 20
61.57653995690089
 30
0.0
 11
77.51995526183851
 21
61.87987551580795
 31
0.0
  0
LINE
  5
F398
330
F2DC
100
AcDbEntity
  8
0
 48
0.27
100
AcDbLine
 10
81.01277476051427
 20
57.78271956008279
 30
0.0
 11
81.17355239298921
 21
57.65527346854923
 31
0.0
  0
LINE
  5
F399
330
F2DC
100
AcDbEntity
  8
0
 48
0.27
100
AcDbLine
 10
79.23915569231997
 20
62.80060359594449
 30
0.0
 11
79.46828644708478
 21
62.98223285515155
 31
0.0
  0
LINE
  5
F39A
330
F2DC
100
AcDbEntity
  8
0
 48
0.27
100
AcDbLine
 10
81.17355239298921
 20
62.04836855069629
 30
0.0
 11
81.34075451741205
 21
62.09140112475779
 31
0.0
  0
LINE
  5
F39B
330
F2DC
100
AcDbEntity
  8
0
 48
0.27
100
AcDbLine
 10
77.37850955584213
 20
58.12710206234488
 30
0.0
 11
77.26242781795645
 21
58.49671827282055
 31
0.0
  0
LINE
  5
F39C
330
F2DC
100
AcDbEntity
  8
0
 48
0.27
100
AcDbLine
 10
73.37437931040233
 20
57.76843270544691
 30
0.0
 11
73.24176623725588
 21
58.41675864684248
 31
0.0
  0
LINE
  5
F39D
330
F2DC
100
AcDbEntity
  8
0
 48
0.27
100
AcDbLine
 10
73.24176623725588
 20
61.28688504240358
 30
0.0
 11
73.37437931040233
 21
61.93520931379862
 31
0.0
  0
LINE
  5
F39E
330
F2DC
100
AcDbEntity
  8
0
 48
0.27
100
AcDbLine
 10
77.26242781795645
 20
61.20692374642499
 30
0.0
 11
77.37850955584213
 21
61.57653995690089
 31
0.0
  0
LINE
  5
F39F
330
F2DC
100
AcDbEntity
  8
0
 48
0.27
100
AcDbLine
 10
79.23915569231997
 20
56.90303842330104
 30
0.0
 11
79.02798746355483
 21
57.19798723943267
 31
0.0
  0
LINE
  5
F3A0
330
F2DC
100
AcDbEntity
  8
0
 48
0.27
100
AcDbLine
 10
77.26242781795645
 20
58.49671827282055
 30
0.0
 11
77.1761722898018
 21
58.91841011036831
 31
0.0
  0
LINE
  5
F3A1
330
F2DC
100
AcDbEntity
  8
0
 48
0.27
100
AcDbLine
 10
73.24176623725588
 20
58.41675864684248
 30
0.0
 11
73.16010321061821
 21
59.12023301607269
 31
0.0
  0
LINE
  5
F3A2
330
F2DC
100
AcDbEntity
  8
0
 48
0.27
100
AcDbLine
 10
73.16010321061821
 20
60.58341067304832
 30
0.0
 11
73.24176623725588
 21
61.28688504240358
 31
0.0
  0
LINE
  5
F3A3
330
F2DC
100
AcDbEntity
  8
0
 48
0.27
100
AcDbLine
 10
81.01277476051427
 20
61.92092245916274
 30
0.0
 11
81.17355239298921
 21
62.04836855069629
 31
0.0
  0
LINE
  5
F3A4
330
F2DC
100
AcDbEntity
  8
0
 48
0.27
100
AcDbLine
 10
81.01277476051427
 20
57.78271956008279
 30
0.0
 11
80.86460229226963
 21
57.98967771751995
 31
0.0
  0
LINE
  5
F3A5
330
F2DC
100
AcDbEntity
  8
0
 48
0.27
100
AcDbLine
 10
79.02798746355483
 20
62.50565477981308
 30
0.0
 11
79.23915569231997
 21
62.80060359594449
 31
0.0
  0
LINE
  5
F3A6
330
F2DC
100
AcDbEntity
  8
0
 48
0.27
100
AcDbLine
 10
77.1761722898018
 20
60.78523190887745
 30
0.0
 11
77.26242781795645
 21
61.20692374642499
 31
0.0
  0
LINE
  5
F3A7
330
F2DC
100
AcDbEntity
  8
0
 48
0.27
100
AcDbLine
 10
77.1761722898018
 20
58.91841011036831
 30
0.0
 11
77.12305458255605
 21
59.375971889531
 31
0.0
  0
LINE
  5
F3A8
330
F2DC
100
AcDbEntity
  8
0
 48
0.27
100
AcDbLine
 10
73.16010321061821
 20
59.12023301607269
 30
0.0
 11
73.13252816163822
 21
59.85182184462292
 31
0.0
  0
LINE
  5
F3A9
330
F2DC
100
AcDbEntity
  8
0
 48
0.27
100
AcDbLine
 10
73.13252816163822
 20
59.85182184462292
 30
0.0
 11
73.16010321061821
 21
60.58341067304832
 31
0.0
  0
LINE
  5
F3AA
330
F2DC
100
AcDbEntity
  8
0
 48
0.27
100
AcDbLine
 10
77.12305458255605
 20
60.32767012971453
 30
0.0
 11
77.1761722898018
 21
60.78523190887745
 31
0.0
  0
LINE
  5
F3AB
330
F2DC
100
AcDbEntity
  8
0
 48
0.27
100
AcDbLine
 10
77.12305458255605
 20
59.375971889531
 30
0.0
 11
77.1051204466861
 21
59.85182184462292
 31
0.0
  0
LINE
  5
F3AC
330
F2DC
100
AcDbEntity
  8
0
 48
0.27
100
AcDbLine
 10
77.1051204466861
 20
59.85182184462292
 30
0.0
 11
77.12305458255605
 21
60.32767012971453
 31
0.0
  0
LINE
  5
F3AD
330
F2DC
100
AcDbEntity
  8
0
 48
0.27
100
AcDbLine
 10
79.02798746355483
 20
57.19798723943267
 30
0.0
 11
78.84289629314469
 21
57.59492131884553
 31
0.0
  0
LINE
  5
F3AE
330
F2DC
100
AcDbEntity
  8
0
 48
0.27
100
AcDbLine
 10
80.86460229226963
 20
61.71396430172581
 30
0.0
 11
81.01277476051427
 21
61.92092245916274
 31
0.0
  0
LINE
  5
F3AF
330
F2DC
100
AcDbEntity
  8
0
 48
0.27
100
AcDbLine
 10
80.86460229226963
 20
57.98967771751995
 30
0.0
 11
80.73472801995558
 21
58.26819873840804
 31
0.0
  0
LINE
  5
F3B0
330
F2DC
100
AcDbEntity
  8
0
 48
0.27
100
AcDbLine
 10
78.84289629314469
 20
62.1087223704003
 30
0.0
 11
79.02798746355483
 21
62.50565477981308
 31
0.0
  0
LINE
  5
F3B1
330
F2DC
100
AcDbEntity
  8
0
 48
0.27
100
AcDbLine
 10
80.73472801995558
 20
61.43544328083772
 30
0.0
 11
80.86460229226963
 21
61.71396430172581
 31
0.0
  0
LINE
  5
F3B2
330
F2DC
100
AcDbEntity
  8
0
 48
0.27
100
AcDbLine
 10
78.84289629314469
 20
57.59492131884553
 30
0.0
 11
78.69099638365241
 21
58.07858520649233
 31
0.0
  0
LINE
  5
F3B3
330
F2DC
100
AcDbEntity
  8
0
 48
0.27
100
AcDbLine
 10
80.73472801995558
 20
58.26819873840804
 30
0.0
 11
80.62814357515595
 21
58.60757791895912
 31
0.0
  0
LINE
  5
F3B4
330
F2DC
100
AcDbEntity
  8
0
 48
0.27
100
AcDbLine
 10
78.69099638365241
 20
61.62505681262814
 30
0.0
 11
78.84289629314469
 21
62.1087223704003
 31
0.0
  0
LINE
  5
F3B5
330
F2DC
100
AcDbEntity
  8
0
 48
0.27
100
AcDbLine
 10
80.62814357515595
 20
61.09606577028671
 30
0.0
 11
80.73472801995558
 21
61.43544328083772
 31
0.0
  0
LINE
  5
F3B6
330
F2DC
100
AcDbEntity
  8
0
 48
0.27
100
AcDbLine
 10
78.69099638365241
 20
58.07858520649233
 30
0.0
 11
78.57812438680276
 21
58.63039513639478
 31
0.0
  0
LINE
  5
F3B7
330
F2DC
100
AcDbEntity
  8
0
 48
0.27
100
AcDbLine
 10
80.62814357515595
 20
58.60757791895912
 30
0.0
 11
80.54894379930464
 21
58.99477088524554
 31
0.0
  0
LINE
  5
F3B8
330
F2DC
100
AcDbEntity
  8
0
 48
0.27
100
AcDbLine
 10
78.57812438680276
 20
61.07324688285098
 30
0.0
 11
78.69099638365241
 21
61.62505681262814
 31
0.0
  0
LINE
  5
F3B9
330
F2DC
100
AcDbEntity
  8
0
 48
0.27
100
AcDbLine
 10
80.54894379930464
 20
60.70887113400022
 30
0.0
 11
80.62814357515595
 21
61.09606577028671
 31
0.0
  0
LINE
  5
F3BA
330
F2DC
100
AcDbEntity
  8
0
 48
0.27
100
AcDbLine
 10
78.57812438680276
 20
58.63039513639478
 30
0.0
 11
78.5086189641953
 21
59.22914377163579
 31
0.0
  0
LINE
  5
F3BB
330
F2DC
100
AcDbEntity
  8
0
 48
0.27
100
AcDbLine
 10
80.54894379930464
 20
58.99477088524554
 30
0.0
 11
80.5001714334096
 21
59.41490127215729
 31
0.0
  0
LINE
  5
F3BC
330
F2DC
100
AcDbEntity
  8
0
 48
0.27
100
AcDbLine
 10
78.5086189641953
 20
60.47449824760997
 30
0.0
 11
78.57812438680276
 21
61.07324688285098
 31
0.0
  0
LINE
  5
F3BD
330
F2DC
100
AcDbEntity
  8
0
 48
0.27
100
AcDbLine
 10
80.5001714334096
 20
60.28874241708876
 30
0.0
 11
80.54894379930464
 21
60.70887113400022
 31
0.0
  0
LINE
  5
F3BE
330
F2DC
100
AcDbEntity
  8
0
 48
0.27
100
AcDbLine
 10
78.5086189641953
 20
59.22914377163579
 30
0.0
 11
78.48514877652576
 21
59.85182184462292
 31
0.0
  0
LINE
  5
F3BF
330
F2DC
100
AcDbEntity
  8
0
 48
0.27
100
AcDbLine
 10
80.5001714334096
 20
59.41490127215729
 30
0.0
 11
80.48370355803445
 21
59.85182184462292
 31
0.0
  0
LINE
  5
F3C0
330
F2DC
100
AcDbEntity
  8
0
 48
0.27
100
AcDbLine
 10
80.48370355803445
 20
59.85182184462292
 30
0.0
 11
80.5001714334096
 21
60.28874241708876
 31
0.0
  0
LINE
  5
F3C1
330
F2DC
100
AcDbEntity
  8
0
 48
0.27
100
AcDbLine
 10
78.48514877652576
 20
59.85182184462292
 30
0.0
 11
78.5086189641953
 21
60.47449824760997
 31
0.0
  0
LINE
  5
F3C2
330
F2DC
100
AcDbEntity
  8
0
 48
0.27
100
AcDbLine
 10
77.85643198153014
 20
57.45956777474157
 30
0.0
 11
77.91987530225014
 21
57.41773927113126
 31
0.0
  0
LINE
  5
F3C3
330
F2DC
100
AcDbEntity
  8
0
 48
0.27
100
AcDbLine
 10
77.590778315041
 20
57.43171550571514
 30
0.0
 11
77.6512206446348
 21
57.4291487147866
 31
0.0
  0
LINE
  5
F3C4
330
F2DC
100
AcDbEntity
  8
0
 48
0.27
100
AcDbLine
 10
77.85643198153014
 20
62.24407424450419
 30
0.0
 11
77.91987530225014
 21
62.28590274811449
 31
0.0
  0
LINE
  5
F3C5
330
F2DC
100
AcDbEntity
  8
中心線
 48
0.27
100
AcDbLine
 10
83.69780380691418
 20
59.85182184462292
 30
0.0
 11
61.93915513496995
 21
59.85182184462292
 31
0.0
  0
POINT
  5
F3C6
330
F2DC
100
AcDbEntity
  8
0
100
AcDbPoint
 10
82.19780380691418
 20
59.85182184462292
 30
0.0
1001
pntflag
1000
endpoint
  0
LINE
  5
F3C7
330
F2DC
100
AcDbEntity
  8
虛線
 48
0.27
100
AcDbLine
 10
58.50211693969038
 20
45.45131569183991
 30
0.0
 11
58.29101272622449
 21
45.81695891525464
 31
0.0
  0
LINE
  5
F3C8
330
F2DC
100
AcDbEntity
  8
虛線
 48
0.27
100
AcDbLine
 10
78.50211693969038
 20
1.851315691839772
 30
0.0
 11
78.00211693969027
 21
2.351315691839772
 31
0.0
  0
LINE
  5
F3C9
330
F2DC
100
AcDbEntity
  8
虛線
 48
0.27
100
AcDbLine
 10
61.50211693969026
 20
1.851315691839772
 30
0.0
 11
62.00211693969027
 21
2.351315691839999
 31
0.0
  0
LINE
  5
F3CA
330
F2DC
100
AcDbEntity
  8
虛線
 48
0.27
100
AcDbLine
 10
78.00211693969027
 20
2.351315691839772
 30
0.0
 11
62.00211693969027
 21
2.351315691839999
 31
0.0
  0
LINE
  5
F3CB
330
F2DC
100
AcDbEntity
  8
虛線
 48
0.27
100
AcDbLine
 10
62.00211693969027
 20
2.351315691839999
 30
0.0
 11
62.00211693969027
 21
25.35131569183977
 31
0.0
  0
LINE
  5
F3CC
330
F2DC
100
AcDbEntity
  8
虛線
 48
0.27
100
AcDbLine
 10
78.00211693969027
 20
2.351315691839772
 30
0.0
 11
78.00211693969027
 21
25.35131569183977
 31
0.0
  0
LINE
  5
F3CD
330
F2DC
100
AcDbEntity
  8
虛線
 48
0.27
100
AcDbLine
 10
58.50211693969026
 20
25.85131569183977
 30
0.0
 11
58.50211693969038
 21
45.45131569183991
 31
0.0
  0
LINE
  5
F3CE
330
F2DC
100
AcDbEntity
  8
虛線
 48
0.27
100
AcDbLine
 10
62.00211693969027
 20
25.35131569183977
 30
0.0
 11
78.00211693969027
 21
25.35131569183977
 31
0.0
  0
LINE
  5
F3CF
330
F2DC
100
AcDbEntity
  8
虛線
 48
0.27
100
AcDbLine
 10
62.00211693969027
 20
25.35131569183977
 30
0.0
 11
61.50211693969026
 21
25.85131569183977
 31
0.0
  0
LINE
  5
F3D0
330
F2DC
100
AcDbEntity
  8
虛線
 48
0.27
100
AcDbLine
 10
78.50211693969026
 20
25.85131569183977
 30
0.0
 11
78.00211693969027
 21
25.35131569183977
 31
0.0
  0
LINE
  5
F3D1
330
F2DC
100
AcDbEntity
  8
0
  6
Continuous
 62
     7
100
AcDbLine
 10
80.5021169396905
 20
1.851315691839772
 30
0.0
 11
59.50211693969049
 21
1.851315691839772
 31
0.0
  0
LINE
  5
F3D2
330
F2DC
100
AcDbEntity
  8
虛線
 48
0.27
100
AcDbLine
 10
58.50211693969026
 20
25.85131569183977
 30
0.0
 11
81.50211693969026
 21
25.85131569183977
 31
0.0
  0
LINE
  5
F3D3
330
F2DC
100
AcDbEntity
  8
虛線
 48
0.27
100
AcDbLine
 10
58.50211693969038
 20
45.45131569183991
 30
0.0
 11
81.50211693969039
 21
45.45131569183967
 31
0.0
  0
LINE
  5
F3D4
330
F2DC
100
AcDbEntity
  8
虛線
 48
0.27
100
AcDbLine
 10
81.71322115315616
 20
45.81695891525464
 30
0.0
 11
81.50211693969039
 21
45.45131569183967
 31
0.0
  0
LINE
  5
F3D5
330
F2DC
100
AcDbEntity
  8
虛線
 48
0.27
100
AcDbLine
 10
81.50211693969026
 20
25.85131569183977
 30
0.0
 11
81.50211693969039
 21
45.45131569183967
 31
0.0
  0
LINE
  5
F3D6
330
F2DC
100
AcDbEntity
  8
中心線
 48
0.27
100
AcDbLine
 10
83.69780380691418
 20
59.85182184462292
 30
0.0
 11
61.93915513496995
 21
59.85182184462292
 31
0.0
  0
LINE
  5
F3D7
330
F2DC
100
AcDbEntity
  8
虛線
 48
0.27
100
AcDbLine
 10
5.000002762024223
 20
71.35132969183904
 30
0.0
 11
5.000002762024223
 21
54.8513446918405
 31
0.0
  0
LINE
  5
F3D8
330
F2DC
100
AcDbEntity
  8
虛線
 48
0.27
100
AcDbLine
 10
19.00000276202422
 20
71.35132969184005
 30
0.0
 11
19.00000276202513
 21
54.8513446918405
 31
0.0
  0
LINE
  5
F3D9
330
F2DC
100
AcDbEntity
  8
虛線
 48
0.27
100
AcDbLine
 10
1.000002762022177
 20
54.8513446918405
 30
0.0
 11
22.00000276202422
 21
54.8513446918405
 31
0.0
  0
LINE
  5
F3DA
330
F2DC
100
AcDbEntity
  8
虛線
 48
0.27
100
AcDbLine
 10
22.00000276202422
 20
54.8513446918405
 30
0.0
 11
22.00000276202513
 21
11.85134469184004
 31
0.0
  0
LINE
  5
F3DB
330
F2DC
100
AcDbEntity
  8
虛線
 48
0.27
100
AcDbLine
 10
60.00000276202422
 20
59.85137569184008
 30
0.0
 11
60.00000276202536
 21
47.85132969183996
 31
0.0
  0
LINE
  5
F3DC
330
F2DC
100
AcDbEntity
  8
虛線
 48
0.27
100
AcDbLine
 10
63.00000276202434
 20
71.35134469183897
 30
0.0
 11
63.00000276202308
 21
59.85137569184008
 31
0.0
  0
LINE
  5
F3DD
330
F2DC
100
AcDbEntity
  8
虛線
 48
0.27
100
AcDbLine
 10
60.00000276202422
 20
59.85137569184008
 30
0.0
 11
80.00000276202422
 21
59.85137569184008
 31
0.0
  0
LINE
  5
F3DE
330
F2DC
100
AcDbEntity
  8
虛線
 48
0.27
100
AcDbLine
 10
80.00000276202422
 20
59.85137569184008
 30
0.0
 11
80.00000276202319
 21
47.85132969183996
 31
0.0
  0
LINE
  5
F3DF
330
F2DC
100
AcDbEntity
  8
虛線
 48
0.27
100
AcDbLine
 10
77.00000276202331
 20
71.35134469184101
 30
0.0
 11
77.00000276202525
 21
59.85137569184008
 31
0.0
  0
LINE
  5
F3E0
330
F2DC
100
AcDbEntity
  8
虛線
 48
0.27
100
AcDbLine
 10
135.0000027620241
 20
71.35132969184002
 30
0.0
 11
135.0000027620232
 21
54.85134469184027
 31
0.0
  0
LINE
  5
F3E1
330
F2DC
100
AcDbEntity
  8
虛線
 48
0.27
100
AcDbLine
 10
121.0000027620233
 20
71.35132969183984
 30
0.0
 11
121.0000027620233
 21
54.85134469183981
 31
0.0
  0
LINE
  5
F3E2
330
F2DC
100
AcDbEntity
  8
虛線
 48
0.27
100
AcDbLine
 10
140.0000027620251
 20
54.8513446918405
 30
0.0
 11
118.0000027620242
 21
54.85134469183958
 31
0.0
  0
LINE
  5
F3E3
330
F2DC
100
AcDbEntity
  8
中心線
 48
0.27
100
AcDbLine
 10
128.0000027620242
 20
73.35134469184004
 30
0.0
 11
128.0000027620242
 21
18.06673769183999
 31
0.0
  0
LINE
  5
F3E4
330
F2DC
100
AcDbEntity
  8
虛線
 48
0.27
100
AcDbLine
 10
118.0000027620242
 20
54.85134469183958
 30
0.0
 11
118.0000027620224
 21
11.85134469184049
 31
0.0
  0
LINE
  5
F3E5
330
F2DC
100
AcDbEntity
  8
中心線
 48
0.27
100
AcDbLine
 10
12.00000276202422
 20
73.35134469184004
 30
0.0
 11
12.00000276202422
 21
18.06673769183999
 31
0.0
  0
LINE
  5
F3E6
330
F2DC
100
AcDbEntity
  8
中心線
 48
0.27
100
AcDbLine
 10
70.0000027620224
 20
73.85132969184019
 30
0.0
 11
70.0000027620224
 21
0.0000001180058007
 31
0.0
  0
LINE
  5
F3E7
330
F2DC
100
AcDbEntity
  8
虛線
 48
0.27
100
AcDbLine
 10
134.0000027620241
 20
70.35132969183995
 30
0.0
 11
134.0000027620232
 21
54.85134469184027
 31
0.0
  0
LINE
  5
F3E8
330
F2DC
100
AcDbEntity
  8
虛線
 48
0.27
100
AcDbLine
 10
122.0000027620233
 20
70.35132969183996
 30
0.0
 11
122.0000027620233
 21
54.85134469183981
 31
0.0
  0
LINE
  5
F3E9
330
F2DC
100
AcDbEntity
  8
虛線
 48
0.27
100
AcDbLine
 10
122.0000027620233
 20
70.35132969183996
 30
0.0
 11
134.0000027620241
 21
70.35132969183995
 31
0.0
  0
LINE
  5
F3EA
330
F2DC
100
AcDbEntity
  8
虛線
 48
0.27
100
AcDbLine
 10
134.0000027620241
 20
70.35132969184001
 30
0.0
 11
135.5000027620241
 21
71.85132969184
 31
0.0
  0
LINE
  5
F3EB
330
F2DC
100
AcDbEntity
  8
虛線
 48
0.27
100
AcDbLine
 10
122.0000027620233
 20
70.35132969183996
 30
0.0
 11
120.5000027620233
 21
71.85132969183996
 31
0.0
  0
LINE
  5
F3EC
330
F2DC
100
AcDbEntity
  8
虛線
 48
0.27
100
AcDbLine
 10
64.00000276202138
 20
70.35134469184002
 30
0.0
 11
64.00000276202149
 21
59.85137569184008
 31
0.0
  0
LINE
  5
F3ED
330
F2DC
100
AcDbEntity
  8
虛線
 48
0.27
100
AcDbLine
 10
64.00000276202138
 20
70.35134469184002
 30
0.0
 11
76.00000276202218
 21
70.35134469184002
 31
0.0
  0
LINE
  5
F3EE
330
F2DC
100
AcDbEntity
  8
虛線
 48
0.27
100
AcDbLine
 10
64.00000276202229
 20
70.35134469184095
 30
0.0
 11
62.50000276202229
 21
71.85134469184095
 31
0.0
  0
LINE
  5
F3EF
330
F2DC
100
AcDbEntity
  8
虛線
 48
0.27
100
AcDbLine
 10
76.00000276202229
 20
70.35134469184005
 30
0.0
 11
77.50000276202229
 21
71.85134469184006
 31
0.0
  0
LINE
  5
F3F0
330
F2DC
100
AcDbEntity
  8
虛線
 48
0.27
100
AcDbLine
 10
76.00000276202218
 20
70.35134469184002
 30
0.0
 11
76.00000276202172
 21
59.85137569184008
 31
0.0
  0
LINE
  5
F3F1
330
F2DC
100
AcDbEntity
  8
虛線
 48
0.27
100
AcDbLine
 10
18.00000276202411
 20
70.35132969183996
 30
0.0
 11
18.0000027620232
 21
54.85134469184027
 31
0.0
  0
LINE
  5
F3F2
330
F2DC
100
AcDbEntity
  8
虛線
 48
0.27
100
AcDbLine
 10
6.000002762023086
 20
70.35132969183996
 30
0.0
 11
18.00000276202411
 21
70.35132969183996
 31
0.0
  0
LINE
  5
F3F3
330
F2DC
100
AcDbEntity
  8
虛線
 48
0.27
100
AcDbLine
 10
18.00000276202399
 20
70.35132969183996
 30
0.0
 11
19.50000276202399
 21
71.85132969183996
 31
0.0
  0
LINE
  5
F3F4
330
F2DC
100
AcDbEntity
  8
虛線
 48
0.27
100
AcDbLine
 10
6.0000027620232
 20
70.35132969183996
 30
0.0
 11
4.5000027620232
 21
71.85132969183996
 31
0.0
  0
LINE
  5
F3F5
330
F2DC
100
AcDbEntity
  8
虛線
 48
0.27
100
AcDbLine
 10
6.000002762023086
 20
70.35132969183996
 30
0.0
 11
6.000002762023314
 21
54.85134469183981
 31
0.0
  0
ENDBLK
  5
F3F8
330
F2DC
100
AcDbEntity
  8
0
100
AcDbBlockEnd
  0
BLOCK
  5
10F84
330
10F81
100
AcDbEntity
  8
0
100
AcDbBlockBegin
  2
A$C52CB7200
 70
     0
 10
0.0
 20
0.0
 30
0.0
  3
A$C52CB7200
  1

  0
LINE
  5
10F85
330
10F81
100
AcDbEntity
  8
標註線
  6
ByBlock
100
AcDbLine
 10
4.799830317117994
 20
1.286110811651724
 30
0.0
 11
1.286109786048655
 21
4.799831342720608
 31
0.0
  0
LINE
  5
10F86
330
10F81
100
AcDbEntity
  8
標註線
  6
ByBlock
100
AcDbLine
 10
9.616622359807479
 20
2.576766349583976
 30
0.0
 11
-0.0000011902102415
 21
-0.0000001645271368
 31
0.0
  0
LINE
  5
10F87
330
10F81
100
AcDbEntity
  8
標註線
  6
ByBlock
100
AcDbLine
 10
-0.0000011902102415
 20
-0.0000001645271368
 30
0.0
 11
1.286109786048655
 21
4.799831342720608
 31
0.0
  0
MTEXT
  5
10F88
330
10F81
100
AcDbEntity
  8
標註線
  6
ByBlock
100
AcDbMText
 10
1.911263119882278
 20
9.610604198853707
 30
0.0
 40
2.799999999999999
 41
9.678846386851056
 71
     1
 72
     5
  1
0.25
 11
0.7071067811865475
 21
-0.7071067811865478
 31
0.0
 73
     1
 44
1.0
1001
ACAD
1000
MTEXTBEGIN
1070
    73
1070
     1
1070
    44
1040
1.0
1070
    74
1070
     0
1000
MTEXTEND
  0
ENDBLK
  5
10F89
330
10F81
100
AcDbEntity
  8
0
100
AcDbBlockEnd
  0
BLOCK
  5
111BC
330
11124
100
AcDbEntity
  8
0
100
AcDbBlockBegin
  2
A$C121D5C09
 70
     0
 10
0.0
 20
0.0
 30
0.0
  3
A$C121D5C09
  1

  0
LINE
  5
11125
330
11124
100
AcDbEntity
  8
0
 62
     1
100
AcDbLine
 10
51.058255452519
 20
36.60000076362531
 30
0.0
 11
50.21499789311747
 21
36.60000076362621
 31
0.0
  0
ARC
  5
11126
330
11124
100
AcDbEntity
  8
0
 62
     1
100
AcDbCircle
 10
50.21499789311747
 20
36.10000076362621
 30
0.0
 40
0.5
100
AcDbArc
 50
90.0
 51
180.0
  0
LINE
  5
11127
330
11124
100
AcDbEntity
  8
0
 62
     1
100
AcDbLine
 10
49.71499789311747
 20
33.37472623836629
 30
0.0
 11
49.71499789311747
 21
36.10000076362621
 31
0.0
  0
LINE
  5
11128
330
11124
100
AcDbEntity
  8
AM8
 62
     1
100
AcDbLine
 10
56.61499789312256
 20
15.96999841227762
 30
0.0
 11
56.61499789312256
 21
15.8043129873281
 31
0.0
  0
LINE
  5
11129
330
11124
100
AcDbEntity
  8
AM8
 62
     1
100
AcDbLine
 10
56.49784060559795
 20
15.68715569980259
 30
0.0
 11
56.61499789312256
 21
15.8043129873281
 31
0.0
  0
LINE
  5
1112A
330
11124
100
AcDbEntity
  8
AM8
 62
     1
100
AcDbLine
 10
49.86144450249231
 20
5.585934793989963
 30
0.0
 11
49.71499789312111
 21
5.439488184616948
 31
0.0
  0
LINE
  5
1112B
330
11124
100
AcDbEntity
  8
AM8
 62
     1
100
AcDbLine
 10
49.71499789312111
 20
5.232381403430281
 30
0.0
 11
49.71499789312111
 21
5.439488184616948
 31
0.0
  0
LINE
  5
1112C
330
11124
100
AcDbEntity
  8
AM8
 62
     1
100
AcDbLine
 10
50.95972010997138
 20
6.967053114104146
 30
0.0
 11
51.10114146620981
 21
6.825631757865721
 31
0.0
  0
LINE
  5
1112D
330
11124
100
AcDbEntity
  8
AM8
 62
     1
100
AcDbLine
 10
50.95972010998412
 20
6.68421040163821
 30
0.0
 11
51.10114146620981
 21
6.825631757865721
 31
0.0
  0
LINE
  5
1112E
330
11124
100
AcDbEntity
  8
AM8
 62
     1
100
AcDbLine
 10
56.61499789312074
 20
22.43000244833411
 30
0.0
 11
56.61499789312074
 21
22.59568787328271
 31
0.0
  0
LINE
  5
1112F
330
11124
100
AcDbEntity
  8
AM8
 62
     1
100
AcDbLine
 10
56.49784060559614
 20
22.71284516080823
 30
0.0
 11
56.61499789312074
 21
22.59568787328271
 31
0.0
  0
LINE
  5
11130
330
11124
100
AcDbEntity
  8
AM8
 62
     1
100
AcDbLine
 10
49.86144450249231
 20
32.81406606662085
 30
0.0
 11
49.71499789311747
 21
32.96051267599296
 31
0.0
  0
LINE
  5
11131
330
11124
100
AcDbEntity
  8
AM8
 62
     1
100
AcDbLine
 10
49.71499789311747
 20
33.16761945717963
 30
0.0
 11
49.71499789311747
 21
32.96051267599296
 31
0.0
  0
LINE
  5
11132
330
11124
100
AcDbEntity
  8
AM8
 62
     1
100
AcDbLine
 10
50.95972010996956
 20
31.43294774650667
 30
0.0
 11
51.10114146620799
 21
31.5743691027451
 31
0.0
  0
LINE
  5
11133
330
11124
100
AcDbEntity
  8
AM8
 62
     1
100
AcDbLine
 10
50.95972010998412
 20
31.7157904589717
 30
0.0
 11
51.10114146620799
 21
31.5743691027451
 31
0.0
  0
ARC
  5
11134
330
11124
100
AcDbEntity
  8
0
 62
     1
100
AcDbCircle
 10
50.71499789311747
 20
33.37472623836629
 30
0.0
 40
1.0
100
AcDbArc
 50
180.0
 51
224.9999999946848
  0
ARC
  5
11135
330
11124
100
AcDbEntity
  8
0
 62
     1
100
AcDbCircle
 10
55.81499789312147
 20
22.26431702338459
 30
0.0
 40
0.8
100
AcDbArc
 50
0.0
 51
44.99999999969601
  0
ARC
  5
11136
330
11124
100
AcDbEntity
  8
0
 62
     1
100
AcDbCircle
 10
50.53545604126156
 20
31.5743691027451
 30
0.0
 40
0.4
100
AcDbArc
 50
314.9999999994197
 51
44.99999999586387
  0
LINE
  5
11137
330
11124
100
AcDbEntity
  8
0
 62
     1
100
AcDbLine
 10
49.80944677431216
 20
30.28267441089202
 30
0.0
 11
50.81829875373114
 21
31.29152639026825
 31
0.0
  0
LINE
  5
11138
330
11124
100
AcDbEntity
  8
0
 62
     1
100
AcDbLine
 10
50.0078911118635
 20
32.66761945724784
 30
0.0
 11
50.81829875376389
 21
31.85721181519375
 31
0.0
  0
LINE
  5
11139
330
11124
100
AcDbEntity
  8
0
 62
     1
100
AcDbLine
 10
56.38068331806971
 20
22.83000244833374
 30
0.0
 11
49.95693492300597
 21
29.25375084340658
 31
0.0
  0
ARC
  5
1113A
330
11124
100
AcDbEntity
  8
0
 62
     1
100
AcDbCircle
 10
50.7149978931211
 20
5.025274622241795
 30
0.0
 40
1.0
100
AcDbArc
 50
135.0000000053152
 51
180.0
  0
LINE
  5
1113B
330
11124
100
AcDbEntity
  8
0
 62
     1
100
AcDbLine
 10
49.71499789312474
 20
2.200000096981511
 30
0.0
 11
49.71499789312111
 21
5.025274622241795
 31
0.0
  0
ARC
  5
1113C
330
11124
100
AcDbEntity
  8
0
 62
     1
100
AcDbCircle
 10
55.81499789312329
 20
16.13568383722531
 30
0.0
 40
0.8
100
AcDbArc
 50
315.000000000304
 51
0.0
  0
ARC
  5
1113D
330
11124
100
AcDbEntity
  8
0
 62
     1
100
AcDbCircle
 10
50.53545604126338
 20
6.825631757862993
 30
0.0
 40
0.4
100
AcDbArc
 50
315.0000000041361
 51
45.00000000058034
  0
LINE
  5
1113E
330
11124
100
AcDbEntity
  8
0
 62
     1
100
AcDbLine
 10
49.80944677432126
 20
8.117326449710617
 30
0.0
 11
50.81829875373478
 21
7.108474470339842
 31
0.0
  0
LINE
  5
1113F
330
11124
100
AcDbEntity
  8
0
 62
     1
100
AcDbLine
 10
50.00789111186714
 20
5.73238140336025
 30
0.0
 11
50.8182987537657
 21
6.542789045415247
 31
0.0
  0
LINE
  5
11140
330
11124
100
AcDbEntity
  8
0
 62
     1
100
AcDbLine
 10
56.38068331806971
 20
15.56999841227616
 30
0.0
 11
49.9569349229987
 21
9.146250017198781
 31
0.0
  0
LINE
  5
11141
330
11124
100
AcDbEntity
  8
0
 62
     1
100
AcDbLine
 10
56.61499789312256
 20
16.13568383722622
 30
0.0
 11
56.61499789312074
 21
22.2643170233855
 31
0.0
  0
ARC
  5
11142
330
11124
100
AcDbEntity
  8
0
 62
     1
100
AcDbCircle
 10
49.7611911851618
 20
8.593399498179223
 30
0.0
 40
0.4
100
AcDbArc
 50
117.5000000000373
 51
242.50000000008
  0
LINE
  5
11143
330
11124
100
AcDbEntity
  8
0
 62
     1
100
AcDbLine
 10
49.57649173986829
 20
8.948203831449518
 30
0.0
 11
49.9569349229987
 21
9.146250017198781
 31
0.0
  0
LINE
  5
11144
330
11124
100
AcDbEntity
  8
0
 62
     1
100
AcDbLine
 10
49.57649173986829
 20
8.23859516490711
 30
0.0
 11
49.80944677432126
 21
8.117326449710617
 31
0.0
  0
ARC
  5
11145
330
11124
100
AcDbEntity
  8
0
 62
     1
100
AcDbCircle
 10
49.76119118515999
 20
29.80660136242704
 30
0.0
 40
0.4
100
AcDbArc
 50
117.49999999992
 51
242.4999999999627
  0
LINE
  5
11146
330
11124
100
AcDbEntity
  8
0
 62
     1
100
AcDbLine
 10
49.57649173986465
 20
29.45179702915675
 30
0.0
 11
49.95693492300597
 21
29.25375084340658
 31
0.0
  0
LINE
  5
11147
330
11124
100
AcDbEntity
  8
0
 62
     1
100
AcDbLine
 10
49.57649173986465
 20
30.16140569569916
 30
0.0
 11
49.80944677431216
 21
30.28267441089202
 31
0.0
  0
ARC
  5
11148
330
11124
100
AcDbEntity
  8
0
 62
     1
100
AcDbCircle
 10
50.59999788302412
 20
36.80000076362603
 30
0.0
 40
0.5
100
AcDbArc
 50
336.421821521675
 51
0.0000016362605281
  0
LINE
  5
11149
330
11124
100
AcDbEntity
  8
0
 62
     1
100
AcDbLine
 10
49.71499789312474
 20
2.200000096981511
 30
0.0
 11
49.41499789312911
 21
1.900000096985422
 31
0.0
  0
ARC
  5
1114A
330
11124
100
AcDbEntity
  8
0
 62
     1
100
AcDbCircle
 10
56.0999978373311
 20
38.39999209698317
 30
0.0
 40
5.0
100
AcDbArc
 50
90.0
 51
179.9999999999739
  0
LINE
  5
1114B
330
11124
100
AcDbEntity
  8
0
 62
     1
100
AcDbLine
 10
51.0999978373311
 20
38.39999209698408
 30
0.0
 11
51.09999788302411
 21
36.8000007779051
 31
0.0
  0
LINE
  5
1114C
330
11124
100
AcDbEntity
  8
0
 62
     1
100
AcDbLine
 10
118.9417402221461
 20
36.60000076362917
 30
0.0
 11
119.7849977815458
 21
36.60000076362985
 31
0.0
  0
ARC
  5
1114D
330
11124
100
AcDbEntity
  8
0
 62
     1
100
AcDbCircle
 10
119.7849977815458
 20
36.10000076362985
 30
0.0
 40
0.5
100
AcDbArc
 50
0.0
 51
90.0
  0
LINE
  5
1114E
330
11124
100
AcDbEntity
  8
0
 62
     1
100
AcDbLine
 10
120.284997781544
 20
33.37472623836993
 30
0.0
 11
120.2849977815458
 21
36.10000076362985
 31
0.0
  0
LINE
  5
1114F
330
11124
100
AcDbEntity
  8
AM8
 62
     1
100
AcDbLine
 10
113.3849977815425
 20
15.96999841228035
 30
0.0
 11
113.3849977815425
 21
15.80431298733083
 31
0.0
  0
LINE
  5
11150
330
11124
100
AcDbEntity
  8
AM8
 62
     1
100
AcDbLine
 10
113.5021550690671
 20
15.68715569980532
 30
0.0
 11
113.3849977815425
 21
15.80431298733083
 31
0.0
  0
LINE
  5
11151
330
11124
100
AcDbEntity
  8
AM8
 62
     1
100
AcDbLine
 10
120.1385511721728
 20
5.585934793993601
 30
0.0
 11
120.2849977815476
 21
5.439488184620586
 31
0.0
  0
LINE
  5
11152
330
11124
100
AcDbEntity
  8
AM8
 62
     1
100
AcDbLine
 10
120.2849977815476
 20
5.232381403433919
 30
0.0
 11
120.2849977815476
 21
5.439488184620586
 31
0.0
  0
LINE
  5
11153
330
11124
100
AcDbEntity
  8
AM8
 62
     1
100
AcDbLine
 10
119.0402755646955
 20
6.967053114107784
 30
0.0
 11
118.8988542084571
 21
6.825631757869359
 31
0.0
  0
LINE
  5
11154
330
11124
100
AcDbEntity
  8
AM8
 62
     1
100
AcDbLine
 10
119.040275564681
 20
6.684210401641848
 30
0.0
 11
118.8988542084571
 21
6.825631757869359
 31
0.0
  0
LINE
  5
11155
330
11124
100
AcDbEntity
  8
AM8
 62
     1
100
AcDbLine
 10
113.3849977815425
 20
22.43000244833684
 30
0.0
 11
113.3849977815425
 21
22.59568787328544
 31
0.0
  0
LINE
  5
11156
330
11124
100
AcDbEntity
  8
AM8
 62
     1
100
AcDbLine
 10
113.5021550690671
 20
22.71284516081096
 30
0.0
 11
113.3849977815425
 21
22.59568787328544
 31
0.0
  0
LINE
  5
11157
330
11124
100
AcDbEntity
  8
AM8
 62
     1
100
AcDbLine
 10
120.1385511721728
 20
32.81406606662449
 30
0.0
 11
120.284997781544
 21
32.9605126759966
 31
0.0
  0
LINE
  5
11158
330
11124
100
AcDbEntity
  8
AM8
 62
     1
100
AcDbLine
 10
120.284997781544
 20
33.16761945718326
 30
0.0
 11
120.284997781544
 21
32.9605126759966
 31
0.0
  0
LINE
  5
11159
330
11124
100
AcDbEntity
  8
AM8
 62
     1
100
AcDbLine
 10
119.0402755646919
 20
31.43294774651031
 30
0.0
 11
118.8988542084535
 21
31.57436910274873
 31
0.0
  0
LINE
  5
1115A
330
11124
100
AcDbEntity
  8
AM8
 62
     1
100
AcDbLine
 10
119.040275564681
 20
31.71579045897534
 30
0.0
 11
118.8988542084535
 21
31.57436910274873
 31
0.0
  0
ARC
  5
1115B
330
11124
100
AcDbEntity
  8
0
 62
     1
100
AcDbCircle
 10
119.284997781544
 20
33.37472623836993
 30
0.0
 40
1.0
100
AcDbArc
 50
315.0000000053152
 51
0.0
  0
ARC
  5
1115C
330
11124
100
AcDbEntity
  8
0
 62
     1
100
AcDbCircle
 10
114.1849977815418
 20
22.26431702338732
 30
0.0
 40
0.8
100
AcDbArc
 50
135.0000000003039
 51
180.0
  0
ARC
  5
1115D
330
11124
100
AcDbEntity
  8
0
 62
     1
100
AcDbCircle
 10
119.4645396334035
 20
31.57436910274873
 30
0.0
 40
0.4
100
AcDbArc
 50
135.0000000041361
 51
225.0000000005804
  0
LINE
  5
1115E
330
11124
100
AcDbEntity
  8
0
 62
     1
100
AcDbLine
 10
120.1905489003529
 20
30.28267441089565
 30
0.0
 11
119.1816969209303
 21
31.29152639027188
 31
0.0
  0
LINE
  5
1115F
330
11124
100
AcDbEntity
  8
0
 62
     1
100
AcDbLine
 10
119.992104562798
 20
32.66761945725148
 30
0.0
 11
119.1816969209012
 21
31.85721181519739
 31
0.0
  0
LINE
  5
11160
330
11124
100
AcDbEntity
  8
0
 62
     1
100
AcDbLine
 10
113.6193123565954
 20
22.83000244833647
 30
0.0
 11
120.0430607516591
 21
29.25375084341022
 31
0.0
  0
ARC
  5
11161
330
11124
100
AcDbEntity
  8
0
 62
     1
100
AcDbCircle
 10
119.284997781544
 20
5.025274622245433
 30
0.0
 40
1.0
100
AcDbArc
 50
0.0
 51
44.99999999468474
  0
LINE
  5
11162
330
11124
100
AcDbEntity
  8
0
 62
     1
100
AcDbLine
 10
120.2849977815404
 20
2.200000096985149
 30
0.0
 11
120.284997781544
 21
5.025274622245433
 31
0.0
  0
ARC
  5
11163
330
11124
100
AcDbEntity
  8
0
 62
     1
100
AcDbCircle
 10
114.1849977815418
 20
16.13568383722804
 30
0.0
 40
0.8
100
AcDbArc
 50
180.0
 51
224.999999999696
  0
ARC
  5
11164
330
11124
100
AcDbEntity
  8
0
 62
     1
100
AcDbCircle
 10
119.4645396334035
 20
6.825631757866631
 30
0.0
 40
0.4
100
AcDbArc
 50
134.9999999994196
 51
224.9999999958639
  0
LINE
  5
11165
330
11124
100
AcDbEntity
  8
0
 62
     1
100
AcDbLine
 10
120.1905489003457
 20
8.117326449714255
 30
0.0
 11
119.1816969209303
 21
7.10847447034348
 31
0.0
  0
LINE
  5
11166
330
11124
100
AcDbEntity
  8
0
 62
     1
100
AcDbLine
 10
119.992104562798
 20
5.732381403363888
 30
0.0
 11
119.1816969209012
 21
6.542789045418885
 31
0.0
  0
LINE
  5
11167
330
11124
100
AcDbEntity
  8
0
 62
     1
100
AcDbLine
 10
113.6193123565954
 20
15.56999841227889
 30
0.0
 11
120.0430607516664
 21
9.146250017202419
 31
0.0
  0
LINE
  5
11168
330
11124
100
AcDbEntity
  8
0
 62
     1
100
AcDbLine
 10
113.3849977815425
 20
16.13568383722895
 30
0.0
 11
113.3849977815425
 21
22.26431702338823
 31
0.0
  0
ARC
  5
11169
330
11124
100
AcDbEntity
  8
0
 62
     1
100
AcDbCircle
 10
120.2388044895033
 20
8.593399498182861
 30
0.0
 40
0.4
100
AcDbArc
 50
297.49999999992
 51
62.49999999994813
  0
LINE
  5
1116A
330
11124
100
AcDbEntity
  8
0
 62
     1
100
AcDbLine
 10
120.4235039347986
 20
8.948203831453156
 30
0.0
 11
120.0430607516664
 21
9.146250017202419
 31
0.0
  0
LINE
  5
1116B
330
11124
100
AcDbEntity
  8
0
 62
     1
100
AcDbLine
 10
120.4235039347968
 20
8.238595164910748
 30
0.0
 11
120.1905489003457
 21
8.117326449714255
 31
0.0
  0
ARC
  5
1116C
330
11124
100
AcDbEntity
  8
0
 62
     1
100
AcDbCircle
 10
120.2388044895033
 20
29.80660136243069
 30
0.0
 40
0.4
100
AcDbArc
 50
297.5000000000519
 51
62.50000000007997
  0
LINE
  5
1116D
330
11124
100
AcDbEntity
  8
0
 62
     1
100
AcDbLine
 10
120.4235039347986
 20
29.45179702916039
 30
0.0
 11
120.0430607516591
 21
29.25375084341022
 31
0.0
  0
LINE
  5
1116E
330
11124
100
AcDbEntity
  8
0
 62
     1
100
AcDbLine
 10
120.4235039347968
 20
30.1614056957028
 30
0.0
 11
120.1905489003529
 21
30.28267441089565
 31
0.0
  0
ARC
  5
1116F
330
11124
100
AcDbEntity
  8
0
 62
     1
100
AcDbCircle
 10
119.399997791641
 20
36.80000076362967
 30
0.0
 40
0.5
100
AcDbArc
 50
179.9999983637395
 51
203.578178478325
  0
LINE
  5
11170
330
11124
100
AcDbEntity
  8
0
 62
     1
100
AcDbLine
 10
120.2849977815404
 20
2.200000096985149
 30
0.0
 11
120.5849977815451
 21
1.900000096985195
 31
0.0
  0
ARC
  5
11171
330
11124
100
AcDbEntity
  8
0
 62
     1
100
AcDbCircle
 10
113.8999978373322
 20
38.3999920969859
 30
0.0
 40
5.0
100
AcDbArc
 50
0.0000000000260551
 51
90.0
  0
LINE
  5
11172
330
11124
100
AcDbEntity
  8
0
 62
     1
100
AcDbLine
 10
118.8999978373322
 20
38.39999209698772
 30
0.0
 11
118.899997791641
 21
36.80000077790874
 31
0.0
  0
LINE
  5
11173
330
11124
100
AcDbEntity
  8
0
 62
     1
100
AcDbLine
 10
126.4999978373325
 20
1.900000096984967
 30
0.0
 11
120.5909977815426
 21
1.900000096984967
 31
0.0
  0
LINE
  5
11174
330
11124
100
AcDbEntity
  8
0
 62
     1
100
AcDbLine
 10
43.49999783733074
 20
1.900000096984967
 30
0.0
 11
49.40899789312971
 21
1.90000009698474
 31
0.0
  0
LINE
  5
11175
330
11124
100
AcDbEntity
  8
0
 62
     1
100
AcDbLine
 10
126.4999978373325
 20
1.900000096984967
 30
0.0
 11
120.5999978373329
 21
1.900000096984967
 31
0.0
  0
LINE
  5
11176
330
11124
100
AcDbEntity
  8
0
 62
     1
100
AcDbLine
 10
43.49999783733074
 20
1.900000096984967
 30
0.0
 11
49.39999783733219
 21
1.900000096984967
 31
0.0
  0
LINE
  5
11177
330
11124
100
AcDbEntity
  8
虛線
 62
     1
100
AcDbLine
 10
96.49996783733151
 20
45.19999209698676
 30
0.0
 11
98.29996783733077
 21
43.39999209698612
 31
0.0
  0
LINE
  5
11178
330
11124
100
AcDbEntity
  8
虛線
 62
     1
100
AcDbLine
 10
73.50002783733362
 20
45.19999209698676
 30
0.0
 11
71.70002783733252
 21
43.39999209698612
 31
0.0
  0
LINE
  5
11179
330
11124
100
AcDbEntity
  8
虛線
 62
     1
100
AcDbLine
 10
96.49996783732968
 20
45.19999209698676
 30
0.0
 11
73.50002783733362
 21
45.19999209698676
 31
0.0
  0
LINE
  5
1117A
330
11124
100
AcDbEntity
  8
虛線
 62
     1
100
AcDbLine
 10
73.50002783732998
 20
57.39999209698613
 30
0.0
 11
73.50002783733362
 21
45.19999209698676
 31
0.0
  0
LINE
  5
1117B
330
11124
100
AcDbEntity
  8
虛線
 62
     1
100
AcDbLine
 10
96.49996783733151
 20
57.39999209698613
 30
0.0
 11
96.49996783732968
 21
45.19999209698676
 31
0.0
  0
LINE
  5
1117C
330
11124
100
AcDbEntity
  8
虛線
 62
     1
100
AcDbLine
 10
96.49996783733151
 20
57.39999209698613
 30
0.0
 11
73.50002783732998
 21
57.39999209698613
 31
0.0
  0
LINE
  5
1117D
330
11124
100
AcDbEntity
  8
虛線
 62
     1
100
AcDbLine
 10
77.99993783733043
 20
59.1999920969863
 30
0.0
 11
76.19993783733116
 21
57.39999209698613
 31
0.0
  0
LINE
  5
1117E
330
11124
100
AcDbEntity
  8
虛線
 62
     1
100
AcDbLine
 10
91.99993783733043
 20
59.1999920969863
 30
0.0
 11
93.79993783733153
 21
57.39999209698613
 31
0.0
  0
LINE
  5
1117F
330
11124
100
AcDbEntity
  8
虛線
 62
     1
100
AcDbLine
 10
77.99993783733225
 20
76.39986509698542
 30
0.0
 11
77.99993783733225
 21
59.19999209698676
 31
0.0
  0
LINE
  5
11180
330
11124
100
AcDbEntity
  8
虛線
 62
     1
100
AcDbLine
 10
76.99993783733225
 20
77.39986509698542
 30
0.0
 11
76.99993783733043
 21
58.19999209698631
 31
0.0
  0
LINE
  5
11181
330
11124
100
AcDbEntity
  8
虛線
 62
     1
100
AcDbLine
 10
76.39981083733073
 20
77.99999209698626
 30
0.0
 11
77.99993783733043
 21
76.39986509698542
 31
0.0
  0
LINE
  5
11182
330
11124
100
AcDbEntity
  8
虛線
 62
     1
100
AcDbLine
 10
91.99993783733225
 20
76.39986509698542
 30
0.0
 11
91.99993783733225
 21
59.19999209698585
 31
0.0
  0
LINE
  5
11183
330
11124
100
AcDbEntity
  8
虛線
 62
     1
100
AcDbLine
 10
92.99993783733226
 20
77.39986509698633
 30
0.0
 11
92.99993783733043
 21
58.19999209698631
 31
0.0
  0
LINE
  5
11184
330
11124
100
AcDbEntity
  8
虛線
 62
     1
100
AcDbLine
 10
91.99993783733225
 20
76.39986509698542
 30
0.0
 11
93.60006483733377
 21
77.99999209698626
 31
0.0
  0
LINE
  5
11185
330
11124
100
AcDbEntity
  8
虛線
 62
     1
100
AcDbLine
 10
77.99993783733225
 20
59.1999920969863
 30
0.0
 11
91.99993783733225
 21
59.1999920969863
 31
0.0
  0
LINE
  5
11186
330
11124
100
AcDbEntity
  8
虛線
 62
     1
100
AcDbLine
 10
77.99993783733225
 20
76.39986509698542
 30
0.0
 11
91.99993783733225
 21
76.39986509698542
 31
0.0
  0
LINE
  5
11187
330
11124
100
AcDbEntity
  8
虛線
 62
     1
100
AcDbLine
 10
144.5000278373299
 20
55.00001909698608
 30
0.0
 11
169.9999978373307
 21
55.00001909698608
 31
0.0
  0
LINE
  5
11188
330
11124
100
AcDbEntity
  8
虛線
 62
     1
100
AcDbLine
 10
144.5000278373299
 20
55.00001909698608
 30
0.0
 11
144.5000278373372
 21
0.0000000969860139
 31
0.0
  0
LINE
  5
11189
330
11124
100
AcDbEntity
  8
虛線
 62
     1
100
AcDbLine
 10
163.0000278373318
 20
56.79994209698566
 30
0.0
 11
164.8000278373329
 21
54.99994209698548
 31
0.0
  0
LINE
  5
1118A
330
11124
100
AcDbEntity
  8
虛線
 62
     1
100
AcDbLine
 10
149.0000278373318
 20
56.79994209698566
 30
0.0
 11
147.2000278373307
 21
54.99994209698548
 31
0.0
  0
LINE
  5
1118B
330
11124
100
AcDbEntity
  8
虛線
 62
     1
100
AcDbLine
 10
163.0000278373318
 20
76.39994209698603
 30
0.0
 11
163.0000278373318
 21
56.79994209698566
 31
0.0
  0
LINE
  5
1118C
330
11124
100
AcDbEntity
  8
虛線
 62
     1
100
AcDbLine
 10
164.0000278373318
 20
77.39994209698557
 30
0.0
 11
164.0000278373318
 21
55.7999420969852
 31
0.0
  0
LINE
  5
1118D
330
11124
100
AcDbEntity
  8
虛線
 62
     1
100
AcDbLine
 10
164.6000778373327
 20
77.99999209698603
 30
0.0
 11
163.0000278373318
 21
76.39994209698603
 31
0.0
  0
LINE
  5
1118E
330
11124
100
AcDbEntity
  8
虛線
 62
     1
100
AcDbLine
 10
149.0000278373318
 20
76.39994209698603
 30
0.0
 11
149.0000278373318
 21
56.79994209698566
 31
0.0
  0
LINE
  5
1118F
330
11124
100
AcDbEntity
  8
虛線
 62
     1
100
AcDbLine
 10
148.0000278373318
 20
77.39994209698648
 30
0.0
 11
148.0000278373318
 21
55.79994209698566
 31
0.0
  0
LINE
  5
11190
330
11124
100
AcDbEntity
  8
虛線
 62
     1
100
AcDbLine
 10
149.0000278373318
 20
76.39994209698603
 30
0.0
 11
147.3999778373327
 21
77.99999209698603
 31
0.0
  0
LINE
  5
11191
330
11124
100
AcDbEntity
  8
虛線
 62
     1
100
AcDbLine
 10
163.0000278373318
 20
56.79994209698566
 30
0.0
 11
149.0000278373318
 21
56.79994209698566
 31
0.0
  0
LINE
  5
11192
330
11124
100
AcDbEntity
  8
虛線
 62
     1
100
AcDbLine
 10
163.0000278373318
 20
76.39994209698603
 30
0.0
 11
149.0000278373318
 21
76.39994209698603
 31
0.0
  0
LINE
  5
11193
330
11124
100
AcDbEntity
  8
虛線
 62
     1
100
AcDbLine
 10
25.4999678373315
 20
55.00001909698608
 30
0.0
 11
0.9999978373307385
 21
55.00001909698608
 31
0.0
  0
LINE
  5
11194
330
11124
100
AcDbEntity
  8
虛線
 62
     1
100
AcDbLine
 10
25.4999678373315
 20
55.00001909698608
 30
0.0
 11
25.49996783732422
 21
0.0000000969860139
 31
0.0
  0
LINE
  5
11195
330
11124
100
AcDbEntity
  8
虛線
 62
     1
100
AcDbLine
 10
6.999967837331496
 20
56.79994209698566
 30
0.0
 11
5.199967837332224
 21
54.99994209698548
 31
0.0
  0
LINE
  5
11196
330
11124
100
AcDbEntity
  8
虛線
 62
     1
100
AcDbLine
 10
20.9999678373315
 20
56.79994209698566
 30
0.0
 11
22.79996783733077
 21
54.99994209698548
 31
0.0
  0
LINE
  5
11197
330
11124
100
AcDbEntity
  8
虛線
 62
     1
100
AcDbLine
 10
6.999967837331496
 20
76.39994209698603
 30
0.0
 11
6.999967837331496
 21
56.79994209698566
 31
0.0
  0
LINE
  5
11198
330
11124
100
AcDbEntity
  8
虛線
 62
     1
100
AcDbLine
 10
5.999967837331496
 20
77.39994209698557
 30
0.0
 11
5.999967837331496
 21
55.7999420969852
 31
0.0
  0
LINE
  5
11199
330
11124
100
AcDbEntity
  8
虛線
 62
     1
100
AcDbLine
 10
5.399917837328757
 20
77.9999920969858
 30
0.0
 11
6.999967837331496
 21
76.39994209698603
 31
0.0
  0
LINE
  5
1119A
330
11124
100
AcDbEntity
  8
虛線
 62
     1
100
AcDbLine
 10
20.9999678373315
 20
76.39994209698603
 30
0.0
 11
20.9999678373315
 21
56.79994209698566
 31
0.0
  0
LINE
  5
1119B
330
11124
100
AcDbEntity
  8
虛線
 62
     1
100
AcDbLine
 10
21.99996783733149
 20
77.39994209698648
 30
0.0
 11
21.99996783733149
 21
55.79994209698566
 31
0.0
  0
LINE
  5
1119C
330
11124
100
AcDbEntity
  8
虛線
 62
     1
100
AcDbLine
 10
20.9999678373315
 20
76.39994209698603
 30
0.0
 11
22.60001783733242
 21
77.99999209698535
 31
0.0
  0
LINE
  5
1119D
330
11124
100
AcDbEntity
  8
虛線
 62
     1
100
AcDbLine
 10
6.999967837331496
 20
56.79994209698566
 30
0.0
 11
20.9999678373315
 21
56.79994209698566
 31
0.0
  0
LINE
  5
1119E
330
11124
100
AcDbEntity
  8
虛線
 62
     1
100
AcDbLine
 10
6.999967837331496
 20
76.39994209698603
 30
0.0
 11
20.9999678373315
 21
76.39994209698603
 31
0.0
  0
LINE
  5
1119F
330
11124
100
AcDbEntity
  8
0
 62
     1
100
AcDbLine
 10
146.9999978373307
 20
0.0000000969860139
 30
0.0
 11
127.29999783733
 21
0.0000000969855591
 31
0.0
  0
LINE
  5
111A0
330
11124
100
AcDbEntity
  8
0
 62
     1
100
AcDbLine
 10
22.99999783733074
 20
0.0000000969864686
 30
0.0
 11
42.69999783733147
 21
0.0000000969860139
 31
0.0
  0
LINE
  5
111A1
330
11124
100
AcDbEntity
  8
0
 62
     1
100
AcDbLine
 10
167.4999978373307
 20
77.9999920969858
 30
0.0
 11
140.0000192248844
 21
77.9999920969858
 31
0.0
  0
LINE
  5
111A2
330
11124
100
AcDbEntity
  8
0
 62
     1
100
AcDbLine
 10
109.9999978373307
 20
77.9999920969858
 30
0.0
 11
59.99999783733073
 21
77.99999209698626
 31
0.0
  0
LINE
  5
111A3
330
11124
100
AcDbEntity
  8
0
 62
     1
100
AcDbLine
 10
30.00000665562584
 20
77.99999209698535
 30
0.0
 11
2.500000837329935
 21
77.99999209698603
 31
0.0
  0
LINE
  5
111A4
330
11124
100
AcDbEntity
  8
0
 62
     1
100
AcDbLine
 10
-0.0000021626692615
 20
75.49998909698638
 30
0.0
 11
-0.0000021626692615
 21
56.00001909698722
 31
0.0
  0
ARC
  5
111A5
330
11124
100
AcDbEntity
  8
0
 62
     1
100
AcDbCircle
 10
126.4999978373307
 20
1.400000096986104
 30
0.0
 40
0.5
100
AcDbArc
 50
0.0
 51
90.0
  0
ARC
  5
111A6
330
11124
100
AcDbEntity
  8
0
 62
     1
100
AcDbCircle
 10
43.49999783733074
 20
1.400000096986104
 30
0.0
 40
0.5
100
AcDbArc
 50
90.0
 51
180.0
  0
LINE
  5
111A7
330
11124
100
AcDbEntity
  8
0
 62
     1
100
AcDbLine
 10
126.9999978373307
 20
0.300000096985741
 30
0.0
 11
127.29999783733
 21
0.0000000969855591
 31
0.0
  0
LINE
  5
111A8
330
11124
100
AcDbEntity
  8
0
 62
     1
100
AcDbLine
 10
126.9999978373307
 20
1.400000096986104
 30
0.0
 11
126.9999978373307
 21
0.300000096985741
 31
0.0
  0
LINE
  5
111A9
330
11124
100
AcDbEntity
  8
0
 62
     1
100
AcDbLine
 10
126.4999978373307
 20
1.900000096986104
 30
0.0
 11
120.5849977815451
 21
1.900000096985195
 31
0.0
  0
LINE
  5
111AA
330
11124
100
AcDbEntity
  8
0
 62
     1
100
AcDbLine
 10
169.9999978373307
 20
75.49999209698558
 30
0.0
 11
167.4999978373307
 21
77.9999920969858
 31
0.0
  0
LINE
  5
111AB
330
11124
100
AcDbEntity
  8
0
 62
     1
100
AcDbLine
 10
31.00001538289871
 20
76.99998609698628
 30
0.0
 11
30.00000665562584
 21
77.99999209698535
 31
0.0
  0
LINE
  5
111AC
330
11124
100
AcDbEntity
  8
0
 62
     1
100
AcDbLine
 10
58.99999092823418
 20
76.99998609698582
 30
0.0
 11
59.99999783733073
 21
77.99999209698626
 31
0.0
  0
LINE
  5
111AD
330
11124
100
AcDbEntity
  8
0
 62
     1
100
AcDbLine
 10
58.99999092823418
 20
76.99998609698582
 30
0.0
 11
31.00001538289871
 21
76.99998609698628
 31
0.0
  0
LINE
  5
111AE
330
11124
100
AcDbEntity
  8
0
 62
     1
100
AcDbLine
 10
111.0000047464273
 20
76.99998609698582
 30
0.0
 11
109.9999978373307
 21
77.9999920969858
 31
0.0
  0
LINE
  5
111AF
330
11124
100
AcDbEntity
  8
0
 62
     1
100
AcDbLine
 10
139.0000104976097
 20
76.99998609698628
 30
0.0
 11
140.0000192248844
 21
77.9999920969858
 31
0.0
  0
LINE
  5
111B0
330
11124
100
AcDbEntity
  8
0
 62
     1
100
AcDbLine
 10
139.0000104976097
 20
76.99998609698628
 30
0.0
 11
111.0000047464273
 21
76.99998609698582
 31
0.0
  0
LINE
  5
111B1
330
11124
100
AcDbEntity
  8
0
 62
     1
100
AcDbLine
 10
42.99999783733073
 20
0.300000096985741
 30
0.0
 11
42.69999783733147
 21
0.0000000969860139
 31
0.0
  0
LINE
  5
111B2
330
11124
100
AcDbEntity
  8
0
 62
     1
100
AcDbLine
 10
113.8999978373322
 20
43.39999209698589
 30
0.0
 11
56.0999978373311
 21
43.39999209698317
 31
0.0
  0
LINE
  5
111B3
330
11124
100
AcDbEntity
  8
0
 62
     1
100
AcDbLine
 10
42.99999783733073
 20
1.400000096986104
 30
0.0
 11
42.99999783733073
 21
0.300000096985741
 31
0.0
  0
LINE
  5
111B4
330
11124
100
AcDbEntity
  8
0
 62
     1
100
AcDbLine
 10
43.49999783733074
 20
1.900000096986104
 30
0.0
 11
49.41499789312911
 21
1.900000096985422
 31
0.0
  0
LINE
  5
111B5
330
11124
100
AcDbEntity
  8
0
 62
     1
100
AcDbLine
 10
0.9999978373307385
 20
22.00000009698647
 30
0.0
 11
22.99999783733074
 21
0.0000000969864686
 31
0.0
  0
LINE
  5
111B6
330
11124
100
AcDbEntity
  8
0
 62
     1
100
AcDbLine
 10
146.9999978373307
 20
0.0000000969860139
 30
0.0
 11
169.9999978373307
 21
23.00000009698556
 31
0.0
  0
LINE
  5
111B7
330
11124
100
AcDbEntity
  8
0
 62
     1
100
AcDbLine
 10
0.9999978373307385
 20
55.00001909698562
 30
0.0
 11
0.9999978373307385
 21
22.00000009698647
 31
0.0
  0
LINE
  5
111B8
330
11124
100
AcDbEntity
  8
0
 62
     1
100
AcDbLine
 10
-0.0000021626692615
 20
56.00001909698722
 30
0.0
 11
0.9999978373307385
 21
55.00001909698562
 31
0.0
  0
LINE
  5
111B9
330
11124
100
AcDbEntity
  8
0
 62
     1
100
AcDbLine
 10
169.9999978373307
 20
75.49999209698558
 30
0.0
 11
169.9999978373307
 21
23.00000009698556
 31
0.0
  0
LINE
  5
111BA
330
11124
100
AcDbEntity
  8
0
 62
     1
100
AcDbLine
 10
2.500000837329935
 20
77.99999209698603
 30
0.0
 11
-0.0000021626692615
 21
75.49998909698638
 31
0.0
  0
ENDBLK
  5
111BD
330
11124
100
AcDbEntity
  8
0
100
AcDbBlockEnd
  0
ENDSEC
  0
SECTION
  2
ENTITIES
  0
LINE
  5
109D0
330
1E
100
AcDbEntity
  8
0
  6
Continuous
 62
     7
100
AcDbLine
 10
1935.935654197574
 20
-224.4879028248786
 30
0.0
 11
1938.435654197574
 21
-221.9879028248786
 31
0.0
  0
LINE
  5
109D1
330
1E
100
AcDbEntity
  8
0
  6
Continuous
 62
     7
100
AcDbLine
 10
2105.935673642004
 20
-276.9878753804491
 30
0.0
 11
2105.935648121178
 21
-224.4878615054588
 31
0.0
  0
LINE
  5
109D2
330
1E
100
AcDbEntity
  8
0
  6
Continuous
 62
     7
100
AcDbLine
 10
1959.935654197574
 20
-225.9879028248786
 30
0.0
 11
1962.435654197574
 21
-223.4879028248786
 31
0.0
  0
LINE
  5
109D3
330
1E
100
AcDbEntity
  8
0
  6
Continuous
 62
     7
100
AcDbLine
 10
1958.935654197574
 20
-299.9878948248785
 30
0.0
 11
1936.935674128114
 21
-277.9879147554183
 31
0.0
  0
LINE
  5
109D4
330
1E
100
AcDbEntity
  8
0
  6
Continuous
 62
     7
100
AcDbLine
 10
1962.435654197573
 20
-299.9878948248784
 30
0.0
 11
1959.935654197574
 21
-297.4878948248785
 31
0.0
  0
LINE
  5
109D5
330
1E
100
AcDbEntity
  8
0
  6
Continuous
 62
     7
100
AcDbLine
 10
1959.935654197574
 20
-297.4878948248785
 30
0.0
 11
1959.935654197574
 21
-225.9879028248786
 31
0.0
  0
LINE
  5
109D7
330
1E
100
AcDbEntity
  8
0
  6
Continuous
 62
     7
100
AcDbLine
 10
1991.435556906074
 20
-311.9878406580785
 30
0.0
 11
1989.435641517174
 21
-309.9878906030785
 31
0.0
  0
LINE
  5
109DA
330
1E
100
AcDbEntity
  8
0
  6
Continuous
 62
     7
100
AcDbLine
 10
1994.935647288474
 20
-222.9879088248786
 30
0.0
 11
1995.935654197574
 21
-221.9879028248786
 31
0.0
  0
LINE
  5
109DB
330
1E
100
AcDbEntity
  8
0
  6
Continuous
 62
     7
100
AcDbLine
 10
2050.435769197474
 20
-311.9878948248785
 30
0.0
 11
2043.435659197474
 21
-311.9878948248785
 31
0.0
  0
LINE
  5
109DC
330
1E
100
AcDbEntity
  8
0
  6
Continuous
 62
     7
100
AcDbLine
 10
2033.435667218374
 20
-311.9878768039786
 30
0.0
 11
2008.435677635074
 21
-311.9878768039786
 31
0.0
  0
LINE
  5
109DD
330
1E
100
AcDbEntity
  8
0
  6
Continuous
 62
     7
100
AcDbLine
 10
1998.435666906074
 20
-311.9878406580785
 30
0.0
 11
1991.435556906074
 21
-311.9878406580785
 31
0.0
  0
LINE
  5
109F4
330
1E
100
AcDbEntity
  8
0
  6
Continuous
 62
     7
100
AcDbLine
 10
2007.935654197574
 20
-223.4879028248786
 30
0.0
 11
2008.935654197574
 21
-222.4879028248786
 31
0.0
  0
LINE
  5
109F5
330
1E
100
AcDbEntity
  8
0
  6
Continuous
 62
     7
100
AcDbLine
 10
2042.435665199274
 20
-310.9878898248785
 30
0.0
 11
2034.435655613474
 21
-310.9878898248785
 31
0.0
  0
LINE
  5
109F6
330
1E
100
AcDbEntity
  8
0
  6
Continuous
 62
     7
100
AcDbLine
 10
2007.435656948374
 20
-310.9878533664785
 30
0.0
 11
1999.435647362674
 21
-310.9878533664785
 31
0.0
  0
LINE
  5
109FB
330
1E
100
AcDbEntity
  8
0
  6
Continuous
 62
     7
100
AcDbLine
 10
2008.435677635074
 20
-311.9878768039786
 30
0.0
 11
2007.435656948374
 21
-310.9878533664785
 31
0.0
  0
LINE
  5
10A03
330
1E
100
AcDbEntity
  8
0
  6
Continuous
 62
     7
100
AcDbLine
 10
1989.435641517174
 20
-309.9878906030785
 30
0.0
 11
1989.435641517174
 21
-296.1831260660508
 31
0.0
  0
LINE
  5
10A0C
330
1E
100
AcDbEntity
  8
0
  6
Continuous
 62
     7
100
AcDbLine
 10
2082.935654197574
 20
-299.9878948248785
 30
0.0
 11
2052.435674169673
 21
-299.9878948248785
 31
0.0
  0
LINE
  5
10A0D
330
1E
100
AcDbEntity
  8
0
  6
Continuous
 62
     7
100
AcDbLine
 10
1989.435641517174
 20
-299.9878948248785
 30
0.0
 11
1958.935654197574
 21
-299.9878948248785
 31
0.0
  0
LINE
  5
10A13
330
1E
100
AcDbEntity
  8
0
  6
Continuous
 62
     7
100
AcDbLine
 10
2053.485654141774
 20
-298.7710876725786
 30
0.0
 11
2056.285654386574
 21
-298.7710876725786
 31
0.0
  0
LINE
  5
10A52
330
1E
100
AcDbEntity
  8
0
  6
Continuous
 62
     7
100
AcDbLine
 10
1965.435624253373
 20
-285.5378944914785
 30
0.0
 11
1959.935654197574
 21
-285.5378944914785
 31
0.0
  0
LINE
  5
10A53
330
1E
100
AcDbEntity
  8
0
  6
Continuous
 62
     7
100
AcDbLine
 10
2076.435684141774
 20
-285.5378944914785
 30
0.0
 11
2081.935654197574
 21
-285.5378944914785
 31
0.0
  0
LINE
  5
10A8E
330
1E
100
AcDbEntity
  8
0
  6
Continuous
 62
     7
100
AcDbLine
 10
2043.435659197474
 20
-311.9878948248785
 30
0.0
 11
2042.435665199274
 21
-310.9878898248785
 31
0.0
  0
LINE
  5
10AB2
330
1E
100
AcDbEntity
  8
0
  6
Continuous
 62
     7
100
AcDbLine
 10
1965.435624253373
 20
-276.0378944914785
 30
0.0
 11
1959.935654197574
 21
-276.0378944914785
 31
0.0
  0
LINE
  5
10AB3
330
1E
100
AcDbEntity
  8
0
  6
Continuous
 62
     7
100
AcDbLine
 10
2076.435684141774
 20
-276.0378944914785
 30
0.0
 11
2081.935654197574
 21
-276.0378944914785
 31
0.0
  0
LINE
  5
10AB8
330
1E
100
AcDbEntity
  8
0
  6
Continuous
 62
     7
100
AcDbLine
 10
1965.935632809974
 20
-221.9879028248786
 30
0.0
 11
1966.935641537274
 21
-222.9879088248786
 31
0.0
  0
LINE
  5
10AD5
330
1E
100
AcDbEntity
  8
0
  6
Continuous
 62
     7
100
AcDbLine
 10
2074.935636651974
 20
-222.9879088248786
 30
0.0
 11
2075.935645379274
 21
-221.9879028248786
 31
0.0
  0
LINE
  5
10AF2
330
1E
100
AcDbEntity
  8
0
  6
Continuous
 62
     7
100
AcDbLine
 10
2042.935654141774
 20
-286.683076871167
 30
0.0
 11
2052.435674169673
 21
-296.1830968994501
 31
0.0
  0
LINE
  5
10AF5
330
1E
100
AcDbEntity
  8
0
  6
Continuous
 62
     7
100
AcDbLine
 10
2043.985654141774
 20
-286.2481526306785
 30
0.0
 11
2053.485654141774
 21
-295.7481526271416
 31
0.0
  0
LINE
  5
10AFB
330
1E
100
AcDbEntity
  8
0
  6
Continuous
 62
     7
100
AcDbLine
 10
2056.285654385874
 20
-294.5883545510341
 30
0.0
 11
2046.785654385874
 21
-285.0883545545784
 31
0.0
  0
LINE
  5
10AFD
330
1E
100
AcDbEntity
  8
0
  6
Continuous
 62
     7
100
AcDbLine
 10
1990.935711489174
 20
-258.9878819915786
 30
0.0
 11
2050.935633364273
 21
-258.9878819915786
 31
0.0
  0
LINE
  5
10AFF
330
1E
100
AcDbEntity
  8
0
  6
Continuous
 62
     7
100
AcDbLine
 10
1990.550797320119
 20
-257.8878715748786
 30
0.0
 11
2051.320547533329
 21
-257.8878715748786
 31
0.0
  0
LINE
  5
10B02
330
1E
100
AcDbEntity
  8
0
  6
Continuous
 62
     7
100
AcDbLine
 10
1989.390966730612
 20
-255.0879041897406
 30
0.0
 11
2052.480312404774
 21
-255.0878384716785
 31
0.0
  0
LINE
  5
10B0D
330
1E
100
AcDbEntity
  8
0
  6
Continuous
 62
     7
100
AcDbLine
 10
1999.435647362674
 20
-310.9878533664785
 30
0.0
 11
1998.435666906074
 21
-311.9878406580785
 31
0.0
  0
LINE
  5
10B18
330
1E
100
AcDbEntity
  8
0
  6
Continuous
 62
     7
100
AcDbLine
 10
2042.935654141774
 20
-274.8927121119904
 30
0.0
 11
2042.935654141774
 21
-286.683076871167
 31
0.0
  0
LINE
  5
10B1A
330
1E
100
AcDbEntity
  8
0
  6
Continuous
 62
     7
100
AcDbLine
 10
2043.985654141774
 20
-275.3276363523781
 30
0.0
 11
2043.985654141774
 21
-286.2481526306785
 31
0.0
  0
LINE
  5
10B1D
330
1E
100
AcDbEntity
  8
0
  6
Continuous
 62
     7
100
AcDbLine
 10
2046.785654385874
 20
-276.4874344284781
 30
0.0
 11
2046.785654385874
 21
-285.0883545545784
 31
0.0
  0
LINE
  5
10B20
330
1E
100
AcDbEntity
  8
0
  6
Continuous
 62
     7
100
AcDbLine
 10
2052.435654169674
 20
-265.3927120837061
 30
0.0
 11
2042.935654141774
 21
-274.8927121119904
 31
0.0
  0
LINE
  5
10B23
330
1E
100
AcDbEntity
  8
0
  6
Continuous
 62
     7
100
AcDbLine
 10
2053.485654169674
 20
-265.827636328016
 30
0.0
 11
2043.985654141774
 21
-275.3276363523781
 31
0.0
  0
LINE
  5
10B29
330
1E
100
AcDbEntity
  8
0
  6
Continuous
 62
     7
100
AcDbLine
 10
2046.785654385874
 20
-276.4874344284781
 30
0.0
 11
2056.285654263202
 21
-266.9874345546962
 31
0.0
  0
LINE
  5
10B41
330
1E
100
AcDbEntity
  8
0
  6
Continuous
 62
     7
100
AcDbLine
 10
2052.435654169673
 20
-260.4879027969784
 30
0.0
 11
2052.435654169674
 21
-265.3927120837061
 31
0.0
  0
LINE
  5
10B42
330
1E
100
AcDbEntity
  8
0
  6
Continuous
 62
     7
100
AcDbLine
 10
2052.435674169673
 20
-296.1830968994501
 30
0.0
 11
2052.435674169674
 21
-309.9879635196785
 31
0.0
  0
LINE
  5
10B45
330
1E
100
AcDbEntity
  8
0
  6
Continuous
 62
     7
100
AcDbLine
 10
2053.485654169674
 20
-260.0529782112231
 30
0.0
 11
2053.485654169674
 21
-265.827636328016
 31
0.0
  0
LINE
  5
10B51
330
1E
100
AcDbEntity
  8
0
  6
Continuous
 62
     7
100
AcDbLine
 10
2050.935633364273
 20
-258.9878819915786
 30
0.0
 11
2052.435654169673
 21
-260.4879027969784
 31
0.0
  0
LINE
  5
10B56
330
1E
100
AcDbEntity
  8
0
  6
Continuous
 62
     7
100
AcDbLine
 10
2056.285654500593
 20
-258.8931805674972
 30
0.0
 11
2052.480345263874
 21
-255.0878713307785
 31
0.0
  0
LINE
  5
10B67
330
1E
100
AcDbEntity
  8
0
  6
Continuous
 62
     7
100
AcDbLine
 10
2056.285654500593
 20
-258.8931805674972
 30
0.0
 11
2056.285654263202
 21
-266.9874345546962
 31
0.0
  0
LINE
  5
10B9A
330
1E
100
AcDbEntity
  8
0
  6
Continuous
 62
     7
100
AcDbLine
 10
2034.435655613474
 20
-310.9878898248785
 30
0.0
 11
2033.435667218374
 21
-311.9878768039786
 31
0.0
  0
LINE
  5
10BA2
330
1E
100
AcDbEntity
  8
0
  6
Continuous
 62
     7
100
AcDbLine
 10
1962.435654197574
 20
-223.4879028248786
 30
0.0
 11
2079.435654197574
 21
-223.4879028248786
 31
0.0
  0
LINE
  5
10BA3
330
1E
100
AcDbEntity
  8
0
  6
Continuous
 62
     7
100
AcDbLine
 10
1966.935641537274
 20
-222.9879088248786
 30
0.0
 11
1994.935647288474
 21
-222.9879088248786
 31
0.0
  0
LINE
  5
10BA4
330
1E
100
AcDbEntity
  8
0
  6
Continuous
 62
     7
100
AcDbLine
 10
2046.935661106674
 20
-222.9879088248786
 30
0.0
 11
2074.935636651974
 21
-222.9879088248786
 31
0.0
  0
LINE
  5
10BA5
330
1E
100
AcDbEntity
  8
0
  6
Continuous
 62
     7
100
AcDbLine
 10
2032.935654197574
 20
-222.4879028248786
 30
0.0
 11
2008.935654197574
 21
-222.4879028248786
 31
0.0
  0
LINE
  5
10BA6
330
1E
100
AcDbEntity
  8
0
  6
Continuous
 62
     7
100
AcDbLine
 10
1938.435654197574
 20
-221.9879028248786
 30
0.0
 11
1965.935632809974
 21
-221.9879028248786
 31
0.0
  0
LINE
  5
10BA7
330
1E
100
AcDbEntity
  8
0
  6
Continuous
 62
     7
100
AcDbLine
 10
1995.935654197574
 20
-221.9879028248786
 30
0.0
 11
2045.935654197574
 21
-221.9879028248786
 31
0.0
  0
LINE
  5
10BA8
330
1E
100
AcDbEntity
  8
0
  6
Continuous
 62
     7
100
AcDbLine
 10
2075.935645379274
 20
-221.9879028248786
 30
0.0
 11
2103.435651197574
 21
-221.9879028248786
 31
0.0
  0
LINE
  5
10BA9
330
1E
100
AcDbEntity
  8
0
  6
Continuous
 62
     7
100
AcDbLine
 10
2032.935654197574
 20
-222.4879028248786
 30
0.0
 11
2033.935654197574
 21
-223.4879028248786
 31
0.0
  0
LINE
  5
10BB2
330
1E
100
AcDbEntity
  8
0
  6
Continuous
 62
     7
100
AcDbLine
 10
1935.935657600345
 20
-243.9879156859666
 30
0.0
 11
1936.935658086456
 21
-244.987915199856
 31
0.0
  0
LINE
  5
10BB3
330
1E
100
AcDbEntity
  8
0
  6
Continuous
 62
     7
100
AcDbLine
 10
2045.935654197574
 20
-221.9879028248786
 30
0.0
 11
2046.935661106674
 21
-222.9879088248786
 31
0.0
  0
LINE
  5
10BB4
330
1E
100
AcDbEntity
  8
0
  6
Continuous
 62
     7
100
AcDbLine
 10
2052.435674169674
 20
-309.9879635196785
 30
0.0
 11
2050.435769197474
 21
-311.9878948248785
 31
0.0
  0
LINE
  5
10BB6
330
1E
100
AcDbEntity
  8
0
  6
Continuous
 62
     7
100
AcDbLine
 10
2081.935654197574
 20
-225.9879028248786
 30
0.0
 11
2081.935654197574
 21
-297.4878948248785
 31
0.0
  0
LINE
  5
10BB7
330
1E
100
AcDbEntity
  8
0
  6
Continuous
 62
     7
100
AcDbLine
 10
2081.935654197574
 20
-297.4878948248785
 30
0.0
 11
2079.435654197574
 21
-299.9878948248785
 31
0.0
  0
LINE
  5
10BB8
330
1E
100
AcDbEntity
  8
0
  6
Continuous
 62
     7
100
AcDbLine
 10
2105.935673642004
 20
-276.9878753804491
 30
0.0
 11
2082.935654197574
 21
-299.9878948248785
 31
0.0
  0
LINE
  5
10BB9
330
1E
100
AcDbEntity
  8
0
  6
Continuous
 62
     7
100
AcDbLine
 10
2079.435654197574
 20
-223.4879028248786
 30
0.0
 11
2081.935654197574
 21
-225.9879028248786
 31
0.0
  0
LINE
  5
10BBA
330
1E
100
AcDbEntity
  8
0
  6
Continuous
 62
     7
100
AcDbLine
 10
1936.935658086437
 20
-244.9878758248781
 30
0.0
 11
1936.935674128114
 21
-277.9879147554183
 31
0.0
  0
LINE
  5
10BBB
330
1E
100
AcDbEntity
  8
0
  6
Continuous
 62
     7
100
AcDbLine
 10
1935.9356481212
 20
-224.4879471443013
 30
0.0
 11
1935.935657600345
 21
-243.9879156859666
 31
0.0
  0
LINE
  5
10BBC
330
1E
100
AcDbEntity
  8
0
  6
Continuous
 62
     7
100
AcDbLine
 10
2103.435651197574
 20
-221.9879028248786
 30
0.0
 11
2105.935654197574
 21
-224.4879058248786
 31
0.0
  0
LINE
  5
10BBD
330
1E
100
AcDbEntity
  8
0
  6
Continuous
 62
     7
100
AcDbLine
 10
2162.412532196853
 20
-258.9878819915786
 30
0.0
 11
2162.412532196853
 21
-311.9878948248785
 31
0.0
  0
LINE
  5
10BBF
330
1E
100
AcDbEntity
  8
0
  6
Continuous
 62
     7
100
AcDbLine
 10
2237.412532196853
 20
-223.4879028248786
 30
0.0
 11
2237.412532196853
 21
-299.9878948248785
 31
0.0
  0
LINE
  5
10BC0
330
1E
100
AcDbEntity
  8
0
  6
Continuous
 62
     7
100
AcDbLine
 10
2240.412532196853
 20
-276.0378944914785
 30
0.0
 11
2240.412532196853
 21
-285.5378944914785
 31
0.0
  0
LINE
  5
10BC1
330
1E
100
AcDbEntity
  8
0
  6
Continuous
 62
     7
100
AcDbLine
 10
2241.812532196853
 20
-222.4879028248786
 30
0.0
 11
2241.812532196853
 21
-299.9878948248785
 31
0.0
  0
LINE
  5
10BF2
330
1E
100
AcDbEntity
  8
0
  6
Continuous
 62
     7
100
AcDbLine
 10
2273.412532196853
 20
-221.9879028248786
 30
0.0
 11
2273.412532196853
 21
-299.9878948248785
 31
0.0
  0
LINE
  5
10BF3
330
1E
100
AcDbEntity
  8
0
  6
Continuous
 62
     7
100
AcDbLine
 10
2317.162532196853
 20
-290.9878948248785
 30
0.0
 11
2317.162532196853
 21
-244.9879028248786
 31
0.0
  0
LINE
  5
10BF8
330
1E
100
AcDbEntity
  8
0
  6
Continuous
 62
     7
100
AcDbLine
 10
2342.662532196853
 20
-244.9879028248786
 30
0.0
 11
2342.662532196853
 21
-290.9878948248785
 31
0.0
  0
LINE
  5
10BF9
330
1E
100
AcDbEntity
  8
0
  6
Continuous
 62
     7
100
AcDbLine
 10
2162.412532196853
 20
-311.9878898248785
 30
0.0
 11
2607.412532196853
 21
-311.9878898248785
 31
0.0
  0
LINE
  5
10BFA
330
1E
100
AcDbEntity
  8
0
  6
Continuous
 62
     7
100
AcDbLine
 10
2227.262539667372
 20
-309.9879706581786
 30
0.0
 11
2607.412532196853
 21
-309.9879706581785
 31
0.0
  0
LINE
  5
10C10
330
1E
100
AcDbEntity
  8
0
  6
Continuous
 62
     7
100
AcDbLine
 10
2237.412532196853
 20
-299.9878948248785
 30
0.0
 11
2532.412532196854
 21
-299.9878948248785
 31
0.0
  0
LINE
  5
10C17
330
1E
100
AcDbEntity
  8
0
  6
Continuous
 62
     7
100
AcDbLine
 10
2532.412532196853
 20
-297.4878948248785
 30
0.0
 11
2496.412532196853
 21
-297.4878948248785
 31
0.0
  0
LINE
  5
10C18
330
1E
100
AcDbEntity
  8
0
  6
Continuous
 62
     7
100
AcDbLine
 10
2237.412532196853
 20
-297.4878948248785
 30
0.0
 11
2273.412532196853
 21
-297.4878948248785
 31
0.0
  0
LINE
  5
10C36
330
1E
100
AcDbEntity
  8
0
  6
Continuous
 62
     7
100
AcDbLine
 10
2240.412532196853
 20
-285.5378944914785
 30
0.0
 11
2237.412532196853
 21
-285.5378944914785
 31
0.0
  0
LINE
  5
10C37
330
1E
100
AcDbEntity
  8
0
  6
Continuous
 62
     7
100
AcDbLine
 10
2529.412532196853
 20
-285.5378944915785
 30
0.0
 11
2532.412532196853
 21
-285.5378944915785
 31
0.0
  0
LINE
  5
10C63
330
1E
100
AcDbEntity
  8
0
  6
Continuous
 62
     7
100
AcDbLine
 10
2240.412532196853
 20
-276.0378944914785
 30
0.0
 11
2237.412532196853
 21
-276.0378944914785
 31
0.0
  0
LINE
  5
10C64
330
1E
100
AcDbEntity
  8
0
  6
Continuous
 62
     7
100
AcDbLine
 10
2529.412532196853
 20
-276.0378944915785
 30
0.0
 11
2532.412532196853
 21
-276.0378944915785
 31
0.0
  0
LINE
  5
10C86
330
1E
100
AcDbEntity
  8
0
  6
Continuous
 62
     7
100
AcDbLine
 10
2162.412532196853
 20
-258.9879028248786
 30
0.0
 11
2237.412532196853
 21
-258.9879028248786
 31
0.0
  0
LINE
  5
10C87
330
1E
100
AcDbEntity
  8
0
  6
Continuous
 62
     7
100
AcDbLine
 10
2532.412532196853
 20
-258.9879028248786
 30
0.0
 11
2607.412532196853
 21
-258.9879028248786
 31
0.0
  0
LINE
  5
10C95
330
1E
100
AcDbEntity
  8
0
  6
Continuous
 62
     7
100
AcDbLine
 10
2452.662532196853
 20
-244.9879028248786
 30
0.0
 11
2427.162532196853
 21
-244.9879028248786
 31
0.0
  0
LINE
  5
10C96
330
1E
100
AcDbEntity
  8
0
  6
Continuous
 62
     7
100
AcDbLine
 10
2342.662532196853
 20
-244.9879028248786
 30
0.0
 11
2317.162532196853
 21
-244.9879028248786
 31
0.0
  0
LINE
  5
10C9D
330
1E
100
AcDbEntity
  8
0
  6
Continuous
 62
     7
100
AcDbLine
 10
2427.162532196853
 20
-290.9878948248785
 30
0.0
 11
2427.162532196853
 21
-244.9879028248786
 31
0.0
  0
LINE
  5
10CB6
330
1E
100
AcDbEntity
  8
0
  6
Continuous
 62
     7
100
AcDbLine
 10
2532.412532196853
 20
-225.9879028248786
 30
0.0
 11
2496.412532196853
 21
-225.9879028248786
 31
0.0
  0
LINE
  5
10CB7
330
1E
100
AcDbEntity
  8
0
  6
Continuous
 62
     7
100
AcDbLine
 10
2237.412532196853
 20
-225.9879028248786
 30
0.0
 11
2273.412532196853
 21
-225.9879028248786
 31
0.0
  0
LINE
  5
10CB8
330
1E
100
AcDbEntity
  8
0
  6
Continuous
 62
     7
100
AcDbLine
 10
2496.412532196854
 20
-224.4879058248786
 30
0.0
 11
2273.412532196853
 21
-224.4879058248785
 31
0.0
  0
LINE
  5
10CB9
330
1E
100
AcDbEntity
  8
0
  6
Continuous
 62
     7
100
AcDbLine
 10
2532.412532196853
 20
-223.4879028248786
 30
0.0
 11
2496.412532196853
 21
-223.4879028248786
 31
0.0
  0
LINE
  5
10CBA
330
1E
100
AcDbEntity
  8
0
  6
Continuous
 62
     7
100
AcDbLine
 10
2237.412532196853
 20
-223.4879028248786
 30
0.0
 11
2273.412532196853
 21
-223.4879028248786
 31
0.0
  0
LINE
  5
10CBB
330
1E
100
AcDbEntity
  8
0
  6
Continuous
 62
     7
100
AcDbLine
 10
2528.012532196853
 20
-222.4879028248786
 30
0.0
 11
2496.412532196853
 21
-222.4879028248786
 31
0.0
  0
LINE
  5
10CBC
330
1E
100
AcDbEntity
  8
0
  6
Continuous
 62
     7
100
AcDbLine
 10
2241.812532196853
 20
-222.4879028248786
 30
0.0
 11
2273.412532196853
 21
-222.4879028248786
 31
0.0
  0
LINE
  5
10CBD
330
1E
100
AcDbEntity
  8
0
  6
Continuous
 62
     7
100
AcDbLine
 10
2496.412532196854
 20
-221.9879028248786
 30
0.0
 11
2273.412532196853
 21
-221.9879028248786
 31
0.0
  0
LINE
  5
10CC2
330
1E
100
AcDbEntity
  8
0
  6
Continuous
 62
     7
100
AcDbLine
 10
2452.662532196853
 20
-244.9879028248786
 30
0.0
 11
2452.662532196853
 21
-290.9878948248785
 31
0.0
  0
LINE
  5
10CD2
330
1E
100
AcDbEntity
  8
0
  6
Continuous
 62
     7
100
AcDbLine
 10
2496.412532196853
 20
-299.9878948248785
 30
0.0
 11
2496.412532196854
 21
-221.9879028248786
 31
0.0
  0
LINE
  5
10D31
330
1E
100
AcDbEntity
  8
0
  6
Continuous
 62
     7
100
AcDbLine
 10
2528.012532196853
 20
-299.9878948248784
 30
0.0
 11
2528.012532196853
 21
-222.4879028248786
 31
0.0
  0
LINE
  5
10D32
330
1E
100
AcDbEntity
  8
0
  6
Continuous
 62
     7
100
AcDbLine
 10
2529.412532196853
 20
-276.0378944915785
 30
0.0
 11
2529.412532196853
 21
-285.5378944915785
 31
0.0
  0
LINE
  5
10D33
330
1E
100
AcDbEntity
  8
0
  6
Continuous
 62
     7
100
AcDbLine
 10
2532.412532196853
 20
-299.9878948248784
 30
0.0
 11
2532.412532196853
 21
-285.0378944915785
 31
0.0
  0
LINE
  5
10D3D
330
1E
100
AcDbEntity
  8
0
  6
Continuous
 62
     7
100
AcDbLine
 10
2496.412532196853
 20
-166.0997187641202
 30
0.0
 11
2273.412532196853
 21
-166.0997187641202
 31
0.0
  0
LINE
  5
10D3E
330
1E
100
AcDbEntity
  8
0
  6
Continuous
 62
     7
100
AcDbLine
 10
2496.412532196853
 20
-163.5997157641202
 30
0.0
 11
2273.412532196853
 21
-163.5997157641202
 31
0.0
  0
LINE
  5
10D3F
330
1E
100
AcDbEntity
  8
0
  6
Continuous
 62
     7
100
AcDbLine
 10
2532.412532196853
 20
-142.0997187641202
 30
0.0
 11
2496.412532196853
 21
-142.0997187641202
 31
0.0
  0
LINE
  5
10D40
330
1E
100
AcDbEntity
  8
0
  6
Continuous
 62
     7
100
AcDbLine
 10
2237.412532196853
 20
-142.0997187641202
 30
0.0
 11
2273.412532196853
 21
-142.0997187641202
 31
0.0
  0
LINE
  5
10D41
330
1E
100
AcDbEntity
  8
0
  6
Continuous
 62
     7
100
AcDbLine
 10
2532.412532196853
 20
-139.5997187641202
 30
0.0
 11
2496.412532196853
 21
-139.5997187641202
 31
0.0
  0
LINE
  5
10D42
330
1E
100
AcDbEntity
  8
0
  6
Continuous
 62
     7
100
AcDbLine
 10
2237.412532196853
 20
-139.5997187641202
 30
0.0
 11
2273.412532196853
 21
-139.5997187641202
 31
0.0
  0
LINE
  5
10D43
330
1E
100
AcDbEntity
  8
0
  6
Continuous
 62
     7
100
AcDbLine
 10
2496.412532196853
 20
-136.0997099458203
 30
0.0
 11
2273.412532196853
 21
-136.0997099458203
 31
0.0
  0
LINE
  5
10D44
330
1E
100
AcDbEntity
  8
0
  6
Continuous
 62
     7
100
AcDbLine
 10
2496.412532196853
 20
-135.0997012185203
 30
0.0
 11
2273.412532196853
 21
-135.0997012185203
 31
0.0
  0
LINE
  5
10D81
330
1E
100
AcDbEntity
  8
0
  6
Continuous
 62
     7
100
AcDbLine
 10
2607.412532196853
 20
-112.5997187641202
 30
0.0
 11
2532.412532196853
 21
-112.5997187641202
 31
0.0
  0
LINE
  5
10D82
330
1E
100
AcDbEntity
  8
0
  6
Continuous
 62
     7
100
AcDbLine
 10
2237.412532196853
 20
-112.5997187641202
 30
0.0
 11
2162.412532196853
 21
-112.5997187641202
 31
0.0
  0
LINE
  5
10D87
330
1E
100
AcDbEntity
  8
0
  6
Continuous
 62
     7
100
AcDbLine
 10
2496.412532196853
 20
-107.0997256732203
 30
0.0
 11
2273.412532196853
 21
-107.0997256732203
 31
0.0
  0
LINE
  5
10D88
330
1E
100
AcDbEntity
  8
0
  6
Continuous
 62
     7
100
AcDbLine
 10
2496.412532196853
 20
-106.0997187641202
 30
0.0
 11
2273.412532196853
 21
-106.0997187641202
 31
0.0
  0
LINE
  5
10D89
330
1E
100
AcDbEntity
  8
0
  6
Continuous
 62
     7
100
AcDbLine
 10
2528.012532196853
 20
-94.09971876412027
 30
0.0
 11
2496.412532196853
 21
-94.09971876412027
 31
0.0
  0
LINE
  5
10D8A
330
1E
100
AcDbEntity
  8
0
  6
Continuous
 62
     7
100
AcDbLine
 10
2241.812532196853
 20
-94.09971876412027
 30
0.0
 11
2273.412532196853
 21
-94.09971876412027
 31
0.0
  0
LINE
  5
10D8B
330
1E
100
AcDbEntity
  8
0
  6
Continuous
 62
     7
100
AcDbLine
 10
2528.012532196853
 20
-93.09971876412026
 30
0.0
 11
2496.412532196853
 21
-93.09971876412026
 31
0.0
  0
LINE
  5
10D8C
330
1E
100
AcDbEntity
  8
0
  6
Continuous
 62
     7
100
AcDbLine
 10
2241.812532196853
 20
-93.09971876412026
 30
0.0
 11
2273.412532196853
 21
-93.09971876412026
 31
0.0
  0
LINE
  5
10D8D
330
1E
100
AcDbEntity
  8
0
  6
Continuous
 62
     7
100
AcDbLine
 10
2528.012532196853
 20
-69.09971876412027
 30
0.0
 11
2496.412532196853
 21
-69.09971876412027
 31
0.0
  0
LINE
  5
10D8E
330
1E
100
AcDbEntity
  8
0
  6
Continuous
 62
     7
100
AcDbLine
 10
2241.812532196853
 20
-69.09971876412027
 30
0.0
 11
2273.412532196853
 21
-69.09971876412027
 31
0.0
  0
LINE
  5
10D8F
330
1E
100
AcDbEntity
  8
0
  6
Continuous
 62
     7
100
AcDbLine
 10
2528.012532196853
 20
-68.09971876412027
 30
0.0
 11
2496.412532196853
 21
-68.09971876412027
 31
0.0
  0
LINE
  5
10D90
330
1E
100
AcDbEntity
  8
0
  6
Continuous
 62
     7
100
AcDbLine
 10
2241.812532196853
 20
-68.09971876412027
 30
0.0
 11
2273.412532196853
 21
-68.09971876412027
 31
0.0
  0
LINE
  5
10D91
330
1E
100
AcDbEntity
  8
0
  6
Continuous
 62
     7
100
AcDbLine
 10
2496.412532196853
 20
-56.09971876412026
 30
0.0
 11
2273.412532196853
 21
-56.09971876412028
 31
0.0
  0
LINE
  5
10D92
330
1E
100
AcDbEntity
  8
0
  6
Continuous
 62
     7
100
AcDbLine
 10
2496.412532196853
 20
-55.09971185502024
 30
0.0
 11
2273.412532196853
 21
-55.09971185502025
 31
0.0
  0
LINE
  5
10D97
330
1E
100
AcDbEntity
  8
0
  6
Continuous
 62
     7
100
AcDbLine
 10
2162.412532196853
 20
-49.59971876412026
 30
0.0
 11
2237.412532196853
 21
-49.59971876412027
 31
0.0
  0
LINE
  5
10D98
330
1E
100
AcDbEntity
  8
0
  6
Continuous
 62
     7
100
AcDbLine
 10
2532.412532196853
 20
-49.59971876412026
 30
0.0
 11
2607.412532196853
 21
-49.59971876412026
 31
0.0
  0
ARC
  5
10DD5
330
1E
100
AcDbEntity
  8
0
  6
Continuous
 62
     7
100
AcDbCircle
 10
1965.435624253373
 20
-280.7878944914785
 30
0.0
 40
4.75
100
AcDbArc
 50
270.0
 51
90.0
  0
ARC
  5
10DD6
330
1E
100
AcDbEntity
  8
0
  6
Continuous
 62
     7
100
AcDbCircle
 10
2076.435684141774
 20
-280.7878944914785
 30
0.0
 40
4.75
100
AcDbArc
 50
90.0
 51
270.0
  0
CIRCLE
  5
10E4B
330
1E
100
AcDbEntity
  8
0
  6
Continuous
 62
     7
100
AcDbCircle
 10
2257.612532196853
 20
-236.9879028248786
 30
0.0
 40
0.75
  0
CIRCLE
  5
10E4C
330
1E
100
AcDbEntity
  8
0
  6
Continuous
 62
     7
100
AcDbCircle
 10
2257.612532196853
 20
-236.9879028248786
 30
0.0
 40
4.767361949999999
  0
CIRCLE
  5
10E4D
330
1E
100
AcDbEntity
  8
0
  6
Continuous
 62
     7
100
AcDbCircle
 10
2257.612532196853
 20
-236.9879028248786
 30
0.0
 40
3.918292305099999
  0
CIRCLE
  5
10E4E
330
1E
100
AcDbEntity
  8
0
  6
Continuous
 62
     7
100
AcDbCircle
 10
2257.612532196853
 20
-236.9879028248786
 30
0.0
 40
4.2499875055
  0
CIRCLE
  5
10E4F
330
1E
100
AcDbEntity
  8
0
  6
Continuous
 62
     7
100
AcDbCircle
 10
2512.212532196854
 20
-236.9879028248786
 30
0.0
 40
0.75
  0
CIRCLE
  5
10E50
330
1E
100
AcDbEntity
  8
0
  6
Continuous
 62
     7
100
AcDbCircle
 10
2512.212532196854
 20
-236.9879028248786
 30
0.0
 40
4.767361949999999
  0
CIRCLE
  5
10E51
330
1E
100
AcDbEntity
  8
0
  6
Continuous
 62
     7
100
AcDbCircle
 10
2512.212532196854
 20
-236.9879028248786
 30
0.0
 40
4.2499875055
  0
CIRCLE
  5
10E52
330
1E
100
AcDbEntity
  8
0
  6
Continuous
 62
     7
100
AcDbCircle
 10
2512.212532196854
 20
-236.9879028248786
 30
0.0
 40
3.918292305099999
  0
CIRCLE
  5
10E53
330
1E
100
AcDbEntity
  8
0
  6
Continuous
 62
     7
100
AcDbCircle
 10
2257.612532196853
 20
-81.09971876412027
 30
0.0
 40
5.15
  0
CIRCLE
  5
10E54
330
1E
100
AcDbEntity
  8
0
  6
Continuous
 62
     7
100
AcDbCircle
 10
2257.612532196853
 20
-81.09971876412027
 30
0.0
 40
0.75
  0
CIRCLE
  5
10E55
330
1E
100
AcDbEntity
  8
0
  6
Continuous
 62
     7
100
AcDbCircle
 10
2512.212532196854
 20
-81.09971876412027
 30
0.0
 40
5.15
  0
CIRCLE
  5
10E56
330
1E
100
AcDbEntity
  8
0
  6
Continuous
 62
     7
100
AcDbCircle
 10
2512.212532196854
 20
-81.09971876412027
 30
0.0
 40
0.75
  0
CIRCLE
  5
10E5D
330
1E
100
AcDbEntity
  8
0
  6
Continuous
 62
     7
100
AcDbCircle
 10
2439.912532196853
 20
-152.0997187641202
 30
0.0
 40
7.0
  0
ARC
  5
10E61
330
1E
100
AcDbEntity
  8
標註線
 62
     1
100
AcDbCircle
 10
2439.912532196853
 20
-152.0997187641202
 30
0.0
 40
8.0
100
AcDbArc
 50
180.0000000000004
 51
90.0
  0
SPLINE
  5
10E81
330
1E
100
AcDbEntity
  8
0
  6
Continuous
 62
     7
100
AcDbSpline
210
0.0
220
0.0
230
1.0
 70
     8
 71
     3
 72
    11
 73
     7
 74
     5
 42
0.0000000001
 43
0.0000000001
 44
0.0000000001
 12
-0.7058823529372313
 22
0.7083290928740668
 32
0.0
 13
0.0
 23
1.0
 33
0.0
 40
0.0
 40
0.0
 40
0.0
 40
0.0
 40
2.394947192157892
 40
4.804796251686824
 40
7.297351320384859
 40
9.975883759671656
 40
9.975883759671656
 40
9.975883759671656
 40
9.975883759671656
 10
2320.881336262753
 20
-299.9878948248785
 30
0.0
 10
2320.317819276366
 20
-299.4224245675109
 30
0.0
 10
2319.290346312714
 20
-298.1792822671256
 30
0.0
 10
2318.117265098502
 20
-296.0322166426895
 30
0.0
 10
2317.344876069733
 20
-293.6101453669189
 30
0.0
 10
2317.162532196853
 20
-291.8807389713074
 30
0.0
 10
2317.162532196853
 20
-290.9878948248785
 30
0.0
 11
2320.881336262753
 21
-299.9878948248785
 31
0.0
 11
2319.356908253654
 21
-298.1407642668785
 31
0.0
 11
2318.200296109353
 21
-296.0266164864786
 31
0.0
 11
2317.443869676453
 21
-293.6516112607785
 31
0.0
 11
2317.162532196853
 21
-290.9878948248785
 31
0.0
  0
SPLINE
  5
10E82
330
1E
100
AcDbEntity
  8
0
  6
Continuous
 62
     7
100
AcDbSpline
210
0.0
220
0.0
230
1.0
 70
     8
 71
     3
 72
    11
 73
     7
 74
     5
 42
0.0000000001
 43
0.0000000001
 44
0.0000000001
 12
0.0
 22
-1.0
 32
0.0
 13
-0.7058823529399066
 23
-0.7083290928714006
 33
0.0
 40
0.0
 40
0.0
 40
0.0
 40
0.0
 40
2.678455280830826
 40
5.170982055739861
 40
7.580852974714832
 40
9.975883863152736
 40
9.975883863152736
 40
9.975883863152736
 40
9.975883863152736
 10
2342.662532196853
 20
-290.9878948248785
 30
0.0
 10
2342.662532196853
 20
-291.8807132518221
 30
0.0
 10
2342.480197401622
 20
-293.6100840100179
 30
0.0
 10
2341.707834423787
 20
-296.0321338530154
 30
0.0
 10
2340.534756831458
 20
-298.1792311913593
 30
0.0
 10
2339.507264810584
 20
-299.4224048060098
 30
0.0
 10
2338.943728130953
 20
-299.9878948248785
 30
0.0
 11
2342.662532196853
 21
-290.9878948248785
 31
0.0
 11
2342.381210922153
 21
-293.6515353846785
 31
0.0
 11
2341.624810164553
 21
-296.0265190935786
 31
0.0
 11
2340.468203336453
 21
-298.1406946991786
 31
0.0
 11
2338.943728130953
 21
-299.9878948248785
 31
0.0
  0
SPLINE
  5
10E83
330
1E
100
AcDbEntity
  8
0
  6
Continuous
 62
     7
100
AcDbSpline
210
0.0
220
0.0
230
1.0
 70
     8
 71
     3
 72
    11
 73
     7
 74
     5
 42
0.0000000001
 43
0.0000000001
 44
0.0000000001
 12
0.0
 22
-1.0
 32
0.0
 13
-0.7058823529399066
 23
-0.7083290928714006
 33
0.0
 40
0.0
 40
0.0
 40
0.0
 40
0.0
 40
2.678455280830826
 40
5.170982055739861
 40
7.580852974714832
 40
9.975883863152736
 40
9.975883863152736
 40
9.975883863152736
 40
9.975883863152736
 10
2452.662532196853
 20
-290.9878948248785
 30
0.0
 10
2452.662532196853
 20
-291.8807132518221
 30
0.0
 10
2452.480197401622
 20
-293.6100840100179
 30
0.0
 10
2451.707834423787
 20
-296.0321338530154
 30
0.0
 10
2450.534756831459
 20
-298.1792311913593
 30
0.0
 10
2449.507264810585
 20
-299.4224048060098
 30
0.0
 10
2448.943728130953
 20
-299.9878948248785
 30
0.0
 11
2452.662532196853
 21
-290.9878948248785
 31
0.0
 11
2452.381210922153
 21
-293.6515353846785
 31
0.0
 11
2451.624810164553
 21
-296.0265190935786
 31
0.0
 11
2450.468203336454
 21
-298.1406946991786
 31
0.0
 11
2448.943728130953
 21
-299.9878948248785
 31
0.0
  0
SPLINE
  5
10E84
330
1E
100
AcDbEntity
  8
0
  6
Continuous
 62
     7
100
AcDbSpline
210
0.0
220
0.0
230
1.0
 70
     8
 71
     3
 72
    11
 73
     7
 74
     5
 42
0.0000000001
 43
0.0000000001
 44
0.0000000001
 12
-0.7058823529372313
 22
0.7083290928740668
 32
0.0
 13
0.0
 23
1.0
 33
0.0
 40
0.0
 40
0.0
 40
0.0
 40
0.0
 40
2.394947192298645
 40
4.804796251691893
 40
7.297351320389928
 40
9.975883759676726
 40
9.975883759676726
 40
9.975883759676726
 40
9.975883759676726
 10
2430.881336262753
 20
-299.9878948248785
 30
0.0
 10
2430.317819276333
 20
-299.4224245674778
 30
0.0
 10
2429.290346312646
 20
-298.179282267114
 30
0.0
 10
2428.1172650985
 20
-296.032216642639
 30
0.0
 10
2427.344876069728
 20
-293.6101453669211
 30
0.0
 10
2427.162532196853
 20
-291.8807389713074
 30
0.0
 10
2427.162532196853
 20
-290.9878948248785
 30
0.0
 11
2430.881336262753
 21
-299.9878948248785
 31
0.0
 11
2429.356908253553
 21
-298.1407642667786
 31
0.0
 11
2428.200296109353
 21
-296.0266164864786
 31
0.0
 11
2427.443869676454
 21
-293.6516112607785
 31
0.0
 11
2427.162532196853
 21
-290.9878948248785
 31
0.0
  0
LINE
  5
10E87
330
1E
100
AcDbEntity
  8
0
  6
Continuous
 62
     7
100
AcDbLine
 10
2237.412532196853
 20
-20.09971876412027
 30
0.0
 11
2237.412532196853
 21
-142.0997187641202
 31
0.0
  0
LINE
  5
10E88
330
1E
100
AcDbEntity
  8
0
  6
Continuous
 62
     7
100
AcDbLine
 10
2241.812532196853
 20
-142.0997187641202
 30
0.0
 11
2241.812532196853
 21
-20.09971876412027
 31
0.0
  0
LINE
  5
10E89
330
1E
100
AcDbEntity
  8
0
  6
Continuous
 62
     7
100
AcDbLine
 10
2273.412532196853
 20
3.900281235879731
 30
0.0
 11
2273.412532196853
 21
-166.0997187641202
 31
0.0
  0
LINE
  5
10EA5
330
1E
100
AcDbEntity
  8
0
  6
Continuous
 62
     7
100
AcDbLine
 10
2496.412532196853
 20
-27.09970610382027
 30
0.0
 11
2273.412532196853
 21
-27.09970610382027
 31
0.0
  0
LINE
  5
10EA6
330
1E
100
AcDbEntity
  8
0
  6
Continuous
 62
     7
100
AcDbLine
 10
2496.412532196853
 20
-26.09969737652028
 30
0.0
 11
2273.412532196853
 21
-26.09969737652029
 31
0.0
  0
LINE
  5
10EA7
330
1E
100
AcDbEntity
  8
0
  6
Continuous
 62
     7
100
AcDbLine
 10
2532.412532196853
 20
-22.59971876412027
 30
0.0
 11
2496.412532196853
 21
-22.59971876412027
 31
0.0
  0
LINE
  5
10EA8
330
1E
100
AcDbEntity
  8
0
  6
Continuous
 62
     7
100
AcDbLine
 10
2237.412532196853
 20
-22.59971876412027
 30
0.0
 11
2273.412532196853
 21
-22.59971876412027
 31
0.0
  0
LINE
  5
10EA9
330
1E
100
AcDbEntity
  8
0
  6
Continuous
 62
     7
100
AcDbLine
 10
2532.412532196853
 20
-20.09971876412027
 30
0.0
 11
2496.412532196853
 21
-20.09971876412027
 31
0.0
  0
LINE
  5
10EAA
330
1E
100
AcDbEntity
  8
0
  6
Continuous
 62
     7
100
AcDbLine
 10
2237.412532196853
 20
-20.09971876412027
 30
0.0
 11
2273.412532196853
 21
-20.09971876412027
 31
0.0
  0
LINE
  5
10EAB
330
1E
100
AcDbEntity
  8
0
  6
Continuous
 62
     7
100
AcDbLine
 10
2496.412532196853
 20
-166.0997187641202
 30
0.0
 11
2496.412532196853
 21
3.900281235879731
 31
0.0
  0
LINE
  5
10EAC
330
1E
100
AcDbEntity
  8
0
  6
Continuous
 62
     7
100
AcDbLine
 10
2496.412532196853
 20
1.400281235879731
 30
0.0
 11
2273.412532196853
 21
1.400281235879731
 31
0.0
  0
LINE
  5
10EAD
330
1E
100
AcDbEntity
  8
0
  6
Continuous
 62
     7
100
AcDbLine
 10
2496.412532196853
 20
3.900281235879731
 30
0.0
 11
2273.412532196853
 21
3.900281235879731
 31
0.0
  0
LINE
  5
10EAE
330
1E
100
AcDbEntity
  8
0
  6
Continuous
 62
     7
100
AcDbLine
 10
2528.012532196853
 20
-142.0997187641202
 30
0.0
 11
2528.012532196853
 21
-20.09971876412027
 31
0.0
  0
LINE
  5
10EAF
330
1E
100
AcDbEntity
  8
0
  6
Continuous
 62
     7
100
AcDbLine
 10
2532.412532196853
 20
-142.0997187641202
 30
0.0
 11
2532.412532196853
 21
-20.09971876412027
 31
0.0
  0
LINE
  5
10EB6
330
1E
100
AcDbEntity
  8
中心線
 48
0.27
100
AcDbLine
 10
2034.633455242466
 20
-236.9879028248786
 30
0.0
 11
2012.874806570522
 21
-236.9879028248786
 31
0.0
  0
POINT
  5
10EB7
330
1E
100
AcDbEntity
  8
0
100
AcDbPoint
 10
2033.133455242466
 20
-236.9879028248786
 30
0.0
1001
pntflag
1000
endpoint
  0
LINE
  5
10EB8
330
1E
100
AcDbEntity
  8
中心線
 48
0.35
100
AcDbLine
 10
2034.633455242466
 20
-236.9879028248786
 30
0.0
 11
2012.874806570522
 21
-236.9879028248786
 31
0.0
  0
LINE
  5
10EB9
330
1E
100
AcDbEntity
  8
0
 48
0.27
100
AcDbLine
 10
2028.792083417082
 20
-234.5956504249973
 30
0.0
 11
2028.855526737802
 21
-234.553821921387
 31
0.0
  0
LINE
  5
10EBA
330
1E
100
AcDbEntity
  8
0
 48
0.27
100
AcDbLine
 10
2028.526429750593
 20
-239.4080091637864
 30
0.0
 11
2028.586872080186
 21
-239.4105759547149
 31
0.0
  0
LINE
  5
10EBB
330
1E
100
AcDbEntity
  8
0
 48
0.27
100
AcDbLine
 10
2028.792083417082
 20
-239.3801568947599
 30
0.0
 11
2028.855526737802
 21
-239.4219853983702
 31
0.0
  0
LINE
  5
10EBC
330
1E
100
AcDbEntity
  8
0
 48
0.27
100
AcDbLine
 10
2029.420800212077
 20
-236.9879028248786
 30
0.0
 11
2029.444270399747
 21
-236.3652264218915
 31
0.0
  0
LINE
  5
10EBD
330
1E
100
AcDbEntity
  8
0
 48
0.27
100
AcDbLine
 10
2031.419354993586
 20
-236.9879028248786
 30
0.0
 11
2031.435822868961
 21
-236.5509822524127
 31
0.0
  0
LINE
  5
10EBE
330
1E
100
AcDbEntity
  8
0
 48
0.27
100
AcDbLine
 10
2031.435822868961
 20
-237.4248233973442
 30
0.0
 11
2031.419354993586
 21
-236.9879028248786
 31
0.0
  0
LINE
  5
10EBF
330
1E
100
AcDbEntity
  8
0
 48
0.27
100
AcDbLine
 10
2029.444270399747
 20
-237.6105808978657
 30
0.0
 11
2029.420800212077
 21
-236.9879028248786
 31
0.0
  0
LINE
  5
10EC0
330
1E
100
AcDbEntity
  8
0
 48
0.27
100
AcDbLine
 10
2031.435822868961
 20
-236.5509822524127
 30
0.0
 11
2031.484595234856
 21
-236.1308535355013
 31
0.0
  0
LINE
  5
10EC1
330
1E
100
AcDbEntity
  8
0
 48
0.27
100
AcDbLine
 10
2029.444270399747
 20
-236.3652264218915
 30
0.0
 11
2029.513775822354
 21
-235.7664777866505
 31
0.0
  0
LINE
  5
10EC2
330
1E
100
AcDbEntity
  8
0
 48
0.27
100
AcDbLine
 10
2031.484595234856
 20
-237.844953784256
 30
0.0
 11
2031.435822868961
 21
-237.4248233973442
 31
0.0
  0
LINE
  5
10EC3
330
1E
100
AcDbEntity
  8
0
 48
0.27
100
AcDbLine
 10
2029.513775822354
 20
-238.2093295331067
 30
0.0
 11
2029.444270399747
 21
-237.6105808978657
 31
0.0
  0
LINE
  5
10EC4
330
1E
100
AcDbEntity
  8
0
 48
0.27
100
AcDbLine
 10
2031.484595234856
 20
-236.1308535355013
 30
0.0
 11
2031.563795010708
 21
-235.7436588992148
 31
0.0
  0
LINE
  5
10EC5
330
1E
100
AcDbEntity
  8
0
 48
0.27
100
AcDbLine
 10
2029.513775822354
 20
-235.7664777866505
 30
0.0
 11
2029.626647819204
 21
-235.2146678568733
 31
0.0
  0
LINE
  5
10EC6
330
1E
100
AcDbEntity
  8
0
 48
0.27
100
AcDbLine
 10
2031.563795010708
 20
-238.2321467505424
 30
0.0
 11
2031.484595234856
 21
-237.844953784256
 31
0.0
  0
LINE
  5
10EC7
330
1E
100
AcDbEntity
  8
0
 48
0.27
100
AcDbLine
 10
2029.626647819204
 20
-238.7611394630091
 30
0.0
 11
2029.513775822354
 21
-238.2093295331067
 31
0.0
  0
LINE
  5
10EC8
330
1E
100
AcDbEntity
  8
0
 48
0.27
100
AcDbLine
 10
2031.563795010708
 20
-235.7436588992148
 30
0.0
 11
2031.670379455507
 21
-235.4042813886638
 31
0.0
  0
LINE
  5
10EC9
330
1E
100
AcDbEntity
  8
0
 48
0.27
100
AcDbLine
 10
2029.626647819204
 20
-235.2146678568733
 30
0.0
 11
2029.778547728696
 21
-234.7310022991012
 31
0.0
  0
LINE
  5
10ECA
330
1E
100
AcDbEntity
  8
0
 48
0.27
100
AcDbLine
 10
2031.670379455507
 20
-238.5715259310934
 30
0.0
 11
2031.563795010708
 21
-238.2321467505424
 31
0.0
  0
LINE
  5
10ECB
330
1E
100
AcDbEntity
  8
0
 48
0.27
100
AcDbLine
 10
2029.778547728696
 20
-239.244803350656
 30
0.0
 11
2029.626647819204
 21
-238.7611394630091
 31
0.0
  0
LINE
  5
10ECC
330
1E
100
AcDbEntity
  8
0
 48
0.27
100
AcDbLine
 10
2031.670379455507
 20
-235.4042813886638
 30
0.0
 11
2031.800253727821
 21
-235.1257603677757
 31
0.0
  0
LINE
  5
10ECD
330
1E
100
AcDbEntity
  8
0
 48
0.27
100
AcDbLine
 10
2029.778547728696
 20
-234.7310022991012
 30
0.0
 11
2029.963638899106
 21
-234.3340698896884
 31
0.0
  0
LINE
  5
10ECE
330
1E
100
AcDbEntity
  8
0
 48
0.27
100
AcDbLine
 10
2031.800253727821
 20
-238.8500469519815
 30
0.0
 11
2031.670379455507
 21
-238.5715259310934
 31
0.0
  0
LINE
  5
10ECF
330
1E
100
AcDbEntity
  8
0
 48
0.27
100
AcDbLine
 10
2031.800253727821
 20
-235.1257603677757
 30
0.0
 11
2031.948426196066
 21
-234.9188022103387
 31
0.0
  0
LINE
  5
10ED0
330
1E
100
AcDbEntity
  8
0
 48
0.27
100
AcDbLine
 10
2029.963638899106
 20
-239.6417374300688
 30
0.0
 11
2029.778547728696
 21
-239.244803350656
 31
0.0
  0
LINE
  5
10ED1
330
1E
100
AcDbEntity
  8
0
 48
0.27
100
AcDbLine
 10
2028.040771882238
 20
-236.9879028248786
 30
0.0
 11
2028.058706018108
 21
-236.512054539787
 31
0.0
  0
LINE
  5
10ED2
330
1E
100
AcDbEntity
  8
0
 48
0.27
100
AcDbLine
 10
2028.058706018108
 20
-237.4637527799705
 30
0.0
 11
2028.040771882238
 21
-236.9879028248786
 31
0.0
  0
LINE
  5
10ED3
330
1E
100
AcDbEntity
  8
0
 48
0.27
100
AcDbLine
 10
2028.058706018108
 20
-236.512054539787
 30
0.0
 11
2028.111823725353
 21
-236.0544927606241
 31
0.0
  0
LINE
  5
10ED4
330
1E
100
AcDbEntity
  8
0
 48
0.27
100
AcDbLine
 10
2024.06817959719
 20
-236.9879028248786
 30
0.0
 11
2024.09575464617
 21
-236.2563139964532
 31
0.0
  0
LINE
  5
10ED5
330
1E
100
AcDbEntity
  8
0
 48
0.27
100
AcDbLine
 10
2024.09575464617
 20
-237.7194916534288
 30
0.0
 11
2024.06817959719
 21
-236.9879028248786
 31
0.0
  0
LINE
  5
10ED6
330
1E
100
AcDbEntity
  8
0
 48
0.27
100
AcDbLine
 10
2028.111823725353
 20
-237.9213145591332
 30
0.0
 11
2028.058706018108
 21
-237.4637527799705
 31
0.0
  0
LINE
  5
10ED7
330
1E
100
AcDbEntity
  8
0
 48
0.27
100
AcDbLine
 10
2028.111823725353
 20
-236.0544927606241
 30
0.0
 11
2028.198079253508
 21
-235.6328009230765
 31
0.0
  0
LINE
  5
10ED8
330
1E
100
AcDbEntity
  8
0
 48
0.27
100
AcDbLine
 10
2029.963638899106
 20
-234.3340698896884
 30
0.0
 11
2030.174807127872
 21
-234.039121073557
 31
0.0
  0
LINE
  5
10ED9
330
1E
100
AcDbEntity
  8
0
 48
0.27
100
AcDbLine
 10
2031.948426196066
 20
-239.0570051094187
 30
0.0
 11
2031.800253727821
 21
-238.8500469519815
 31
0.0
  0
LINE
  5
10EDA
330
1E
100
AcDbEntity
  8
0
 48
0.27
100
AcDbLine
 10
2031.948426196066
 20
-234.9188022103387
 30
0.0
 11
2032.109203828541
 21
-234.7913561188052
 31
0.0
  0
LINE
  5
10EDB
330
1E
100
AcDbEntity
  8
0
 48
0.27
100
AcDbLine
 10
2024.09575464617
 20
-236.2563139964532
 30
0.0
 11
2024.177417672808
 21
-235.5528396270979
 31
0.0
  0
LINE
  5
10EDC
330
1E
100
AcDbEntity
  8
0
 48
0.27
100
AcDbLine
 10
2024.177417672808
 20
-238.422966022659
 30
0.0
 11
2024.09575464617
 21
-237.7194916534288
 31
0.0
  0
LINE
  5
10EDD
330
1E
100
AcDbEntity
  8
0
 48
0.27
100
AcDbLine
 10
2028.198079253508
 20
-238.3430063966809
 30
0.0
 11
2028.111823725353
 21
-237.9213145591332
 31
0.0
  0
LINE
  5
10EDE
330
1E
100
AcDbEntity
  8
0
 48
0.27
100
AcDbLine
 10
2030.174807127872
 20
-239.9366862462005
 30
0.0
 11
2029.963638899106
 21
-239.6417374300688
 31
0.0
  0
LINE
  5
10EDF
330
1E
100
AcDbEntity
  8
0
 48
0.27
100
AcDbLine
 10
2028.198079253508
 20
-235.6328009230765
 30
0.0
 11
2028.314160991394
 21
-235.2631847126006
 31
0.0
  0
LINE
  5
10EE0
330
1E
100
AcDbEntity
  8
0
 48
0.27
100
AcDbLine
 10
2024.177417672808
 20
-235.5528396270979
 30
0.0
 11
2024.310030745954
 21
-234.9045153557029
 31
0.0
  0
LINE
  5
10EE1
330
1E
100
AcDbEntity
  8
0
 48
0.27
100
AcDbLine
 10
2024.310030745954
 20
-239.0712919640546
 30
0.0
 11
2024.177417672808
 21
-238.422966022659
 31
0.0
  0
LINE
  5
10EE2
330
1E
100
AcDbEntity
  8
0
 48
0.27
100
AcDbLine
 10
2028.314160991394
 20
-238.7126226071566
 30
0.0
 11
2028.198079253508
 21
-238.3430063966809
 31
0.0
  0
LINE
  5
10EE3
330
1E
100
AcDbEntity
  8
0
 48
0.27
100
AcDbLine
 10
2032.109203828541
 20
-234.7913561188052
 30
0.0
 11
2032.276405952964
 21
-234.7483235447437
 31
0.0
  0
LINE
  5
10EE4
330
1E
100
AcDbEntity
  8
0
 48
0.27
100
AcDbLine
 10
2030.174807127872
 20
-234.039121073557
 30
0.0
 11
2030.403937882637
 21
-233.8574918143499
 31
0.0
  0
LINE
  5
10EE5
330
1E
100
AcDbEntity
  8
0
 48
0.27
100
AcDbLine
 10
2031.948426196066
 20
-239.0570051094187
 30
0.0
 11
2032.109203828541
 21
-239.1844512009523
 31
0.0
  0
LINE
  5
10EE6
330
1E
100
AcDbEntity
  8
0
 48
0.27
100
AcDbLine
 10
2028.314160991394
 20
-235.2631847126006
 30
0.0
 11
2028.45560669739
 21
-234.9598491536935
 31
0.0
  0
LINE
  5
10EE7
330
1E
100
AcDbEntity
  8
0
 48
0.27
100
AcDbLine
 10
2030.174807127872
 20
-239.9366862462005
 30
0.0
 11
2030.403937882637
 21
-240.1183138354072
 31
0.0
  0
LINE
  5
10EE8
330
1E
100
AcDbEntity
  8
0
 48
0.27
100
AcDbLine
 10
2028.45560669739
 20
-239.0159581660639
 30
0.0
 11
2028.314160991394
 21
-238.7126226071566
 31
0.0
  0
LINE
  5
10EE9
330
1E
100
AcDbEntity
  8
0
 48
0.27
100
AcDbLine
 10
2024.310030745954
 20
-234.9045153557029
 30
0.0
 11
2024.488500364133
 21
-234.336252580428
 31
0.0
  0
LINE
  5
10EEA
330
1E
100
AcDbEntity
  8
0
 48
0.27
100
AcDbLine
 10
2024.488500364133
 20
-239.6395547393295
 30
0.0
 11
2024.310030745954
 21
-239.0712919640546
 31
0.0
  0
LINE
  5
10EEB
330
1E
100
AcDbEntity
  8
0
 48
0.27
100
AcDbLine
 10
2028.45560669739
 20
-234.9598491536935
 30
0.0
 11
2028.61698219009
 21
-234.734450850302
 31
0.0
  0
LINE
  5
10EEC
330
1E
100
AcDbEntity
  8
0
 48
0.27
100
AcDbLine
 10
2029.336381684605
 20
-234.2650153672814
 30
0.0
 11
2029.547960733563
 21
-234.097300552523
 31
0.0
  0
LINE
  5
10EED
330
1E
100
AcDbEntity
  8
0
 48
0.27
100
AcDbLine
 10
2030.403937882637
 20
-233.8574918143499
 30
0.0
 11
2030.642226920306
 21
-233.7961643843582
 31
0.0
  0
LINE
  5
10EEE
330
1E
100
AcDbEntity
  8
0
 48
0.27
100
AcDbLine
 10
2032.276405952964
 20
-234.7483235447437
 30
0.0
 11
2032.443608077511
 21
-234.7913561188052
 31
0.0
  0
LINE
  5
10EEF
330
1E
100
AcDbEntity
  8
0
 48
0.27
100
AcDbLine
 10
2032.109203828541
 20
-239.1844512009523
 30
0.0
 11
2032.276405952964
 21
-239.2274837750135
 31
0.0
  0
LINE
  5
10EF0
330
1E
100
AcDbEntity
  8
0
 48
0.27
100
AcDbLine
 10
2028.61698219009
 20
-239.2413564694552
 30
0.0
 11
2028.45560669739
 21
-239.0159581660639
 31
0.0
  0
LINE
  5
10EF1
330
1E
100
AcDbEntity
  8
0
 48
0.27
100
AcDbLine
 10
2023.84617473474
 20
-236.9879028248786
 30
0.0
 11
2024.674708764855
 21
-233.2379032423785
 31
0.0
  0
LINE
  5
10EF2
330
1E
100
AcDbEntity
  8
0
 48
0.27
100
AcDbLine
 10
2024.674708764855
 20
-240.7379040773788
 30
0.0
 11
2023.84617473474
 21
-236.9879028248786
 31
0.0
  0
LINE
  5
10EF3
330
1E
100
AcDbEntity
  8
0
 48
0.27
100
AcDbLine
 10
2029.547960733563
 20
-234.097300552523
 30
0.0
 11
2029.955500986373
 21
-233.8916767255587
 31
0.0
  0
LINE
  5
10EF4
330
1E
100
AcDbEntity
  8
0
 48
0.27
100
AcDbLine
 10
2029.955500986373
 20
-233.8916767255587
 30
0.0
 11
2030.191186493232
 21
-233.8310172958036
 31
0.0
  0
LINE
  5
10EF5
330
1E
100
AcDbEntity
  8
0
 48
0.27
100
AcDbLine
 10
2030.403937882637
 20
-240.1183138354072
 30
0.0
 11
2030.642226920306
 21
-240.1796429353992
 31
0.0
  0
LINE
  5
10EF6
330
1E
100
AcDbEntity
  8
0
 48
0.27
100
AcDbLine
 10
2024.488500364133
 20
-234.336252580428
 30
0.0
 11
2024.705964495075
 21
-233.8698915684206
 31
0.0
  0
LINE
  5
10EF7
330
1E
100
AcDbEntity
  8
0
 48
0.27
100
AcDbLine
 10
2024.705964495075
 20
-240.1059157513366
 30
0.0
 11
2024.488500364133
 21
-239.6395547393295
 31
0.0
  0
LINE
  5
10EF8
330
1E
100
AcDbEntity
  8
0
 48
0.27
100
AcDbLine
 10
2028.61698219009
 20
-234.734450850302
 30
0.0
 11
2028.792083417082
 21
-234.5956504249973
 31
0.0
  0
LINE
  5
10EF9
330
1E
100
AcDbEntity
  8
0
 48
0.27
100
AcDbLine
 10
2028.855526737802
 20
-234.553821921387
 30
0.0
 11
2029.547960733563
 21
-234.097300552523
 31
0.0
  0
LINE
  5
10EFA
330
1E
100
AcDbEntity
  8
0
 48
0.27
100
AcDbLine
 10
2029.955500986373
 20
-240.0841305941985
 30
0.0
 11
2030.191186493232
 21
-240.1447883540784
 31
0.0
  0
LINE
  5
10EFB
330
1E
100
AcDbEntity
  8
0
 48
0.27
100
AcDbLine
 10
2029.547960733563
 20
-239.8785067672345
 30
0.0
 11
2029.955500986373
 21
-240.0841305941985
 31
0.0
  0
LINE
  5
10EFC
330
1E
100
AcDbEntity
  8
0
 48
0.27
100
AcDbLine
 10
2028.61698219009
 20
-239.2413564694552
 30
0.0
 11
2028.792083417082
 21
-239.3801568947599
 31
0.0
  0
LINE
  5
10EFD
330
1E
100
AcDbEntity
  8
0
 48
0.27
100
AcDbLine
 10
2030.191186493232
 20
-233.8310172958036
 30
0.0
 11
2030.642226920306
 21
-233.7961643843582
 31
0.0
  0
LINE
  5
10EFE
330
1E
100
AcDbEntity
  8
0
 48
0.27
100
AcDbLine
 10
2030.642226920306
 20
-233.7961643843582
 30
0.0
 11
2030.880514287975
 21
-233.8574918143499
 31
0.0
  0
LINE
  5
10EFF
330
1E
100
AcDbEntity
  8
0
 48
0.27
100
AcDbLine
 10
2032.443608077511
 20
-234.7913561188052
 30
0.0
 11
2032.604384039986
 21
-234.9188022103387
 31
0.0
  0
LINE
  5
10F00
330
1E
100
AcDbEntity
  8
0
 48
0.27
100
AcDbLine
 10
2030.880514287975
 20
-233.8574918143499
 30
0.0
 11
2032.443608077511
 21
-234.7913561188052
 31
0.0
  0
LINE
  5
10F01
330
1E
100
AcDbEntity
  8
0
 48
0.27
100
AcDbLine
 10
2032.276405952964
 20
-239.2274837750135
 30
0.0
 11
2032.443608077511
 21
-239.1844512009523
 31
0.0
  0
LINE
  5
10F02
330
1E
100
AcDbEntity
  8
0
 48
0.27
100
AcDbLine
 10
2028.855526737802
 20
-239.4219853983702
 30
0.0
 11
2029.547960733563
 21
-239.8785067672345
 31
0.0
  0
LINE
  5
10F03
330
1E
100
AcDbEntity
  8
0
 48
0.27
100
AcDbLine
 10
2030.191186493232
 20
-240.1447883540784
 30
0.0
 11
2030.642226920306
 21
-240.1796429353992
 31
0.0
  0
LINE
  5
10F04
330
1E
100
AcDbEntity
  8
0
 48
0.27
100
AcDbLine
 10
2030.642226920306
 20
-240.1796429353992
 30
0.0
 11
2030.880514287975
 21
-240.1183138354072
 31
0.0
  0
LINE
  5
10F05
330
1E
100
AcDbEntity
  8
0
 48
0.27
100
AcDbLine
 10
2024.705964495075
 20
-233.8698915684206
 30
0.0
 11
2024.954068125883
 21
-233.5233547654241
 31
0.0
  0
LINE
  5
10F06
330
1E
100
AcDbEntity
  8
0
 48
0.27
100
AcDbLine
 10
2024.954068125883
 20
-240.4524525543334
 30
0.0
 11
2024.705964495075
 21
-240.1059157513366
 31
0.0
  0
LINE
  5
10F07
330
1E
100
AcDbEntity
  8
0
 48
0.27
100
AcDbLine
 10
2022.564190466899
 20
-240.7379040773788
 30
0.0
 11
2021.735656436783
 21
-236.9879028248786
 31
0.0
  0
LINE
  5
10F08
330
1E
100
AcDbEntity
  8
0
 48
0.27
100
AcDbLine
 10
2021.735656436783
 20
-236.9879028248786
 30
0.0
 11
2023.84617473474
 21
-236.9879028248786
 31
0.0
  0
LINE
  5
10F09
330
1E
100
AcDbEntity
  8
0
 48
0.27
100
AcDbLine
 10
2021.735656436783
 20
-236.9879028248786
 30
0.0
 11
2022.564190466899
 21
-233.2379032423785
 31
0.0
  0
LINE
  5
10F0A
330
1E
100
AcDbEntity
  8
0
 48
0.27
100
AcDbLine
 10
2032.752556508231
 20
-235.1257603677757
 30
0.0
 11
2032.604384039986
 21
-234.9188022103387
 31
0.0
  0
LINE
  5
10F0B
330
1E
100
AcDbEntity
  8
0
 48
0.27
100
AcDbLine
 10
2032.443608077511
 20
-239.1844512009523
 30
0.0
 11
2032.604384039986
 21
-239.0570051094187
 31
0.0
  0
LINE
  5
10F0C
330
1E
100
AcDbEntity
  8
0
 48
0.27
100
AcDbLine
 10
2030.880514287975
 20
-240.1183138354072
 30
0.0
 11
2032.443608077511
 21
-239.1844512009523
 31
0.0
  0
LINE
  5
10F0D
330
1E
100
AcDbEntity
  8
0
 48
0.27
100
AcDbLine
 10
2028.586872080186
 20
-234.565229695042
 30
0.0
 11
2028.855526737802
 21
-234.553821921387
 31
0.0
  0
LINE
  5
10F0E
330
1E
100
AcDbEntity
  8
0
 48
0.27
100
AcDbLine
 10
2028.586872080186
 20
-239.4105759547149
 30
0.0
 11
2028.855526737802
 21
-239.4219853983702
 31
0.0
  0
LINE
  5
10F0F
330
1E
100
AcDbEntity
  8
0
 48
0.27
100
AcDbLine
 10
2024.954068125883
 20
-233.5233547654241
 30
0.0
 11
2025.223275553716
 21
-233.3099587559118
 31
0.0
  0
LINE
  5
10F10
330
1E
100
AcDbEntity
  8
0
 48
0.27
100
AcDbLine
 10
2024.954068125883
 20
-240.4524525543334
 30
0.0
 11
2025.223275553716
 21
-240.6658485638454
 31
0.0
  0
LINE
  5
10F11
330
1E
100
AcDbEntity
  8
0
 48
0.27
100
AcDbLine
 10
2032.882430780545
 20
-235.4042813886638
 30
0.0
 11
2032.752556508231
 21
-235.1257603677757
 31
0.0
  0
LINE
  5
10F12
330
1E
100
AcDbEntity
  8
0
 48
0.27
100
AcDbLine
 10
2032.604384039986
 20
-239.0570051094187
 30
0.0
 11
2032.752556508231
 21
-238.8500469519815
 31
0.0
  0
LINE
  5
10F13
330
1E
100
AcDbEntity
  8
0
 48
0.27
100
AcDbLine
 10
2028.285468711977
 20
-234.4422274750006
 30
0.0
 11
2028.586872080186
 21
-234.565229695042
 31
0.0
  0
LINE
  5
10F14
330
1E
100
AcDbEntity
  8
0
 48
0.27
100
AcDbLine
 10
2028.285468711977
 20
-239.5335798447566
 30
0.0
 11
2028.586872080186
 21
-239.4105759547149
 31
0.0
  0
LINE
  5
10F15
330
1E
100
AcDbEntity
  8
0
 48
0.27
100
AcDbLine
 10
2032.989016895345
 20
-235.7436588992148
 30
0.0
 11
2032.882430780545
 21
-235.4042813886638
 31
0.0
  0
LINE
  5
10F16
330
1E
100
AcDbEntity
  8
0
 48
0.27
100
AcDbLine
 10
2032.752556508231
 20
-238.8500469519815
 30
0.0
 11
2032.882430780545
 21
-238.5715259310934
 31
0.0
  0
LINE
  5
10F17
330
1E
100
AcDbEntity
  8
0
 48
0.27
100
AcDbLine
 10
2025.223275553716
 20
-233.3099587559118
 30
0.0
 11
2025.50324279497
 21
-233.2379032423785
 31
0.0
  0
LINE
  5
10F18
330
1E
100
AcDbEntity
  8
0
 48
0.27
100
AcDbLine
 10
2025.223275553716
 20
-240.6658485638454
 30
0.0
 11
2025.50324279497
 21
-240.7379040773788
 31
0.0
  0
LINE
  5
10F19
330
1E
100
AcDbEntity
  8
0
 48
0.27
100
AcDbLine
 10
2033.068216671196
 20
-236.1308535355013
 30
0.0
 11
2032.989016895345
 21
-235.7436588992148
 31
0.0
  0
LINE
  5
10F1A
330
1E
100
AcDbEntity
  8
0
 48
0.27
100
AcDbLine
 10
2031.933237541155
 20
-239.0357894225005
 30
0.0
 11
2031.935610611926
 21
-239.0346287721818
 31
0.0
  0
LINE
  5
10F1B
330
1E
100
AcDbEntity
  8
0
 48
0.27
100
AcDbLine
 10
2032.882430780545
 20
-238.5715259310934
 30
0.0
 11
2032.989016895345
 21
-238.2321467505424
 31
0.0
  0
LINE
  5
10F1C
330
1E
100
AcDbEntity
  8
0
 48
0.27
100
AcDbLine
 10
2033.11698736709
 20
-236.5509822524127
 30
0.0
 11
2033.068216671196
 21
-236.1308535355013
 31
0.0
  0
LINE
  5
10F1D
330
1E
100
AcDbEntity
  8
0
 48
0.27
100
AcDbLine
 10
2032.989016895345
 20
-238.2321467505424
 30
0.0
 11
2033.068216671196
 21
-237.844953784256
 31
0.0
  0
LINE
  5
10F1E
330
1E
100
AcDbEntity
  8
0
 48
0.27
100
AcDbLine
 10
2025.783210036225
 20
-233.3099587559118
 30
0.0
 11
2028.285468711977
 21
-234.4422274750006
 31
0.0
  0
LINE
  5
10F1F
330
1E
100
AcDbEntity
  8
0
 48
0.27
100
AcDbLine
 10
2025.50324279497
 20
-233.2379032423785
 30
0.0
 11
2025.783210036225
 21
-233.3099587559118
 31
0.0
  0
LINE
  5
10F20
330
1E
100
AcDbEntity
  8
0
 48
0.27
100
AcDbLine
 10
2025.50324279497
 20
-240.7379040773788
 30
0.0
 11
2025.783210036225
 21
-240.6658485638454
 31
0.0
  0
LINE
  5
10F21
330
1E
100
AcDbEntity
  8
0
 48
0.27
100
AcDbLine
 10
2033.133455242466
 20
-236.9879028248786
 30
0.0
 11
2033.11698736709
 21
-236.5509822524127
 31
0.0
  0
LINE
  5
10F22
330
1E
100
AcDbEntity
  8
0
 48
0.27
100
AcDbLine
 10
2033.068216671196
 20
-237.844953784256
 30
0.0
 11
2033.11698736709
 21
-237.4248233973442
 31
0.0
  0
LINE
  5
10F23
330
1E
100
AcDbEntity
  8
0
 48
0.27
100
AcDbLine
 10
2033.11698736709
 20
-237.4248233973442
 30
0.0
 11
2033.133455242466
 21
-236.9879028248786
 31
0.0
  0
LINE
  5
10F24
330
1E
100
AcDbEntity
  8
0
 48
0.27
100
AcDbLine
 10
2025.783210036225
 20
-240.6658485638454
 30
0.0
 11
2028.285468711977
 21
-239.5335798447566
 31
0.0
  0
LINE
  5
10F25
330
1E
100
AcDbEntity
  8
0
 48
0.27
100
AcDbLine
 10
2022.564190466899
 20
-233.2379032423785
 30
0.0
 11
2026.331776825085
 21
-233.2379032423785
 31
0.0
  0
LINE
  5
10F26
330
1E
100
AcDbEntity
  8
0
 48
0.27
100
AcDbLine
 10
2026.331776825085
 20
-240.7379040773788
 30
0.0
 11
2026.410400450716
 21
-240.3820453313254
 31
0.0
  0
LINE
  5
10F27
330
1E
100
AcDbEntity
  8
0
 48
0.27
100
AcDbLine
 10
2026.410400450716
 20
-233.5937619884319
 30
0.0
 11
2026.331776825085
 21
-233.2379032423785
 31
0.0
  0
LINE
  5
10F28
330
1E
100
AcDbEntity
  8
0
 48
0.27
100
AcDbLine
 10
2022.564190466899
 20
-240.7379040773788
 30
0.0
 11
2026.331776825085
 21
-240.7379040773788
 31
0.0
  0
LINE
  5
10F29
330
1E
100
AcDbEntity
  8
0
 48
0.27
100
AcDbLine
 10
2024.545747982819
 20
-240.7379040773788
 30
0.0
 11
2023.824060587547
 21
-241.9879044948789
 31
0.0
  0
LINE
  5
10F2A
330
1E
100
AcDbEntity
  8
0
 48
0.27
100
AcDbLine
 10
2023.824060587547
 20
-241.9879044948789
 30
0.0
 11
2018.050556415372
 21
-241.9879044948789
 31
0.0
  0
LINE
  5
10F2B
330
1E
100
AcDbEntity
  8
0
 48
0.27
100
AcDbLine
 10
2015.163805164284
 20
-236.9879028248786
 30
0.0
 11
2018.050556415372
 21
-241.9879044948789
 31
0.0
  0
LINE
  5
10F2C
330
1E
100
AcDbEntity
  8
0
 48
0.27
100
AcDbLine
 10
2018.050556415372
 20
-231.9879028248786
 30
0.0
 11
2015.163805164284
 21
-236.9879028248786
 31
0.0
  0
LINE
  5
10F2D
330
1E
100
AcDbEntity
  8
0
 48
0.27
100
AcDbLine
 10
2018.050556415372
 20
-231.9879028248786
 30
0.0
 11
2023.824058917547
 21
-231.9879028248786
 31
0.0
  0
LINE
  5
10F2E
330
1E
100
AcDbEntity
  8
0
 48
0.27
100
AcDbLine
 10
2024.545747982819
 20
-233.2379032423785
 30
0.0
 11
2023.824058917547
 21
-231.9879028248786
 31
0.0
  0
ARC
  5
10F2F
330
1E
100
AcDbEntity
  8
0
 48
0.27
100
AcDbCircle
 10
2020.937307666459
 20
-236.9879028248786
 30
0.0
 40
5.0
100
AcDbArc
 50
48.59037799889843
 51
311.4096220032037
  0
LWPOLYLINE
  5
10F30
330
1E
100
AcDbEntity
  8
0
 48
0.27
100
AcDbPolyline
 90
       17
 70
     0
 43
0.0
 10
2032.126919194249
 20
-236.9879028248785
 10
2032.168854578003
 20
-237.2591994233101
 10
2032.209968321369
 20
-237.3378297289413
 10
2032.255681246252
 20
-237.3747567809831
 10
2032.298152700095
 20
-237.3743726809189
 10
2032.343768764963
 20
-237.3366173086138
 10
2032.382948647756
 20
-237.2619048242619
 10
2032.419681979765
 20
-237.0993135712341
 10
2032.425891041802
 20
-236.9879028248785
 10
2032.383957328049
 20
-236.7166078964473
 10
2032.342841914683
 20
-236.637977590816
 10
2032.297128989799
 20
-236.6010505387742
 10
2032.254659205957
 20
-236.6014346389633
 10
2032.209041471089
 20
-236.6391900112685
 10
2032.169863258296
 20
-236.7139024956204
 10
2032.133128256286
 20
-236.8764937485232
 10
2032.126919194249
 20
-236.9879028248785
  0
LINE
  5
10F31
330
1E
100
AcDbEntity
  8
0
100
AcDbLine
 10
2053.485654141774
 20
-298.7710876725786
 30
0.0
 11
2053.485654141774
 21
-295.7481526271416
 31
0.0
  0
LINE
  5
10F33
330
1E
100
AcDbEntity
  8
0
100
AcDbLine
 10
2056.285654385874
 20
-298.7710876725786
 30
0.0
 11
2056.285654385874
 21
-294.5883545510341
 31
0.0
  0
LINE
  5
10F35
330
1E
100
AcDbEntity
  8
0
  6
Continuous
 62
     7
100
AcDbLine
 10
2053.485654169674
 20
-260.0529782112231
 30
0.0
 11
2051.320547533329
 21
-257.8878715748786
 31
0.0
  0
LINE
  5
10F36
330
1E
100
AcDbEntity
  8
0
  6
Continuous
 62
     7
100
AcDbLine
 10
1988.385690683774
 20
-260.0529782112231
 30
0.0
 11
1990.550797320119
 21
-257.8878715748786
 31
0.0
  0
LINE
  5
10F37
330
1E
100
AcDbEntity
  8
0
100
AcDbLine
 10
1985.585690467574
 20
-298.7710876725786
 30
0.0
 11
1985.585690467574
 21
-294.5883545510341
 31
0.0
  0
LINE
  5
10F38
330
1E
100
AcDbEntity
  8
0
100
AcDbLine
 10
1988.385690711674
 20
-298.7710876725786
 30
0.0
 11
1988.385690711674
 21
-295.7481526271416
 31
0.0
  0
LINE
  5
10F39
330
1E
100
AcDbEntity
  8
0
  6
Continuous
 62
     7
100
AcDbLine
 10
1985.585690352856
 20
-258.8931805674972
 30
0.0
 11
1985.585690590246
 21
-266.9874345546962
 31
0.0
  0
LINE
  5
10F3A
330
1E
100
AcDbEntity
  8
0
  6
Continuous
 62
     7
100
AcDbLine
 10
1985.585690352856
 20
-258.8931805674972
 30
0.0
 11
1989.390966730612
 21
-255.0879041897406
 31
0.0
  0
LINE
  5
10F3B
330
1E
100
AcDbEntity
  8
0
  6
Continuous
 62
     7
100
AcDbLine
 10
1990.935711489174
 20
-258.9878819915786
 30
0.0
 11
1989.435690683774
 21
-260.4879027969784
 31
0.0
  0
LINE
  5
10F3C
330
1E
100
AcDbEntity
  8
0
  6
Continuous
 62
     7
100
AcDbLine
 10
1988.385690683774
 20
-260.0529782112231
 30
0.0
 11
1988.385690683774
 21
-265.827636328016
 31
0.0
  0
LINE
  5
10F3D
330
1E
100
AcDbEntity
  8
0
  6
Continuous
 62
     7
100
AcDbLine
 10
1989.435690683774
 20
-260.4879027969784
 30
0.0
 11
1989.435690683774
 21
-265.3927120837061
 31
0.0
  0
LINE
  5
10F3E
330
1E
100
AcDbEntity
  8
0
  6
Continuous
 62
     7
100
AcDbLine
 10
1995.085690467574
 20
-276.4874344284781
 30
0.0
 11
1985.585690590246
 21
-266.9874345546962
 31
0.0
  0
LINE
  5
10F3F
330
1E
100
AcDbEntity
  8
0
  6
Continuous
 62
     7
100
AcDbLine
 10
1988.385690683774
 20
-265.827636328016
 30
0.0
 11
1997.885690711674
 21
-275.3276363523781
 31
0.0
  0
LINE
  5
10F40
330
1E
100
AcDbEntity
  8
0
  6
Continuous
 62
     7
100
AcDbLine
 10
1989.435690683774
 20
-265.3927120837061
 30
0.0
 11
1998.935690711674
 21
-274.8927121119904
 31
0.0
  0
LINE
  5
10F41
330
1E
100
AcDbEntity
  8
0
  6
Continuous
 62
     7
100
AcDbLine
 10
1995.085690467574
 20
-276.4874344284781
 30
0.0
 11
1995.085690467574
 21
-285.0883545545784
 31
0.0
  0
LINE
  5
10F42
330
1E
100
AcDbEntity
  8
0
  6
Continuous
 62
     7
100
AcDbLine
 10
1997.885690711674
 20
-275.3276363523781
 30
0.0
 11
1997.885690711674
 21
-286.2481526306785
 31
0.0
  0
LINE
  5
10F43
330
1E
100
AcDbEntity
  8
0
  6
Continuous
 62
     7
100
AcDbLine
 10
1998.935690711674
 20
-274.8927121119904
 30
0.0
 11
1998.935690711674
 21
-286.683076871167
 31
0.0
  0
LINE
  5
10F44
330
1E
100
AcDbEntity
  8
0
  6
Continuous
 62
     7
100
AcDbLine
 10
1985.585690467574
 20
-294.5883545510341
 30
0.0
 11
1995.085690467574
 21
-285.0883545545784
 31
0.0
  0
LINE
  5
10F45
330
1E
100
AcDbEntity
  8
0
  6
Continuous
 62
     7
100
AcDbLine
 10
1997.885690711674
 20
-286.2481526306785
 30
0.0
 11
1988.385690711674
 21
-295.7481526271416
 31
0.0
  0
LINE
  5
10F46
330
1E
100
AcDbEntity
  8
0
  6
Continuous
 62
     7
100
AcDbLine
 10
1998.935690711674
 20
-286.683076871167
 30
0.0
 11
1989.435641517174
 21
-296.1831260660508
 31
0.0
  0
LINE
  5
10F47
330
1E
100
AcDbEntity
  8
0
  6
Continuous
 62
     7
100
AcDbLine
 10
1988.385690711674
 20
-298.7710876725786
 30
0.0
 11
1985.585690466874
 21
-298.7710876725786
 31
0.0
  0
LINE
  5
10F4A
330
1E
100
AcDbEntity
  8
虛線
 48
0.27
100
AcDbLine
 10
2027.935714197575
 20
-223.5880298248787
 30
0.0
 11
2027.935714197575
 21
-242.587902824878
 31
0.0
  0
LINE
  5
10F4B
330
1E
100
AcDbEntity
  8
虛線
 48
0.27
100
AcDbLine
 10
2028.935714197574
 20
-222.5880298248787
 30
0.0
 11
2028.935714197575
 21
-242.587902824878
 31
0.0
  0
LINE
  5
10F4C
330
1E
100
AcDbEntity
  8
虛線
 48
0.27
100
AcDbLine
 10
2029.535791197575
 20
-221.9879528248787
 30
0.0
 11
2027.935714197575
 21
-223.5880298248787
 31
0.0
  0
LINE
  5
10F4D
330
1E
100
AcDbEntity
  8
虛線
 48
0.27
100
AcDbLine
 10
2013.935714197574
 20
-223.5880298248787
 30
0.0
 11
2013.935714197574
 21
-242.587902824878
 31
0.0
  0
LINE
  5
10F4E
330
1E
100
AcDbEntity
  8
虛線
 48
0.27
100
AcDbLine
 10
2012.935714197574
 20
-222.5880298248778
 30
0.0
 11
2012.935714197575
 21
-242.587902824878
 31
0.0
  0
LINE
  5
10F4F
330
1E
100
AcDbEntity
  8
虛線
 48
0.27
100
AcDbLine
 10
2013.935714197574
 20
-223.5880298248787
 30
0.0
 11
2012.335637197574
 21
-221.9879528248787
 31
0.0
  0
LINE
  5
10F51
330
1E
100
AcDbEntity
  8
虛線
 48
0.27
100
AcDbLine
 10
2027.935714197575
 20
-223.5880298248787
 30
0.0
 11
2013.935714197574
 21
-223.5880298248787
 31
0.0
  0
LINE
  5
10F52
330
1E
100
AcDbEntity
  8
虛線
 48
0.27
100
AcDbLine
 10
2032.435624197574
 20
-242.587902824878
 30
0.0
 11
2032.435624197573
 21
-256.587902824878
 31
0.0
  0
LINE
  5
10F53
330
1E
100
AcDbEntity
  8
虛線
 48
0.27
100
AcDbLine
 10
2009.435684197574
 20
-242.587902824878
 30
0.0
 11
2032.435624197574
 21
-242.587902824878
 31
0.0
  0
LINE
  5
10F54
330
1E
100
AcDbEntity
  8
虛線
 48
0.27
100
AcDbLine
 10
2009.435684197574
 20
-242.587902824878
 30
0.0
 11
2009.435684197575
 21
-256.587902824878
 31
0.0
  0
LINE
  5
10F57
330
1E
100
AcDbEntity
  8
虛線
 48
0.27
100
AcDbLine
 10
2098.935684197574
 20
-223.5879528248781
 30
0.0
 11
2098.935684197575
 21
-244.9878758248781
 31
0.0
  0
LINE
  5
10F58
330
1E
100
AcDbEntity
  8
虛線
 48
0.27
100
AcDbLine
 10
2099.935684197574
 20
-222.5879528248786
 30
0.0
 11
2099.935684197574
 21
-244.9878758248781
 31
0.0
  0
LINE
  5
10F59
330
1E
100
AcDbEntity
  8
虛線
 48
0.27
100
AcDbLine
 10
2100.535761197575
 20
-221.9878758248785
 30
0.0
 11
2098.935684197574
 21
-223.5879528248781
 31
0.0
  0
LINE
  5
10F5A
330
1E
100
AcDbEntity
  8
虛線
 48
0.27
100
AcDbLine
 10
2084.935684197574
 20
-223.5879528248781
 30
0.0
 11
2084.935684197574
 21
-244.9878758248781
 31
0.0
  0
LINE
  5
10F5B
330
1E
100
AcDbEntity
  8
虛線
 48
0.27
100
AcDbLine
 10
2083.935684197574
 20
-222.5879528248777
 30
0.0
 11
2083.935684197574
 21
-244.9878758248781
 31
0.0
  0
LINE
  5
10F5C
330
1E
100
AcDbEntity
  8
虛線
 48
0.27
100
AcDbLine
 10
2084.935684197574
 20
-223.5879528248781
 30
0.0
 11
2083.335607197574
 21
-221.9878758248781
 31
0.0
  0
LINE
  5
10F5E
330
1E
100
AcDbEntity
  8
虛線
 48
0.27
100
AcDbLine
 10
2098.935684197574
 20
-223.5879528248781
 30
0.0
 11
2084.935684197574
 21
-223.5879528248781
 31
0.0
  0
LINE
  5
10F5F
330
1E
100
AcDbEntity
  8
虛線
 48
0.27
100
AcDbLine
 10
2080.435684197573
 20
-244.9878758248781
 30
0.0
 11
2105.935658086457
 21
-244.9878758248781
 31
0.0
  0
LINE
  5
10F60
330
1E
100
AcDbEntity
  8
虛線
 48
0.27
100
AcDbLine
 10
2080.435684197573
 20
-244.9878758248781
 30
0.0
 11
2080.435684197581
 21
-299.9878948248781
 31
0.0
  0
LINE
  5
10F61
330
1E
100
AcDbEntity
  8
中心線
 48
0.35
100
AcDbLine
 10
2091.935654197574
 20
-216.9879528248787
 30
0.0
 11
2091.935654197574
 21
-299.9878948248785
 31
0.0
  0
LINE
  5
10F65
330
1E
100
AcDbEntity
  8
虛線
 48
0.27
100
AcDbLine
 10
2007.935654197574
 20
-259.3878898248779
 30
0.0
 11
2033.935654197574
 21
-259.3878898248788
 31
0.0
  0
LINE
  5
10F68
330
1E
100
AcDbEntity
  8
虛線
 48
0.27
100
AcDbLine
 10
2007.935654197574
 20
-280.9878898248783
 30
0.0
 11
2033.935654197574
 21
-280.9878898248783
 31
0.0
  0
LINE
  5
10F73
330
1E
100
AcDbEntity
  8
虛線
 48
0.27
100
AcDbLine
 10
1942.935624197574
 20
-223.5879528248781
 30
0.0
 11
1942.935624197573
 21
-244.9878758248781
 31
0.0
  0
LINE
  5
10F74
330
1E
100
AcDbEntity
  8
虛線
 48
0.27
100
AcDbLine
 10
1941.935624197574
 20
-222.5879528248786
 30
0.0
 11
1941.935624197574
 21
-244.9878758248781
 31
0.0
  0
LINE
  5
10F75
330
1E
100
AcDbEntity
  8
虛線
 48
0.27
100
AcDbLine
 10
1941.335547197573
 20
-221.9878758248785
 30
0.0
 11
1942.935624197573
 21
-223.5879528248781
 31
0.0
  0
LINE
  5
10F76
330
1E
100
AcDbEntity
  8
虛線
 48
0.27
100
AcDbLine
 10
1956.935624197574
 20
-223.5879528248781
 30
0.0
 11
1956.935624197573
 21
-244.9878758248781
 31
0.0
  0
LINE
  5
10F77
330
1E
100
AcDbEntity
  8
虛線
 48
0.27
100
AcDbLine
 10
1957.935624197574
 20
-222.5879528248777
 30
0.0
 11
1957.935624197574
 21
-244.9878758248781
 31
0.0
  0
LINE
  5
10F78
330
1E
100
AcDbEntity
  8
虛線
 48
0.27
100
AcDbLine
 10
1956.935624197574
 20
-223.5879528248781
 30
0.0
 11
1958.535701197574
 21
-221.9878758248781
 31
0.0
  0
LINE
  5
10F7A
330
1E
100
AcDbEntity
  8
虛線
 48
0.27
100
AcDbLine
 10
1942.935624197574
 20
-223.5879528248781
 30
0.0
 11
1956.935624197574
 21
-223.5879528248781
 31
0.0
  0
LINE
  5
10F7B
330
1E
100
AcDbEntity
  8
虛線
 48
0.27
100
AcDbLine
 10
1961.435624197574
 20
-244.9878758248781
 30
0.0
 11
1936.935658086437
 21
-244.9878758248781
 31
0.0
  0
LINE
  5
10F7C
330
1E
100
AcDbEntity
  8
虛線
 48
0.27
100
AcDbLine
 10
1961.435624197574
 20
-244.9878758248781
 30
0.0
 11
1961.435624197568
 21
-299.9878948248781
 31
0.0
  0
LINE
  5
10F7D
330
1E
100
AcDbEntity
  8
中心線
 48
0.35
100
AcDbLine
 10
1949.935654197574
 20
-216.9879528248787
 30
0.0
 11
1949.935654197574
 21
-299.9878948248785
 31
0.0
  0
LINE
  5
10F7E
330
1E
100
AcDbEntity
  8
虛線
 48
0.27
100
AcDbLine
 10
2007.435684197576
 20
-256.587902824878
 30
0.0
 11
2034.435624197572
 21
-256.587902824878
 31
0.0
  0
LINE
  5
111C1
330
1E
100
AcDbEntity
  8
0
100
AcDbLine
 10
2273.412532196853
 20
-276.9878753804489
 30
0.0
 11
2317.162532196853
 21
-276.9878753804489
 31
0.0
  0
LINE
  5
111C2
330
1E
100
AcDbEntity
  8
0
100
AcDbLine
 10
2342.662532196853
 20
-276.9878753804489
 30
0.0
 11
2427.162532196853
 21
-276.9878753804489
 31
0.0
  0
LINE
  5
111C3
330
1E
100
AcDbEntity
  8
0
100
AcDbLine
 10
2452.662532196853
 20
-276.9878753804489
 30
0.0
 11
2496.412532196854
 21
-276.9878753804489
 31
0.0
  0
LINE
  5
111CD
330
1E
100
AcDbEntity
  8
中心線
 48
0.35
100
AcDbLine
 10
2329.912532196853
 20
-216.9879528248787
 30
0.0
 11
2329.912532196853
 21
-299.9878948248785
 31
0.0
  0
LINE
  5
111D4
330
1E
100
AcDbEntity
  8
中心線
 48
0.35
100
AcDbLine
 10
2439.912532196853
 20
-216.9879528248787
 30
0.0
 11
2439.912532196853
 21
-299.9878948248785
 31
0.0
  0
LINE
  5
111E5
330
1E
100
AcDbEntity
  8
虛線
 48
0.27
100
AcDbLine
 10
2336.912562196853
 20
-223.5879528248781
 30
0.0
 11
2322.912562196853
 21
-223.5879528248781
 31
0.0
  0
LINE
  5
111E7
330
1E
100
AcDbEntity
  8
虛線
 48
0.27
100
AcDbLine
 10
2322.912562196853
 20
-223.5879528248781
 30
0.0
 11
2321.312485196854
 21
-221.9878758248781
 31
0.0
  0
LINE
  5
111E8
330
1E
100
AcDbEntity
  8
虛線
 48
0.27
100
AcDbLine
 10
2321.912562196853
 20
-222.5879528248777
 30
0.0
 11
2321.912562196853
 21
-244.9879028248786
 31
0.0
  0
LINE
  5
111E9
330
1E
100
AcDbEntity
  8
虛線
 48
0.27
100
AcDbLine
 10
2322.912562196853
 20
-223.5879528248781
 30
0.0
 11
2322.912562196853
 21
-244.9879028248786
 31
0.0
  0
LINE
  5
111EA
330
1E
100
AcDbEntity
  8
虛線
 48
0.27
100
AcDbLine
 10
2338.512639196854
 20
-221.9878758248785
 30
0.0
 11
2336.912562196853
 21
-223.5879528248781
 31
0.0
  0
LINE
  5
111EB
330
1E
100
AcDbEntity
  8
虛線
 48
0.27
100
AcDbLine
 10
2337.912562196853
 20
-222.5879528248786
 30
0.0
 11
2337.912562196853
 21
-244.9879028248786
 31
0.0
  0
LINE
  5
111EC
330
1E
100
AcDbEntity
  8
虛線
 48
0.27
100
AcDbLine
 10
2336.912562196853
 20
-223.5879528248781
 30
0.0
 11
2336.912562196853
 21
-244.9879028248786
 31
0.0
  0
LINE
  5
111FE
330
1E
100
AcDbEntity
  8
虛線
 48
0.27
100
AcDbLine
 10
2446.912562196854
 20
-223.5879528248781
 30
0.0
 11
2432.912562196853
 21
-223.5879528248781
 31
0.0
  0
LINE
  5
11200
330
1E
100
AcDbEntity
  8
虛線
 48
0.27
100
AcDbLine
 10
2432.912562196853
 20
-223.5879528248781
 30
0.0
 11
2431.312485196853
 21
-221.9878758248781
 31
0.0
  0
LINE
  5
11201
330
1E
100
AcDbEntity
  8
虛線
 48
0.27
100
AcDbLine
 10
2431.912562196854
 20
-222.5879528248777
 30
0.0
 11
2431.912562196854
 21
-244.9879028248786
 31
0.0
  0
LINE
  5
11202
330
1E
100
AcDbEntity
  8
虛線
 48
0.27
100
AcDbLine
 10
2432.912562196853
 20
-223.5879528248781
 30
0.0
 11
2432.912562196853
 21
-244.9879028248786
 31
0.0
  0
LINE
  5
11203
330
1E
100
AcDbEntity
  8
虛線
 48
0.27
100
AcDbLine
 10
2448.512639196854
 20
-221.9878758248785
 30
0.0
 11
2446.912562196854
 21
-223.5879528248781
 31
0.0
  0
LINE
  5
11204
330
1E
100
AcDbEntity
  8
虛線
 48
0.27
100
AcDbLine
 10
2447.912562196854
 20
-222.5879528248786
 30
0.0
 11
2447.912562196854
 21
-244.9879028248786
 31
0.0
  0
LINE
  5
11205
330
1E
100
AcDbEntity
  8
虛線
 48
0.27
100
AcDbLine
 10
2446.912562196854
 20
-223.5879528248781
 30
0.0
 11
2446.912562196854
 21
-244.9879028248786
 31
0.0
  0
LINE
  5
1121E
330
1E
100
AcDbEntity
  8
虛線
 48
0.27
100
AcDbLine
 10
2336.912592196854
 20
-223.5880298248787
 30
0.0
 11
2335.312515196854
 21
-221.9879528248787
 31
0.0
  0
LINE
  5
1121F
330
1E
100
AcDbEntity
  8
虛線
 48
0.27
100
AcDbLine
 10
2335.912592196853
 20
-222.5880298248778
 30
0.0
 11
2335.912592196853
 21
-242.587902824878
 31
0.0
  0
LINE
  5
11220
330
1E
100
AcDbEntity
  8
虛線
 48
0.27
100
AcDbLine
 10
2336.912592196854
 20
-223.5880298248787
 30
0.0
 11
2336.912592196853
 21
-242.587902824878
 31
0.0
  0
LINE
  5
11223
330
1E
100
AcDbEntity
  8
虛線
 48
0.27
100
AcDbLine
 10
2332.412562196853
 20
-242.587902824878
 30
0.0
 11
2355.412502196854
 21
-242.587902824878
 31
0.0
  0
LINE
  5
11224
330
1E
100
AcDbEntity
  8
虛線
 48
0.27
100
AcDbLine
 10
2332.412562196853
 20
-242.587902824878
 30
0.0
 11
2332.412562196854
 21
-256.587902824878
 31
0.0
  0
LINE
  5
11225
330
1E
100
AcDbEntity
  8
虛線
 48
0.27
100
AcDbLine
 10
2355.412502196854
 20
-242.587902824878
 30
0.0
 11
2355.412502196852
 21
-256.587902824878
 31
0.0
  0
LINE
  5
11226
330
1E
100
AcDbEntity
  8
虛線
 48
0.27
100
AcDbLine
 10
2273.412532196854
 20
-256.5879028248779
 30
0.0
 11
2496.412532196854
 21
-256.5879028248783
 31
0.0
  0
LINE
  5
11228
330
1E
100
AcDbEntity
  8
虛線
 48
0.27
100
AcDbLine
 10
2351.912592196853
 20
-222.5880298248787
 30
0.0
 11
2351.912592196855
 21
-242.587902824878
 31
0.0
  0
LINE
  5
11229
330
1E
100
AcDbEntity
  8
虛線
 48
0.27
100
AcDbLine
 10
2350.912592196854
 20
-223.5880298248787
 30
0.0
 11
2350.912592196854
 21
-242.587902824878
 31
0.0
  0
LINE
  5
1122A
330
1E
100
AcDbEntity
  8
虛線
 48
0.27
100
AcDbLine
 10
2350.912592196854
 20
-223.5880298248787
 30
0.0
 11
2336.912592196854
 21
-223.5880298248787
 31
0.0
  0
LINE
  5
1122B
330
1E
100
AcDbEntity
  8
虛線
 48
0.27
100
AcDbLine
 10
2352.512669196854
 20
-221.9879528248787
 30
0.0
 11
2350.912592196854
 21
-223.5880298248787
 31
0.0
  0
LINE
  5
1123F
330
1E
100
AcDbEntity
  8
虛線
 48
0.27
100
AcDbLine
 10
2418.912592196854
 20
-223.5880298248787
 30
0.0
 11
2417.312515196853
 21
-221.9879528248787
 31
0.0
  0
LINE
  5
11240
330
1E
100
AcDbEntity
  8
虛線
 48
0.27
100
AcDbLine
 10
2417.912592196854
 20
-222.5880298248778
 30
0.0
 11
2417.912592196854
 21
-242.587902824878
 31
0.0
  0
LINE
  5
11241
330
1E
100
AcDbEntity
  8
虛線
 48
0.27
100
AcDbLine
 10
2418.912592196854
 20
-223.5880298248787
 30
0.0
 11
2418.912592196853
 21
-242.587902824878
 31
0.0
  0
LINE
  5
11244
330
1E
100
AcDbEntity
  8
虛線
 48
0.27
100
AcDbLine
 10
2414.412562196853
 20
-242.587902824878
 30
0.0
 11
2437.412502196854
 21
-242.587902824878
 31
0.0
  0
LINE
  5
11245
330
1E
100
AcDbEntity
  8
虛線
 48
0.27
100
AcDbLine
 10
2414.412562196853
 20
-242.587902824878
 30
0.0
 11
2414.412562196854
 21
-256.587902824878
 31
0.0
  0
LINE
  5
11246
330
1E
100
AcDbEntity
  8
虛線
 48
0.27
100
AcDbLine
 10
2437.412502196854
 20
-242.587902824878
 30
0.0
 11
2437.412502196852
 21
-256.587902824878
 31
0.0
  0
LINE
  5
11249
330
1E
100
AcDbEntity
  8
虛線
 48
0.27
100
AcDbLine
 10
2433.912592196854
 20
-222.5880298248787
 30
0.0
 11
2433.912592196854
 21
-242.587902824878
 31
0.0
  0
LINE
  5
1124A
330
1E
100
AcDbEntity
  8
虛線
 48
0.27
100
AcDbLine
 10
2432.912592196854
 20
-223.5880298248787
 30
0.0
 11
2432.912592196854
 21
-242.587902824878
 31
0.0
  0
LINE
  5
1124B
330
1E
100
AcDbEntity
  8
虛線
 48
0.27
100
AcDbLine
 10
2432.912592196854
 20
-223.5880298248787
 30
0.0
 11
2418.912592196854
 21
-223.5880298248787
 31
0.0
  0
LINE
  5
1124C
330
1E
100
AcDbEntity
  8
虛線
 48
0.27
100
AcDbLine
 10
2434.512669196854
 20
-221.9879528248787
 30
0.0
 11
2432.912592196854
 21
-223.5880298248787
 31
0.0
  0
LINE
  5
1124D
330
1E
100
AcDbEntity
  8
中心線
 48
0.35
100
AcDbLine
 10
2425.912532196853
 20
-216.9879528248787
 30
0.0
 11
2425.912532196853
 21
-260.5879028248782
 31
0.0
  0
LINE
  5
114FA
330
1E
100
AcDbEntity
  8
中心線
 48
0.35
100
AcDbLine
 10
2343.912532196853
 20
-216.9879528248787
 30
0.0
 11
2343.912532196853
 21
-260.5879028248782
 31
0.0
  0
LINE
  5
114FB
330
1E
100
AcDbEntity
  8
中心線
 48
0.27
100
AcDbLine
 10
2506.374940883036
 20
-236.9879028248786
 30
0.0
 11
2518.050123510671
 21
-236.9879028248786
 31
0.0
  0
LINE
  5
114FC
330
1E
100
AcDbEntity
  8
中心線
 48
0.27
100
AcDbLine
 10
2512.212532196854
 20
-242.8254941386964
 30
0.0
 11
2512.212532196854
 21
-231.150311511061
 31
0.0
  0
LINE
  5
114FD
330
1E
100
AcDbEntity
  8
中心線
 48
0.27
100
AcDbLine
 10
2251.774940883035
 20
-236.9879028248786
 30
0.0
 11
2263.45012351067
 21
-236.9879028248786
 31
0.0
  0
LINE
  5
114FE
330
1E
100
AcDbEntity
  8
中心線
 48
0.27
100
AcDbLine
 10
2257.612532196853
 20
-242.8254941386964
 30
0.0
 11
2257.612532196853
 21
-231.150311511061
 31
0.0
  0
POINT
  5
11500
330
1E
100
AcDbEntity
  8
0
100
AcDbPoint
 10
2223.840649696854
 20
-236.9878801619475
 30
0.0
1001
pntflag
1000
endpoint
  0
LINE
  5
11501
330
1E
100
AcDbEntity
  8
0
 48
0.27
100
AcDbLine
 10
2228.181634696854
 20
-236.9878801619475
 30
0.0
 11
2228.141877196854
 21
-237.4248001619474
 31
0.0
  0
LINE
  5
11502
330
1E
100
AcDbEntity
  8
0
 48
0.27
100
AcDbLine
 10
2228.141877196854
 20
-237.4248001619474
 30
0.0
 11
2228.024133446854
 21
-237.8449301619475
 31
0.0
  0
LINE
  5
11503
330
1E
100
AcDbEntity
  8
0
 48
0.27
100
AcDbLine
 10
2228.141877196854
 20
-236.5509601619476
 30
0.0
 11
2228.181634696854
 21
-236.9878801619475
 31
0.0
  0
LINE
  5
11504
330
1E
100
AcDbEntity
  8
0
 48
0.27
100
AcDbLine
 10
2228.024133446854
 20
-237.8449301619475
 30
0.0
 11
2227.832928446854
 21
-238.2321239119474
 31
0.0
  0
LINE
  5
11505
330
1E
100
AcDbEntity
  8
0
 48
0.27
100
AcDbLine
 10
2228.024133446854
 20
-236.1308301619474
 30
0.0
 11
2228.141877196854
 21
-236.5509601619476
 31
0.0
  0
LINE
  5
11506
330
1E
100
AcDbEntity
  8
0
 48
0.27
100
AcDbLine
 10
2227.832928446854
 20
-238.2321239119474
 30
0.0
 11
2227.575608446854
 21
-238.5715026619475
 31
0.0
  0
LINE
  5
11507
330
1E
100
AcDbEntity
  8
0
 48
0.27
100
AcDbLine
 10
2227.832928446854
 20
-235.7436364119476
 30
0.0
 11
2228.024133446854
 21
-236.1308301619474
 31
0.0
  0
LINE
  5
11508
330
1E
100
AcDbEntity
  8
0
 48
0.27
100
AcDbLine
 10
2227.262064696853
 20
-238.8500226619474
 30
0.0
 11
2227.575608446854
 21
-238.5715026619475
 31
0.0
  0
LINE
  5
11509
330
1E
100
AcDbEntity
  8
0
 48
0.27
100
AcDbLine
 10
2227.575608446854
 20
-235.4042589119474
 30
0.0
 11
2227.832928446854
 21
-235.7436364119476
 31
0.0
  0
LINE
  5
1150A
330
1E
100
AcDbEntity
  8
0
 48
0.27
100
AcDbLine
 10
2229.738214696853
 20
-236.9878801619475
 30
0.0
 11
2229.681554696854
 21
-237.6105576619475
 31
0.0
  0
LINE
  5
1150B
330
1E
100
AcDbEntity
  8
0
 48
0.27
100
AcDbLine
 10
2229.681554696854
 20
-237.6105576619475
 30
0.0
 11
2229.513750946853
 21
-238.2093064119474
 31
0.0
  0
LINE
  5
1150C
330
1E
100
AcDbEntity
  8
0
 48
0.27
100
AcDbLine
 10
2229.681554696854
 20
-236.3652026619475
 30
0.0
 11
2229.738214696853
 21
-236.9878801619475
 31
0.0
  0
LINE
  5
1150D
330
1E
100
AcDbEntity
  8
0
 48
0.27
100
AcDbLine
 10
2226.904343446854
 20
-239.0569826619473
 30
0.0
 11
2227.262064696853
 21
-238.8500226619474
 31
0.0
  0
LINE
  5
1150E
330
1E
100
AcDbEntity
  8
0
 48
0.27
100
AcDbLine
 10
2227.262064696853
 20
-235.1257376619476
 30
0.0
 11
2227.575608446854
 21
-235.4042589119474
 31
0.0
  0
LINE
  5
1150F
330
1E
100
AcDbEntity
  8
0
 48
0.27
100
AcDbLine
 10
2229.513750946853
 20
-238.2093064119474
 30
0.0
 11
2229.241254696853
 21
-238.7611151619474
 31
0.0
  0
LINE
  5
11510
330
1E
100
AcDbEntity
  8
0
 48
0.27
100
AcDbLine
 10
2229.513750946853
 20
-235.7664551619475
 30
0.0
 11
2229.681554696854
 21
-236.3652026619475
 31
0.0
  0
LINE
  5
11511
330
1E
100
AcDbEntity
  8
0
 48
0.27
100
AcDbLine
 10
2229.241254696853
 20
-238.7611151619474
 30
0.0
 11
2228.874535946854
 21
-239.2447801619476
 31
0.0
  0
LINE
  5
11512
330
1E
100
AcDbEntity
  8
0
 48
0.27
100
AcDbLine
 10
2229.241254696853
 20
-235.2146451619476
 30
0.0
 11
2229.513750946853
 21
-235.7664551619475
 31
0.0
  0
LINE
  5
11513
330
1E
100
AcDbEntity
  8
0
 48
0.27
100
AcDbLine
 10
2226.516194696854
 20
-239.1844276619474
 30
0.0
 11
2226.904343446854
 21
-239.0569826619473
 31
0.0
  0
LINE
  5
11514
330
1E
100
AcDbEntity
  8
0
 48
0.27
100
AcDbLine
 10
2226.904343446854
 20
-234.9187789119476
 30
0.0
 11
2227.262064696853
 21
-235.1257376619476
 31
0.0
  0
LINE
  5
11515
330
1E
100
AcDbEntity
  8
0
 48
0.27
100
AcDbLine
 10
2228.427687196854
 20
-239.6417139119474
 30
0.0
 11
2228.874535946854
 21
-239.2447801619476
 31
0.0
  0
LINE
  5
11516
330
1E
100
AcDbEntity
  8
0
 48
0.27
100
AcDbLine
 10
2228.874535946854
 20
-234.7309801619474
 30
0.0
 11
2229.241254696853
 21
-235.2146451619476
 31
0.0
  0
LINE
  5
11517
330
1E
100
AcDbEntity
  8
0
 48
0.27
100
AcDbLine
 10
2229.892839696853
 20
-236.9878801619475
 30
0.0
 11
2229.836798446854
 21
-237.6037576619476
 31
0.0
  0
LINE
  5
11518
330
1E
100
AcDbEntity
  8
0
 48
0.27
100
AcDbLine
 10
2226.112533446853
 20
-239.2274601619474
 30
0.0
 11
2226.516194696854
 21
-239.1844276619474
 31
0.0
  0
LINE
  5
11519
330
1E
100
AcDbEntity
  8
0
 48
0.27
100
AcDbLine
 10
2226.516194696854
 20
-234.7913339119475
 30
0.0
 11
2226.904343446854
 21
-234.9187789119476
 31
0.0
  0
LINE
  5
1151A
330
1E
100
AcDbEntity
  8
0
 48
0.27
100
AcDbLine
 10
2229.836798446854
 20
-237.6037576619476
 30
0.0
 11
2229.670828446854
 21
-238.1959676619474
 31
0.0
  0
LINE
  5
1151B
330
1E
100
AcDbEntity
  8
0
 48
0.27
100
AcDbLine
 10
2229.836798446854
 20
-236.3720026619474
 30
0.0
 11
2229.892839696853
 21
-236.9878801619475
 31
0.0
  0
LINE
  5
1151C
330
1E
100
AcDbEntity
  8
0
 48
0.27
100
AcDbLine
 10
2227.917882196853
 20
-239.9366626619474
 30
0.0
 11
2228.427687196854
 21
-239.6417139119474
 31
0.0
  0
LINE
  5
1151D
330
1E
100
AcDbEntity
  8
0
 48
0.27
100
AcDbLine
 10
2228.427687196854
 20
-234.3340464119476
 30
0.0
 11
2228.874535946854
 21
-234.7309801619474
 31
0.0
  0
LINE
  5
1151E
330
1E
100
AcDbEntity
  8
0
 48
0.27
100
AcDbLine
 10
2229.670828446854
 20
-238.1959676619474
 30
0.0
 11
2229.401307196853
 21
-238.7417514119475
 31
0.0
  0
LINE
  5
1151F
330
1E
100
AcDbEntity
  8
0
 48
0.27
100
AcDbLine
 10
2229.670828446854
 20
-235.7797926619475
 30
0.0
 11
2229.836798446854
 21
-236.3720026619474
 31
0.0
  0
LINE
  5
11520
330
1E
100
AcDbEntity
  8
0
 48
0.27
100
AcDbLine
 10
2229.401307196853
 20
-238.7417514119475
 30
0.0
 11
2229.038593446853
 21
-239.2201351619476
 31
0.0
  0
LINE
  5
11521
330
1E
100
AcDbEntity
  8
0
 48
0.27
100
AcDbLine
 10
2229.401307196853
 20
-235.2340089119475
 30
0.0
 11
2229.670828446854
 21
-235.7797926619475
 31
0.0
  0
LINE
  5
11522
330
1E
100
AcDbEntity
  8
0
 48
0.27
100
AcDbLine
 10
2227.364710946853
 20
-240.1182914119474
 30
0.0
 11
2227.917882196853
 21
-239.9366626619474
 31
0.0
  0
LINE
  5
11523
330
1E
100
AcDbEntity
  8
0
 48
0.27
100
AcDbLine
 10
2227.917882196853
 20
-234.0390976619476
 30
0.0
 11
2228.427687196854
 21
-234.3340464119476
 31
0.0
  0
LINE
  5
11524
330
1E
100
AcDbEntity
  8
0
 48
0.27
100
AcDbLine
 10
2225.708870946854
 20
-239.1844276619474
 30
0.0
 11
2226.112533446853
 21
-239.2274601619474
 31
0.0
  0
LINE
  5
11525
330
1E
100
AcDbEntity
  8
0
 48
0.27
100
AcDbLine
 10
2226.112533446853
 20
-234.7483014119475
 30
0.0
 11
2226.516194696854
 21
-234.7913339119475
 31
0.0
  0
LINE
  5
11526
330
1E
100
AcDbEntity
  8
0
 48
0.27
100
AcDbLine
 10
2228.596624696854
 20
-239.6127339119475
 30
0.0
 11
2229.038593446853
 21
-239.2201351619476
 31
0.0
  0
LINE
  5
11527
330
1E
100
AcDbEntity
  8
0
 48
0.27
100
AcDbLine
 10
2229.038593446853
 20
-234.7556251619476
 30
0.0
 11
2229.401307196853
 21
-235.2340089119475
 31
0.0
  0
LINE
  5
11528
330
1E
100
AcDbEntity
  8
0
 48
0.27
100
AcDbLine
 10
2226.789432196853
 20
-240.1796189119475
 30
0.0
 11
2227.364710946853
 21
-240.1182914119474
 31
0.0
  0
LINE
  5
11529
330
1E
100
AcDbEntity
  8
0
 48
0.27
100
AcDbLine
 10
2227.364710946853
 20
-240.1182914119474
 30
0.0
 11
2227.545255946854
 21
-240.0841064119475
 31
0.0
  0
LINE
  5
1152A
330
1E
100
AcDbEntity
  8
0
 48
0.27
100
AcDbLine
 10
2227.364710946853
 20
-233.8574701619475
 30
0.0
 11
2227.917882196853
 21
-234.0390976619476
 31
0.0
  0
LINE
  5
1152B
330
1E
100
AcDbEntity
  8
0
 48
0.27
100
AcDbLine
 10
2225.320722196853
 20
-239.0569826619473
 30
0.0
 11
2225.708870946854
 21
-239.1844276619474
 31
0.0
  0
LINE
  5
1152C
330
1E
100
AcDbEntity
  8
0
 48
0.27
100
AcDbLine
 10
2225.708870946854
 20
-234.7913339119475
 30
0.0
 11
2226.112533446853
 21
-234.7483014119475
 31
0.0
  0
LINE
  5
1152D
330
1E
100
AcDbEntity
  8
0
 48
0.27
100
AcDbLine
 10
2228.092385946854
 20
-239.9044614119475
 30
0.0
 11
2228.596624696854
 21
-239.6127339119475
 31
0.0
  0
LINE
  5
1152E
330
1E
100
AcDbEntity
  8
0
 48
0.27
100
AcDbLine
 10
2228.596624696854
 20
-234.3630264119477
 30
0.0
 11
2229.038593446853
 21
-234.7556251619476
 31
0.0
  0
LINE
  5
1152F
330
1E
100
AcDbEntity
  8
0
 48
0.27
100
AcDbLine
 10
2227.545255946854
 20
-240.0841064119475
 30
0.0
 11
2228.092385946854
 21
-239.9044614119475
 31
0.0
  0
LINE
  5
11530
330
1E
100
AcDbEntity
  8
0
 48
0.27
100
AcDbLine
 10
2228.092385946854
 20
-234.0712989119477
 30
0.0
 11
2228.596624696854
 21
-234.3630264119477
 31
0.0
  0
LINE
  5
11531
330
1E
100
AcDbEntity
  8
0
 48
0.27
100
AcDbLine
 10
2226.214153446854
 20
-240.1182914119474
 30
0.0
 11
2226.789432196853
 21
-240.1796189119475
 31
0.0
  0
LINE
  5
11532
330
1E
100
AcDbEntity
  8
0
 48
0.27
100
AcDbLine
 10
2226.789432196853
 20
-233.7961414119475
 30
0.0
 11
2227.364710946853
 21
-233.8574701619475
 31
0.0
  0
LINE
  5
11533
330
1E
100
AcDbEntity
  8
0
 48
0.27
100
AcDbLine
 10
2227.364710946853
 20
-233.8574701619475
 30
0.0
 11
2227.545255946854
 21
-233.8916539119475
 31
0.0
  0
LINE
  5
11534
330
1E
100
AcDbEntity
  8
0
 48
0.27
100
AcDbLine
 10
2224.963000946854
 20
-238.8500226619474
 30
0.0
 11
2225.320722196853
 21
-239.0569826619473
 31
0.0
  0
LINE
  5
11535
330
1E
100
AcDbEntity
  8
0
 48
0.27
100
AcDbLine
 10
2225.320722196853
 20
-234.9187789119476
 30
0.0
 11
2225.708870946854
 21
-234.7913339119475
 31
0.0
  0
LINE
  5
11536
330
1E
100
AcDbEntity
  8
0
 48
0.27
100
AcDbLine
 10
2227.545255946854
 20
-233.8916539119475
 30
0.0
 11
2228.092385946854
 21
-234.0712989119477
 31
0.0
  0
LINE
  5
11537
330
1E
100
AcDbEntity
  8
0
 48
0.27
100
AcDbLine
 10
2224.649457196854
 20
-238.5715026619475
 30
0.0
 11
2224.963000946854
 21
-238.8500226619474
 31
0.0
  0
LINE
  5
11538
330
1E
100
AcDbEntity
  8
0
 48
0.27
100
AcDbLine
 10
2224.963000946854
 20
-235.1257376619476
 30
0.0
 11
2225.320722196853
 21
-234.9187789119476
 31
0.0
  0
LINE
  5
11539
330
1E
100
AcDbEntity
  8
0
 48
0.27
100
AcDbLine
 10
2225.660982196854
 20
-239.9366626619474
 30
0.0
 11
2226.214153446854
 21
-240.1182914119474
 31
0.0
  0
LINE
  5
1153A
330
1E
100
AcDbEntity
  8
0
 48
0.27
100
AcDbLine
 10
2226.214153446854
 20
-233.8574701619475
 30
0.0
 11
2226.789432196853
 21
-233.7961414119475
 31
0.0
  0
LINE
  5
1153B
330
1E
100
AcDbEntity
  8
0
 48
0.27
100
AcDbLine
 10
2224.392137196854
 20
-238.2321239119474
 30
0.0
 11
2224.649457196854
 21
-238.5715026619475
 31
0.0
  0
LINE
  5
1153C
330
1E
100
AcDbEntity
  8
0
 48
0.27
100
AcDbLine
 10
2224.649457196854
 20
-235.4042589119474
 30
0.0
 11
2224.963000946854
 21
-235.1257376619476
 31
0.0
  0
LINE
  5
1153D
330
1E
100
AcDbEntity
  8
0
 48
0.27
100
AcDbLine
 10
2225.151175946853
 20
-239.6417139119474
 30
0.0
 11
2225.660982196854
 21
-239.9366626619474
 31
0.0
  0
LINE
  5
1153E
330
1E
100
AcDbEntity
  8
0
 48
0.27
100
AcDbLine
 10
2225.660982196854
 20
-234.0390976619476
 30
0.0
 11
2226.214153446854
 21
-233.8574701619475
 31
0.0
  0
LINE
  5
1153F
330
1E
100
AcDbEntity
  8
0
 48
0.27
100
AcDbLine
 10
2224.200932196854
 20
-237.8449301619475
 30
0.0
 11
2224.392137196854
 21
-238.2321239119474
 31
0.0
  0
LINE
  5
11540
330
1E
100
AcDbEntity
  8
0
 48
0.27
100
AcDbLine
 10
2224.649457196854
 20
-235.4042589119474
 30
0.0
 11
2224.392137196854
 21
-235.7436364119476
 31
0.0
  0
LINE
  5
11541
330
1E
100
AcDbEntity
  8
0
 48
0.27
100
AcDbLine
 10
2224.704328446854
 20
-239.2447801619476
 30
0.0
 11
2225.151175946853
 21
-239.6417139119474
 31
0.0
  0
LINE
  5
11542
330
1E
100
AcDbEntity
  8
0
 48
0.27
100
AcDbLine
 10
2225.151175946853
 20
-234.3340464119476
 30
0.0
 11
2225.660982196854
 21
-234.0390976619476
 31
0.0
  0
LINE
  5
11543
330
1E
100
AcDbEntity
  8
0
 48
0.27
100
AcDbLine
 10
2224.083188446853
 20
-237.4248001619474
 30
0.0
 11
2224.200932196854
 21
-237.8449301619475
 31
0.0
  0
LINE
  5
11544
330
1E
100
AcDbEntity
  8
0
 48
0.27
100
AcDbLine
 10
2224.392137196854
 20
-235.7436364119476
 30
0.0
 11
2224.200932196854
 21
-236.1308301619474
 31
0.0
  0
LINE
  5
11545
330
1E
100
AcDbEntity
  8
0
 48
0.27
100
AcDbLine
 10
2224.043430946854
 20
-236.9878801619475
 30
0.0
 11
2224.083188446853
 21
-237.4248001619474
 31
0.0
  0
LINE
  5
11546
330
1E
100
AcDbEntity
  8
0
 48
0.27
100
AcDbLine
 10
2224.200932196854
 20
-236.1308301619474
 30
0.0
 11
2224.083188446853
 21
-236.5509601619476
 31
0.0
  0
LINE
  5
11547
330
1E
100
AcDbEntity
  8
0
 48
0.27
100
AcDbLine
 10
2224.083188446853
 20
-236.5509601619476
 30
0.0
 11
2224.043430946854
 21
-236.9878801619475
 31
0.0
  0
LINE
  5
11548
330
1E
100
AcDbEntity
  8
0
 48
0.27
100
AcDbLine
 10
2224.337608446854
 20
-238.7611151619474
 30
0.0
 11
2224.704328446854
 21
-239.2447801619476
 31
0.0
  0
LINE
  5
11549
330
1E
100
AcDbEntity
  8
0
 48
0.27
100
AcDbLine
 10
2224.704328446854
 20
-234.7309801619474
 30
0.0
 11
2225.151175946853
 21
-234.3340464119476
 31
0.0
  0
LINE
  5
1154A
330
1E
100
AcDbEntity
  8
0
 48
0.27
100
AcDbLine
 10
2224.065112196853
 20
-238.2093064119474
 30
0.0
 11
2224.337608446854
 21
-238.7611151619474
 31
0.0
  0
LINE
  5
1154B
330
1E
100
AcDbEntity
  8
0
 48
0.27
100
AcDbLine
 10
2224.704328446854
 20
-234.7309801619474
 30
0.0
 11
2224.337608446854
 21
-235.2146451619476
 31
0.0
  0
LINE
  5
1154C
330
1E
100
AcDbEntity
  8
0
 48
0.27
100
AcDbLine
 10
2223.897309696853
 20
-237.6105576619475
 30
0.0
 11
2224.065112196853
 21
-238.2093064119474
 31
0.0
  0
LINE
  5
1154D
330
1E
100
AcDbEntity
  8
0
 48
0.27
100
AcDbLine
 10
2224.337608446854
 20
-235.2146451619476
 30
0.0
 11
2224.065112196853
 21
-235.7664551619475
 31
0.0
  0
LINE
  5
1154E
330
1E
100
AcDbEntity
  8
0
 48
0.27
100
AcDbLine
 10
2223.840649696854
 20
-236.9878801619475
 30
0.0
 11
2223.897309696853
 21
-237.6105576619475
 31
0.0
  0
LINE
  5
1154F
330
1E
100
AcDbEntity
  8
0
 48
0.27
100
AcDbLine
 10
2224.065112196853
 20
-235.7664551619475
 30
0.0
 11
2223.897309696853
 21
-236.3652026619475
 31
0.0
  0
LINE
  5
11550
330
1E
100
AcDbEntity
  8
0
 48
0.27
100
AcDbLine
 10
2223.897309696853
 20
-236.3652026619475
 30
0.0
 11
2223.840649696854
 21
-236.9878801619475
 31
0.0
  0
LINE
  5
11551
330
1E
100
AcDbEntity
  8
0
 48
0.27
100
AcDbLine
 10
2225.288197196854
 20
-239.0381651619475
 30
0.0
 11
2225.291910946854
 21
-239.0361451619476
 31
0.0
  0
LINE
  5
11552
330
1E
100
AcDbEntity
  8
0
 48
0.27
100
AcDbLine
 10
2225.288197196854
 20
-234.9375964119474
 30
0.0
 11
2225.291910946854
 21
-234.9396151619476
 31
0.0
  0
LINE
  5
11553
330
1E
100
AcDbEntity
  8
0
 48
0.27
100
AcDbLine
 10
2232.382615946853
 20
-236.9878801619475
 30
0.0
 11
2232.316045946854
 21
-237.7194689119476
 31
0.0
  0
LINE
  5
11554
330
1E
100
AcDbEntity
  8
0
 48
0.27
100
AcDbLine
 10
2232.316045946854
 20
-236.2562914119473
 30
0.0
 11
2232.382615946853
 21
-236.9878801619475
 31
0.0
  0
LINE
  5
11555
330
1E
100
AcDbEntity
  8
0
 48
0.27
100
AcDbLine
 10
2232.316045946854
 20
-237.7194689119476
 30
0.0
 11
2232.118893446854
 21
-238.4229439119474
 31
0.0
  0
LINE
  5
11556
330
1E
100
AcDbEntity
  8
0
 48
0.27
100
AcDbLine
 10
2232.118893446854
 20
-235.5528176619475
 30
0.0
 11
2232.316045946854
 21
-236.2562914119473
 31
0.0
  0
LINE
  5
11557
330
1E
100
AcDbEntity
  8
0
 48
0.27
100
AcDbLine
 10
2232.118893446854
 20
-238.4229439119474
 30
0.0
 11
2231.798734696853
 21
-239.0712689119475
 31
0.0
  0
LINE
  5
11558
330
1E
100
AcDbEntity
  8
0
 48
0.27
100
AcDbLine
 10
2231.798734696853
 20
-234.9044926619474
 30
0.0
 11
2232.118893446854
 21
-235.5528176619475
 31
0.0
  0
LINE
  5
11559
330
1E
100
AcDbEntity
  8
0
 48
0.27
100
AcDbLine
 10
2231.798734696853
 20
-239.0712689119475
 30
0.0
 11
2231.367873446854
 21
-239.6395314119475
 31
0.0
  0
LINE
  5
1155A
330
1E
100
AcDbEntity
  8
0
 48
0.27
100
AcDbLine
 10
2231.367873446854
 20
-234.3362301619475
 30
0.0
 11
2231.798734696853
 21
-234.9044926619474
 31
0.0
  0
LINE
  5
1155B
330
1E
100
AcDbEntity
  8
0
 48
0.27
100
AcDbLine
 10
2232.918583446854
 20
-236.9878801619475
 30
0.0
 11
2230.918325946854
 21
-240.7378801619475
 31
0.0
  0
LINE
  5
1155C
330
1E
100
AcDbEntity
  8
0
 48
0.27
100
AcDbLine
 10
2230.918325946854
 20
-233.2378801619475
 30
0.0
 11
2232.918583446854
 21
-236.9878801619475
 31
0.0
  0
LINE
  5
1155D
330
1E
100
AcDbEntity
  8
0
 48
0.27
100
AcDbLine
 10
2230.842868446853
 20
-240.1058914119474
 30
0.0
 11
2231.367873446854
 21
-239.6395314119475
 31
0.0
  0
LINE
  5
1155E
330
1E
100
AcDbEntity
  8
0
 48
0.27
100
AcDbLine
 10
2230.842868446853
 20
-233.8698689119476
 30
0.0
 11
2231.367873446854
 21
-234.3362301619475
 31
0.0
  0
LINE
  5
1155F
330
1E
100
AcDbEntity
  8
0
 48
0.27
100
AcDbLine
 10
2230.243893446854
 20
-240.4524289119474
 30
0.0
 11
2230.842868446853
 21
-240.1058914119474
 31
0.0
  0
LINE
  5
11560
330
1E
100
AcDbEntity
  8
0
 48
0.27
100
AcDbLine
 10
2230.243893446854
 20
-233.5233326619475
 30
0.0
 11
2230.842868446853
 21
-233.8698689119476
 31
0.0
  0
LINE
  5
11561
330
1E
100
AcDbEntity
  8
0
 48
0.27
100
AcDbLine
 10
2229.593968446854
 20
-240.6658251619474
 30
0.0
 11
2230.243893446854
 21
-240.4524289119474
 31
0.0
  0
LINE
  5
11562
330
1E
100
AcDbEntity
  8
0
 48
0.27
100
AcDbLine
 10
2229.593968446854
 20
-233.3099351619476
 30
0.0
 11
2230.243893446854
 21
-233.5233326619475
 31
0.0
  0
LINE
  5
11563
330
1E
100
AcDbEntity
  8
0
 48
0.27
100
AcDbLine
 10
2228.918068446854
 20
-240.7378801619475
 30
0.0
 11
2229.593968446854
 21
-240.6658251619474
 31
0.0
  0
LINE
  5
11564
330
1E
100
AcDbEntity
  8
0
 48
0.27
100
AcDbLine
 10
2228.918068446854
 20
-233.2378801619475
 30
0.0
 11
2229.593968446854
 21
-233.3099351619476
 31
0.0
  0
LINE
  5
11565
330
1E
100
AcDbEntity
  8
0
 48
0.27
100
AcDbLine
 10
2228.242168446854
 20
-240.6658251619474
 30
0.0
 11
2228.918068446854
 21
-240.7378801619475
 31
0.0
  0
LINE
  5
11566
330
1E
100
AcDbEntity
  8
0
 48
0.27
100
AcDbLine
 10
2228.242168446854
 20
-233.3099351619476
 30
0.0
 11
2228.918068446854
 21
-233.2378801619475
 31
0.0
  0
LINE
  5
11567
330
1E
100
AcDbEntity
  8
0
 48
0.27
100
AcDbLine
 10
2227.592243446853
 20
-240.4524289119474
 30
0.0
 11
2228.242168446854
 21
-240.6658251619474
 31
0.0
  0
LINE
  5
11568
330
1E
100
AcDbEntity
  8
0
 48
0.27
100
AcDbLine
 10
2227.592243446853
 20
-233.5233326619475
 30
0.0
 11
2228.242168446854
 21
-233.3099351619476
 31
0.0
  0
LINE
  5
11569
330
1E
100
AcDbEntity
  8
0
 48
0.27
100
AcDbLine
 10
2227.069159696854
 20
-240.1497989119473
 30
0.0
 11
2227.592243446853
 21
-240.4524289119474
 31
0.0
  0
LINE
  5
1156A
330
1E
100
AcDbEntity
  8
0
 48
0.27
100
AcDbLine
 10
2227.069159696854
 20
-233.8259626619477
 30
0.0
 11
2227.592243446853
 21
-233.5233326619475
 31
0.0
  0
LINE
  5
1156B
330
1E
100
AcDbEntity
  8
0
 48
0.27
100
AcDbLine
 10
2233.792788446854
 20
-236.9878801619475
 30
0.0
 11
2231.792530946854
 21
-240.7378801619475
 31
0.0
  0
LINE
  5
1156C
330
1E
100
AcDbEntity
  8
0
 48
0.27
100
AcDbLine
 10
2231.792530946854
 20
-240.7378801619475
 30
0.0
 11
2226.917810946853
 21
-240.7378801619475
 31
0.0
  0
LINE
  5
1156D
330
1E
100
AcDbEntity
  8
0
 48
0.27
100
AcDbLine
 10
2231.792530946854
 20
-233.2378801619475
 30
0.0
 11
2233.792788446854
 21
-236.9878801619475
 31
0.0
  0
LINE
  5
1156E
330
1E
100
AcDbEntity
  8
0
 48
0.27
100
AcDbLine
 10
2232.918583446854
 20
-236.9878801619475
 30
0.0
 11
2233.792788446854
 21
-236.9878801619475
 31
0.0
  0
LINE
  5
1156F
330
1E
100
AcDbEntity
  8
0
 48
0.27
100
AcDbLine
 10
2226.917810946853
 20
-233.2378801619475
 30
0.0
 11
2226.609819696853
 21
-233.8152889119476
 31
0.0
  0
LINE
  5
11570
330
1E
100
AcDbEntity
  8
0
 48
0.27
100
AcDbLine
 10
2226.609819696853
 20
-240.1604714119474
 30
0.0
 11
2226.917810946853
 21
-240.7378801619475
 31
0.0
  0
LINE
  5
11571
330
1E
100
AcDbEntity
  8
0
 48
0.27
100
AcDbLine
 10
2226.917810946853
 20
-233.2378801619475
 30
0.0
 11
2231.792530946854
 21
-233.2378801619475
 31
0.0
  0
ARC
  5
11572
330
1E
100
AcDbEntity
  8
0
 48
0.27
100
AcDbCircle
 10
2231.327107196853
 20
-236.9878801619475
 30
0.0
 40
4.99999999999996
100
AcDbArc
 50
228.5903779972973
 51
270.0
  0
LWPOLYLINE
  5
11573
330
1E
100
AcDbEntity
  8
0
 48
0.27
100
AcDbPolyline
 90
       31
 70
     0
 43
0.0
 10
2226.851635946854
 20
-236.9878801619476
 10
2226.810613446854
 20
-236.7250614119476
 10
2226.755429696854
 20
-236.5932026619475
 10
2226.676638446854
 20
-236.4709789119475
 10
2226.577293446854
 20
-236.3658376619475
 10
2226.462929696853
 20
-236.2834964119475
 10
2226.340529696853
 20
-236.2268951619476
 10
2226.174734696854
 20
-236.1907189119476
 10
2226.020973446853
 20
-236.1940426619475
 10
2225.887318446853
 20
-236.2259251619475
 10
2225.742062196854
 20
-236.2956351619476
 10
2225.603849696854
 20
-236.4074964119475
 10
2225.493562196854
 20
-236.5506839119476
 10
2225.422769696854
 20
-236.7004826619474
 10
2225.387955946853
 20
-236.8300526619476
 10
2225.373429696853
 20
-236.9878801619476
 10
2225.414452196854
 20
-237.2506989119475
 10
2225.469637196853
 20
-237.3825589119475
 10
2225.548427196853
 20
-237.5047814119475
 10
2225.647772196854
 20
-237.6099226619476
 10
2225.762135946854
 20
-237.6922639119476
 10
2225.884535946853
 20
-237.7488651619476
 10
2226.050330946854
 20
-237.7850426619476
 10
2226.204092196854
 20
-237.7817176619475
 10
2226.337747196854
 20
-237.7498364119475
 10
2226.483003446854
 20
-237.6801264119475
 10
2226.621215946853
 20
-237.5682639119475
 10
2226.731503446854
 20
-237.4250776619476
 10
2226.802295946853
 20
-237.2752789119475
 10
2226.837110946854
 20
-237.1457076619474
 10
2226.851635946854
 20
-236.9878801619476
  0
ARC
  5
11574
330
1E
100
AcDbEntity
  8
0
 48
0.27
100
AcDbCircle
 10
2231.327107196853
 20
-236.9878801619475
 30
0.0
 40
4.99999999999996
100
AcDbArc
 50
90.0
 51
131.4096219996085
  0
LINE
  5
11575
330
1E
100
AcDbEntity
  8
0
 48
0.27
100
AcDbLine
 10
2237.412532196854
 20
-231.9878801619475
 30
0.0
 11
2231.327107196853
 21
-231.9878801619475
 31
0.0
  0
LINE
  5
11576
330
1E
100
AcDbEntity
  8
0
 48
0.27
100
AcDbLine
 10
2231.327107196853
 20
-241.9878801619475
 30
0.0
 11
2237.412532196854
 21
-241.9878801619475
 31
0.0
  0
LINE
  5
11577
330
1E
100
AcDbEntity
  8
中心線
 48
0.27
100
AcDbLine
 10
2222.340649696854
 20
-236.9878801619475
 30
0.0
 11
2238.410728307652
 21
-236.9879043258225
 31
0.0
  0
LINE
  5
11578
330
1E
100
AcDbEntity
  8
0
100
AcDbLine
 10
2236.012532196854
 20
-241.9878801619475
 30
0.0
 11
2236.012532196854
 21
-231.9878801619475
 31
0.0
  0
LINE
  5
11579
330
1E
100
AcDbEntity
  8
0
100
AcDbLine
 10
2225.454547619927
 20
-296.1830968994501
 30
0.0
 11
2237.412532196854
 21
-296.1830968994501
 31
0.0
  0
LINE
  5
1157A
330
1E
100
AcDbEntity
  8
0
100
AcDbLine
 10
2227.112941241296
 20
-286.6830768711669
 30
0.0
 11
2237.412532196853
 21
-286.6830768711669
 31
0.0
  0
LINE
  5
1157B
330
1E
100
AcDbEntity
  8
0
100
AcDbLine
 10
2226.324924791197
 20
-274.8927121119904
 30
0.0
 11
2237.412532196853
 21
-274.8927121119904
 31
0.0
  0
LINE
  5
1157C
330
1E
100
AcDbEntity
  8
0
100
AcDbLine
 10
2224.231495165469
 20
-265.3927120837062
 30
0.0
 11
2237.412532196853
 21
-265.3927120837062
 31
0.0
  0
LINE
  5
1157D
330
1E
100
AcDbEntity
  8
0
100
AcDbLine
 10
2226.801342880202
 20
-260.4879027969783
 30
0.0
 11
2237.412532196853
 21
-260.4879027969783
 31
0.0
  0
LINE
  5
1157E
330
1E
100
AcDbEntity
  8
0
100
AcDbLine
 10
2532.412532196854
 20
-296.1830968994501
 30
0.0
 11
2607.412532196853
 21
-296.1830968994501
 31
0.0
  0
LINE
  5
1157F
330
1E
100
AcDbEntity
  8
0
100
AcDbLine
 10
2532.412532196854
 20
-286.683076871167
 30
0.0
 11
2607.412532196853
 21
-286.683076871167
 31
0.0
  0
LINE
  5
11580
330
1E
100
AcDbEntity
  8
0
100
AcDbLine
 10
2532.412532196854
 20
-274.8927121119904
 30
0.0
 11
2607.412532196853
 21
-274.8927121119904
 31
0.0
  0
LINE
  5
11581
330
1E
100
AcDbEntity
  8
0
100
AcDbLine
 10
2532.412532196853
 20
-265.3927120837062
 30
0.0
 11
2607.412532196853
 21
-265.3927120837062
 31
0.0
  0
LINE
  5
11582
330
1E
100
AcDbEntity
  8
0
100
AcDbLine
 10
2532.412532196853
 20
-260.4879027969785
 30
0.0
 11
2607.412532196853
 21
-260.4879027969785
 31
0.0
  0
LINE
  5
11585
330
1E
100
AcDbEntity
  8
0
  6
Continuous
 62
     7
100
AcDbLine
 10
2607.412532196853
 20
-311.9878948248785
 30
0.0
 11
2607.412532196853
 21
-258.9878819915786
 31
0.0
  0
LINE
  5
1159A
330
1E
100
AcDbEntity
  8
0
100
AcDbLine
 10
2227.587259574422
 20
-258.9879028248786
 30
0.0
 11
2222.752155708412
 21
-268.2161781846716
 31
0.0
  0
LINE
  5
1159B
330
1E
100
AcDbEntity
  8
0
100
AcDbLine
 10
2222.752155708412
 20
-268.2161781846716
 30
0.0
 11
2230.071825220492
 21
-281.8946501770679
 31
0.0
  0
LINE
  5
1159C
330
1E
100
AcDbEntity
  8
0
100
AcDbLine
 10
2230.071825220492
 20
-281.8946501770679
 30
0.0
 11
2223.388646675095
 21
-292.710184268034
 31
0.0
  0
LINE
  5
1159D
330
1E
100
AcDbEntity
  8
0
100
AcDbLine
 10
2223.388646675095
 20
-292.710184268034
 30
0.0
 11
2230.390070703835
 21
-304.48002928802
 31
0.0
  0
LINE
  5
1159E
330
1E
100
AcDbEntity
  8
0
100
AcDbLine
 10
2230.390070703835
 20
-304.48002928802
 30
0.0
 11
2226.12694129333
 21
-311.9878898248785
 31
0.0
  0
LINE
  5
115AD
330
1E
100
AcDbEntity
  8
中心線
 48
0.35
100
AcDbLine
 10
2197.412532196853
 20
-253.9879028248785
 30
0.0
 11
2197.412532196853
 21
-316.9879088457785
 31
0.0
  0
LINE
  5
115AF
330
1E
100
AcDbEntity
  8
中心線
 48
0.35
100
AcDbLine
 10
2272.412532196853
 20
-299.9878948248785
 30
0.0
 11
2272.412532196852
 21
-316.9879088457784
 31
0.0
  0
LINE
  5
115C2
330
1E
100
AcDbEntity
  8
中心線
 48
0.35
100
AcDbLine
 10
2347.412532196853
 20
-299.9878998248785
 30
0.0
 11
2347.412532196853
 21
-316.9879138457785
 31
0.0
  0
LINE
  5
115C5
330
1E
100
AcDbEntity
  8
中心線
 48
0.35
100
AcDbLine
 10
2422.412532196854
 20
-299.9879048248784
 30
0.0
 11
2422.412532196853
 21
-316.9879188457784
 31
0.0
  0
LINE
  5
115DF
330
1E
100
AcDbEntity
  8
中心線
 48
0.35
100
AcDbLine
 10
2497.412532196853
 20
-299.9878948248784
 30
0.0
 11
2497.412532196853
 21
-316.9879138457785
 31
0.0
  0
LINE
  5
11602
330
1E
100
AcDbEntity
  8
中心線
 48
0.35
100
AcDbLine
 10
2572.412532196854
 20
-253.9879078248785
 30
0.0
 11
2572.412532196854
 21
-316.9879138457785
 31
0.0
  0
LINE
  5
1161F
330
1E
100
AcDbEntity
  8
0
  6
Continuous
 62
     7
100
AcDbLine
 10
2529.412532196853
 20
-276.5378944915785
 30
0.0
 11
2532.412532196853
 21
-276.5378944915785
 31
0.0
  0
LINE
  5
11620
330
1E
100
AcDbEntity
  8
0
  6
Continuous
 62
     7
100
AcDbLine
 10
2529.412532196853
 20
-285.0378944915785
 30
0.0
 11
2532.412532196853
 21
-285.0378944915785
 31
0.0
  0
LINE
  5
11621
330
1E
100
AcDbEntity
  8
0
  6
Continuous
 62
     7
100
AcDbLine
 10
2534.412532196853
 20
-278.5378944915785
 30
0.0
 11
2534.412532196853
 21
-283.0378944915785
 31
0.0
  0
ARC
  5
11622
330
1E
100
AcDbEntity
  8
0
  6
Continuous
 62
     7
100
AcDbCircle
 10
2532.412532196853
 20
-283.0378944915785
 30
0.0
 40
2.0
100
AcDbArc
 50
270.0
 51
0.0
  0
ARC
  5
11623
330
1E
100
AcDbEntity
  8
0
  6
Continuous
 62
     7
100
AcDbCircle
 10
2532.412532196853
 20
-278.5378944915785
 30
0.0
 40
2.0
100
AcDbArc
 50
0.0
 51
90.0
  0
LINE
  5
11624
330
1E
100
AcDbEntity
  8
0
  6
Continuous
 62
     7
100
AcDbLine
 10
2532.412532196854
 20
-299.9878948248785
 30
0.0
 11
2532.412532196853
 21
-223.4879028248786
 31
0.0
  0
ARC
  5
11625
330
1E
100
AcDbEntity
  8
0
  6
Continuous
 62
     7
100
AcDbCircle
 10
2237.412532196854
 20
-283.0378944915785
 30
0.0
 40
2.0
100
AcDbArc
 50
180.0
 51
270.0
  0
LINE
  5
11626
330
1E
100
AcDbEntity
  8
0
  6
Continuous
 62
     7
100
AcDbLine
 10
2240.412532196854
 20
-285.0378944915785
 30
0.0
 11
2237.412532196854
 21
-285.0378944915785
 31
0.0
  0
LINE
  5
11627
330
1E
100
AcDbEntity
  8
0
  6
Continuous
 62
     7
100
AcDbLine
 10
2235.412532196853
 20
-278.5378944915785
 30
0.0
 11
2235.412532196853
 21
-283.0378944915785
 31
0.0
  0
ARC
  5
11628
330
1E
100
AcDbEntity
  8
0
  6
Continuous
 62
     7
100
AcDbCircle
 10
2237.412532196854
 20
-278.5378944915785
 30
0.0
 40
2.0
100
AcDbArc
 50
90.0
 51
180.0
  0
LINE
  5
11629
330
1E
100
AcDbEntity
  8
0
  6
Continuous
 62
     7
100
AcDbLine
 10
2240.412532196854
 20
-276.5378944915785
 30
0.0
 11
2237.412532196854
 21
-276.5378944915785
 31
0.0
  0
LINE
  5
1162A
330
1E
100
AcDbEntity
  8
0
  6
Continuous
 62
     7
100
AcDbLine
 10
2237.412532196853
 20
-285.0378944915785
 30
0.0
 11
2237.412532196853
 21
-299.9878948248785
 31
0.0
  0
LINE
  5
1162B
330
1E
100
AcDbEntity
  8
中心線
100
AcDbLine
 10
2537.077382382891
 20
-280.7878944915779
 30
0.0
 11
2524.432156854962
 21
-280.7878944915779
 31
0.0
  0
LINE
  5
1162C
330
1E
100
AcDbEntity
  8
中心線
100
AcDbLine
 10
2232.747682010816
 20
-280.787894491578
 30
0.0
 11
2245.392907538745
 21
-280.787894491578
 31
0.0
  0
LINE
  5
1164D
330
1E
100
AcDbEntity
  8
指線
 48
0.27
100
AcDbLine
 10
2075.588839596034
 20
-281.6350028425999
 30
0.0
 11
2072.27105034398
 21
-281.6354352458222
 31
0.0
  0
LINE
  5
1164E
330
1E
100
AcDbEntity
  8
指線
 48
0.27
100
AcDbLine
 10
2077.282790712557
 20
-281.6347406561519
 30
0.0
 11
2080.600580135464
 21
-281.6341458499693
 31
0.0
  0
LINE
  5
1164F
330
1E
100
AcDbEntity
  8
指線
 48
0.27
100
AcDbLine
 10
2077.282528687514
 20
-279.9407861403566
 30
0.0
 11
2080.600284887006
 21
-279.9401913401306
 31
0.0
  0
ARC
  5
11650
330
1E
100
AcDbEntity
  8
指線
 48
0.27
100
AcDbCircle
 10
2076.435684141774
 20
-280.7878944914785
 30
0.0
 40
2.540931313734021
100
AcDbArc
 50
19.48100010833112
 51
70.53767875680806
  0
LINE
  5
11651
330
1E
100
AcDbEntity
  8
指線
 48
0.27
100
AcDbLine
 10
2077.282289140709
 20
-278.392149948149
 30
0.0
 11
2077.282528687514
 21
-279.9407861403566
 31
0.0
  0
ARC
  5
11652
330
1E
100
AcDbEntity
  8
指線
 48
0.27
100
AcDbCircle
 10
2076.435684141774
 20
-280.7878944914785
 30
0.0
 40
2.540931313734021
100
AcDbArc
 50
289.4623212432176
 51
340.5208129039504
  0
ARC
  5
11653
330
1E
100
AcDbEntity
  8
指線
 48
0.27
100
AcDbCircle
 10
2076.435684141774
 20
-280.7878944914785
 30
0.0
 40
2.540931313734021
100
AcDbArc
 50
199.4791870960496
 51
250.5376787567824
  0
LINE
  5
11654
330
1E
100
AcDbEntity
  8
指線
 48
0.27
100
AcDbLine
 10
2075.588839596034
 20
-281.6350028425999
 30
0.0
 11
2075.589079142839
 21
-283.1836390348079
 31
0.0
  0
LINE
  5
11655
330
1E
100
AcDbEntity
  8
指線
 48
0.27
100
AcDbLine
 10
2077.282790712557
 20
-281.6347406561519
 30
0.0
 11
2077.283030259701
 21
-283.1833768483674
 31
0.0
  0
LINE
  5
11656
330
1E
100
AcDbEntity
  8
指線
 48
0.27
100
AcDbLine
 10
2075.588577570991
 20
-279.9410483268051
 30
0.0
 11
2072.270821150368
 21
-279.9414807257481
 31
0.0
  0
ARC
  5
11657
330
1E
100
AcDbEntity
  8
指線
 48
0.27
100
AcDbCircle
 10
2076.435684141774
 20
-280.7878944914785
 30
0.0
 40
2.540931313734021
100
AcDbArc
 50
109.4623212431919
 51
160.5189998916689
  0
LINE
  5
11658
330
1E
100
AcDbEntity
  8
指線
 48
0.27
100
AcDbLine
 10
2075.588338023847
 20
-278.3924121345891
 30
0.0
 11
2075.588577570991
 21
-279.9410483268051
 31
0.0
  0
CIRCLE
  5
11659
330
1E
100
AcDbEntity
  8
指線
 48
0.27
100
AcDbCircle
 10
2076.435684141774
 20
-280.7878944914785
 30
0.0
 40
4.25
  0
CIRCLE
  5
1165A
330
1E
100
AcDbEntity
  8
指線
 48
0.27
100
AcDbCircle
 10
1965.435888212175
 20
-280.787489806225
 30
0.0
 40
4.25
  0
LINE
  5
1165B
330
1E
100
AcDbEntity
  8
指線
 48
0.27
100
AcDbLine
 10
1966.283251797074
 20
-278.3920136279418
 30
0.0
 11
1966.283000957833
 21
-279.94064981837
 31
0.0
  0
ARC
  5
1165C
330
1E
100
AcDbEntity
  8
指線
 48
0.27
100
AcDbCircle
 10
1965.435888212175
 20
-280.787489806225
 30
0.0
 40
2.540931313734021
100
AcDbArc
 50
19.4805823281567
 51
70.53726097663366
  0
LINE
  5
1165D
330
1E
100
AcDbEntity
  8
指線
 48
0.27
100
AcDbLine
 10
1966.283000957833
 20
-279.94064981837
 30
0.0
 11
1969.600757375215
 21
-279.941106409197
 31
0.0
  0
LINE
  5
1165E
330
1E
100
AcDbEntity
  8
指線
 48
0.27
100
AcDbLine
 10
1964.588775466518
 20
-281.6343297940801
 30
0.0
 11
1964.588524627277
 21
-283.1829659845078
 31
0.0
  0
LINE
  5
1165F
330
1E
100
AcDbEntity
  8
指線
 48
0.27
100
AcDbLine
 10
1966.282726581084
 20
-281.6346043322091
 30
0.0
 11
1966.282475742182
 21
-283.1832405226293
 31
0.0
  0
ARC
  5
11660
330
1E
100
AcDbEntity
  8
指線
 48
0.27
100
AcDbCircle
 10
1965.435888212175
 20
-280.787489806225
 30
0.0
 40
2.540931313734021
100
AcDbArc
 50
289.4619034630432
 51
340.520395123776
  0
ARC
  5
11661
330
1E
100
AcDbEntity
  8
指線
 48
0.27
100
AcDbCircle
 10
1965.435888212175
 20
-280.787489806225
 30
0.0
 40
2.540931313734021
100
AcDbArc
 50
199.4787693158752
 51
250.537260976608
  0
LINE
  5
11662
330
1E
100
AcDbEntity
  8
指線
 48
0.27
100
AcDbLine
 10
1964.589300682169
 20
-278.3917390898207
 30
0.0
 11
1964.589049843267
 21
-279.9403752802405
 31
0.0
  0
ARC
  5
11663
330
1E
100
AcDbEntity
  8
指線
 48
0.27
100
AcDbCircle
 10
1965.435888212175
 20
-280.787489806225
 30
0.0
 40
2.540931313734021
100
AcDbArc
 50
109.4619034630175
 51
160.5185821114944
  0
LINE
  5
11664
330
1E
100
AcDbEntity
  8
指線
 48
0.27
100
AcDbLine
 10
1964.589049843267
 20
-279.9403752802405
 30
0.0
 11
1961.2712936482
 21
-279.939756288132
 31
0.0
  0
LINE
  5
11665
330
1E
100
AcDbEntity
  8
指線
 48
0.27
100
AcDbLine
 10
1964.588775466518
 20
-281.6343297940801
 30
0.0
 11
1961.270986048037
 21
-281.6337107957728
 31
0.0
  0
LINE
  5
11666
330
1E
100
AcDbEntity
  8
指線
 48
0.27
100
AcDbLine
 10
1966.282726581084
 20
-281.6346043322091
 30
0.0
 11
1969.600515829897
 21
-281.6350609275549
 31
0.0
  0
LINE
  5
11764
330
1E
100
AcDbEntity
  8
中心線
 48
0.27
100
AcDbLine
 10
2180.69446219334
 20
-81.09971876412027
 30
0.0
 11
2214.130602200366
 21
-81.09971876412028
 31
0.0
  0
CIRCLE
  5
11765
330
1E
100
AcDbEntity
  8
0
100
AcDbCircle
 10
2197.412532196853
 20
-81.09971876412027
 30
0.0
 40
9.0
  0
CIRCLE
  5
11766
330
1E
100
AcDbEntity
  8
0
100
AcDbCircle
 10
2197.412532196853
 20
-81.09971876412016
 30
0.0
 40
13.0
  0
LINE
  5
11767
330
1E
100
AcDbEntity
  8
中心線
 48
0.27
100
AcDbLine
 10
2197.412532196853
 20
-98.16778876763368
 30
0.0
 11
2197.412532196853
 21
-64.03164876060685
 31
0.0
  0
MTEXT
  5
117B3
330
1E
100
AcDbEntity
  8
0
100
AcDbMText
 10
1993.025471840773
 20
-329.3138527893006
 30
0.0
 40
7.800000159341863
 41
100.6095
 71
     1
 72
     5
  1
\A1;{\fTimes New Roman|b0|i0|c0|p18;RGW65HC\PC : 28060 kgf\PC\fProxy 1|b0|i0|c0|p0;\H0.75x;\S^ 0;\fTimes New Roman|b0|i0|c0|p18;\H1.333x;: 58370 kgf}
 73
     1
 44
1.0
1001
ACAD
1000
MTEXTBEGIN
1070
    73
1070
     1
1070
    44
1040
1.0
1070
    74
1070
     0
1000
MTEXTEND
  0
LINE
  5
117B4
330
1E
100
AcDbEntity
  8
0
100
AcDbLine
 10
2162.412532196853
 20
-112.5997187641202
 30
0.0
 11
2162.412532196853
 21
-49.59971876412026
 31
0.0
  0
LINE
  5
117B5
330
1E
100
AcDbEntity
  8
0
100
AcDbLine
 10
2607.412532196853
 20
-112.5997187641202
 30
0.0
 11
2607.412532196853
 21
-49.59971876412026
 31
0.0
  0
LINE
  5
117B7
330
1E
100
AcDbEntity
  8
0
  6
Continuous
100
AcDbLine
 10
2227.267110100545
 20
-96.88100619828325
 30
0.0
 11
2230.125703307923
 21
-94.02241299090556
 31
0.0
  0
LINE
  5
117B8
330
1E
100
AcDbEntity
  8
0
  6
Continuous
100
AcDbLine
 10
2222.442470129522
 20
-94.88257488871822
 30
0.0
 11
2227.267110100545
 21
-96.88100619828325
 31
0.0
  0
LINE
  5
117B9
330
1E
100
AcDbEntity
  8
0
  6
Continuous
100
AcDbLine
 10
2236.228140185668
 20
-74.96638468998677
 30
0.0
 11
2237.412532196854
 21
-74.96638468998677
 31
0.0
  0
LINE
  5
117BA
330
1E
100
AcDbEntity
  8
0
  6
Continuous
100
AcDbLine
 10
2236.228140185668
 20
-78.0330516222347
 30
0.0
 11
2237.412532196854
 21
-78.0330516222347
 31
0.0
  0
ARC
  5
117BB
330
1E
100
AcDbEntity
  8
0
  6
Continuous
100
AcDbCircle
 10
2238.601150098916
 20
-76.49971789052952
 30
0.0
 40
2.825346636061326
100
AcDbArc
 50
147.1327799989377
 51
212.8672200010623
  0
LINE
  5
117BC
330
1E
100
AcDbEntity
  8
0
  6
Continuous
100
AcDbLine
 10
2230.977725032874
 20
-75.76638468998672
 30
0.0
 11
2235.872632913541
 21
-75.76638468998672
 31
0.0
  0
LINE
  5
117BD
330
1E
100
AcDbEntity
  8
0
  6
Continuous
100
AcDbLine
 10
2236.228140185668
 20
-84.16638442440572
 30
0.0
 11
2237.412532196854
 21
-84.16638442440572
 31
0.0
  0
LINE
  5
117BE
330
1E
100
AcDbEntity
  8
0
  6
Continuous
100
AcDbLine
 10
2236.228140185668
 20
-87.23305135665354
 30
0.0
 11
2237.412532196854
 21
-87.23305135665341
 31
0.0
  0
ARC
  5
117BF
330
1E
100
AcDbEntity
  8
0
  6
Continuous
100
AcDbCircle
 10
2238.601150098916
 20
-85.69971815611067
 30
0.0
 40
2.825346636061326
100
AcDbArc
 50
147.1327799989377
 51
212.8672200010623
  0
LINE
  5
117C0
330
1E
100
AcDbEntity
  8
0
  6
Continuous
100
AcDbLine
 10
2233.384432602328
 20
-89.31310882322932
 30
0.0
 11
2234.147259126816
 21
-87.47148268207288
 31
0.0
  0
LINE
  5
117C1
330
1E
100
AcDbEntity
  8
0
  6
Continuous
100
AcDbLine
 10
2230.905411978123
 20
-88.28618448509294
 30
0.0
 11
2231.668181669477
 21
-86.44469555125855
 31
0.0
  0
ARC
  5
117C2
330
1E
100
AcDbEntity
  8
0
  6
Continuous
100
AcDbCircle
 10
2231.832043878331
 20
-79.03720988002956
 30
0.0
 40
9.295339642905961
100
AcDbArc
 50
230.7213499979074
 51
264.2786500020831
  0
LINE
  5
117C3
330
1E
100
AcDbEntity
  8
0
  6
Continuous
100
AcDbLine
 10
2225.947258916368
 20
-86.23245024259224
 30
0.0
 11
2226.710028607722
 21
-84.39096130875773
 31
0.0
  0
ARC
  5
117C4
330
1E
100
AcDbEntity
  8
0
  6
Continuous
100
AcDbCircle
 10
2225.783396707515
 20
-93.63993591382124
 30
0.0
 40
9.295339642905961
100
AcDbArc
 50
50.72134999790691
 51
84.27865000208301
  0
LINE
  5
117C5
330
1E
100
AcDbEntity
  8
0
  6
Continuous
100
AcDbLine
 10
2223.468181956102
 20
-85.20558294348328
 30
0.0
 11
2224.230951647456
 21
-83.36409400964887
 31
0.0
  0
ARC
  5
117C6
330
1E
100
AcDbEntity
  8
0
  6
Continuous
100
AcDbCircle
 10
2225.502317852849
 20
-83.80068812597361
 30
0.0
 40
2.472178306553661
100
AcDbArc
 50
214.6327799989443
 51
280.3672200010573
  0
ARC
  5
117C7
330
1E
100
AcDbEntity
  8
0
  6
Continuous
100
AcDbCircle
 10
2221.770168627996
 20
-87.44504019263994
 30
0.0
 40
2.746231479756805
100
AcDbArc
 50
335.8479011650585
 51
45.84790116506177
  0
ARC
  5
117C8
330
1E
100
AcDbEntity
  8
0
  6
Continuous
100
AcDbCircle
 10
2226.776822469394
 20
-92.19756844737029
 30
0.0
 40
3.813798694049014
100
AcDbArc
 50
331.4135141737393
 51
16.41351417373799
  0
LINE
  5
117C9
330
1E
100
AcDbEntity
  8
0
  6
Continuous
100
AcDbLine
 10
2222.442470129522
 20
-94.88257488871822
 30
0.0
 11
2222.442470129522
 21
-90.83991360553685
 31
0.0
  0
LINE
  5
117CA
330
1E
100
AcDbEntity
  8
0
  6
Continuous
100
AcDbLine
 10
2222.442470129522
 20
-90.83991360553685
 30
0.0
 11
2230.125703307923
 21
-94.02241299090556
 31
0.0
  0
ARC
  5
117CB
330
1E
100
AcDbEntity
  8
0
  6
Continuous
100
AcDbCircle
 10
2226.100846431176
 20
-91.91757000450062
 30
0.0
 40
3.813798694049016
100
AcDbArc
 50
118.586485826257
 51
163.5864858262651
  0
LINE
  5
117CC
330
1E
100
AcDbEntity
  8
0
  6
Continuous
100
AcDbLine
 10
2224.522369762977
 20
-88.67073808127011
 30
0.0
 11
2230.188830895713
 21
-91.01786313310915
 31
0.0
  0
LINE
  5
117CD
330
1E
100
AcDbEntity
  8
0
  6
Continuous
100
AcDbLine
 10
2224.556256173078
 20
-86.08468306411694
 30
0.0
 11
2231.993486624489
 21
-89.16528478358523
 31
0.0
  0
LINE
  5
117CE
330
1E
100
AcDbEntity
  8
0
  6
Continuous
100
AcDbLine
 10
2225.621953961357
 20
-83.51186101026545
 30
0.0
 11
2233.059184412767
 21
-86.59246272973385
 31
0.0
  0
ARC
  5
117CF
330
1E
100
AcDbEntity
  8
0
  6
Continuous
100
AcDbCircle
 10
2232.939548304259
 20
-86.8812898454419
 30
0.0
 40
2.472178306553661
100
AcDbArc
 50
214.6327799989443
 51
280.3672200010573
  0
ARC
  5
117D0
330
1E
100
AcDbEntity
  8
0
  6
Continuous
100
AcDbCircle
 10
2233.001630270182
 20
-92.09726393010649
 30
0.0
 40
2.746231479756805
100
AcDbArc
 50
89.15209883493268
 51
159.1520988349398
  0
ARC
  5
117D1
330
1E
100
AcDbEntity
  8
0
  6
Continuous
100
AcDbCircle
 10
2232.113122732996
 20
-88.87645766787718
 30
0.0
 40
2.472178306553661
100
AcDbArc
 50
34.63277999894425
 51
100.3672200010572
  0
ARC
  5
117D2
330
1E
100
AcDbEntity
  8
0
  6
Continuous
100
AcDbCircle
 10
2230.977725032874
 20
-81.09971802332021
 30
0.0
 40
5.333333333333332
100
AcDbArc
 50
90.0
 51
210.835204894088
  0
ARC
  5
117D3
330
1E
100
AcDbEntity
  8
0
  6
Continuous
100
AcDbCircle
 10
2224.675892281586
 20
-85.79585594840891
 30
0.0
 40
2.472178306553661
100
AcDbArc
 50
34.63277999894425
 51
100.3672200010572
  0
ARC
  5
117D4
330
1E
100
AcDbEntity
  8
0
  6
Continuous
100
AcDbCircle
 10
2246.399048769033
 20
-81.09971802332021
 30
0.0
 40
10.62324530617823
100
AcDbArc
 50
163.2213499979099
 51
196.7786500020901
  0
LINE
  5
117D5
330
1E
100
AcDbEntity
  8
0
  6
Continuous
100
AcDbLine
 10
2235.775803462855
 20
-85.69971815611067
 30
0.0
 11
2235.775803462855
 21
-76.49971789052952
 31
0.0
  0
LINE
  5
117D6
330
1E
100
AcDbEntity
  8
0
  6
Continuous
100
AcDbLine
 10
2227.267110100545
 20
-96.88100619828325
 30
0.0
 11
2230.125703307923
 21
-94.02241299090556
 31
0.0
  0
LINE
  5
117D7
330
1E
100
AcDbEntity
  8
0
  6
Continuous
100
AcDbLine
 10
2222.442470129522
 20
-94.88257488871822
 30
0.0
 11
2227.267110100545
 21
-96.88100619828325
 31
0.0
  0
LINE
  5
117D8
330
1E
100
AcDbEntity
  8
0
  6
Continuous
100
AcDbLine
 10
2236.228140185668
 20
-74.96638468998677
 30
0.0
 11
2237.412532196854
 21
-74.96638468998677
 31
0.0
  0
LINE
  5
117D9
330
1E
100
AcDbEntity
  8
0
  6
Continuous
100
AcDbLine
 10
2236.228140185668
 20
-78.0330516222347
 30
0.0
 11
2237.412532196854
 21
-78.0330516222347
 31
0.0
  0
ARC
  5
117DA
330
1E
100
AcDbEntity
  8
0
  6
Continuous
100
AcDbCircle
 10
2238.601150098916
 20
-76.49971789052952
 30
0.0
 40
2.825346636061326
100
AcDbArc
 50
147.1327799989377
 51
212.8672200010623
  0
LINE
  5
117DB
330
1E
100
AcDbEntity
  8
0
  6
Continuous
100
AcDbLine
 10
2230.977725032874
 20
-75.76638468998672
 30
0.0
 11
2235.872632913541
 21
-75.76638468998672
 31
0.0
  0
LINE
  5
117DC
330
1E
100
AcDbEntity
  8
0
  6
Continuous
100
AcDbLine
 10
2236.228140185668
 20
-84.16638442440572
 30
0.0
 11
2237.412532196854
 21
-84.16638442440572
 31
0.0
  0
LINE
  5
117DD
330
1E
100
AcDbEntity
  8
0
  6
Continuous
100
AcDbLine
 10
2236.228140185668
 20
-87.23305135665354
 30
0.0
 11
2237.412532196854
 21
-87.23305135665341
 31
0.0
  0
ARC
  5
117DE
330
1E
100
AcDbEntity
  8
0
  6
Continuous
100
AcDbCircle
 10
2238.601150098916
 20
-85.69971815611067
 30
0.0
 40
2.825346636061326
100
AcDbArc
 50
147.1327799989377
 51
212.8672200010623
  0
LINE
  5
117DF
330
1E
100
AcDbEntity
  8
0
  6
Continuous
100
AcDbLine
 10
2233.384432602328
 20
-89.31310882322932
 30
0.0
 11
2234.147259126816
 21
-87.47148268207288
 31
0.0
  0
LINE
  5
117E0
330
1E
100
AcDbEntity
  8
0
  6
Continuous
100
AcDbLine
 10
2230.905411978123
 20
-88.28618448509294
 30
0.0
 11
2231.668181669477
 21
-86.44469555125855
 31
0.0
  0
ARC
  5
117E1
330
1E
100
AcDbEntity
  8
0
  6
Continuous
100
AcDbCircle
 10
2231.832043878331
 20
-79.03720988002956
 30
0.0
 40
9.295339642905961
100
AcDbArc
 50
230.7213499979074
 51
264.2786500020831
  0
LINE
  5
117E2
330
1E
100
AcDbEntity
  8
0
  6
Continuous
100
AcDbLine
 10
2225.947258916368
 20
-86.23245024259224
 30
0.0
 11
2226.710028607722
 21
-84.39096130875773
 31
0.0
  0
ARC
  5
117E3
330
1E
100
AcDbEntity
  8
0
  6
Continuous
100
AcDbCircle
 10
2225.783396707515
 20
-93.63993591382124
 30
0.0
 40
9.295339642905961
100
AcDbArc
 50
50.72134999790691
 51
84.27865000208301
  0
LINE
  5
117E4
330
1E
100
AcDbEntity
  8
0
  6
Continuous
100
AcDbLine
 10
2223.468181956102
 20
-85.20558294348328
 30
0.0
 11
2224.230951647456
 21
-83.36409400964887
 31
0.0
  0
ARC
  5
117E5
330
1E
100
AcDbEntity
  8
0
  6
Continuous
100
AcDbCircle
 10
2225.502317852849
 20
-83.80068812597361
 30
0.0
 40
2.472178306553661
100
AcDbArc
 50
214.6327799989443
 51
280.3672200010573
  0
ARC
  5
117E6
330
1E
100
AcDbEntity
  8
0
  6
Continuous
100
AcDbCircle
 10
2221.770168627996
 20
-87.44504019263994
 30
0.0
 40
2.746231479756805
100
AcDbArc
 50
335.8479011650585
 51
45.84790116506177
  0
ARC
  5
117E7
330
1E
100
AcDbEntity
  8
0
  6
Continuous
100
AcDbCircle
 10
2226.776822469394
 20
-92.19756844737029
 30
0.0
 40
3.813798694049014
100
AcDbArc
 50
331.4135141737393
 51
16.41351417373799
  0
LINE
  5
117E8
330
1E
100
AcDbEntity
  8
0
  6
Continuous
100
AcDbLine
 10
2222.442470129522
 20
-94.88257488871822
 30
0.0
 11
2222.442470129522
 21
-90.83991360553685
 31
0.0
  0
LINE
  5
117E9
330
1E
100
AcDbEntity
  8
0
  6
Continuous
100
AcDbLine
 10
2222.442470129522
 20
-90.83991360553685
 30
0.0
 11
2230.125703307923
 21
-94.02241299090556
 31
0.0
  0
ARC
  5
117EA
330
1E
100
AcDbEntity
  8
0
  6
Continuous
100
AcDbCircle
 10
2226.100846431176
 20
-91.91757000450062
 30
0.0
 40
3.813798694049016
100
AcDbArc
 50
118.586485826257
 51
163.5864858262651
  0
LINE
  5
117EB
330
1E
100
AcDbEntity
  8
0
  6
Continuous
100
AcDbLine
 10
2224.522369762977
 20
-88.67073808127011
 30
0.0
 11
2230.188830895713
 21
-91.01786313310915
 31
0.0
  0
LINE
  5
117EC
330
1E
100
AcDbEntity
  8
0
  6
Continuous
100
AcDbLine
 10
2224.556256173078
 20
-86.08468306411694
 30
0.0
 11
2231.993486624489
 21
-89.16528478358523
 31
0.0
  0
LINE
  5
117ED
330
1E
100
AcDbEntity
  8
0
  6
Continuous
100
AcDbLine
 10
2225.621953961357
 20
-83.51186101026545
 30
0.0
 11
2233.059184412767
 21
-86.59246272973385
 31
0.0
  0
ARC
  5
117EE
330
1E
100
AcDbEntity
  8
0
  6
Continuous
100
AcDbCircle
 10
2232.939548304259
 20
-86.8812898454419
 30
0.0
 40
2.472178306553661
100
AcDbArc
 50
214.6327799989443
 51
280.3672200010573
  0
ARC
  5
117EF
330
1E
100
AcDbEntity
  8
0
  6
Continuous
100
AcDbCircle
 10
2233.001630270182
 20
-92.09726393010649
 30
0.0
 40
2.746231479756805
100
AcDbArc
 50
89.15209883493268
 51
159.1520988349398
  0
ARC
  5
117F0
330
1E
100
AcDbEntity
  8
0
  6
Continuous
100
AcDbCircle
 10
2232.113122732996
 20
-88.87645766787718
 30
0.0
 40
2.472178306553661
100
AcDbArc
 50
34.63277999894425
 51
100.3672200010572
  0
LINE
  5
117F1
330
1E
100
AcDbEntity
  8
0
  6
Continuous
100
AcDbLine
 10
2232.67433131388
 20
-86.43305135665347
 30
0.0
 11
2235.872632913541
 21
-86.43305135665347
 31
0.0
  0
ARC
  5
117F2
330
1E
100
AcDbEntity
  8
0
  6
Continuous
100
AcDbCircle
 10
2230.977725032874
 20
-81.09971802332021
 30
0.0
 40
5.333333333333332
100
AcDbArc
 50
90.0
 51
210.835204894088
  0
ARC
  5
117F3
330
1E
100
AcDbEntity
  8
0
  6
Continuous
100
AcDbCircle
 10
2224.675892281586
 20
-85.79585594840891
 30
0.0
 40
2.472178306553661
100
AcDbArc
 50
34.63277999894425
 51
100.3672200010572
  0
ARC
  5
117F4
330
1E
100
AcDbEntity
  8
0
  6
Continuous
100
AcDbCircle
 10
2246.399048769033
 20
-81.09971802332021
 30
0.0
 40
10.62324530617823
100
AcDbArc
 50
163.2213499979099
 51
196.7786500020901
  0
LINE
  5
117F5
330
1E
100
AcDbEntity
  8
0
  6
Continuous
100
AcDbLine
 10
2235.775803462855
 20
-85.69971815611067
 30
0.0
 11
2235.775803462855
 21
-76.49971789052952
 31
0.0
  0
LINE
  5
118D4
330
1E
100
AcDbEntity
  8
中心線
 48
0.35
100
AcDbLine
 10
2020.935654197574
 20
-216.9879528248787
 30
0.0
 11
2020.935654197574
 21
-316.9879088457785
 31
0.0
  0
LINE
  5
118D6
330
1E
100
AcDbEntity
  8
虛線
 48
0.27
100
AcDbLine
 10
2033.935654197574
 20
-259.3878898248788
 30
0.0
 11
2033.935654197574
 21
-280.9878898248783
 31
0.0
  0
LINE
  5
118D7
330
1E
100
AcDbEntity
  8
虛線
 48
0.27
100
AcDbLine
 10
2007.935654197574
 20
-259.3878898248779
 30
0.0
 11
2007.935654197574
 21
-280.9878898248783
 31
0.0
  0
LINE
  5
118D8
330
1E
100
AcDbEntity
  8
虛線
 48
0.27
100
AcDbLine
 10
2029.935654197574
 20
-281.4878898248783
 30
0.0
 11
2029.935654197574
 21
-311.4878768039786
 31
0.0
  0
LINE
  5
118D9
330
1E
100
AcDbEntity
  8
虛線
 48
0.27
100
AcDbLine
 10
2011.935654197574
 20
-281.4878898248783
 30
0.0
 11
2011.935654197574
 21
-311.4878768039786
 31
0.0
  0
LINE
  5
118DA
330
1E
100
AcDbEntity
  8
虛線
 48
0.27
100
AcDbLine
 10
2034.166598827808
 20
-258.9878819915786
 30
0.0
 11
2033.935654197574
 21
-259.3878898248788
 31
0.0
  0
LINE
  5
118DC
330
1E
100
AcDbEntity
  8
虛線
 48
0.27
100
AcDbLine
 10
2007.70470956734
 20
-258.9878819915786
 30
0.0
 11
2007.935654197574
 21
-259.3878898248788
 31
0.0
  0
LINE
  5
118DD
330
1E
100
AcDbEntity
  8
虛線
 48
0.27
100
AcDbLine
 10
2011.935654197574
 20
-281.4878898248783
 30
0.0
 11
2029.935654197574
 21
-281.4878898248783
 31
0.0
  0
LINE
  5
118DE
330
1E
100
AcDbEntity
  8
虛線
 48
0.27
100
AcDbLine
 10
2029.935654197574
 20
-311.4878768039786
 30
0.0
 11
2011.935654197574
 21
-311.4878768039786
 31
0.0
  0
LINE
  5
118DF
330
1E
100
AcDbEntity
  8
虛線
 48
0.27
100
AcDbLine
 10
2029.935654197574
 20
-281.4878898248783
 30
0.0
 11
2030.435654197574
 21
-280.9878898248782
 31
0.0
  0
LINE
  5
118E0
330
1E
100
AcDbEntity
  8
虛線
 48
0.27
100
AcDbLine
 10
2011.935913050221
 20
-281.487824201303
 30
0.0
 11
2011.435916696041
 21
-280.9878205555096
 31
0.0
  0
LINE
  5
118E1
330
1E
100
AcDbEntity
  8
虛線
 48
0.27
100
AcDbLine
 10
2029.935654197574
 20
-311.4878768039786
 30
0.0
 11
2030.435654197574
 21
-311.9878768039786
 31
0.0
  0
LINE
  5
118E2
330
1E
100
AcDbEntity
  8
虛線
 48
0.27
100
AcDbLine
 10
2011.93569430192
 20
-311.4878111796058
 30
0.0
 11
2011.435690656127
 21
-311.9878075337859
 31
0.0
  0
LINE
  5
118F7
330
1E
100
AcDbEntity
  8
0
  6
Continuous
 62
     7
100
AcDbLine
 10
2188.41277282035
 20
-281.4878372222029
 30
0.0
 11
2187.91277646617
 21
-280.9878335764096
 31
0.0
  0
LINE
  5
118F8
330
1E
100
AcDbEntity
  8
0
  6
Continuous
 62
     7
100
AcDbLine
 10
2206.412513967704
 20
-281.4879028457782
 30
0.0
 11
2206.912513967703
 21
-280.9879028457782
 31
0.0
  0
LINE
  5
118F9
330
1E
100
AcDbEntity
  8
0
  6
Continuous
 62
     7
100
AcDbLine
 10
2188.412513967703
 20
-281.4879028457782
 30
0.0
 11
2206.412513967704
 21
-281.4879028457782
 31
0.0
  0
LINE
  5
118FA
330
1E
100
AcDbEntity
  8
0
  6
Continuous
 62
     7
100
AcDbLine
 10
2184.181569337469
 20
-258.9878950124785
 30
0.0
 11
2184.412513967703
 21
-259.3879028457787
 31
0.0
  0
LINE
  5
118FB
330
1E
100
AcDbEntity
  8
0
  6
Continuous
 62
     7
100
AcDbLine
 10
2210.643458597937
 20
-258.9878950124785
 30
0.0
 11
2210.412513967703
 21
-259.3879028457787
 31
0.0
  0
LINE
  5
118FC
330
1E
100
AcDbEntity
  8
0
  6
Continuous
 62
     7
100
AcDbLine
 10
2184.412513967703
 20
-259.3879028457778
 30
0.0
 11
2184.412513967703
 21
-280.9879028457782
 31
0.0
  0
LINE
  5
118FD
330
1E
100
AcDbEntity
  8
0
  6
Continuous
 62
     7
100
AcDbLine
 10
2210.412513967703
 20
-259.3879028457787
 30
0.0
 11
2210.412513967703
 21
-280.9879028457782
 31
0.0
  0
LINE
  5
118FE
330
1E
100
AcDbEntity
  8
0
  6
Continuous
 62
     7
100
AcDbLine
 10
2184.412513967703
 20
-280.9879028457782
 30
0.0
 11
2210.412513967703
 21
-280.9879028457782
 31
0.0
  0
LINE
  5
118FF
330
1E
100
AcDbEntity
  8
0
  6
Continuous
 62
     7
100
AcDbLine
 10
2184.412513967703
 20
-259.3879028457778
 30
0.0
 11
2210.412513967703
 21
-259.3879028457787
 31
0.0
  0
LINE
  5
11900
330
1E
100
AcDbEntity
  8
0
  6
Continuous
 62
     7
100
AcDbLine
 10
2188.412554072049
 20
-311.4878242005057
 30
0.0
 11
2187.912550426256
 21
-311.9878205546858
 31
0.0
  0
LINE
  5
11901
330
1E
100
AcDbEntity
  8
0
  6
Continuous
 62
     7
100
AcDbLine
 10
2206.412513967703
 20
-311.4878898248785
 30
0.0
 11
2206.912513967703
 21
-311.9878898248785
 31
0.0
  0
LINE
  5
11902
330
1E
100
AcDbEntity
  8
0
  6
Continuous
 62
     7
100
AcDbLine
 10
2206.412513967703
 20
-311.4878898248785
 30
0.0
 11
2188.412513967703
 21
-311.4878898248785
 31
0.0
  0
LINE
  5
11903
330
1E
100
AcDbEntity
  8
0
  6
Continuous
 62
     7
100
AcDbLine
 10
2188.412513967703
 20
-281.4879028457782
 30
0.0
 11
2188.412513967703
 21
-311.4878898248785
 31
0.0
  0
LINE
  5
11904
330
1E
100
AcDbEntity
  8
0
  6
Continuous
 62
     7
100
AcDbLine
 10
2206.412513967704
 20
-281.4879028457782
 30
0.0
 11
2206.412513967703
 21
-311.4878898248785
 31
0.0
  0
LINE
  5
11921
330
1E
100
AcDbEntity
  8
虛線
 48
0.27
100
AcDbLine
 10
2263.412554072048
 20
-311.4878242005078
 30
0.0
 11
2262.912550426256
 21
-311.9878205546879
 31
0.0
  0
LINE
  5
11922
330
1E
100
AcDbEntity
  8
虛線
 48
0.27
100
AcDbLine
 10
2281.412513967703
 20
-311.4878898248806
 30
0.0
 11
2281.912513967702
 21
-311.9878898248805
 31
0.0
  0
LINE
  5
11923
330
1E
100
AcDbEntity
  8
虛線
 48
0.27
100
AcDbLine
 10
2281.412513967703
 20
-311.4878898248806
 30
0.0
 11
2263.412513967702
 21
-311.4878898248806
 31
0.0
  0
LINE
  5
11924
330
1E
100
AcDbEntity
  8
虛線
 48
0.27
100
AcDbLine
 10
2263.412513967702
 20
-299.9878948248785
 30
0.0
 11
2263.412513967702
 21
-311.4878898248806
 31
0.0
  0
LINE
  5
11925
330
1E
100
AcDbEntity
  8
虛線
 48
0.27
100
AcDbLine
 10
2281.412513967703
 20
-299.9878948248785
 30
0.0
 11
2281.412513967703
 21
-311.4878898248806
 31
0.0
  0
LINE
  5
11939
330
1E
100
AcDbEntity
  8
虛線
 48
0.27
100
AcDbLine
 10
2563.41277282035
 20
-281.4878372222049
 30
0.0
 11
2562.91277646617
 21
-280.9878335764116
 31
0.0
  0
LINE
  5
1193A
330
1E
100
AcDbEntity
  8
虛線
 48
0.27
100
AcDbLine
 10
2581.412513967704
 20
-281.4879028457802
 30
0.0
 11
2581.912513967703
 21
-280.9879028457801
 31
0.0
  0
LINE
  5
1193B
330
1E
100
AcDbEntity
  8
虛線
 48
0.27
100
AcDbLine
 10
2563.412513967703
 20
-281.4879028457802
 30
0.0
 11
2581.412513967704
 21
-281.4879028457802
 31
0.0
  0
LINE
  5
1193C
330
1E
100
AcDbEntity
  8
虛線
 48
0.27
100
AcDbLine
 10
2559.181569337469
 20
-258.9878950124805
 30
0.0
 11
2559.412513967703
 21
-259.3879028457807
 31
0.0
  0
LINE
  5
1193D
330
1E
100
AcDbEntity
  8
虛線
 48
0.27
100
AcDbLine
 10
2585.643458597937
 20
-258.9878950124805
 30
0.0
 11
2585.412513967703
 21
-259.3879028457807
 31
0.0
  0
LINE
  5
1193E
330
1E
100
AcDbEntity
  8
虛線
 48
0.27
100
AcDbLine
 10
2559.412513967704
 20
-259.3879028457798
 30
0.0
 11
2559.412513967704
 21
-280.9879028457802
 31
0.0
  0
LINE
  5
1193F
330
1E
100
AcDbEntity
  8
虛線
 48
0.27
100
AcDbLine
 10
2585.412513967703
 20
-259.3879028457807
 30
0.0
 11
2585.412513967704
 21
-280.9879028457802
 31
0.0
  0
LINE
  5
11940
330
1E
100
AcDbEntity
  8
虛線
 48
0.27
100
AcDbLine
 10
2559.412513967704
 20
-280.9879028457802
 30
0.0
 11
2585.412513967704
 21
-280.9879028457802
 31
0.0
  0
LINE
  5
11941
330
1E
100
AcDbEntity
  8
虛線
 48
0.27
100
AcDbLine
 10
2559.412513967704
 20
-259.3879028457798
 30
0.0
 11
2585.412513967703
 21
-259.3879028457807
 31
0.0
  0
LINE
  5
11942
330
1E
100
AcDbEntity
  8
虛線
 48
0.27
100
AcDbLine
 10
2563.412554072049
 20
-311.4878242005077
 30
0.0
 11
2562.912550426256
 21
-311.9878205546878
 31
0.0
  0
LINE
  5
11943
330
1E
100
AcDbEntity
  8
虛線
 48
0.27
100
AcDbLine
 10
2581.412513967703
 20
-311.4878898248805
 30
0.0
 11
2581.912513967703
 21
-311.9878898248805
 31
0.0
  0
LINE
  5
11944
330
1E
100
AcDbEntity
  8
虛線
 48
0.27
100
AcDbLine
 10
2581.412513967703
 20
-311.4878898248805
 30
0.0
 11
2563.412513967703
 21
-311.4878898248805
 31
0.0
  0
LINE
  5
11945
330
1E
100
AcDbEntity
  8
虛線
 48
0.27
100
AcDbLine
 10
2563.412513967703
 20
-281.4879028457802
 30
0.0
 11
2563.412513967703
 21
-311.4878898248805
 31
0.0
  0
LINE
  5
11946
330
1E
100
AcDbEntity
  8
虛線
 48
0.27
100
AcDbLine
 10
2581.412513967704
 20
-281.4879028457802
 30
0.0
 11
2581.412513967703
 21
-311.4878898248805
 31
0.0
  0
LINE
  5
11963
330
1E
100
AcDbEntity
  8
虛線
 48
0.27
100
AcDbLine
 10
2488.412554072049
 20
-311.4878242005056
 30
0.0
 11
2487.912550426256
 21
-311.9878205546858
 31
0.0
  0
LINE
  5
11964
330
1E
100
AcDbEntity
  8
虛線
 48
0.27
100
AcDbLine
 10
2506.412513967703
 20
-311.4878898248784
 30
0.0
 11
2506.912513967703
 21
-311.9878898248785
 31
0.0
  0
LINE
  5
11965
330
1E
100
AcDbEntity
  8
虛線
 48
0.27
100
AcDbLine
 10
2506.412513967703
 20
-311.4878898248784
 30
0.0
 11
2488.412513967702
 21
-311.4878898248784
 31
0.0
  0
LINE
  5
11966
330
1E
100
AcDbEntity
  8
虛線
 48
0.27
100
AcDbLine
 10
2488.412513967702
 20
-299.9878948248785
 30
0.0
 11
2488.412513967702
 21
-311.4878898248784
 31
0.0
  0
LINE
  5
11967
330
1E
100
AcDbEntity
  8
虛線
 48
0.27
100
AcDbLine
 10
2506.412513967703
 20
-299.9878948248785
 30
0.0
 11
2506.412513967703
 21
-311.4878898248784
 31
0.0
  0
LINE
  5
11984
330
1E
100
AcDbEntity
  8
虛線
 48
0.27
100
AcDbLine
 10
2413.412554072049
 20
-311.4878242005037
 30
0.0
 11
2412.912550426256
 21
-311.9878205546838
 31
0.0
  0
LINE
  5
11985
330
1E
100
AcDbEntity
  8
虛線
 48
0.27
100
AcDbLine
 10
2431.412513967703
 20
-311.4878898248765
 30
0.0
 11
2431.912513967703
 21
-311.9878898248765
 31
0.0
  0
LINE
  5
11986
330
1E
100
AcDbEntity
  8
虛線
 48
0.27
100
AcDbLine
 10
2431.412513967703
 20
-311.4878898248765
 30
0.0
 11
2413.412513967703
 21
-311.4878898248765
 31
0.0
  0
LINE
  5
11987
330
1E
100
AcDbEntity
  8
虛線
 48
0.27
100
AcDbLine
 10
2413.412513967703
 20
-299.9878948248785
 30
0.0
 11
2413.412513967703
 21
-311.4878898248765
 31
0.0
  0
LINE
  5
11988
330
1E
100
AcDbEntity
  8
虛線
 48
0.27
100
AcDbLine
 10
2431.412513967704
 20
-299.9878948248785
 30
0.0
 11
2431.412513967703
 21
-311.4878898248765
 31
0.0
  0
LINE
  5
11994
330
1E
100
AcDbEntity
  8
虛線
 48
0.27
100
AcDbLine
 10
2356.412513967705
 20
-299.9878948248765
 30
0.0
 11
2356.412513967704
 21
-311.4878898248745
 31
0.0
  0
LINE
  5
11995
330
1E
100
AcDbEntity
  8
虛線
 48
0.27
100
AcDbLine
 10
2338.412513967703
 20
-299.9878948248765
 30
0.0
 11
2338.412513967703
 21
-311.4878898248745
 31
0.0
  0
LINE
  5
11996
330
1E
100
AcDbEntity
  8
虛線
 48
0.27
100
AcDbLine
 10
2356.412513967704
 20
-311.4878898248745
 30
0.0
 11
2338.412513967703
 21
-311.4878898248745
 31
0.0
  0
LINE
  5
11997
330
1E
100
AcDbEntity
  8
虛線
 48
0.27
100
AcDbLine
 10
2356.412513967704
 20
-311.4878898248745
 30
0.0
 11
2356.912513967703
 21
-311.9878898248745
 31
0.0
  0
LINE
  5
11998
330
1E
100
AcDbEntity
  8
虛線
 48
0.27
100
AcDbLine
 10
2338.412554072049
 20
-311.4878242005017
 30
0.0
 11
2337.912550426256
 21
-311.9878205546818
 31
0.0
  0
LINE
  5
1199C
330
1E
100
AcDbEntity
  8
中心線
100
AcDbLine
 10
2502.412532196853
 20
-81.09971876412023
 30
0.0
 11
2267.412532196853
 21
-81.09971876412023
 31
0.0
  0
LINE
  5
1199D
330
1E
100
AcDbEntity
  8
中心線
100
AcDbLine
 10
2384.912532196853
 20
9.900281235879731
 30
0.0
 11
2384.912532196853
 21
-172.0997187641201
 31
0.0
  0
LINE
  5
119AA
330
1E
100
AcDbEntity
  8
中心線
100
AcDbLine
 10
2430.012241902357
 20
-152.0997187641202
 30
0.0
 11
2449.812822491349
 21
-152.0997187641202
 31
0.0
  0
LINE
  5
119AB
330
1E
100
AcDbEntity
  8
中心線
100
AcDbLine
 10
2439.912532196853
 20
-142.1582332675635
 30
0.0
 11
2439.912532196853
 21
-162.0412042606768
 31
0.0
  0
LINE
  5
119BC
330
1E
100
AcDbEntity
  8
中心線
100
AcDbLine
 10
2425.912532196853
 20
-71.15823326756362
 30
0.0
 11
2425.912532196853
 21
-91.04120426067693
 31
0.0
  0
ARC
  5
119BE
330
1E
100
AcDbEntity
  8
標註線
 62
     1
100
AcDbCircle
 10
2425.912532196853
 20
-81.09971876412027
 30
0.0
 40
8.0
100
AcDbArc
 50
180.0
 51
90.0
  0
CIRCLE
  5
119BF
330
1E
100
AcDbEntity
  8
0
  6
Continuous
 62
     7
100
AcDbCircle
 10
2425.912532196853
 20
-81.09971876412027
 30
0.0
 40
7.0
  0
LINE
  5
119C9
330
1E
100
AcDbEntity
  8
中心線
100
AcDbLine
 10
2439.912532196853
 20
-0.1582332675636167
 30
0.0
 11
2439.912532196853
 21
-20.04120426067692
 31
0.0
  0
LINE
  5
119CA
330
1E
100
AcDbEntity
  8
中心線
100
AcDbLine
 10
2430.012241902357
 20
-10.0997187641203
 30
0.0
 11
2449.812822491349
 21
-10.0997187641203
 31
0.0
  0
ARC
  5
119CB
330
1E
100
AcDbEntity
  8
標註線
 62
     1
100
AcDbCircle
 10
2439.912532196853
 20
-10.09971876412027
 30
0.0
 40
8.0
100
AcDbArc
 50
180.0
 51
90.0
  0
CIRCLE
  5
119CC
330
1E
100
AcDbEntity
  8
0
  6
Continuous
 62
     7
100
AcDbCircle
 10
2439.912532196853
 20
-10.09971876412027
 30
0.0
 40
7.0
  0
LINE
  5
119D6
330
1E
100
AcDbEntity
  8
中心線
100
AcDbLine
 10
2329.912532196853
 20
-0.1582332675636167
 30
0.0
 11
2329.912532196853
 21
-20.04120426067692
 31
0.0
  0
LINE
  5
119D7
330
1E
100
AcDbEntity
  8
中心線
100
AcDbLine
 10
2320.012241902357
 20
-10.0997187641203
 30
0.0
 11
2339.812822491349
 21
-10.0997187641203
 31
0.0
  0
ARC
  5
119D8
330
1E
100
AcDbEntity
  8
標註線
 62
     1
100
AcDbCircle
 10
2329.912532196853
 20
-10.09971876412027
 30
0.0
 40
8.0
100
AcDbArc
 50
180.0
 51
90.0
  0
CIRCLE
  5
119D9
330
1E
100
AcDbEntity
  8
0
  6
Continuous
 62
     7
100
AcDbCircle
 10
2329.912532196853
 20
-10.09971876412027
 30
0.0
 40
7.0
  0
LINE
  5
119E3
330
1E
100
AcDbEntity
  8
中心線
100
AcDbLine
 10
2343.912532196853
 20
-71.15823326756359
 30
0.0
 11
2343.912532196853
 21
-91.04120426067689
 31
0.0
  0
ARC
  5
119E5
330
1E
100
AcDbEntity
  8
標註線
 62
     1
100
AcDbCircle
 10
2343.912532196853
 20
-81.09971876412023
 30
0.0
 40
8.0
100
AcDbArc
 50
180.0
 51
90.0
  0
CIRCLE
  5
119E6
330
1E
100
AcDbEntity
  8
0
  6
Continuous
 62
     7
100
AcDbCircle
 10
2343.912532196853
 20
-81.09971876412023
 30
0.0
 40
7.0
  0
LINE
  5
119F0
330
1E
100
AcDbEntity
  8
中心線
100
AcDbLine
 10
2329.912532196853
 20
-142.1582332675635
 30
0.0
 11
2329.912532196853
 21
-162.0412042606768
 31
0.0
  0
LINE
  5
119F1
330
1E
100
AcDbEntity
  8
中心線
100
AcDbLine
 10
2320.012241902357
 20
-152.0997187641202
 30
0.0
 11
2339.812822491349
 21
-152.0997187641202
 31
0.0
  0
ARC
  5
119F2
330
1E
100
AcDbEntity
  8
標註線
 62
     1
100
AcDbCircle
 10
2329.912532196853
 20
-152.0997187641202
 30
0.0
 40
8.0
100
AcDbArc
 50
180.0
 51
90.0
  0
CIRCLE
  5
119F3
330
1E
100
AcDbEntity
  8
0
  6
Continuous
 62
     7
100
AcDbCircle
 10
2329.912532196853
 20
-152.0997187641202
 30
0.0
 40
7.0
  0
ARC
  5
119F8
330
1E
100
AcDbEntity
  8
0
  6
Continuous
 62
     7
100
AcDbCircle
 10
2532.412532196853
 20
-134.3497187641202
 30
0.0
 40
2.0
100
AcDbArc
 50
0.0
 51
90.0
  0
ARC
  5
119F9
330
1E
100
AcDbEntity
  8
0
  6
Continuous
 62
     7
100
AcDbCircle
 10
2532.412532196853
 20
-138.8497187641202
 30
0.0
 40
2.0
100
AcDbArc
 50
270.0
 51
0.0
  0
LINE
  5
119FA
330
1E
100
AcDbEntity
  8
0
  6
Continuous
 62
     7
100
AcDbLine
 10
2534.412532196853
 20
-134.3497187641202
 30
0.0
 11
2534.412532196853
 21
-138.8497187641202
 31
0.0
  0
LINE
  5
119FD
330
1E
100
AcDbEntity
  8
中心線
100
AcDbLine
 10
2537.077382382891
 20
-136.5997187641196
 30
0.0
 11
2524.432156854962
 21
-136.5997187641196
 31
0.0
  0
LINE
  5
119FE
330
1E
100
AcDbEntity
  8
中心線
100
AcDbLine
 10
2537.077382382891
 20
-25.59971876412081
 30
0.0
 11
2524.432156854962
 21
-25.59971876412081
 31
0.0
  0
LINE
  5
119FF
330
1E
100
AcDbEntity
  8
0
  6
Continuous
 62
     7
100
AcDbLine
 10
2534.412532196853
 20
-27.84971876412024
 30
0.0
 11
2534.412532196853
 21
-23.34971876412024
 31
0.0
  0
ARC
  5
11A00
330
1E
100
AcDbEntity
  8
0
  6
Continuous
 62
     7
100
AcDbCircle
 10
2532.412532196853
 20
-23.34971876412024
 30
0.0
 40
2.0
100
AcDbArc
 50
0.0
 51
90.00000000000003
  0
ARC
  5
11A01
330
1E
100
AcDbEntity
  8
0
  6
Continuous
 62
     7
100
AcDbCircle
 10
2532.412532196853
 20
-27.84971876412024
 30
0.0
 40
2.0
100
AcDbArc
 50
270.0
 51
0.0
  0
ARC
  5
11A02
330
1E
100
AcDbEntity
  8
0
  6
Continuous
 62
     7
100
AcDbCircle
 10
2237.412532196853
 20
-27.84971876412024
 30
0.0
 40
2.0
100
AcDbArc
 50
180.0
 51
270.0
  0
ARC
  5
11A03
330
1E
100
AcDbEntity
  8
0
  6
Continuous
 62
     7
100
AcDbCircle
 10
2237.412532196853
 20
-23.34971876412024
 30
0.0
 40
2.0
100
AcDbArc
 50
89.99999999999998
 51
180.0
  0
LINE
  5
11A04
330
1E
100
AcDbEntity
  8
0
  6
Continuous
 62
     7
100
AcDbLine
 10
2235.412532196853
 20
-27.84971876412024
 30
0.0
 11
2235.412532196853
 21
-23.34971876412024
 31
0.0
  0
LINE
  5
11A05
330
1E
100
AcDbEntity
  8
中心線
100
AcDbLine
 10
2232.747682010816
 20
-25.59971876412081
 30
0.0
 11
2245.392907538744
 21
-25.59971876412081
 31
0.0
  0
LINE
  5
11A06
330
1E
100
AcDbEntity
  8
中心線
100
AcDbLine
 10
2232.747682010816
 20
-136.5997187641196
 30
0.0
 11
2245.392907538744
 21
-136.5997187641196
 31
0.0
  0
LINE
  5
11A07
330
1E
100
AcDbEntity
  8
0
  6
Continuous
 62
     7
100
AcDbLine
 10
2235.412532196853
 20
-134.3497187641202
 30
0.0
 11
2235.412532196853
 21
-138.8497187641202
 31
0.0
  0
ARC
  5
11A08
330
1E
100
AcDbEntity
  8
0
  6
Continuous
 62
     7
100
AcDbCircle
 10
2237.412532196853
 20
-138.8497187641202
 30
0.0
 40
2.0
100
AcDbArc
 50
180.0
 51
270.0
  0
ARC
  5
11A09
330
1E
100
AcDbEntity
  8
0
  6
Continuous
 62
     7
100
AcDbCircle
 10
2237.412532196853
 20
-134.3497187641202
 30
0.0
 40
2.0
100
AcDbArc
 50
90.0
 51
180.0
  0
LINE
  5
11A1C
330
1E
100
AcDbEntity
  8
中心線
 48
0.27
100
AcDbLine
 10
2572.412532196854
 20
-98.1677887676337
 30
0.0
 11
2572.412532196854
 21
-64.03164876060687
 31
0.0
  0
CIRCLE
  5
11A1D
330
1E
100
AcDbEntity
  8
0
100
AcDbCircle
 10
2572.412532196854
 20
-81.09971876412016
 30
0.0
 40
13.0
  0
CIRCLE
  5
11A1E
330
1E
100
AcDbEntity
  8
0
100
AcDbCircle
 10
2572.412532196854
 20
-81.09971876412028
 30
0.0
 40
9.0
  0
LINE
  5
11A1F
330
1E
100
AcDbEntity
  8
中心線
 48
0.27
100
AcDbLine
 10
2555.69446219334
 20
-81.09971876412028
 30
0.0
 11
2589.130602200367
 21
-81.0997187641203
 31
0.0
  0
ENDSEC
  0
SECTION
  2
OBJECTS
  0
DICTIONARY
  5
C
330
0
100
AcDbDictionary
281
     1
  3
ACAD_COLOR
350
3D97
  3
ACAD_GROUP
350
D
  3
ACAD_LAYOUT
350
19
  3
ACAD_MATERIAL
350
3D96
  3
ACAD_MLINESTYLE
350
16
  3
ACAD_PLOTSETTINGS
350
18
  3
ACAD_PLOTSTYLENAME
350
E
  3
ACAD_TABLESTYLE
350
E7A3
  3
ACDBHEADERROUNDTRIPXREC
350
11AA6
  3
AcDbVariableDictionary
350
3E63
  0
DICTIONARY
  5
43C2
330
2
100
AcDbDictionary
280
     1
281
     1
  3
ACAD_LAYERSTATES
360
43C3
  0
DICTIONARY
  5
3D1E
330
1E
100
AcDbDictionary
280
     1
281
     1
  3
ACAD_LAYOUTSELFREF
360
3D92
  0
DICTIONARY
  5
3D20
330
1A
100
AcDbDictionary
280
     1
281
     1
  3
ACAD_LAYOUTSELFREF
360
3D91
  0
DICTIONARY
  5
69B8
330
69B7
100
AcDbDictionary
280
     1
281
     1
  3
ACAD_SORTENTS
360
69B9
  0
DICTIONARY
  5
69CC
330
69CB
100
AcDbDictionary
280
     1
281
     1
  3
ACAD_SORTENTS
360
69CD
  0
DICTIONARY
  5
F2D8
330
F158
100
AcDbDictionary
280
     1
281
     1
  0
DICTIONARY
  5
F3F6
330
F2DC
100
AcDbDictionary
280
     1
281
     1
  0
DICTIONARY
  5
10F82
330
10F81
100
AcDbDictionary
280
     1
281
     1
  3
ACAD_SORTENTS
360
10F83
  0
DICTIONARY
  5
111BB
330
11124
100
AcDbDictionary
280
     1
281
     1
  0
DICTIONARY
  5
3D97
102
{ACAD_REACTORS
330
C
102
}
330
C
100
AcDbDictionary
281
     1
  0
DICTIONARY
  5
D
102
{ACAD_REACTORS
330
C
102
}
330
C
100
AcDbDictionary
281
     1
  3
*A1
350
4143
  3
*A10
350
43BD
  3
*A11
350
4236
  3
*A12
350
437E
  3
*A13
350
4377
  3
*A14
350
4145
  3
*A15
350
437A
  3
*A16
350
43BF
  3
*A17
350
4379
  3
*A18
350
43C1
  3
*A19
350
423D
  3
*A2
350
43B8
  3
*A20
350
437D
  3
*A21
350
414D
  3
*A22
350
4146
  3
*A23
350
4149
  3
*A24
350
437F
  3
*A25
350
414B
  3
*A26
350
4375
  3
*A27
350
43B7
  3
*A28
350
423A
  3
*A29
350
414E
  3
*A3
350
576A
  3
*A30
350
43B9
  3
*A31
350
57D9
  3
*A32
350
437B
  3
*A33
350
43BC
  3
*A34
350
4241
  3
*A35
350
4144
  3
*A36
350
43BE
  3
*A37
350
4238
  3
*A38
350
43B5
  3
*A39
350
43C0
  3
*A4
350
4378
  3
*A40
350
414C
  3
*A41
350
4148
  3
*A42
350
423F
  3
*A43
350
43BA
  3
*A44
350
414A
  3
*A45
350
4239
  3
*A46
350
5691
  3
*A47
350
4376
  3
*A48
350
4147
  3
*A49
350
579E
  3
*A5
350
4240
  3
*A50
350
4235
  3
*A51
350
437C
  3
*A52
350
414F
  3
*A53
350
4237
  3
*A54
350
423C
  3
*A55
350
43B6
  3
*A56
350
423B
  3
*A6
350
423E
  3
*A7
350
4374
  3
*A8
350
43BB
  3
*A9
350
4373
  0
DICTIONARY
  5
19
102
{ACAD_REACTORS
330
C
102
}
330
C
100
AcDbDictionary
281
     1
  3
Model
350
21
  3
配置1
350
1D
  0
DICTIONARY
  5
3D96
102
{ACAD_REACTORS
330
C
102
}
330
C
100
AcDbDictionary
281
     1
  0
DICTIONARY
  5
16
102
{ACAD_REACTORS
330
C
102
}
330
C
100
AcDbDictionary
281
     1
  3
Standard
350
17
  0
DICTIONARY
  5
18
102
{ACAD_REACTORS
330
C
102
}
330
C
100
AcDbDictionary
281
     1
  3
LANSRO
350
4150
  0
ACDBDICTIONARYWDFLT
  5
E
102
{ACAD_REACTORS
330
C
102
}
330
C
100
AcDbDictionary
281
     1
  3
Normal
350
F
100
AcDbDictionaryWithDefault
340
F
  0
DICTIONARY
  5
E7A3
102
{ACAD_REACTORS
330
C
102
}
330
C
100
AcDbDictionary
281
     1
  3
Standard
350
E7A4
  0
DICTIONARY
  5
11AA6
102
{ACAD_REACTORS
330
C
102
}
330
C
100
AcDbDictionary
281
     1
  3
COLORDICT
350
11AA8
  3
MATERIALDICT
350
11AA7
  0
DICTIONARY
  5
3E63
102
{ACAD_REACTORS
330
C
102
}
330
C
100
AcDbDictionary
281
     1
  3
CTABLESTYLE
350
E8F8
  3
DIMASSOC
350
3E64
  3
PROJECTNAME
350
3E65
  0
DICTIONARY
  5
43C3
102
{ACAD_REACTORS
330
43C2
102
}
330
43C2
100
AcDbDictionary
281
     1
  0
XRECORD
  5
3D92
102
{ACAD_REACTORS
330
3D1E
102
}
330
3D1E
100
AcDbXrecord
280
     1
340
1E
  0
XRECORD
  5
3D91
102
{ACAD_REACTORS
330
3D20
102
}
330
3D20
100
AcDbXrecord
280
     1
340
1A
  0
SORTENTSTABLE
  5
69B9
102
{ACAD_REACTORS
330
69B8
102
}
330
69B8
100
AcDbSortentsTable
330
69B7
  0
SORTENTSTABLE
  5
69CD
102
{ACAD_REACTORS
330
69CC
102
}
330
69CC
100
AcDbSortentsTable
330
69CB
  0
SORTENTSTABLE
  5
10F83
102
{ACAD_REACTORS
330
10F82
102
}
330
10F82
100
AcDbSortentsTable
330
10F81
  0
GROUP
  5
4143
102
{ACAD_REACTORS
330
D
102
}
330
D
100
AcDbGroup
300

 70
     1
 71
     1
  0
GROUP
  5
43BD
102
{ACAD_REACTORS
330
D
102
}
330
D
100
AcDbGroup
300

 70
     1
 71
     1
  0
GROUP
  5
4236
102
{ACAD_REACTORS
330
D
102
}
330
D
100
AcDbGroup
300

 70
     1
 71
     1
  0
GROUP
  5
437E
102
{ACAD_REACTORS
330
D
102
}
330
D
100
AcDbGroup
300

 70
     1
 71
     1
  0
GROUP
  5
4377
102
{ACAD_REACTORS
330
D
102
}
330
D
100
AcDbGroup
300

 70
     1
 71
     1
  0
GROUP
  5
4145
102
{ACAD_REACTORS
330
D
102
}
330
D
100
AcDbGroup
300

 70
     1
 71
     1
  0
GROUP
  5
437A
102
{ACAD_REACTORS
330
D
102
}
330
D
100
AcDbGroup
300

 70
     1
 71
     1
  0
GROUP
  5
43BF
102
{ACAD_REACTORS
330
D
102
}
330
D
100
AcDbGroup
300

 70
     1
 71
     1
  0
GROUP
  5
4379
102
{ACAD_REACTORS
330
D
102
}
330
D
100
AcDbGroup
300

 70
     1
 71
     1
  0
GROUP
  5
43C1
102
{ACAD_REACTORS
330
D
102
}
330
D
100
AcDbGroup
300

 70
     1
 71
     1
  0
GROUP
  5
423D
102
{ACAD_REACTORS
330
D
102
}
330
D
100
AcDbGroup
300

 70
     1
 71
     1
  0
GROUP
  5
43B8
102
{ACAD_REACTORS
330
D
102
}
330
D
100
AcDbGroup
300

 70
     1
 71
     1
  0
GROUP
  5
437D
102
{ACAD_REACTORS
330
D
102
}
330
D
100
AcDbGroup
300

 70
     1
 71
     1
  0
GROUP
  5
414D
102
{ACAD_REACTORS
330
D
102
}
330
D
100
AcDbGroup
300

 70
     1
 71
     1
  0
GROUP
  5
4146
102
{ACAD_REACTORS
330
D
102
}
330
D
100
AcDbGroup
300

 70
     1
 71
     1
  0
GROUP
  5
4149
102
{ACAD_REACTORS
330
D
102
}
330
D
100
AcDbGroup
300

 70
     1
 71
     1
  0
GROUP
  5
437F
102
{ACAD_REACTORS
330
D
102
}
330
D
100
AcDbGroup
300

 70
     1
 71
     1
  0
GROUP
  5
414B
102
{ACAD_REACTORS
330
D
102
}
330
D
100
AcDbGroup
300

 70
     1
 71
     1
  0
GROUP
  5
4375
102
{ACAD_REACTORS
330
D
102
}
330
D
100
AcDbGroup
300

 70
     1
 71
     1
  0
GROUP
  5
43B7
102
{ACAD_REACTORS
330
D
102
}
330
D
100
AcDbGroup
300

 70
     1
 71
     1
  0
GROUP
  5
423A
102
{ACAD_REACTORS
330
D
102
}
330
D
100
AcDbGroup
300

 70
     1
 71
     1
  0
GROUP
  5
414E
102
{ACAD_REACTORS
330
D
102
}
330
D
100
AcDbGroup
300

 70
     1
 71
     1
  0
GROUP
  5
576A
102
{ACAD_REACTORS
330
D
102
}
330
D
100
AcDbGroup
300

 70
     1
 71
     1
  0
GROUP
  5
43B9
102
{ACAD_REACTORS
330
D
102
}
330
D
100
AcDbGroup
300

 70
     1
 71
     1
  0
GROUP
  5
57D9
102
{ACAD_REACTORS
330
D
102
}
330
D
100
AcDbGroup
300

 70
     1
 71
     1
  0
GROUP
  5
437B
102
{ACAD_REACTORS
330
D
102
}
330
D
100
AcDbGroup
300

 70
     1
 71
     1
  0
GROUP
  5
43BC
102
{ACAD_REACTORS
330
D
102
}
330
D
100
AcDbGroup
300

 70
     1
 71
     1
  0
GROUP
  5
4241
102
{ACAD_REACTORS
330
D
102
}
330
D
100
AcDbGroup
300

 70
     1
 71
     1
  0
GROUP
  5
4144
102
{ACAD_REACTORS
330
D
102
}
330
D
100
AcDbGroup
300

 70
     1
 71
     1
  0
GROUP
  5
43BE
102
{ACAD_REACTORS
330
D
102
}
330
D
100
AcDbGroup
300

 70
     1
 71
     1
  0
GROUP
  5
4238
102
{ACAD_REACTORS
330
D
102
}
330
D
100
AcDbGroup
300

 70
     1
 71
     1
  0
GROUP
  5
43B5
102
{ACAD_REACTORS
330
D
102
}
330
D
100
AcDbGroup
300

 70
     1
 71
     1
  0
GROUP
  5
43C0
102
{ACAD_REACTORS
330
D
102
}
330
D
100
AcDbGroup
300

 70
     1
 71
     1
  0
GROUP
  5
4378
102
{ACAD_REACTORS
330
D
102
}
330
D
100
AcDbGroup
300

 70
     1
 71
     1
  0
GROUP
  5
414C
102
{ACAD_REACTORS
330
D
102
}
330
D
100
AcDbGroup
300

 70
     1
 71
     1
  0
GROUP
  5
4148
102
{ACAD_REACTORS
330
D
102
}
330
D
100
AcDbGroup
300

 70
     1
 71
     1
  0
GROUP
  5
423F
102
{ACAD_REACTORS
330
D
102
}
330
D
100
AcDbGroup
300

 70
     1
 71
     1
  0
GROUP
  5
43BA
102
{ACAD_REACTORS
330
D
102
}
330
D
100
AcDbGroup
300

 70
     1
 71
     1
  0
GROUP
  5
414A
102
{ACAD_REACTORS
330
D
102
}
330
D
100
AcDbGroup
300

 70
     1
 71
     1
  0
GROUP
  5
4239
102
{ACAD_REACTORS
330
D
102
}
330
D
100
AcDbGroup
300

 70
     1
 71
     1
  0
GROUP
  5
5691
102
{ACAD_REACTORS
330
D
102
}
330
D
100
AcDbGroup
300

 70
     1
 71
     1
  0
GROUP
  5
4376
102
{ACAD_REACTORS
330
D
102
}
330
D
100
AcDbGroup
300

 70
     1
 71
     1
  0
GROUP
  5
4147
102
{ACAD_REACTORS
330
D
102
}
330
D
100
AcDbGroup
300

 70
     1
 71
     1
  0
GROUP
  5
579E
102
{ACAD_REACTORS
330
D
102
}
330
D
100
AcDbGroup
300

 70
     1
 71
     1
  0
GROUP
  5
4240
102
{ACAD_REACTORS
330
D
102
}
330
D
100
AcDbGroup
300

 70
     1
 71
     1
  0
GROUP
  5
4235
102
{ACAD_REACTORS
330
D
102
}
330
D
100
AcDbGroup
300

 70
     1
 71
     1
  0
GROUP
  5
437C
102
{ACAD_REACTORS
330
D
102
}
330
D
100
AcDbGroup
300

 70
     1
 71
     1
  0
GROUP
  5
414F
102
{ACAD_REACTORS
330
D
102
}
330
D
100
AcDbGroup
300

 70
     1
 71
     1
  0
GROUP
  5
4237
102
{ACAD_REACTORS
330
D
102
}
330
D
100
AcDbGroup
300

 70
     1
 71
     1
  0
GROUP
  5
423C
102
{ACAD_REACTORS
330
D
102
}
330
D
100
AcDbGroup
300

 70
     1
 71
     1
  0
GROUP
  5
43B6
102
{ACAD_REACTORS
330
D
102
}
330
D
100
AcDbGroup
300

 70
     1
 71
     1
  0
GROUP
  5
423B
102
{ACAD_REACTORS
330
D
102
}
330
D
100
AcDbGroup
300

 70
     1
 71
     1
  0
GROUP
  5
423E
102
{ACAD_REACTORS
330
D
102
}
330
D
100
AcDbGroup
300

 70
     1
 71
     1
  0
GROUP
  5
4374
102
{ACAD_REACTORS
330
D
102
}
330
D
100
AcDbGroup
300

 70
     1
 71
     1
  0
GROUP
  5
43BB
102
{ACAD_REACTORS
330
D
102
}
330
D
100
AcDbGroup
300

 70
     1
 71
     1
  0
GROUP
  5
4373
102
{ACAD_REACTORS
330
D
102
}
330
D
100
AcDbGroup
300

 70
     1
 71
     1
  0
LAYOUT
  5
21
102
{ACAD_XDICTIONARY
360
11AAB
102
}
102
{ACAD_REACTORS
330
19
102
}
330
19
100
AcDbPlotSettings
  1

  2
HP 2200
  4

  6

 40
0.0
 41
0.0
 42
0.0
 43
0.0
 44
0.0
 45
0.0
 46
0.0
 47
0.0
 48
0.0
 49
0.0
140
0.0
141
0.0
142
1.0
143
1.0
 70
  1712
 72
     0
 73
     0
 74
     0
  7
AAA.ctb
 75
     0
147
1.0
148
0.0
149
0.0
100
AcDbLayout
  1
Model
 70
     1
 71
     0
 10
0.0
 20
0.0
 11
12.0
 21
9.0
 12
0.0
 22
0.0
 32
0.0
 14
0.0
 24
0.0
 34
0.0
 15
0.0
 25
0.0
 35
0.0
146
0.0
 13
0.0
 23
0.0
 33
0.0
 16
1.0
 26
0.0
 36
0.0
 17
0.0
 27
1.0
 37
0.0
 76
     0
330
1E
  0
LAYOUT
  5
1D
102
{ACAD_XDICTIONARY
360
11AA9
102
}
102
{ACAD_REACTORS
330
19
102
}
330
19
100
AcDbPlotSettings
  1

  2
HP 2200
  4

  6

 40
0.0
 41
0.0
 42
0.0
 43
0.0
 44
0.0
 45
0.0
 46
0.0
 47
0.0
 48
0.0
 49
0.0
140
0.0
141
0.0
142
1.0
143
1.0
 70
   688
 72
     0
 73
     0
 74
     5
  7
AAA.ctb
 75
    16
147
1.0
148
0.0
149
0.0
100
AcDbLayout
  1
配置1
 70
     0
 71
     1
 10
0.0
 20
0.0
 11
12.0
 21
9.0
 12
0.0
 22
0.0
 32
0.0
 14
1.000000000000000E+20
 24
1.000000000000000E+20
 34
1.000000000000000E+20
 15
-1.000000000000000E+20
 25
-1.000000000000000E+20
 35
-1.000000000000000E+20
146
0.0
 13
0.0
 23
0.0
 33
0.0
 16
1.0
 26
0.0
 36
0.0
 17
0.0
 27
1.0
 37
0.0
 76
     0
330
1A
  0
MLINESTYLE
  5
17
102
{ACAD_REACTORS
330
16
102
}
330
16
100
AcDbMlineStyle
  2
STANDARD
 70
     0
  3

 62
   256
 51
90.0
 52
90.0
 71
     2
 49
0.5
 62
   256
  6
BYLAYER
 49
-0.5
 62
   256
  6
BYLAYER
  0
PLOTSETTINGS
  5
4150
102
{ACAD_XDICTIONARY
360
11AAD
102
}
102
{ACAD_REACTORS
330
18
102
}
330
18
100
AcDbPlotSettings
  1
LANSRO
  2
\\1260\HP2200
  4
A4
  6

 40
6.043083190917968
 41
6.762742042541503
 42
7.736419677734375
 43
5.027069091796875
 44
209.9733276367187
 45
296.9683227539062
 46
5.15
 47
0.0
 48
0.0
 49
0.0
140
0.0
141
0.0
142
1.0
143
0.8829829263240881
 70
  1716
 72
     1
 73
     1
 74
     0
  7
AAA.ctb
 75
     0
147
1.132524729739748
148
-132.297014905803
149
-71.78507365635891
  0
ACDBPLACEHOLDER
  5
F
102
{ACAD_REACTORS
330
E
102
}
330
E
  0
ACAD_PROXY_OBJECT
  5
E7A4
102
{ACAD_REACTORS
330
E7A3
102
}
330
E7A3
100
AcDbProxyObject
 90
      499
 91
      514
 95
   983063
 70
     0
 93
     1841
310
4214DD185B99185C9928B81E85EB51B8AE3F2E07A17AD46E2B8FC02B5E8DC0F42B1CFD028000000C1008070000C3001FDFF8000000C1003FBFF000000182007F7FE00000030400FEFFC00000060801FDFF8000000C1003FBFF00000018200000000000000681FA0B0000001820100E000186003FBFF000000182007F7FE000
310
00030400FEFFC00000060801FDFF8000000C1003FBFF000000182007F7FE000000304000AD7A3703D0AC73F4160000003040201C00030C007F7FE00000030400FEFFC00000060801FDFF8000000C1003FBFF000000182007F7FE00000030400FEFFC000000608058
340
11
340
11
340
11
 94
        0
1001
ACAD
1000
AcRTDxfName
1000
TABLESTYLE
1000
AcRTDxfName
1000
TABLESTYLE
  0
XRECORD
  5
11AA8
102
{ACAD_REACTORS
330
11AA6
102
}
330
11AA6
100
AcDbXrecord
280
     1
340
3D97
  0
XRECORD
  5
11AA7
102
{ACAD_REACTORS
330
11AA6
102
}
330
11AA6
100
AcDbXrecord
280
     1
340
3D96
  0
DICTIONARYVAR
  5
E8F8
102
{ACAD_REACTORS
330
3E63
102
}
330
3E63
100
DictionaryVariables
280
     0
  1
STANDARD
  0
DICTIONARYVAR
  5
3E64
102
{ACAD_REACTORS
330
3E63
102
}
330
3E63
100
DictionaryVariables
280
     0
  1
1
  0
DICTIONARYVAR
  5
3E65
102
{ACAD_REACTORS
330
3E63
102
}
330
3E63
100
DictionaryVariables
280
     0
  1

  0
DICTIONARY
  5
11AAB
330
21
100
AcDbDictionary
280
     1
281
     1
  3
ACAD_XREC_ROUNDTRIP
360
11AAC
  0
DICTIONARY
  5
11AA9
330
1D
100
AcDbDictionary
280
     1
281
     1
  3
ACAD_XREC_ROUNDTRIP
360
11AAA
  0
DICTIONARY
  5
11AAD
330
4150
100
AcDbDictionary
280
     1
281
     1
  3
ACAD_XREC_ROUNDTRIP
360
11AAE
  0
XRECORD
  5
11AAC
102
{ACAD_REACTORS
330
11AAB
102
}
330
11AAB
100
AcDbXrecord
280
     1
102
SHADEPLOT
 70
     0
102
SHADEPLOTRESLEVEL
 70
     2
102
SHADEPLOTCUSTOMDPI
 70
   300
  0
XRECORD
  5
11AAA
102
{ACAD_REACTORS
330
11AA9
102
}
330
11AA9
100
AcDbXrecord
280
     1
102
SHADEPLOT
 70
     0
102
SHADEPLOTRESLEVEL
 70
     2
102
SHADEPLOTCUSTOMDPI
 70
   300
  0
XRECORD
  5
11AAE
102
{ACAD_REACTORS
330
11AAD
102
}
330
11AAD
100
AcDbXrecord
280
     1
102
SHADEPLOT
 70
     0
102
SHADEPLOTRESLEVEL
 70
     2
102
SHADEPLOTCUSTOMDPI
 70
   300
  0
ENDSEC
  0
EOF
