ISO-10303-21;
HEADER;
/* Generated by software containing ST-Developer
 * from STEP Tools, Inc. (www.steptools.com) 
 */
/* OPTION: using custom schema-name function */

FILE_DESCRIPTION(
/* description */ (''),
/* implementation_level */ '2;1');

FILE_NAME(
/* name */ 'A118RVC1',
/* time_stamp */ '2009-10-08T14:39:21+08:00',
/* author */ (''),
/* organization */ (''),
/* preprocessor_version */ 'ST-DEVELOPER v11',
/* originating_system */ 'UGS - NX 5.0',
/* authorisation */ '');

FILE_SCHEMA (('CONFIG_CONTROL_DESIGN'));
ENDSEC;

DATA;
#10=SHAPE_REPRESENTATION_RELATIONSHIP('None',
'relationship between A118RVC1-None and A118RVC1-None',#94,#11);
#11=ADVANCED_BREP_SHAPE_REPRESENTATION('A118RVC1-None',(#95),#599);
#12=CC_DESIGN_APPROVAL(#24,(#82));
#13=CC_DESIGN_APPROVAL(#25,(#84));
#14=CC_DESIGN_APPROVAL(#26,(#31));
#15=APPROVAL_PERSON_ORGANIZATION(#69,#24,#18);
#16=APPROVAL_PERSON_ORGANIZATION(#70,#25,#19);
#17=APPROVAL_PERSON_ORGANIZATION(#71,#26,#20);
#18=APPROVAL_ROLE('approver');
#19=APPROVAL_ROLE('approver');
#20=APPROVAL_ROLE('approver');
#21=APPROVAL_DATE_TIME(#39,#24);
#22=APPROVAL_DATE_TIME(#40,#25);
#23=APPROVAL_DATE_TIME(#41,#26);
#24=APPROVAL(#27,' ');
#25=APPROVAL(#28,' ');
#26=APPROVAL(#29,' ');
#27=APPROVAL_STATUS('not_yet_approved');
#28=APPROVAL_STATUS('not_yet_approved');
#29=APPROVAL_STATUS('not_yet_approved');
#30=CC_DESIGN_SECURITY_CLASSIFICATION(#31,(#84));
#31=SECURITY_CLASSIFICATION(' ',' ',#32);
#32=SECURITY_CLASSIFICATION_LEVEL('confidential');
#33=CC_DESIGN_DATE_AND_TIME_ASSIGNMENT(#37,#35,(#82));
#34=CC_DESIGN_DATE_AND_TIME_ASSIGNMENT(#38,#36,(#31));
#35=DATE_TIME_ROLE('creation_date');
#36=DATE_TIME_ROLE('classification_date');
#37=DATE_AND_TIME(#52,#42);
#38=DATE_AND_TIME(#53,#43);
#39=DATE_AND_TIME(#54,#44);
#40=DATE_AND_TIME(#55,#45);
#41=DATE_AND_TIME(#56,#46);
#42=LOCAL_TIME(0,0,0.,#47);
#43=LOCAL_TIME(0,0,0.,#48);
#44=LOCAL_TIME(0,0,0.,#49);
#45=LOCAL_TIME(0,0,0.,#50);
#46=LOCAL_TIME(0,0,0.,#51);
#47=COORDINATED_UNIVERSAL_TIME_OFFSET(0,0,.BEHIND.);
#48=COORDINATED_UNIVERSAL_TIME_OFFSET(0,0,.BEHIND.);
#49=COORDINATED_UNIVERSAL_TIME_OFFSET(0,0,.BEHIND.);
#50=COORDINATED_UNIVERSAL_TIME_OFFSET(0,0,.BEHIND.);
#51=COORDINATED_UNIVERSAL_TIME_OFFSET(0,0,.BEHIND.);
#52=CALENDAR_DATE(0,1,1);
#53=CALENDAR_DATE(0,1,1);
#54=CALENDAR_DATE(0,1,1);
#55=CALENDAR_DATE(0,1,1);
#56=CALENDAR_DATE(0,1,1);
#57=CC_DESIGN_PERSON_AND_ORGANIZATION_ASSIGNMENT(#65,#61,(#82,#84));
#58=CC_DESIGN_PERSON_AND_ORGANIZATION_ASSIGNMENT(#66,#62,(#86));
#59=CC_DESIGN_PERSON_AND_ORGANIZATION_ASSIGNMENT(#67,#63,(#84));
#60=CC_DESIGN_PERSON_AND_ORGANIZATION_ASSIGNMENT(#68,#64,(#31));
#61=PERSON_AND_ORGANIZATION_ROLE('creator');
#62=PERSON_AND_ORGANIZATION_ROLE('design_owner');
#63=PERSON_AND_ORGANIZATION_ROLE('design_supplier');
#64=PERSON_AND_ORGANIZATION_ROLE('classification_officer');
#65=PERSON_AND_ORGANIZATION(#79,#72);
#66=PERSON_AND_ORGANIZATION(#79,#73);
#67=PERSON_AND_ORGANIZATION(#79,#74);
#68=PERSON_AND_ORGANIZATION(#79,#75);
#69=PERSON_AND_ORGANIZATION(#79,#76);
#70=PERSON_AND_ORGANIZATION(#79,#77);
#71=PERSON_AND_ORGANIZATION(#79,#78);
#72=ORGANIZATION(' ',' ',' ');
#73=ORGANIZATION(' ',' ',' ');
#74=ORGANIZATION(' ',' ',' ');
#75=ORGANIZATION(' ',' ',' ');
#76=ORGANIZATION(' ',' ',' ');
#77=ORGANIZATION(' ',' ',' ');
#78=ORGANIZATION(' ',' ',' ');
#79=PERSON(' ',' ',' ',(' '),$,$);
#80=SHAPE_DEFINITION_REPRESENTATION(#81,#94);
#81=PRODUCT_DEFINITION_SHAPE('','',#82);
#82=PRODUCT_DEFINITION(' ','',#84,#83);
#83=DESIGN_CONTEXT('',#93,'design');
#84=PRODUCT_DEFINITION_FORMATION_WITH_SPECIFIED_SOURCE(' ',' ',#86,.NOT_KNOWN.);
#85=PRODUCT_RELATED_PRODUCT_CATEGORY('detail','',(#86));
#86=PRODUCT('A118RVC1','A118RVC1',' ',(#91));
#87=PRODUCT_CATEGORY_RELATIONSHIP(' ',' ',#89,#90);
#88=PRODUCT_CATEGORY_RELATIONSHIP('','',#90,#85);
#89=PRODUCT_CATEGORY('part',' ');
#90=PRODUCT_CATEGORY(' ','');
#91=MECHANICAL_CONTEXT(' ',#93,'mechanical');
#92=APPLICATION_PROTOCOL_DEFINITION('international standard',
'config_control_design',1994,#93);
#93=APPLICATION_CONTEXT(
'configuration controlled 3D designs of mechanical parts and assemblies');
#94=SHAPE_REPRESENTATION('A118RVC1-None',(#387),#599);
#95=MANIFOLD_SOLID_BREP('',#96);
#96=CLOSED_SHELL('',(#113,#114,#115,#116,#117,#118,#119,#120,#121,#122,#123,
#124,#125,#126,#127,#128,#129));
#97=CYLINDRICAL_SURFACE('',#412,62.5);
#98=CYLINDRICAL_SURFACE('',#413,62.5);
#99=CYLINDRICAL_SURFACE('',#417,45.);
#100=CYLINDRICAL_SURFACE('',#418,31.5);
#101=CYLINDRICAL_SURFACE('',#421,5.5);
#102=CYLINDRICAL_SURFACE('',#422,5.5);
#103=CYLINDRICAL_SURFACE('',#423,5.5);
#104=CYLINDRICAL_SURFACE('',#424,5.5);
#105=CYLINDRICAL_SURFACE('',#425,5.5);
#106=CYLINDRICAL_SURFACE('',#426,5.5);
#107=CYLINDRICAL_SURFACE('',#427,5.5);
#108=CYLINDRICAL_SURFACE('',#428,5.5);
#109=FACE_OUTER_BOUND('',#213,.T.);
#110=FACE_OUTER_BOUND('',#214,.T.);
#111=FACE_OUTER_BOUND('',#221,.T.);
#112=FACE_OUTER_BOUND('',#222,.T.);
#113=ADVANCED_FACE('',(#151,#152,#153,#154,#155,#156,#157,#158,#159,#160),
#130,.T.);
#114=ADVANCED_FACE('',(#161,#162,#163,#164,#165,#166,#167,#168,#169,#170),
#131,.T.);
#115=ADVANCED_FACE('',(#109),#97,.T.);
#116=ADVANCED_FACE('',(#110),#98,.T.);
#117=ADVANCED_FACE('',(#171,#172),#132,.T.);
#118=ADVANCED_FACE('',(#173,#174),#99,.T.);
#119=ADVANCED_FACE('',(#175,#176),#100,.F.);
#120=ADVANCED_FACE('',(#111),#133,.T.);
#121=ADVANCED_FACE('',(#112),#134,.T.);
#122=ADVANCED_FACE('',(#177,#178),#101,.F.);
#123=ADVANCED_FACE('',(#179,#180),#102,.F.);
#124=ADVANCED_FACE('',(#181,#182),#103,.F.);
#125=ADVANCED_FACE('',(#183,#184),#104,.F.);
#126=ADVANCED_FACE('',(#185,#186),#105,.F.);
#127=ADVANCED_FACE('',(#187,#188),#106,.F.);
#128=ADVANCED_FACE('',(#189,#190),#107,.F.);
#129=ADVANCED_FACE('',(#191,#192),#108,.F.);
#130=PLANE('',#399);
#131=PLANE('',#411);
#132=PLANE('',#416);
#133=PLANE('',#419);
#134=PLANE('',#420);
#135=LINE('',#539,#143);
#136=LINE('',#543,#144);
#137=LINE('',#570,#145);
#138=LINE('',#574,#146);
#139=LINE('',#576,#147);
#140=LINE('',#577,#148);
#141=LINE('',#579,#149);
#142=LINE('',#580,#150);
#143=VECTOR('',#447,1.);
#144=VECTOR('',#450,1.);
#145=VECTOR('',#477,1.);
#146=VECTOR('',#480,1.);
#147=VECTOR('',#483,1.);
#148=VECTOR('',#484,1.);
#149=VECTOR('',#487,1.);
#150=VECTOR('',#488,1.);
#151=FACE_BOUND('',#193,.T.);
#152=FACE_BOUND('',#194,.T.);
#153=FACE_BOUND('',#195,.T.);
#154=FACE_BOUND('',#196,.T.);
#155=FACE_BOUND('',#197,.T.);
#156=FACE_BOUND('',#198,.T.);
#157=FACE_BOUND('',#199,.T.);
#158=FACE_BOUND('',#200,.T.);
#159=FACE_BOUND('',#201,.T.);
#160=FACE_BOUND('',#202,.T.);
#161=FACE_BOUND('',#203,.T.);
#162=FACE_BOUND('',#204,.T.);
#163=FACE_BOUND('',#205,.T.);
#164=FACE_BOUND('',#206,.T.);
#165=FACE_BOUND('',#207,.T.);
#166=FACE_BOUND('',#208,.T.);
#167=FACE_BOUND('',#209,.T.);
#168=FACE_BOUND('',#210,.T.);
#169=FACE_BOUND('',#211,.T.);
#170=FACE_BOUND('',#212,.T.);
#171=FACE_BOUND('',#215,.T.);
#172=FACE_BOUND('',#216,.T.);
#173=FACE_BOUND('',#217,.T.);
#174=FACE_BOUND('',#218,.T.);
#175=FACE_BOUND('',#219,.T.);
#176=FACE_BOUND('',#220,.T.);
#177=FACE_BOUND('',#223,.T.);
#178=FACE_BOUND('',#224,.T.);
#179=FACE_BOUND('',#225,.T.);
#180=FACE_BOUND('',#226,.T.);
#181=FACE_BOUND('',#227,.T.);
#182=FACE_BOUND('',#228,.T.);
#183=FACE_BOUND('',#229,.T.);
#184=FACE_BOUND('',#230,.T.);
#185=FACE_BOUND('',#231,.T.);
#186=FACE_BOUND('',#232,.T.);
#187=FACE_BOUND('',#233,.T.);
#188=FACE_BOUND('',#234,.T.);
#189=FACE_BOUND('',#235,.T.);
#190=FACE_BOUND('',#236,.T.);
#191=FACE_BOUND('',#237,.T.);
#192=FACE_BOUND('',#238,.T.);
#193=EDGE_LOOP('',(#239));
#194=EDGE_LOOP('',(#240));
#195=EDGE_LOOP('',(#241));
#196=EDGE_LOOP('',(#242));
#197=EDGE_LOOP('',(#243));
#198=EDGE_LOOP('',(#244));
#199=EDGE_LOOP('',(#245));
#200=EDGE_LOOP('',(#246,#247,#248,#249));
#201=EDGE_LOOP('',(#250));
#202=EDGE_LOOP('',(#251));
#203=EDGE_LOOP('',(#252));
#204=EDGE_LOOP('',(#253));
#205=EDGE_LOOP('',(#254));
#206=EDGE_LOOP('',(#255));
#207=EDGE_LOOP('',(#256));
#208=EDGE_LOOP('',(#257));
#209=EDGE_LOOP('',(#258));
#210=EDGE_LOOP('',(#259));
#211=EDGE_LOOP('',(#260));
#212=EDGE_LOOP('',(#261,#262,#263,#264));
#213=EDGE_LOOP('',(#265,#266,#267,#268));
#214=EDGE_LOOP('',(#269,#270,#271,#272));
#215=EDGE_LOOP('',(#273));
#216=EDGE_LOOP('',(#274));
#217=EDGE_LOOP('',(#275));
#218=EDGE_LOOP('',(#276));
#219=EDGE_LOOP('',(#277));
#220=EDGE_LOOP('',(#278));
#221=EDGE_LOOP('',(#279,#280,#281,#282));
#222=EDGE_LOOP('',(#283,#284,#285,#286));
#223=EDGE_LOOP('',(#287));
#224=EDGE_LOOP('',(#288));
#225=EDGE_LOOP('',(#289));
#226=EDGE_LOOP('',(#290));
#227=EDGE_LOOP('',(#291));
#228=EDGE_LOOP('',(#292));
#229=EDGE_LOOP('',(#293));
#230=EDGE_LOOP('',(#294));
#231=EDGE_LOOP('',(#295));
#232=EDGE_LOOP('',(#296));
#233=EDGE_LOOP('',(#297));
#234=EDGE_LOOP('',(#298));
#235=EDGE_LOOP('',(#299));
#236=EDGE_LOOP('',(#300));
#237=EDGE_LOOP('',(#301));
#238=EDGE_LOOP('',(#302));
#239=ORIENTED_EDGE('',*,*,#331,.T.);
#240=ORIENTED_EDGE('',*,*,#332,.F.);
#241=ORIENTED_EDGE('',*,*,#333,.F.);
#242=ORIENTED_EDGE('',*,*,#334,.F.);
#243=ORIENTED_EDGE('',*,*,#335,.F.);
#244=ORIENTED_EDGE('',*,*,#336,.T.);
#245=ORIENTED_EDGE('',*,*,#337,.T.);
#246=ORIENTED_EDGE('',*,*,#338,.F.);
#247=ORIENTED_EDGE('',*,*,#339,.T.);
#248=ORIENTED_EDGE('',*,*,#340,.F.);
#249=ORIENTED_EDGE('',*,*,#341,.T.);
#250=ORIENTED_EDGE('',*,*,#342,.T.);
#251=ORIENTED_EDGE('',*,*,#343,.T.);
#252=ORIENTED_EDGE('',*,*,#344,.F.);
#253=ORIENTED_EDGE('',*,*,#345,.F.);
#254=ORIENTED_EDGE('',*,*,#346,.F.);
#255=ORIENTED_EDGE('',*,*,#347,.F.);
#256=ORIENTED_EDGE('',*,*,#348,.F.);
#257=ORIENTED_EDGE('',*,*,#349,.F.);
#258=ORIENTED_EDGE('',*,*,#350,.F.);
#259=ORIENTED_EDGE('',*,*,#351,.F.);
#260=ORIENTED_EDGE('',*,*,#352,.F.);
#261=ORIENTED_EDGE('',*,*,#353,.F.);
#262=ORIENTED_EDGE('',*,*,#354,.T.);
#263=ORIENTED_EDGE('',*,*,#355,.F.);
#264=ORIENTED_EDGE('',*,*,#356,.T.);
#265=ORIENTED_EDGE('',*,*,#355,.T.);
#266=ORIENTED_EDGE('',*,*,#357,.T.);
#267=ORIENTED_EDGE('',*,*,#338,.T.);
#268=ORIENTED_EDGE('',*,*,#358,.T.);
#269=ORIENTED_EDGE('',*,*,#340,.T.);
#270=ORIENTED_EDGE('',*,*,#359,.T.);
#271=ORIENTED_EDGE('',*,*,#353,.T.);
#272=ORIENTED_EDGE('',*,*,#360,.T.);
#273=ORIENTED_EDGE('',*,*,#361,.F.);
#274=ORIENTED_EDGE('',*,*,#362,.F.);
#275=ORIENTED_EDGE('',*,*,#352,.T.);
#276=ORIENTED_EDGE('',*,*,#362,.T.);
#277=ORIENTED_EDGE('',*,*,#361,.T.);
#278=ORIENTED_EDGE('',*,*,#337,.F.);
#279=ORIENTED_EDGE('',*,*,#360,.F.);
#280=ORIENTED_EDGE('',*,*,#356,.F.);
#281=ORIENTED_EDGE('',*,*,#358,.F.);
#282=ORIENTED_EDGE('',*,*,#341,.F.);
#283=ORIENTED_EDGE('',*,*,#357,.F.);
#284=ORIENTED_EDGE('',*,*,#354,.F.);
#285=ORIENTED_EDGE('',*,*,#359,.F.);
#286=ORIENTED_EDGE('',*,*,#339,.F.);
#287=ORIENTED_EDGE('',*,*,#351,.T.);
#288=ORIENTED_EDGE('',*,*,#336,.F.);
#289=ORIENTED_EDGE('',*,*,#350,.T.);
#290=ORIENTED_EDGE('',*,*,#342,.F.);
#291=ORIENTED_EDGE('',*,*,#349,.T.);
#292=ORIENTED_EDGE('',*,*,#335,.T.);
#293=ORIENTED_EDGE('',*,*,#348,.T.);
#294=ORIENTED_EDGE('',*,*,#334,.T.);
#295=ORIENTED_EDGE('',*,*,#347,.T.);
#296=ORIENTED_EDGE('',*,*,#333,.T.);
#297=ORIENTED_EDGE('',*,*,#346,.T.);
#298=ORIENTED_EDGE('',*,*,#332,.T.);
#299=ORIENTED_EDGE('',*,*,#345,.T.);
#300=ORIENTED_EDGE('',*,*,#331,.F.);
#301=ORIENTED_EDGE('',*,*,#344,.T.);
#302=ORIENTED_EDGE('',*,*,#343,.F.);
#303=VERTEX_POINT('',#523);
#304=VERTEX_POINT('',#525);
#305=VERTEX_POINT('',#527);
#306=VERTEX_POINT('',#529);
#307=VERTEX_POINT('',#531);
#308=VERTEX_POINT('',#533);
#309=VERTEX_POINT('',#535);
#310=VERTEX_POINT('',#537);
#311=VERTEX_POINT('',#538);
#312=VERTEX_POINT('',#540);
#313=VERTEX_POINT('',#542);
#314=VERTEX_POINT('',#545);
#315=VERTEX_POINT('',#547);
#316=VERTEX_POINT('',#550);
#317=VERTEX_POINT('',#552);
#318=VERTEX_POINT('',#554);
#319=VERTEX_POINT('',#556);
#320=VERTEX_POINT('',#558);
#321=VERTEX_POINT('',#560);
#322=VERTEX_POINT('',#562);
#323=VERTEX_POINT('',#564);
#324=VERTEX_POINT('',#566);
#325=VERTEX_POINT('',#568);
#326=VERTEX_POINT('',#569);
#327=VERTEX_POINT('',#571);
#328=VERTEX_POINT('',#573);
#329=VERTEX_POINT('',#583);
#330=VERTEX_POINT('',#585);
#331=EDGE_CURVE('',#303,#303,#363,.T.);
#332=EDGE_CURVE('',#304,#304,#364,.T.);
#333=EDGE_CURVE('',#305,#305,#365,.T.);
#334=EDGE_CURVE('',#306,#306,#366,.T.);
#335=EDGE_CURVE('',#307,#307,#367,.T.);
#336=EDGE_CURVE('',#308,#308,#368,.T.);
#337=EDGE_CURVE('',#309,#309,#369,.T.);
#338=EDGE_CURVE('',#310,#311,#370,.T.);
#339=EDGE_CURVE('',#310,#312,#135,.T.);
#340=EDGE_CURVE('',#313,#312,#371,.T.);
#341=EDGE_CURVE('',#313,#311,#136,.T.);
#342=EDGE_CURVE('',#314,#314,#372,.T.);
#343=EDGE_CURVE('',#315,#315,#373,.T.);
#344=EDGE_CURVE('',#316,#316,#374,.T.);
#345=EDGE_CURVE('',#317,#317,#375,.T.);
#346=EDGE_CURVE('',#318,#318,#376,.T.);
#347=EDGE_CURVE('',#319,#319,#377,.T.);
#348=EDGE_CURVE('',#320,#320,#378,.T.);
#349=EDGE_CURVE('',#321,#321,#379,.T.);
#350=EDGE_CURVE('',#322,#322,#380,.T.);
#351=EDGE_CURVE('',#323,#323,#381,.T.);
#352=EDGE_CURVE('',#324,#324,#382,.T.);
#353=EDGE_CURVE('',#325,#326,#383,.T.);
#354=EDGE_CURVE('',#325,#327,#137,.T.);
#355=EDGE_CURVE('',#328,#327,#384,.T.);
#356=EDGE_CURVE('',#328,#326,#138,.T.);
#357=EDGE_CURVE('',#327,#310,#139,.T.);
#358=EDGE_CURVE('',#311,#328,#140,.T.);
#359=EDGE_CURVE('',#312,#325,#141,.T.);
#360=EDGE_CURVE('',#326,#313,#142,.T.);
#361=EDGE_CURVE('',#329,#329,#385,.T.);
#362=EDGE_CURVE('',#330,#330,#386,.T.);
#363=CIRCLE('',#388,5.5);
#364=CIRCLE('',#389,5.5);
#365=CIRCLE('',#390,5.5);
#366=CIRCLE('',#391,5.5);
#367=CIRCLE('',#392,5.5);
#368=CIRCLE('',#393,5.5);
#369=CIRCLE('',#394,31.5);
#370=CIRCLE('',#395,62.5);
#371=CIRCLE('',#396,62.5);
#372=CIRCLE('',#397,5.5);
#373=CIRCLE('',#398,5.5);
#374=CIRCLE('',#400,5.5);
#375=CIRCLE('',#401,5.5);
#376=CIRCLE('',#402,5.5);
#377=CIRCLE('',#403,5.5);
#378=CIRCLE('',#404,5.5);
#379=CIRCLE('',#405,5.5);
#380=CIRCLE('',#406,5.5);
#381=CIRCLE('',#407,5.5);
#382=CIRCLE('',#408,45.);
#383=CIRCLE('',#409,62.5);
#384=CIRCLE('',#410,62.5);
#385=CIRCLE('',#414,31.5);
#386=CIRCLE('',#415,45.);
#387=AXIS2_PLACEMENT_3D('',#521,#429,#430);
#388=AXIS2_PLACEMENT_3D('',#522,#431,#432);
#389=AXIS2_PLACEMENT_3D('',#524,#433,#434);
#390=AXIS2_PLACEMENT_3D('',#526,#435,#436);
#391=AXIS2_PLACEMENT_3D('',#528,#437,#438);
#392=AXIS2_PLACEMENT_3D('',#530,#439,#440);
#393=AXIS2_PLACEMENT_3D('',#532,#441,#442);
#394=AXIS2_PLACEMENT_3D('',#534,#443,#444);
#395=AXIS2_PLACEMENT_3D('',#536,#445,#446);
#396=AXIS2_PLACEMENT_3D('',#541,#448,#449);
#397=AXIS2_PLACEMENT_3D('',#544,#451,#452);
#398=AXIS2_PLACEMENT_3D('',#546,#453,#454);
#399=AXIS2_PLACEMENT_3D('',#548,#455,#456);
#400=AXIS2_PLACEMENT_3D('',#549,#457,#458);
#401=AXIS2_PLACEMENT_3D('',#551,#459,#460);
#402=AXIS2_PLACEMENT_3D('',#553,#461,#462);
#403=AXIS2_PLACEMENT_3D('',#555,#463,#464);
#404=AXIS2_PLACEMENT_3D('',#557,#465,#466);
#405=AXIS2_PLACEMENT_3D('',#559,#467,#468);
#406=AXIS2_PLACEMENT_3D('',#561,#469,#470);
#407=AXIS2_PLACEMENT_3D('',#563,#471,#472);
#408=AXIS2_PLACEMENT_3D('',#565,#473,#474);
#409=AXIS2_PLACEMENT_3D('',#567,#475,#476);
#410=AXIS2_PLACEMENT_3D('',#572,#478,#479);
#411=AXIS2_PLACEMENT_3D('',#575,#481,#482);
#412=AXIS2_PLACEMENT_3D('',#578,#485,#486);
#413=AXIS2_PLACEMENT_3D('',#581,#489,#490);
#414=AXIS2_PLACEMENT_3D('',#582,#491,#492);
#415=AXIS2_PLACEMENT_3D('',#584,#493,#494);
#416=AXIS2_PLACEMENT_3D('',#586,#495,#496);
#417=AXIS2_PLACEMENT_3D('',#587,#497,#498);
#418=AXIS2_PLACEMENT_3D('',#588,#499,#500);
#419=AXIS2_PLACEMENT_3D('',#589,#501,#502);
#420=AXIS2_PLACEMENT_3D('',#590,#503,#504);
#421=AXIS2_PLACEMENT_3D('',#591,#505,#506);
#422=AXIS2_PLACEMENT_3D('',#592,#507,#508);
#423=AXIS2_PLACEMENT_3D('',#593,#509,#510);
#424=AXIS2_PLACEMENT_3D('',#594,#511,#512);
#425=AXIS2_PLACEMENT_3D('',#595,#513,#514);
#426=AXIS2_PLACEMENT_3D('',#596,#515,#516);
#427=AXIS2_PLACEMENT_3D('',#597,#517,#518);
#428=AXIS2_PLACEMENT_3D('',#598,#519,#520);
#429=DIRECTION('',(0.,0.,1.));
#430=DIRECTION('',(1.,0.,0.));
#431=DIRECTION('',(0.,0.,1.));
#432=DIRECTION('',(0.965925826289069,0.258819045102521,0.));
#433=DIRECTION('',(0.,0.,-1.));
#434=DIRECTION('',(0.965925826289069,-0.258819045102521,0.));
#435=DIRECTION('',(0.,0.,-1.));
#436=DIRECTION('',(0.707106781186548,-0.707106781186548,0.));
#437=DIRECTION('',(0.,0.,-1.));
#438=DIRECTION('',(-0.707106781186548,0.707106781186548,0.));
#439=DIRECTION('',(0.,0.,-1.));
#440=DIRECTION('',(-0.965925826289069,0.258819045102521,0.));
#441=DIRECTION('',(0.,0.,1.));
#442=DIRECTION('',(-0.707106781186548,-0.707106781186548,0.));
#443=DIRECTION('',(0.,0.,1.));
#444=DIRECTION('',(1.,0.,0.));
#445=DIRECTION('',(0.,0.,1.));
#446=DIRECTION('',(1.,0.,0.));
#447=DIRECTION('',(-1.,0.,0.));
#448=DIRECTION('',(0.,0.,1.));
#449=DIRECTION('',(1.,0.,0.));
#450=DIRECTION('',(1.,0.,0.));
#451=DIRECTION('',(0.,0.,1.));
#452=DIRECTION('',(-0.965925826289069,-0.258819045102521,0.));
#453=DIRECTION('',(0.,0.,1.));
#454=DIRECTION('',(0.707106781186548,0.707106781186548,0.));
#455=DIRECTION('',(0.,0.,-1.));
#456=DIRECTION('',(-1.,0.,0.));
#457=DIRECTION('',(0.,0.,1.));
#458=DIRECTION('',(1.,0.,0.));
#459=DIRECTION('',(0.,0.,1.));
#460=DIRECTION('',(1.,0.,0.));
#461=DIRECTION('',(0.,0.,1.));
#462=DIRECTION('',(1.,0.,0.));
#463=DIRECTION('',(0.,0.,1.));
#464=DIRECTION('',(1.,0.,0.));
#465=DIRECTION('',(0.,0.,1.));
#466=DIRECTION('',(1.,0.,0.));
#467=DIRECTION('',(0.,0.,1.));
#468=DIRECTION('',(1.,0.,0.));
#469=DIRECTION('',(0.,0.,1.));
#470=DIRECTION('',(1.,0.,0.));
#471=DIRECTION('',(0.,0.,1.));
#472=DIRECTION('',(1.,0.,0.));
#473=DIRECTION('',(0.,0.,1.));
#474=DIRECTION('',(1.,0.,0.));
#475=DIRECTION('',(0.,0.,-1.));
#476=DIRECTION('',(-1.,0.,0.));
#477=DIRECTION('',(1.,0.,0.));
#478=DIRECTION('',(0.,0.,-1.));
#479=DIRECTION('',(-1.,0.,0.));
#480=DIRECTION('',(-1.,0.,0.));
#481=DIRECTION('',(0.,0.,1.));
#482=DIRECTION('',(1.,0.,0.));
#483=DIRECTION('',(0.,0.,-1.));
#484=DIRECTION('',(0.,0.,1.));
#485=DIRECTION('',(0.,0.,1.));
#486=DIRECTION('',(1.,0.,0.));
#487=DIRECTION('',(0.,0.,1.));
#488=DIRECTION('',(0.,0.,-1.));
#489=DIRECTION('',(0.,0.,1.));
#490=DIRECTION('',(1.,0.,0.));
#491=DIRECTION('',(0.,0.,1.));
#492=DIRECTION('',(1.,0.,0.));
#493=DIRECTION('',(0.,0.,-1.));
#494=DIRECTION('',(-1.,0.,0.));
#495=DIRECTION('',(0.,0.,1.));
#496=DIRECTION('',(1.,0.,0.));
#497=DIRECTION('',(0.,0.,1.));
#498=DIRECTION('',(1.,0.,0.));
#499=DIRECTION('',(0.,0.,1.));
#500=DIRECTION('',(1.,0.,0.));
#501=DIRECTION('',(0.,1.,0.));
#502=DIRECTION('',(0.,0.,1.));
#503=DIRECTION('',(0.,-1.,0.));
#504=DIRECTION('',(0.,0.,-1.));
#505=DIRECTION('',(0.,0.,1.));
#506=DIRECTION('',(-0.707106781186548,-0.707106781186548,0.));
#507=DIRECTION('',(0.,0.,1.));
#508=DIRECTION('',(-0.965925826289069,-0.258819045102521,0.));
#509=DIRECTION('',(0.,0.,1.));
#510=DIRECTION('',(-0.965925826289069,0.258819045102521,0.));
#511=DIRECTION('',(0.,0.,1.));
#512=DIRECTION('',(-0.707106781186548,0.707106781186548,0.));
#513=DIRECTION('',(0.,0.,1.));
#514=DIRECTION('',(0.707106781186548,-0.707106781186548,0.));
#515=DIRECTION('',(0.,0.,1.));
#516=DIRECTION('',(0.965925826289069,-0.258819045102521,0.));
#517=DIRECTION('',(0.,0.,1.));
#518=DIRECTION('',(0.965925826289069,0.258819045102521,0.));
#519=DIRECTION('',(0.,0.,1.));
#520=DIRECTION('',(0.707106781186548,0.707106781186548,0.));
#521=CARTESIAN_POINT('',(0.,0.,0.));
#522=CARTESIAN_POINT('',(52.1599946196097,13.9762284355361,0.));
#523=CARTESIAN_POINT('',(57.4725866641996,15.3997331836,0.));
#524=CARTESIAN_POINT('',(52.1599946196097,-13.9762284355361,0.));
#525=CARTESIAN_POINT('',(57.4725866641996,-15.3997331836,0.));
#526=CARTESIAN_POINT('',(38.1837661840736,-38.1837661840735,0.));
#527=CARTESIAN_POINT('',(42.0728534805996,-42.0728534805996,0.));
#528=CARTESIAN_POINT('',(-38.1837661840736,38.1837661840735,0.));
#529=CARTESIAN_POINT('',(-42.0728534805996,42.0728534805996,0.));
#530=CARTESIAN_POINT('',(-52.1599946196097,13.9762284355361,0.));
#531=CARTESIAN_POINT('',(-57.4725866641996,15.3997331836,0.));
#532=CARTESIAN_POINT('',(-38.1837661840736,-38.1837661840735,0.));
#533=CARTESIAN_POINT('',(-42.0728534805996,-42.0728534805996,0.));
#534=CARTESIAN_POINT('',(0.,0.,0.));
#535=CARTESIAN_POINT('',(31.5,0.,0.));
#536=CARTESIAN_POINT('',(0.,0.,0.));
#537=CARTESIAN_POINT('',(40.6201920231798,-47.5,0.));
#538=CARTESIAN_POINT('',(40.6201920231798,47.5,0.));
#539=CARTESIAN_POINT('',(0.,-47.5,0.));
#540=CARTESIAN_POINT('',(-40.6201920231798,-47.5,0.));
#541=CARTESIAN_POINT('',(0.,0.,0.));
#542=CARTESIAN_POINT('',(-40.6201920231798,47.5,0.));
#543=CARTESIAN_POINT('',(0.,47.5,0.));
#544=CARTESIAN_POINT('',(-52.1599946196097,-13.9762284355361,0.));
#545=CARTESIAN_POINT('',(-57.4725866641996,-15.3997331836,0.));
#546=CARTESIAN_POINT('',(38.1837661840736,38.1837661840735,0.));
#547=CARTESIAN_POINT('',(42.0728534805996,42.0728534805996,0.));
#548=CARTESIAN_POINT('',(0.,0.,0.));
#549=CARTESIAN_POINT('',(38.1837661840736,38.1837661840735,18.));
#550=CARTESIAN_POINT('',(43.6837661840736,38.1837661840735,18.));
#551=CARTESIAN_POINT('',(52.1599946196097,13.9762284355361,18.));
#552=CARTESIAN_POINT('',(57.6599946196097,13.9762284355361,18.));
#553=CARTESIAN_POINT('',(52.1599946196097,-13.9762284355361,18.));
#554=CARTESIAN_POINT('',(57.6599946196097,-13.9762284355361,18.));
#555=CARTESIAN_POINT('',(38.1837661840736,-38.1837661840735,18.));
#556=CARTESIAN_POINT('',(43.6837661840736,-38.1837661840735,18.));
#557=CARTESIAN_POINT('',(-38.1837661840736,38.1837661840735,18.));
#558=CARTESIAN_POINT('',(-32.6837661840736,38.1837661840735,18.));
#559=CARTESIAN_POINT('',(-52.1599946196097,13.9762284355361,18.));
#560=CARTESIAN_POINT('',(-46.6599946196097,13.9762284355361,18.));
#561=CARTESIAN_POINT('',(-52.1599946196097,-13.9762284355361,18.));
#562=CARTESIAN_POINT('',(-46.6599946196097,-13.9762284355361,18.));
#563=CARTESIAN_POINT('',(-38.1837661840736,-38.1837661840735,18.));
#564=CARTESIAN_POINT('',(-32.6837661840736,-38.1837661840735,18.));
#565=CARTESIAN_POINT('',(0.,0.,18.));
#566=CARTESIAN_POINT('',(45.,0.,18.));
#567=CARTESIAN_POINT('',(0.,0.,18.));
#568=CARTESIAN_POINT('',(-40.6201920231798,-47.5,18.));
#569=CARTESIAN_POINT('',(-40.6201920231798,47.5,18.));
#570=CARTESIAN_POINT('',(0.,-47.5,18.));
#571=CARTESIAN_POINT('',(40.6201920231798,-47.5,18.));
#572=CARTESIAN_POINT('',(0.,0.,18.));
#573=CARTESIAN_POINT('',(40.6201920231798,47.5,18.));
#574=CARTESIAN_POINT('',(0.,47.5,18.));
#575=CARTESIAN_POINT('',(0.,0.,18.));
#576=CARTESIAN_POINT('',(40.6201920231798,-47.5,0.));
#577=CARTESIAN_POINT('',(40.6201920231798,47.5,0.));
#578=CARTESIAN_POINT('',(0.,0.,0.));
#579=CARTESIAN_POINT('',(-40.6201920231798,-47.5,0.));
#580=CARTESIAN_POINT('',(-40.6201920231798,47.5,0.));
#581=CARTESIAN_POINT('',(0.,0.,0.));
#582=CARTESIAN_POINT('',(0.,0.,120.));
#583=CARTESIAN_POINT('',(31.5,0.,120.));
#584=CARTESIAN_POINT('',(0.,0.,120.));
#585=CARTESIAN_POINT('',(-45.,0.,120.));
#586=CARTESIAN_POINT('',(0.,0.,120.));
#587=CARTESIAN_POINT('',(0.,0.,0.));
#588=CARTESIAN_POINT('',(0.,0.,0.));
#589=CARTESIAN_POINT('',(0.,47.5,0.));
#590=CARTESIAN_POINT('',(0.,-47.5,0.));
#591=CARTESIAN_POINT('',(-38.1837661840736,-38.1837661840735,0.));
#592=CARTESIAN_POINT('',(-52.1599946196097,-13.9762284355361,0.));
#593=CARTESIAN_POINT('',(-52.1599946196097,13.9762284355361,0.));
#594=CARTESIAN_POINT('',(-38.1837661840736,38.1837661840735,0.));
#595=CARTESIAN_POINT('',(38.1837661840736,-38.1837661840735,0.));
#596=CARTESIAN_POINT('',(52.1599946196097,-13.9762284355361,0.));
#597=CARTESIAN_POINT('',(52.1599946196097,13.9762284355361,0.));
#598=CARTESIAN_POINT('',(38.1837661840736,38.1837661840735,0.));
#599=(
GEOMETRIC_REPRESENTATION_CONTEXT(3)
GLOBAL_UNCERTAINTY_ASSIGNED_CONTEXT((#600))
GLOBAL_UNIT_ASSIGNED_CONTEXT((#606,#602,#601))
REPRESENTATION_CONTEXT('A118RVC1','TOP_LEVEL_ASSEMBLY_PART')
);
#600=UNCERTAINTY_MEASURE_WITH_UNIT(LENGTH_MEASURE(2.E-005),#606,
'DISTANCE_ACCURACY_VALUE','Maximum Tolerance applied to model');
#601=(
NAMED_UNIT(*)
SI_UNIT($,.STERADIAN.)
SOLID_ANGLE_UNIT()
);
#602=(
CONVERSION_BASED_UNIT('DEGREE',#604)
NAMED_UNIT(#603)
PLANE_ANGLE_UNIT()
);
#603=DIMENSIONAL_EXPONENTS(0.,0.,0.,0.,0.,0.,0.);
#604=PLANE_ANGLE_MEASURE_WITH_UNIT(PLANE_ANGLE_MEASURE(0.0174532925),#605);
#605=(
NAMED_UNIT(*)
PLANE_ANGLE_UNIT()
SI_UNIT($,.RADIAN.)
);
#606=(
LENGTH_UNIT()
NAMED_UNIT(*)
SI_UNIT(.MILLI.,.METRE.)
);
ENDSEC;
END-ISO-10303-21;
