ISO-10303-21;
HEADER;
FILE_DESCRIPTION (( 'STEP AP203' ),
    '1' );
FILE_NAME ('R16-05B1-RSB_oprava.STEP',
    '2014-11-23T21:02:07',
    ( 'kavan' ),
    ( '' ),
    'SwSTEP 2.0',
    'SolidWorks 2014',
    '' );
FILE_SCHEMA (( 'CONFIG_CONTROL_DESIGN' ));
ENDSEC;

DATA;
#1 = LOCAL_TIME ( 22, 2, 7.000000000000000000, #78 ) ;
#2 = CARTESIAN_POINT ( 'NONE',  ( 13.00000000000000000, 1.592040838891559100E-015, 42.00000000000000000 ) ) ;
#3 = ORIENTED_EDGE ( 'NONE', *, *, #188, .T. ) ;
#4 = DIRECTION ( 'NONE',  ( 0.0000000000000000000, 0.0000000000000000000, -1.000000000000000000 ) ) ;
#5 = EDGE_CURVE ( 'NONE', #88, #342, #366, .T. ) ;
#6 = DIRECTION ( 'NONE',  ( 0.0000000000000000000, 0.0000000000000000000, -1.000000000000000000 ) ) ;
#7 = LINE ( 'NONE', #348, #140 ) ;
#8 = DIRECTION ( 'NONE',  ( 0.0000000000000000000, 0.0000000000000000000, -1.000000000000000000 ) ) ;
#9 = DIRECTION ( 'NONE',  ( 0.0000000000000000000, 0.0000000000000000000, -1.000000000000000000 ) ) ;
#10 = PRODUCT_DEFINITION_SHAPE ( 'NONE', 'NONE',  #64 ) ;
#11 = DIRECTION ( 'NONE',  ( 0.0000000000000000000, 0.0000000000000000000, -1.000000000000000000 ) ) ;
#12 = CARTESIAN_POINT ( 'NONE',  ( 8.000000000000000000, 9.797174393178825700E-016, 0.0000000000000000000 ) ) ;
#13 = CLOSED_SHELL ( 'NONE', ( #106, #135, #22, #337, #262, #299, #79, #267, #113, #232, #399, #364 ) ) ;
#14 = ORGANIZATION ( 'NEURÈENÝ', 'NEURÈENÝ', '' ) ;
#15 = CARTESIAN_POINT ( 'NONE',  ( 0.0000000000000000000, 0.0000000000000000000, 0.0000000000000000000 ) ) ;
#16 = ORIENTED_EDGE ( 'NONE', *, *, #406, .T. ) ;
#17 = CARTESIAN_POINT ( 'NONE',  ( 0.0000000000000000000, 0.0000000000000000000, 42.00000000000000000 ) ) ;
#18 = FACE_OUTER_BOUND ( 'NONE', #54, .T. ) ;
#19 = SECURITY_CLASSIFICATION ( '', '', #270 ) ;
#20 = APPROVAL_STATUS ( 'not_yet_approved' ) ;
#21 = APPLICATION_PROTOCOL_DEFINITION ( 'international standard', 'config_control_design', 1994, #404 ) ;
#22 = ADVANCED_FACE ( 'NONE', ( #43 ), #355, .T. ) ;
#23 = PERSON_AND_ORGANIZATION_ROLE ( 'design_supplier' ) ;
#24 = EDGE_CURVE ( 'NONE', #390, #397, #34, .T. ) ;
#25 = ORIENTED_EDGE ( 'NONE', *, *, #166, .T. ) ;
#26 = EDGE_CURVE ( 'NONE', #342, #146, #187, .T. ) ;
#27 = CIRCLE ( 'NONE', #107, 11.99999999999999800 ) ;
#28 = EDGE_CURVE ( 'NONE', #390, #153, #110, .T. ) ;
#29 = APPROVAL_DATE_TIME ( #102, #215 ) ;
#30 = CARTESIAN_POINT ( 'NONE',  ( 0.0000000000000000000, 0.0000000000000000000, 12.00000000000000000 ) ) ;
#31 = CIRCLE ( 'NONE', #115, 8.000000000000000000 ) ;
#32 = DIRECTION ( 'NONE',  ( -1.000000000000000000, 0.0000000000000000000, 0.0000000000000000000 ) ) ;
#33 = DIRECTION ( 'NONE',  ( 0.0000000000000000000, 0.0000000000000000000, -1.000000000000000000 ) ) ;
#34 = CIRCLE ( 'NONE', #171, 13.00000000000000000 ) ;
#35 = DIRECTION ( 'NONE',  ( 0.0000000000000000000, -0.0000000000000000000, 1.000000000000000000 ) ) ;
#36 = ORIENTED_EDGE ( 'NONE', *, *, #60, .F. ) ;
#37 = APPROVAL_PERSON_ORGANIZATION ( #112, #215, #193 ) ;
#38 = CC_DESIGN_PERSON_AND_ORGANIZATION_ASSIGNMENT ( #122, #105, ( #19 ) ) ;
#39 = CARTESIAN_POINT ( 'NONE',  ( 16.24999999999999600, 1.990051048614448900E-015, 42.00000000000000000 ) ) ;
#40 = FACE_OUTER_BOUND ( 'NONE', #230, .T. ) ;
#41 = CARTESIAN_POINT ( 'NONE',  ( 0.0000000000000000000, 0.0000000000000000000, 42.00000000000000000 ) ) ;
#42 = DIRECTION ( 'NONE',  ( -1.000000000000000000, 0.0000000000000000000, 0.0000000000000000000 ) ) ;
#43 = FACE_OUTER_BOUND ( 'NONE', #334, .T. ) ;
#44 = DIRECTION ( 'NONE',  ( 0.0000000000000000000, 0.0000000000000000000, -1.000000000000000000 ) ) ;
#45 = ORIENTED_EDGE ( 'NONE', *, *, #278, .F. ) ;
#46 = COORDINATED_UNIVERSAL_TIME_OFFSET ( 1, 0, .AHEAD. ) ;
#47 = AXIS2_PLACEMENT_3D ( 'NONE', #295, #82, #133 ) ;
#48 = EDGE_LOOP ( 'NONE', ( #371, #241 ) ) ;
#49 = ORIENTED_EDGE ( 'NONE', *, *, #343, .T. ) ;
#50 = FACE_OUTER_BOUND ( 'NONE', #300, .T. ) ;
#51 = CARTESIAN_POINT ( 'NONE',  ( 0.0000000000000000000, 0.0000000000000000000, 42.00000000000000000 ) ) ;
#52 = PERSON_AND_ORGANIZATION_ROLE ( 'creator' ) ;
#53 = ORIENTED_EDGE ( 'NONE', *, *, #298, .T. ) ;
#54 = EDGE_LOOP ( 'NONE', ( #25, #49 ) ) ;
#55 = DATE_AND_TIME ( #129, #210 ) ;
#56 = ORIENTED_EDGE ( 'NONE', *, *, #258, .T. ) ;
#57 = AXIS2_PLACEMENT_3D ( 'NONE', #161, #236, #400 ) ;
#58 = CIRCLE ( 'NONE', #163, 8.000000000000000000 ) ;
#59 = DIRECTION ( 'NONE',  ( 0.0000000000000000000, 0.0000000000000000000, -1.000000000000000000 ) ) ;
#60 = EDGE_CURVE ( 'NONE', #220, #344, #276, .T. ) ;
#61 = ORIENTED_EDGE ( 'NONE', *, *, #252, .T. ) ;
#62 = EDGE_LOOP ( 'NONE', ( #197, #235 ) ) ;
#63 = PERSON_AND_ORGANIZATION ( #139, #14 ) ;
#64 = PRODUCT_DEFINITION ( 'NEZNÁMÝ', '', #185, #92 ) ;
#65 = FACE_OUTER_BOUND ( 'NONE', #111, .T. ) ;
#66 = CARTESIAN_POINT ( 'NONE',  ( -8.000000000000000000, 0.0000000000000000000, 0.0000000000000000000 ) ) ;
#67 = CARTESIAN_POINT ( 'NONE',  ( 0.0000000000000000000, 0.0000000000000000000, 42.00000000000000000 ) ) ;
#68 = CARTESIAN_POINT ( 'NONE',  ( 0.0000000000000000000, 0.0000000000000000000, 10.00000000000000200 ) ) ;
#69 = CARTESIAN_POINT ( 'NONE',  ( 16.24999999999999600, 1.990051048614448900E-015, 42.00000000000000000 ) ) ;
#70 = EDGE_LOOP ( 'NONE', ( #377, #310, #184, #356 ) ) ;
#71 = PERSON_AND_ORGANIZATION ( #139, #14 ) ;
#72 = CARTESIAN_POINT ( 'NONE',  ( -11.99999999999999800, 0.0000000000000000000, 42.00000000000000000 ) ) ;
#73 = AXIS2_PLACEMENT_3D ( 'NONE', #346, #6, #315 ) ;
#74 = VECTOR ( 'NONE', #248, 1000.000000000000000 ) ;
#75 = AXIS2_PLACEMENT_3D ( 'NONE', #76, #168, #331 ) ;
#76 = CARTESIAN_POINT ( 'NONE',  ( 0.0000000000000000000, 0.0000000000000000000, 42.00000000000000000 ) ) ;
#77 = APPROVAL_STATUS ( 'not_yet_approved' ) ;
#78 = COORDINATED_UNIVERSAL_TIME_OFFSET ( 1, 0, .AHEAD. ) ;
#79 = ADVANCED_FACE ( 'NONE', ( #174, #345 ), #313, .T. ) ;
#80 = ORIENTED_EDGE ( 'NONE', *, *, #211, .F. ) ;
#81 = CIRCLE ( 'NONE', #148, 16.24999999999999600 ) ;
#82 = DIRECTION ( 'NONE',  ( 0.0000000000000000000, -0.0000000000000000000, 1.000000000000000000 ) ) ;
#83 = CARTESIAN_POINT ( 'NONE',  ( 0.0000000000000000000, 0.0000000000000000000, 42.00000000000000000 ) ) ;
#84 = DIRECTION ( 'NONE',  ( 0.0000000000000000000, 0.0000000000000000000, 1.000000000000000000 ) ) ;
#85 = ORIENTED_EDGE ( 'NONE', *, *, #60, .T. ) ;
#86 = CARTESIAN_POINT ( 'NONE',  ( 8.000000000000000000, 9.797174393178825700E-016, 42.00000000000000000 ) ) ;
#87 = CIRCLE ( 'NONE', #402, 13.00000000000000000 ) ;
#88 = VERTEX_POINT ( 'NONE', #86 ) ;
#89 = DIRECTION ( 'NONE',  ( -1.000000000000000000, 0.0000000000000000000, -0.0000000000000000000 ) ) ;
#90 = PRODUCT_RELATED_PRODUCT_CATEGORY ( 'detail', '', ( #109 ) ) ;
#91 = AXIS2_PLACEMENT_3D ( 'NONE', #83, #117, #104 ) ;
#92 = DESIGN_CONTEXT ( 'detailed design', #200, 'design' ) ;
#93 = CARTESIAN_POINT ( 'NONE',  ( 16.24999999999999600, 1.990051048614448900E-015, 12.00000000000000000 ) ) ;
#94 = EDGE_CURVE ( 'NONE', #153, #98, #259, .T. ) ;
#95 = DIRECTION ( 'NONE',  ( -1.000000000000000000, 0.0000000000000000000, 0.0000000000000000000 ) ) ;
#96 = VECTOR ( 'NONE', #362, 1000.000000000000000 ) ;
#97 = DIRECTION ( 'NONE',  ( -1.000000000000000000, 0.0000000000000000000, 0.0000000000000000000 ) ) ;
#98 = VERTEX_POINT ( 'NONE', #280 ) ;
#99 = AXIS2_PLACEMENT_3D ( 'NONE', #205, #142, #309 ) ;
#100 = CARTESIAN_POINT ( 'NONE',  ( 0.0000000000000000000, 0.0000000000000000000, 0.0000000000000000000 ) ) ;
#101 = VECTOR ( 'NONE', #275, 1000.000000000000000 ) ;
#102 = DATE_AND_TIME ( #175, #269 ) ;
#103 = CYLINDRICAL_SURFACE ( 'NONE', #382, 13.00000000000000000 ) ;
#104 = DIRECTION ( 'NONE',  ( -1.000000000000000000, 0.0000000000000000000, 0.0000000000000000000 ) ) ;
#105 = PERSON_AND_ORGANIZATION_ROLE ( 'classification_officer' ) ;
#106 = ADVANCED_FACE ( 'NONE', ( #164 ), #246, .F. ) ;
#107 = AXIS2_PLACEMENT_3D ( 'NONE', #181, #11, #218 ) ;
#108 = APPROVAL_ROLE ( '' ) ;
#109 = PRODUCT ( 'R16-05B1-RSB_oprava', 'R16-05B1-RSB_oprava', '', ( #264 ) ) ;
#110 = LINE ( 'NONE', #2, #101 ) ;
#111 = EDGE_LOOP ( 'NONE', ( #189, #234, #16, #243 ) ) ;
#112 = PERSON_AND_ORGANIZATION ( #139, #14 ) ;
#113 = ADVANCED_FACE ( 'NONE', ( #18, #158 ), #247, .T. ) ;
#114 = AXIS2_PLACEMENT_3D ( 'NONE', #120, #282, #89 ) ;
#115 = AXIS2_PLACEMENT_3D ( 'NONE', #335, #44, #291 ) ;
#116 = FACE_OUTER_BOUND ( 'NONE', #378, .T. ) ;
#117 = DIRECTION ( 'NONE',  ( 0.0000000000000000000, 0.0000000000000000000, -1.000000000000000000 ) ) ;
#118 = EDGE_CURVE ( 'NONE', #397, #390, #87, .T. ) ;
#119 = EDGE_LOOP ( 'NONE', ( #357, #134, #53, #36 ) ) ;
#120 = CARTESIAN_POINT ( 'NONE',  ( 11.99999999999999800, 0.0000000000000000000, 12.00000000000000000 ) ) ;
#121 = ORIENTED_EDGE ( 'NONE', *, *, #237, .F. ) ;
#122 = PERSON_AND_ORGANIZATION ( #139, #14 ) ;
#123 = ORIENTED_EDGE ( 'NONE', *, *, #118, .T. ) ;
#124 = CIRCLE ( 'NONE', #340, 11.99999999999999800 ) ;
#125 = DIRECTION ( 'NONE',  ( 0.0000000000000000000, 0.0000000000000000000, -1.000000000000000000 ) ) ;
#126 = AXIS2_PLACEMENT_3D ( 'NONE', #15, #221, #42 ) ;
#127 = ORIENTED_EDGE ( 'NONE', *, *, #94, .F. ) ;
#128 = DIRECTION ( 'NONE',  ( -1.000000000000000000, 0.0000000000000000000, 0.0000000000000000000 ) ) ;
#129 = CALENDAR_DATE ( 2014, 23, 11 ) ;
#130 = DIRECTION ( 'NONE',  ( 0.0000000000000000000, 0.0000000000000000000, -1.000000000000000000 ) ) ;
#131 = CC_DESIGN_SECURITY_CLASSIFICATION ( #19, ( #185 ) ) ;
#132 = CIRCLE ( 'NONE', #126, 13.00000000000000000 ) ;
#133 = DIRECTION ( 'NONE',  ( 1.000000000000000000, 0.0000000000000000000, 0.0000000000000000000 ) ) ;
#134 = ORIENTED_EDGE ( 'NONE', *, *, #204, .T. ) ;
#135 = ADVANCED_FACE ( 'NONE', ( #338 ), #238, .T. ) ;
#136 = AXIS2_PLACEMENT_3D ( 'NONE', #173, #4, #212 ) ;
#137 = DATE_AND_TIME ( #223, #311 ) ;
#138 = CC_DESIGN_PERSON_AND_ORGANIZATION_ASSIGNMENT ( #333, #363, ( #109 ) ) ;
#139 = PERSON ( 'NEURÈENÝ', 'NEURÈENÝ', 'NEURÈENÝ', ('NEURÈENÝ'), ('NEURÈENÝ'), ('NEURÈENÝ') ) ;
#140 = VECTOR ( 'NONE', #321, 1000.000000000000000 ) ;
#141 = CARTESIAN_POINT ( 'NONE',  ( 0.0000000000000000000, 0.0000000000000000000, 0.0000000000000000000 ) ) ;
#142 = DIRECTION ( 'NONE',  ( 0.0000000000000000000, 0.0000000000000000000, -1.000000000000000000 ) ) ;
#143 = ORIENTED_EDGE ( 'NONE', *, *, #258, .F. ) ;
#144 = APPROVAL_DATE_TIME ( #231, #176 ) ;
#145 = CC_DESIGN_DATE_AND_TIME_ASSIGNMENT ( #137, #396, ( #64 ) ) ;
#146 = VERTEX_POINT ( 'NONE', #66 ) ;
#147 = CARTESIAN_POINT ( 'NONE',  ( 13.00000000000000000, 0.0000000000000000000, 10.00000000000000000 ) ) ;
#148 = AXIS2_PLACEMENT_3D ( 'NONE', #67, #286, #95 ) ;
#149 = CARTESIAN_POINT ( 'NONE',  ( 0.0000000000000000000, 0.0000000000000000000, 0.0000000000000000000 ) ) ;
#150 = LINE ( 'NONE', #39, #74 ) ;
#151 = DIRECTION ( 'NONE',  ( -1.000000000000000000, 0.0000000000000000000, 0.0000000000000000000 ) ) ;
#152 = DIRECTION ( 'NONE',  ( 0.0000000000000000000, 0.0000000000000000000, -1.000000000000000000 ) ) ;
#153 = VERTEX_POINT ( 'NONE', #283 ) ;
#154 = APPROVAL_PERSON_ORGANIZATION ( #242, #176, #228 ) ;
#155 = DIRECTION ( 'NONE',  ( -1.000000000000000000, 0.0000000000000000000, -0.0000000000000000000 ) ) ;
#156 = VERTEX_POINT ( 'NONE', #93 ) ;
#157 = CC_DESIGN_APPROVAL ( #176, ( #64 ) ) ;
#158 = FACE_BOUND ( 'NONE', #325, .T. ) ;
#159 = DIRECTION ( 'NONE',  ( -1.000000000000000000, 0.0000000000000000000, 0.0000000000000000000 ) ) ;
#160 = PERSON_AND_ORGANIZATION_ROLE ( 'creator' ) ;
#161 = CARTESIAN_POINT ( 'NONE',  ( 0.0000000000000000000, 0.0000000000000000000, 42.00000000000000000 ) ) ;
#162 = VERTEX_POINT ( 'NONE', #320 ) ;
#163 = AXIS2_PLACEMENT_3D ( 'NONE', #100, #327, #128 ) ;
#164 = FACE_OUTER_BOUND ( 'NONE', #388, .T. ) ;
#165 = CC_DESIGN_APPROVAL ( #215, ( #19 ) ) ;
#166 = EDGE_CURVE ( 'NONE', #314, #156, #330, .T. ) ;
#167 = LINE ( 'NONE', #368, #96 ) ;
#168 = DIRECTION ( 'NONE',  ( 0.0000000000000000000, 0.0000000000000000000, -1.000000000000000000 ) ) ;
#169 = DIRECTION ( 'NONE',  ( 1.000000000000000000, 0.0000000000000000000, 0.0000000000000000000 ) ) ;
#170 = ORIENTED_EDGE ( 'NONE', *, *, #28, .F. ) ;
#171 = AXIS2_PLACEMENT_3D ( 'NONE', #172, #33, #244 ) ;
#172 = CARTESIAN_POINT ( 'NONE',  ( 0.0000000000000000000, 0.0000000000000000000, 10.00000000000000200 ) ) ;
#173 = CARTESIAN_POINT ( 'NONE',  ( 0.0000000000000000000, 0.0000000000000000000, 10.00000000000000200 ) ) ;
#174 = FACE_BOUND ( 'NONE', #195, .T. ) ;
#175 = CALENDAR_DATE ( 2014, 23, 11 ) ;
#176 = APPROVAL ( #20, 'NEURÈENÝ' ) ;
#177 = DIRECTION ( 'NONE',  ( -1.000000000000000000, 0.0000000000000000000, 0.0000000000000000000 ) ) ;
#178 = CARTESIAN_POINT ( 'NONE',  ( 0.0000000000000000000, 0.0000000000000000000, 10.00000000000000200 ) ) ;
#179 = CARTESIAN_POINT ( 'NONE',  ( 0.0000000000000000000, 0.0000000000000000000, 12.00000000000000000 ) ) ;
#180 = FACE_OUTER_BOUND ( 'NONE', #70, .T. ) ;
#181 = CARTESIAN_POINT ( 'NONE',  ( 0.0000000000000000000, 0.0000000000000000000, 12.00000000000000000 ) ) ;
#182 = SHAPE_DEFINITION_REPRESENTATION ( #10, #350 ) ;
#183 = CARTESIAN_POINT ( 'NONE',  ( -13.00000000000000000, 0.0000000000000000000, 42.00000000000000000 ) ) ;
#184 = ORIENTED_EDGE ( 'NONE', *, *, #26, .T. ) ;
#185 = PRODUCT_DEFINITION_FORMATION_WITH_SPECIFIED_SOURCE ( 'LIBOVOLNÝ', '', #109, .NOT_KNOWN. ) ;
#186 = DIRECTION ( 'NONE',  ( 0.0000000000000000000, 0.0000000000000000000, -1.000000000000000000 ) ) ;
#187 = LINE ( 'NONE', #376, #266 ) ;
#188 = EDGE_CURVE ( 'NONE', #162, #255, #81, .T. ) ;
#189 = ORIENTED_EDGE ( 'NONE', *, *, #194, .F. ) ;
#190 = DATE_AND_TIME ( #279, #367 ) ;
#191 = AXIS2_PLACEMENT_3D ( 'NONE', #179, #9, #216 ) ;
#192 = VECTOR ( 'NONE', #257, 1000.000000000000000 ) ;
#193 = APPROVAL_ROLE ( '' ) ;
#194 = EDGE_CURVE ( 'NONE', #255, #156, #150, .T. ) ;
#195 = EDGE_LOOP ( 'NONE', ( #290, #85 ) ) ;
#196 = DIRECTION ( 'NONE',  ( -1.000000000000000000, 0.0000000000000000000, 0.0000000000000000000 ) ) ;
#197 = ORIENTED_EDGE ( 'NONE', *, *, #239, .T. ) ;
#198 = PERSON_AND_ORGANIZATION ( #139, #14 ) ;
#199 = AXIS2_PLACEMENT_3D ( 'NONE', #141, #84, #169 ) ;
#200 = APPLICATION_CONTEXT ( 'configuration controlled 3d designs of mechanical parts and assemblies' ) ;
#201 = DIRECTION ( 'NONE',  ( 0.0000000000000000000, 0.0000000000000000000, -1.000000000000000000 ) ) ;
#202 = LINE ( 'NONE', #72, #192 ) ;
#203 = ORIENTED_EDGE ( 'NONE', *, *, #24, .T. ) ;
#204 = EDGE_CURVE ( 'NONE', #305, #375, #27, .T. ) ;
#205 = CARTESIAN_POINT ( 'NONE',  ( 0.0000000000000000000, 0.0000000000000000000, 42.00000000000000000 ) ) ;
#206 = ORIENTED_EDGE ( 'NONE', *, *, #278, .T. ) ;
#207 = AXIS2_PLACEMENT_3D ( 'NONE', #323, #125, #351 ) ;
#208 = DIRECTION ( 'NONE',  ( 0.0000000000000000000, 0.0000000000000000000, -1.000000000000000000 ) ) ;
#209 = ORIENTED_EDGE ( 'NONE', *, *, #298, .F. ) ;
#210 = LOCAL_TIME ( 22, 2, 7.000000000000000000, #303 ) ;
#211 = EDGE_CURVE ( 'NONE', #344, #220, #405, .T. ) ;
#212 = DIRECTION ( 'NONE',  ( -1.000000000000000000, 0.0000000000000000000, 0.0000000000000000000 ) ) ;
#213 = DIRECTION ( 'NONE',  ( -1.000000000000000000, 0.0000000000000000000, 0.0000000000000000000 ) ) ;
#214 = CYLINDRICAL_SURFACE ( 'NONE', #233, 16.24999999999999600 ) ;
#215 = APPROVAL ( #297, 'NEURÈENÝ' ) ;
#216 = DIRECTION ( 'NONE',  ( -1.000000000000000000, 0.0000000000000000000, 0.0000000000000000000 ) ) ;
#217 = EDGE_CURVE ( 'NONE', #88, #251, #7, .T. ) ;
#218 = DIRECTION ( 'NONE',  ( -1.000000000000000000, 0.0000000000000000000, 0.0000000000000000000 ) ) ;
#219 = PLANE ( 'NONE',  #317 ) ;
#220 = VERTEX_POINT ( 'NONE', #322 ) ;
#221 = DIRECTION ( 'NONE',  ( 0.0000000000000000000, 0.0000000000000000000, -1.000000000000000000 ) ) ;
#222 = ORIENTED_EDGE ( 'NONE', *, *, #5, .F. ) ;
#223 = CALENDAR_DATE ( 2014, 23, 11 ) ;
#224 = AXIS2_PLACEMENT_3D ( 'NONE', #408, #273, #32 ) ;
#225 = FACE_BOUND ( 'NONE', #324, .T. ) ;
#226 = APPLICATION_PROTOCOL_DEFINITION ( 'international standard', 'config_control_design', 1994, #200 ) ;
#227 = AXIS2_PLACEMENT_3D ( 'NONE', #318, #383, #151 ) ;
#228 = APPROVAL_ROLE ( '' ) ;
#229 = CARTESIAN_POINT ( 'NONE',  ( -13.00000000000000000, 0.0000000000000000000, 10.00000000000000200 ) ) ;
#230 = EDGE_LOOP ( 'NONE', ( #170, #203, #253, #127 ) ) ;
#231 = DATE_AND_TIME ( #326, #1 ) ;
#232 = ADVANCED_FACE ( 'NONE', ( #65 ), #214, .T. ) ;
#233 = AXIS2_PLACEMENT_3D ( 'NONE', #41, #152, #249 ) ;
#234 = ORIENTED_EDGE ( 'NONE', *, *, #370, .T. ) ;
#235 = ORIENTED_EDGE ( 'NONE', *, *, #5, .T. ) ;
#236 = DIRECTION ( 'NONE',  ( 0.0000000000000000000, 0.0000000000000000000, -1.000000000000000000 ) ) ;
#237 = EDGE_CURVE ( 'NONE', #397, #98, #394, .T. ) ;
#238 = CYLINDRICAL_SURFACE ( 'NONE', #227, 16.24999999999999600 ) ;
#239 = EDGE_CURVE ( 'NONE', #342, #88, #304, .T. ) ;
#240 = CARTESIAN_POINT ( 'NONE',  ( -16.24999999999999600, 0.0000000000000000000, 12.00000000000000000 ) ) ;
#241 = ORIENTED_EDGE ( 'NONE', *, *, #24, .F. ) ;
#242 = PERSON_AND_ORGANIZATION ( #139, #14 ) ;
#243 = ORIENTED_EDGE ( 'NONE', *, *, #343, .F. ) ;
#244 = DIRECTION ( 'NONE',  ( -1.000000000000000000, 0.0000000000000000000, 0.0000000000000000000 ) ) ;
#245 = DIRECTION ( 'NONE',  ( 1.000000000000000000, 0.0000000000000000000, 0.0000000000000000000 ) ) ;
#246 = CYLINDRICAL_SURFACE ( 'NONE', #73, 8.000000000000000000 ) ;
#247 = PLANE ( 'NONE',  #114 ) ;
#248 = DIRECTION ( 'NONE',  ( 0.0000000000000000000, 0.0000000000000000000, -1.000000000000000000 ) ) ;
#249 = DIRECTION ( 'NONE',  ( -1.000000000000000000, 0.0000000000000000000, 0.0000000000000000000 ) ) ;
#250 = LINE ( 'NONE', #307, #341 ) ;
#251 = VERTEX_POINT ( 'NONE', #12 ) ;
#252 = EDGE_CURVE ( 'NONE', #98, #153, #132, .T. ) ;
#253 = ORIENTED_EDGE ( 'NONE', *, *, #237, .T. ) ;
#254 = DIRECTION ( 'NONE',  ( -1.000000000000000000, 0.0000000000000000000, 0.0000000000000000000 ) ) ;
#255 = VERTEX_POINT ( 'NONE', #69 ) ;
#256 = AXIS2_PLACEMENT_3D ( 'NONE', #68, #287, #97 ) ;
#257 = DIRECTION ( 'NONE',  ( 0.0000000000000000000, 0.0000000000000000000, -1.000000000000000000 ) ) ;
#258 = EDGE_CURVE ( 'NONE', #251, #146, #58, .T. ) ;
#259 = CIRCLE ( 'NONE', #312, 13.00000000000000000 ) ;
#260 = ORIENTED_EDGE ( 'NONE', *, *, #166, .F. ) ;
#261 = CYLINDRICAL_SURFACE ( 'NONE', #75, 8.000000000000000000 ) ;
#262 = ADVANCED_FACE ( 'NONE', ( #384, #225 ), #219, .T. ) ;
#263 = CARTESIAN_POINT ( 'NONE',  ( 11.99999999999999800, 1.469576158976823800E-015, 12.00000000000000000 ) ) ;
#264 = MECHANICAL_CONTEXT ( 'NONE', #404, 'mechanical' ) ;
#265 = DIRECTION ( 'NONE',  ( 0.0000000000000000000, 0.0000000000000000000, -1.000000000000000000 ) ) ;
#266 = VECTOR ( 'NONE', #208, 1000.000000000000000 ) ;
#267 = ADVANCED_FACE ( 'NONE', ( #294 ), #284, .T. ) ;
#268 = ORIENTED_EDGE ( 'NONE', *, *, #370, .F. ) ;
#269 = LOCAL_TIME ( 22, 2, 7.000000000000000000, #358 ) ;
#270 = SECURITY_CLASSIFICATION_LEVEL ( 'unclassified' ) ;
#271 = CYLINDRICAL_SURFACE ( 'NONE', #57, 13.00000000000000000 ) ;
#272 = EDGE_LOOP ( 'NONE', ( #61, #281 ) ) ;
#273 = DIRECTION ( 'NONE',  ( 0.0000000000000000000, 0.0000000000000000000, -1.000000000000000000 ) ) ;
#274 =( GEOMETRIC_REPRESENTATION_CONTEXT ( 3 ) GLOBAL_UNCERTAINTY_ASSIGNED_CONTEXT ( ( #385 ) ) GLOBAL_UNIT_ASSIGNED_CONTEXT ( ( #296, #369, #373 ) ) REPRESENTATION_CONTEXT ( 'NONE', 'WORKASPACE' ) );
#275 = DIRECTION ( 'NONE',  ( 0.0000000000000000000, 0.0000000000000000000, -1.000000000000000000 ) ) ;
#276 = CIRCLE ( 'NONE', #136, 11.99999999999999800 ) ;
#277 = ORIENTED_EDGE ( 'NONE', *, *, #406, .F. ) ;
#278 = EDGE_CURVE ( 'NONE', #375, #305, #124, .T. ) ;
#279 = CALENDAR_DATE ( 2014, 23, 11 ) ;
#280 = CARTESIAN_POINT ( 'NONE',  ( -13.00000000000000000, 0.0000000000000000000, 0.0000000000000000000 ) ) ;
#281 = ORIENTED_EDGE ( 'NONE', *, *, #94, .T. ) ;
#282 = DIRECTION ( 'NONE',  ( 0.0000000000000000000, 0.0000000000000000000, -1.000000000000000000 ) ) ;
#283 = CARTESIAN_POINT ( 'NONE',  ( 13.00000000000000000, 1.592040838891559100E-015, 0.0000000000000000000 ) ) ;
#284 = CYLINDRICAL_SURFACE ( 'NONE', #293, 11.99999999999999800 ) ;
#285 = ORIENTED_EDGE ( 'NONE', *, *, #188, .F. ) ;
#286 = DIRECTION ( 'NONE',  ( 0.0000000000000000000, 0.0000000000000000000, -1.000000000000000000 ) ) ;
#287 = DIRECTION ( 'NONE',  ( 0.0000000000000000000, 0.0000000000000000000, -1.000000000000000000 ) ) ;
#288 = CARTESIAN_POINT ( 'NONE',  ( 8.000000000000000000, 0.0000000000000000000, 0.0000000000000000000 ) ) ;
#289 = ORIENTED_EDGE ( 'NONE', *, *, #387, .T. ) ;
#290 = ORIENTED_EDGE ( 'NONE', *, *, #211, .T. ) ;
#291 = DIRECTION ( 'NONE',  ( -1.000000000000000000, 0.0000000000000000000, 0.0000000000000000000 ) ) ;
#292 = PERSON_AND_ORGANIZATION ( #139, #14 ) ;
#293 = AXIS2_PLACEMENT_3D ( 'NONE', #17, #186, #254 ) ;
#294 = FACE_OUTER_BOUND ( 'NONE', #119, .T. ) ;
#295 = CARTESIAN_POINT ( 'NONE',  ( 16.24999999999999600, 0.0000000000000000000, 42.00000000000000000 ) ) ;
#296 =( LENGTH_UNIT ( ) NAMED_UNIT ( * ) SI_UNIT ( .MILLI., .METRE. ) );
#297 = APPROVAL_STATUS ( 'not_yet_approved' ) ;
#298 = EDGE_CURVE ( 'NONE', #375, #344, #202, .T. ) ;
#299 = ADVANCED_FACE ( 'NONE', ( #40 ), #271, .T. ) ;
#300 = EDGE_LOOP ( 'NONE', ( #285, #268 ) ) ;
#301 = CARTESIAN_POINT ( 'NONE',  ( 13.00000000000000000, 1.592040838891559100E-015, 10.00000000000000200 ) ) ;
#302 = ORIENTED_EDGE ( 'NONE', *, *, #28, .T. ) ;
#303 = COORDINATED_UNIVERSAL_TIME_OFFSET ( 1, 0, .AHEAD. ) ;
#304 = CIRCLE ( 'NONE', #207, 8.000000000000000000 ) ;
#305 = VERTEX_POINT ( 'NONE', #263 ) ;
#306 = MANIFOLD_SOLID_BREP ( 'Rotovat1', #13 ) ;
#307 = CARTESIAN_POINT ( 'NONE',  ( -16.24999999999999600, 0.0000000000000000000, 42.00000000000000000 ) ) ;
#308 = ORIENTED_EDGE ( 'NONE', *, *, #393, .F. ) ;
#309 = DIRECTION ( 'NONE',  ( -1.000000000000000000, 0.0000000000000000000, 0.0000000000000000000 ) ) ;
#310 = ORIENTED_EDGE ( 'NONE', *, *, #239, .F. ) ;
#311 = LOCAL_TIME ( 22, 2, 7.000000000000000000, #398 ) ;
#312 = AXIS2_PLACEMENT_3D ( 'NONE', #149, #380, #177 ) ;
#313 = PLANE ( 'NONE',  #354 ) ;
#314 = VERTEX_POINT ( 'NONE', #240 ) ;
#315 = DIRECTION ( 'NONE',  ( -1.000000000000000000, 0.0000000000000000000, 0.0000000000000000000 ) ) ;
#316 = CC_DESIGN_PERSON_AND_ORGANIZATION_ASSIGNMENT ( #71, #52, ( #64 ) ) ;
#317 = AXIS2_PLACEMENT_3D ( 'NONE', #288, #352, #155 ) ;
#318 = CARTESIAN_POINT ( 'NONE',  ( 0.0000000000000000000, 0.0000000000000000000, 42.00000000000000000 ) ) ;
#319 = VECTOR ( 'NONE', #386, 1000.000000000000000 ) ;
#320 = CARTESIAN_POINT ( 'NONE',  ( -16.24999999999999600, 0.0000000000000000000, 42.00000000000000000 ) ) ;
#321 = DIRECTION ( 'NONE',  ( 0.0000000000000000000, 0.0000000000000000000, -1.000000000000000000 ) ) ;
#322 = CARTESIAN_POINT ( 'NONE',  ( 11.99999999999999800, 1.469576158976823800E-015, 10.00000000000000200 ) ) ;
#323 = CARTESIAN_POINT ( 'NONE',  ( 0.0000000000000000000, 0.0000000000000000000, 42.00000000000000000 ) ) ;
#324 = EDGE_LOOP ( 'NONE', ( #308, #143 ) ) ;
#325 = EDGE_LOOP ( 'NONE', ( #45, #365 ) ) ;
#326 = CALENDAR_DATE ( 2014, 23, 11 ) ;
#327 = DIRECTION ( 'NONE',  ( 0.0000000000000000000, 0.0000000000000000000, -1.000000000000000000 ) ) ;
#328 = ORIENTED_EDGE ( 'NONE', *, *, #252, .F. ) ;
#329 = CARTESIAN_POINT ( 'NONE',  ( 0.0000000000000000000, 0.0000000000000000000, 12.00000000000000000 ) ) ;
#330 = CIRCLE ( 'NONE', #191, 16.24999999999999600 ) ;
#331 = DIRECTION ( 'NONE',  ( -1.000000000000000000, 0.0000000000000000000, 0.0000000000000000000 ) ) ;
#332 = DATE_TIME_ROLE ( 'classification_date' ) ;
#333 = PERSON_AND_ORGANIZATION ( #139, #14 ) ;
#334 = EDGE_LOOP ( 'NONE', ( #206, #289, #80, #209 ) ) ;
#335 = CARTESIAN_POINT ( 'NONE',  ( 0.0000000000000000000, 0.0000000000000000000, 0.0000000000000000000 ) ) ;
#336 = PLANE ( 'NONE',  #47 ) ;
#337 = ADVANCED_FACE ( 'NONE', ( #116 ), #103, .T. ) ;
#338 = FACE_OUTER_BOUND ( 'NONE', #409, .T. ) ;
#339 = APPROVAL ( #77, 'NEURÈENÝ' ) ;
#340 = AXIS2_PLACEMENT_3D ( 'NONE', #329, #130, #353 ) ;
#341 = VECTOR ( 'NONE', #265, 1000.000000000000000 ) ;
#342 = VERTEX_POINT ( 'NONE', #407 ) ;
#343 = EDGE_CURVE ( 'NONE', #156, #314, #372, .T. ) ;
#344 = VERTEX_POINT ( 'NONE', #389 ) ;
#345 = FACE_OUTER_BOUND ( 'NONE', #48, .T. ) ;
#346 = CARTESIAN_POINT ( 'NONE',  ( 0.0000000000000000000, 0.0000000000000000000, 42.00000000000000000 ) ) ;
#347 = CC_DESIGN_DATE_AND_TIME_ASSIGNMENT ( #190, #332, ( #19 ) ) ;
#348 = CARTESIAN_POINT ( 'NONE',  ( 8.000000000000000000, 9.797174393178825700E-016, 42.00000000000000000 ) ) ;
#349 = CIRCLE ( 'NONE', #91, 16.24999999999999600 ) ;
#350 = ADVANCED_BREP_SHAPE_REPRESENTATION ( 'R16-05B1-RSB_oprava', ( #306, #199 ), #274 ) ;
#351 = DIRECTION ( 'NONE',  ( -1.000000000000000000, 0.0000000000000000000, 0.0000000000000000000 ) ) ;
#352 = DIRECTION ( 'NONE',  ( 0.0000000000000000000, 0.0000000000000000000, -1.000000000000000000 ) ) ;
#353 = DIRECTION ( 'NONE',  ( -1.000000000000000000, 0.0000000000000000000, 0.0000000000000000000 ) ) ;
#354 = AXIS2_PLACEMENT_3D ( 'NONE', #147, #35, #245 ) ;
#355 = CYLINDRICAL_SURFACE ( 'NONE', #224, 11.99999999999999800 ) ;
#356 = ORIENTED_EDGE ( 'NONE', *, *, #393, .T. ) ;
#357 = ORIENTED_EDGE ( 'NONE', *, *, #387, .F. ) ;
#358 = COORDINATED_UNIVERSAL_TIME_OFFSET ( 1, 0, .AHEAD. ) ;
#359 = CC_DESIGN_APPROVAL ( #339, ( #185 ) ) ;
#360 = AXIS2_PLACEMENT_3D ( 'NONE', #30, #201, #159 ) ;
#361 = FACE_BOUND ( 'NONE', #62, .T. ) ;
#362 = DIRECTION ( 'NONE',  ( 0.0000000000000000000, 0.0000000000000000000, -1.000000000000000000 ) ) ;
#363 = PERSON_AND_ORGANIZATION_ROLE ( 'design_owner' ) ;
#364 = ADVANCED_FACE ( 'NONE', ( #180 ), #261, .F. ) ;
#365 = ORIENTED_EDGE ( 'NONE', *, *, #204, .F. ) ;
#366 = CIRCLE ( 'NONE', #99, 8.000000000000000000 ) ;
#367 = LOCAL_TIME ( 22, 2, 7.000000000000000000, #46 ) ;
#368 = CARTESIAN_POINT ( 'NONE',  ( 11.99999999999999800, 1.469576158976823800E-015, 42.00000000000000000 ) ) ;
#369 =( NAMED_UNIT ( * ) PLANE_ANGLE_UNIT ( ) SI_UNIT ( $, .RADIAN. ) );
#370 = EDGE_CURVE ( 'NONE', #255, #162, #349, .T. ) ;
#371 = ORIENTED_EDGE ( 'NONE', *, *, #118, .F. ) ;
#372 = CIRCLE ( 'NONE', #360, 16.24999999999999600 ) ;
#373 =( NAMED_UNIT ( * ) SI_UNIT ( $, .STERADIAN. ) SOLID_ANGLE_UNIT ( ) );
#374 = CARTESIAN_POINT ( 'NONE',  ( -11.99999999999999800, 0.0000000000000000000, 12.00000000000000000 ) ) ;
#375 = VERTEX_POINT ( 'NONE', #374 ) ;
#376 = CARTESIAN_POINT ( 'NONE',  ( -8.000000000000000000, 0.0000000000000000000, 42.00000000000000000 ) ) ;
#377 = ORIENTED_EDGE ( 'NONE', *, *, #217, .F. ) ;
#378 = EDGE_LOOP ( 'NONE', ( #123, #302, #328, #121 ) ) ;
#379 = APPROVAL_DATE_TIME ( #55, #339 ) ;
#380 = DIRECTION ( 'NONE',  ( 0.0000000000000000000, 0.0000000000000000000, -1.000000000000000000 ) ) ;
#381 = CC_DESIGN_PERSON_AND_ORGANIZATION_ASSIGNMENT ( #292, #160, ( #185 ) ) ;
#382 = AXIS2_PLACEMENT_3D ( 'NONE', #51, #59, #196 ) ;
#383 = DIRECTION ( 'NONE',  ( 0.0000000000000000000, 0.0000000000000000000, -1.000000000000000000 ) ) ;
#384 = FACE_OUTER_BOUND ( 'NONE', #272, .T. ) ;
#385 = UNCERTAINTY_MEASURE_WITH_UNIT (LENGTH_MEASURE( 1.000000000000000100E-005 ), #296, 'distance_accuracy_value', 'NONE');
#386 = DIRECTION ( 'NONE',  ( 0.0000000000000000000, 0.0000000000000000000, -1.000000000000000000 ) ) ;
#387 = EDGE_CURVE ( 'NONE', #305, #220, #167, .T. ) ;
#388 = EDGE_LOOP ( 'NONE', ( #222, #392, #56, #395 ) ) ;
#389 = CARTESIAN_POINT ( 'NONE',  ( -11.99999999999999800, 0.0000000000000000000, 10.00000000000000200 ) ) ;
#390 = VERTEX_POINT ( 'NONE', #301 ) ;
#391 = APPROVAL_PERSON_ORGANIZATION ( #63, #339, #108 ) ;
#392 = ORIENTED_EDGE ( 'NONE', *, *, #217, .T. ) ;
#393 = EDGE_CURVE ( 'NONE', #146, #251, #31, .T. ) ;
#394 = LINE ( 'NONE', #183, #319 ) ;
#395 = ORIENTED_EDGE ( 'NONE', *, *, #26, .F. ) ;
#396 = DATE_TIME_ROLE ( 'creation_date' ) ;
#397 = VERTEX_POINT ( 'NONE', #229 ) ;
#398 = COORDINATED_UNIVERSAL_TIME_OFFSET ( 1, 0, .AHEAD. ) ;
#399 = ADVANCED_FACE ( 'NONE', ( #361, #50 ), #336, .T. ) ;
#400 = DIRECTION ( 'NONE',  ( -1.000000000000000000, 0.0000000000000000000, 0.0000000000000000000 ) ) ;
#401 = ORIENTED_EDGE ( 'NONE', *, *, #194, .T. ) ;
#402 = AXIS2_PLACEMENT_3D ( 'NONE', #178, #8, #213 ) ;
#403 = CC_DESIGN_PERSON_AND_ORGANIZATION_ASSIGNMENT ( #198, #23, ( #185 ) ) ;
#404 = APPLICATION_CONTEXT ( 'configuration controlled 3d designs of mechanical parts and assemblies' ) ;
#405 = CIRCLE ( 'NONE', #256, 11.99999999999999800 ) ;
#406 = EDGE_CURVE ( 'NONE', #162, #314, #250, .T. ) ;
#407 = CARTESIAN_POINT ( 'NONE',  ( -8.000000000000000000, 0.0000000000000000000, 42.00000000000000000 ) ) ;
#408 = CARTESIAN_POINT ( 'NONE',  ( 0.0000000000000000000, 0.0000000000000000000, 42.00000000000000000 ) ) ;
#409 = EDGE_LOOP ( 'NONE', ( #3, #401, #260, #277 ) ) ;
ENDSEC;
END-ISO-10303-21;
