ISO-10303-21;
HEADER;
FILE_DESCRIPTION( ( 'STEP AP203' ), '1' );
FILE_NAME( '//expscmdclustefs.cadenas.external/client_exchange/iodir/jobs/output/wkb77245789_no0/STEP/VB1_0__2_03.stp', '  ', ( '  ' ), ( '  ' ), 'PSStep 15.0.47', 'PARTsolutions', '  ' );
FILE_SCHEMA( ( 'CONFIG_CONTROL_DESIGN' ) );
ENDSEC;
DATA;
#1 = DESIGN_CONTEXT( '', #41, 'design' );
#2 = APPLICATION_PROTOCOL_DEFINITION( 'international standard', 'config_control_design', 1994, #41 );
#3 = PRODUCT_CATEGORY_RELATIONSHIP( 'NONE', 'NONE', #42, #43 );
#4 = DATE_AND_TIME( #44, #45 );
#5 = DATE_TIME_ROLE( 'creation_date' );
#6 = DATE_TIME_ROLE( 'classification_date' );
#7 = PERSON_AND_ORGANIZATION_ROLE( 'creator' );
#8 = PERSON_AND_ORGANIZATION_ROLE( 'design_supplier' );
#9 = PERSON_AND_ORGANIZATION_ROLE( 'classification_officer' );
#10 = PERSON_AND_ORGANIZATION_ROLE( 'design_owner' );
#11 = APPROVAL_PERSON_ORGANIZATION( #46, #47, #48 );
#12 = APPROVAL_DATE_TIME( #4, #47 );
#13 = CC_DESIGN_APPROVAL( #47, ( #49, #50, #51 ) );
#14 = CC_DESIGN_DATE_AND_TIME_ASSIGNMENT( #4, #5, ( #51 ) );
#15 = CC_DESIGN_DATE_AND_TIME_ASSIGNMENT( #4, #6, ( #49 ) );
#16 = CC_DESIGN_PERSON_AND_ORGANIZATION_ASSIGNMENT( #46, #10, ( #52 ) );
#17 = CC_DESIGN_PERSON_AND_ORGANIZATION_ASSIGNMENT( #46, #7, ( #51 ) );
#18 = CC_DESIGN_PERSON_AND_ORGANIZATION_ASSIGNMENT( #46, #7, ( #50 ) );
#19 = CC_DESIGN_PERSON_AND_ORGANIZATION_ASSIGNMENT( #46, #8, ( #50 ) );
#20 = CC_DESIGN_SECURITY_CLASSIFICATION( #49, ( #50 ) );
#21 = CC_DESIGN_PERSON_AND_ORGANIZATION_ASSIGNMENT( #46, #9, ( #49 ) );
#22 = SHAPE_DEFINITION_REPRESENTATION( #53, #54 );
#23 = PRODUCT_CATEGORY_RELATIONSHIP( 'NONE', 'NONE', #42, #55 );
#24 = DATE_AND_TIME( #56, #57 );
#25 = APPROVAL_DATE_TIME( #24, #47 );
#26 = CC_DESIGN_APPROVAL( #47, ( #49, #58, #59 ) );
#27 = CC_DESIGN_DATE_AND_TIME_ASSIGNMENT( #24, #5, ( #59 ) );
#28 = CC_DESIGN_DATE_AND_TIME_ASSIGNMENT( #24, #6, ( #49 ) );
#29 = CC_DESIGN_PERSON_AND_ORGANIZATION_ASSIGNMENT( #46, #10, ( #60 ) );
#30 = CC_DESIGN_PERSON_AND_ORGANIZATION_ASSIGNMENT( #46, #7, ( #59 ) );
#31 = CC_DESIGN_PERSON_AND_ORGANIZATION_ASSIGNMENT( #46, #7, ( #58 ) );
#32 = CC_DESIGN_PERSON_AND_ORGANIZATION_ASSIGNMENT( #46, #8, ( #58 ) );
#33 = CC_DESIGN_SECURITY_CLASSIFICATION( #49, ( #58 ) );
#34 = CONTEXT_DEPENDENT_SHAPE_REPRESENTATION( #61, #62 );
#35 = SHAPE_DEFINITION_REPRESENTATION( #63, #64 );
#36 = SHAPE_REPRESENTATION_RELATIONSHIP( 'NONE', 'NONE', #64, #65 );
#37 =  ( GEOMETRIC_REPRESENTATION_CONTEXT( 3 )GLOBAL_UNCERTAINTY_ASSIGNED_CONTEXT( ( #68 ) )GLOBAL_UNIT_ASSIGNED_CONTEXT( ( #70, #71, #72 ) )REPRESENTATION_CONTEXT( 'NONE', 'WORKSPACE' ) );
#41 = APPLICATION_CONTEXT( 'configuration controlled 3D designs of mechanical parts and assemblies' );
#42 = PRODUCT_CATEGORY( 'part', 'NONE' );
#43 = PRODUCT_RELATED_PRODUCT_CATEGORY( 'detail', ' ', ( #52 ) );
#44 = CALENDAR_DATE( 2014, 8, 7 );
#45 = LOCAL_TIME( 10, 12, 29.0000000000000, #74 );
#46 = PERSON_AND_ORGANIZATION( #75, #76 );
#47 = APPROVAL( #77, 'SOLID MODEL' );
#48 = APPROVAL_ROLE( 'APPROVED' );
#49 = SECURITY_CLASSIFICATION( '', '', #78 );
#50 = PRODUCT_DEFINITION_FORMATION_WITH_SPECIFIED_SOURCE( ' ', 'NONE', #52, .NOT_KNOWN. );
#51 = PRODUCT_DEFINITION( 'NONE', 'NONE', #50, #1 );
#52 = PRODUCT( 'VB1(0)', 'VB1(0)', 'PART-VB1(0)-DESC', ( #79 ) );
#53 = PRODUCT_DEFINITION_SHAPE( 'NONE', 'NONE', #51 );
#54 = SHAPE_REPRESENTATION( 'VB1(0)', ( #80, #81 ), #82 );
#55 = PRODUCT_RELATED_PRODUCT_CATEGORY( 'detail', ' ', ( #60 ) );
#56 = CALENDAR_DATE( 2014, 8, 7 );
#57 = LOCAL_TIME( 10, 12, 29.0000000000000, #83 );
#58 = PRODUCT_DEFINITION_FORMATION_WITH_SPECIFIED_SOURCE( ' ', 'NONE', #60, .NOT_KNOWN. );
#59 = PRODUCT_DEFINITION( '_VB1_B', '_VB1_B', #58, #1 );
#60 = PRODUCT( '_VB1_B', '_VB1_B', 'PART-_VB1_B-DESC', ( #79 ) );
#61 = ( REPRESENTATION_RELATIONSHIP( '', '', #64, #54 )REPRESENTATION_RELATIONSHIP_WITH_TRANSFORMATION( #86 )SHAPE_REPRESENTATION_RELATIONSHIP(  ) );
#62 = PRODUCT_DEFINITION_SHAPE( 'NAUO-PROD-DEF', 'NAUO-PROD-DEF', #88 );
#63 = PRODUCT_DEFINITION_SHAPE( 'NONE', 'NONE', #59 );
#64 = SHAPE_REPRESENTATION( '_VB1_B', ( #80 ), #82 );
#65 = ADVANCED_BREP_SHAPE_REPRESENTATION( '_VB1_B', ( #89 ), #37 );
#68 = UNCERTAINTY_MEASURE_WITH_UNIT( LENGTH_MEASURE( 3.93700787401575E-005 ), #70, '', '' );
#70 =  ( CONVERSION_BASED_UNIT( 'INCH', #92 )LENGTH_UNIT(  )NAMED_UNIT( #95 ) );
#71 =  ( NAMED_UNIT( #97 )PLANE_ANGLE_UNIT(  )SI_UNIT( $, .RADIAN. ) );
#72 =  ( NAMED_UNIT( #97 )SI_UNIT( $, .STERADIAN. )SOLID_ANGLE_UNIT(  ) );
#74 = COORDINATED_UNIVERSAL_TIME_OFFSET( 1, 0, .AHEAD. );
#75 = PERSON( '', 'UNSPECIFIED', $, $, $, $ );
#76 = ORGANIZATION( 'UNSPECIFIED', 'UNSPECIFIED', 'UNSPECIFIED' );
#77 = APPROVAL_STATUS( 'approved' );
#78 = SECURITY_CLASSIFICATION_LEVEL( 'unclassified' );
#79 = MECHANICAL_CONTEXT( '', #41, 'mechanical' );
#80 = AXIS2_PLACEMENT_3D( '', #103, #104, #105 );
#81 = AXIS2_PLACEMENT_3D( '', #106, #107, #108 );
#82 =  ( GEOMETRIC_REPRESENTATION_CONTEXT( 3 )GLOBAL_UNCERTAINTY_ASSIGNED_CONTEXT( ( #111 ) )GLOBAL_UNIT_ASSIGNED_CONTEXT( ( #113, #114, #115 ) )REPRESENTATION_CONTEXT( 'NONE', 'WORKSPACE' ) );
#83 = COORDINATED_UNIVERSAL_TIME_OFFSET( 1, 0, .AHEAD. );
#86 = ITEM_DEFINED_TRANSFORMATION( '', '', #80, #81 );
#88 = NEXT_ASSEMBLY_USAGE_OCCURRENCE( 'NAUO1', 'NAUO1', 'NAUO1', #51, #59, $ );
#89 = MANIFOLD_SOLID_BREP( '_VB1_B', #117 );
#92 = LENGTH_MEASURE_WITH_UNIT( LENGTH_MEASURE( 25.4000000000000 ), #118 );
#95 = DIMENSIONAL_EXPONENTS( 1.00000000000000, 0.000000000000000, 0.000000000000000, 0.000000000000000, 0.000000000000000, 0.000000000000000, 0.000000000000000 );
#97 = DIMENSIONAL_EXPONENTS( 0.000000000000000, 0.000000000000000, 0.000000000000000, 0.000000000000000, 0.000000000000000, 0.000000000000000, 0.000000000000000 );
#103 = CARTESIAN_POINT( '', ( 0.000000000000000, 0.000000000000000, 0.000000000000000 ) );
#104 = DIRECTION( '', ( 0.000000000000000, 0.000000000000000, 1.00000000000000 ) );
#105 = DIRECTION( '', ( 1.00000000000000, 0.000000000000000, 0.000000000000000 ) );
#106 = CARTESIAN_POINT( '', ( 0.000000000000000, 0.000000000000000, 0.000000000000000 ) );
#107 = DIRECTION( '', ( -1.00000000000000, -0.000000000000000, -0.000000000000000 ) );
#108 = DIRECTION( '', ( 0.000000000000000, 0.000000000000000, -1.00000000000000 ) );
#111 = UNCERTAINTY_MEASURE_WITH_UNIT( LENGTH_MEASURE( 3.93700787401575E-005 ), #113, '', '' );
#113 =  ( CONVERSION_BASED_UNIT( 'INCH', #121 )LENGTH_UNIT(  )NAMED_UNIT( #124 ) );
#114 =  ( NAMED_UNIT( #126 )PLANE_ANGLE_UNIT(  )SI_UNIT( $, .RADIAN. ) );
#115 =  ( NAMED_UNIT( #126 )SI_UNIT( $, .STERADIAN. )SOLID_ANGLE_UNIT(  ) );
#117 = CLOSED_SHELL( '', ( #132, #133, #134, #135, #136, #137, #138, #139, #140, #141, #142 ) );
#118 =  ( LENGTH_UNIT(  )NAMED_UNIT( #95 )SI_UNIT( .MILLI., .METRE. ) );
#121 = LENGTH_MEASURE_WITH_UNIT( LENGTH_MEASURE( 25.4000000000000 ), #144 );
#124 = DIMENSIONAL_EXPONENTS( 1.00000000000000, 0.000000000000000, 0.000000000000000, 0.000000000000000, 0.000000000000000, 0.000000000000000, 0.000000000000000 );
#126 = DIMENSIONAL_EXPONENTS( 0.000000000000000, 0.000000000000000, 0.000000000000000, 0.000000000000000, 0.000000000000000, 0.000000000000000, 0.000000000000000 );
#132 = ADVANCED_FACE( '', ( #145, #146 ), #147, .F. );
#133 = ADVANCED_FACE( '', ( #148, #149 ), #150, .F. );
#134 = ADVANCED_FACE( '', ( #151, #152 ), #153, .F. );
#135 = ADVANCED_FACE( '', ( #154, #155 ), #156, .T. );
#136 = ADVANCED_FACE( '', ( #157, #158 ), #159, .T. );
#137 = ADVANCED_FACE( '', ( #160, #161 ), #162, .F. );
#138 = ADVANCED_FACE( '', ( #163, #164 ), #165, .T. );
#139 = ADVANCED_FACE( '', ( #166, #167 ), #168, .F. );
#140 = ADVANCED_FACE( '', ( #169, #170 ), #171, .F. );
#141 = ADVANCED_FACE( '', ( #172, #173 ), #174, .T. );
#142 = ADVANCED_FACE( '', ( #175, #176 ), #177, .T. );
#144 =  ( LENGTH_UNIT(  )NAMED_UNIT( #124 )SI_UNIT( .MILLI., .METRE. ) );
#145 = FACE_OUTER_BOUND( '', #179, .T. );
#146 = FACE_BOUND( '', #180, .T. );
#147 = PLANE( '', #181 );
#148 = FACE_OUTER_BOUND( '', #182, .T. );
#149 = FACE_BOUND( '', #183, .T. );
#150 = CONICAL_SURFACE( '', #184, 0.0690000000000000, 0.785398163397451 );
#151 = FACE_BOUND( '', #185, .T. );
#152 = FACE_OUTER_BOUND( '', #186, .T. );
#153 = PLANE( '', #187 );
#154 = FACE_OUTER_BOUND( '', #188, .T. );
#155 = FACE_BOUND( '', #189, .T. );
#156 = CONICAL_SURFACE( '', #190, 0.204000000000000, 0.785398163397450 );
#157 = FACE_BOUND( '', #191, .T. );
#158 = FACE_OUTER_BOUND( '', #192, .T. );
#159 = CONICAL_SURFACE( '', #193, 0.0936500000000000, 0.785398163397448 );
#160 = FACE_OUTER_BOUND( '', #194, .T. );
#161 = FACE_OUTER_BOUND( '', #195, .T. );
#162 = CYLINDRICAL_SURFACE( '', #196, 0.0690000000000000 );
#163 = FACE_OUTER_BOUND( '', #197, .T. );
#164 = FACE_OUTER_BOUND( '', #198, .T. );
#165 = CYLINDRICAL_SURFACE( '', #199, 0.0936500000000000 );
#166 = FACE_OUTER_BOUND( '', #200, .T. );
#167 = FACE_OUTER_BOUND( '', #201, .T. );
#168 = TOROIDAL_SURFACE( '', #202, 0.103650000000000, 0.0100000000000000 );
#169 = FACE_BOUND( '', #203, .T. );
#170 = FACE_OUTER_BOUND( '', #204, .T. );
#171 = PLANE( '', #205 );
#172 = FACE_BOUND( '', #206, .T. );
#173 = FACE_OUTER_BOUND( '', #207, .T. );
#174 = CONICAL_SURFACE( '', #208, 0.219000000000000, 0.785398163397448 );
#175 = FACE_OUTER_BOUND( '', #209, .T. );
#176 = FACE_OUTER_BOUND( '', #210, .T. );
#177 = CYLINDRICAL_SURFACE( '', #211, 0.219000000000000 );
#179 = EDGE_LOOP( '', ( #212 ) );
#180 = EDGE_LOOP( '', ( #213 ) );
#181 = AXIS2_PLACEMENT_3D( '', #214, #215, #216 );
#182 = EDGE_LOOP( '', ( #217 ) );
#183 = EDGE_LOOP( '', ( #218 ) );
#184 = AXIS2_PLACEMENT_3D( '', #219, #220, #221 );
#185 = EDGE_LOOP( '', ( #222 ) );
#186 = EDGE_LOOP( '', ( #223 ) );
#187 = AXIS2_PLACEMENT_3D( '', #224, #225, #226 );
#188 = EDGE_LOOP( '', ( #227 ) );
#189 = EDGE_LOOP( '', ( #228 ) );
#190 = AXIS2_PLACEMENT_3D( '', #229, #230, #231 );
#191 = EDGE_LOOP( '', ( #232 ) );
#192 = EDGE_LOOP( '', ( #233 ) );
#193 = AXIS2_PLACEMENT_3D( '', #234, #235, #236 );
#194 = EDGE_LOOP( '', ( #237 ) );
#195 = EDGE_LOOP( '', ( #238 ) );
#196 = AXIS2_PLACEMENT_3D( '', #239, #240, #241 );
#197 = EDGE_LOOP( '', ( #242 ) );
#198 = EDGE_LOOP( '', ( #243 ) );
#199 = AXIS2_PLACEMENT_3D( '', #244, #245, #246 );
#200 = EDGE_LOOP( '', ( #247 ) );
#201 = EDGE_LOOP( '', ( #248 ) );
#202 = AXIS2_PLACEMENT_3D( '', #249, #250, #251 );
#203 = EDGE_LOOP( '', ( #252 ) );
#204 = EDGE_LOOP( '', ( #253 ) );
#205 = AXIS2_PLACEMENT_3D( '', #254, #255, #256 );
#206 = EDGE_LOOP( '', ( #257 ) );
#207 = EDGE_LOOP( '', ( #258 ) );
#208 = AXIS2_PLACEMENT_3D( '', #259, #260, #261 );
#209 = EDGE_LOOP( '', ( #262 ) );
#210 = EDGE_LOOP( '', ( #263 ) );
#211 = AXIS2_PLACEMENT_3D( '', #264, #265, #266 );
#212 = ORIENTED_EDGE( '', *, *, #267, .F. );
#213 = ORIENTED_EDGE( '', *, *, #268, .T. );
#214 = CARTESIAN_POINT( '', ( -0.250000000000000, 0.000000000000000, 0.000000000000000 ) );
#215 = DIRECTION( '', ( 1.00000000000000, 0.000000000000000, -0.000000000000000 ) );
#216 = DIRECTION( '', ( -0.000000000000000, 0.000000000000000, -1.00000000000000 ) );
#217 = ORIENTED_EDGE( '', *, *, #269, .T. );
#218 = ORIENTED_EDGE( '', *, *, #270, .F. );
#219 = CARTESIAN_POINT( '', ( 0.290000000000000, 0.000000000000000, 0.000000000000000 ) );
#220 = DIRECTION( '', ( 1.00000000000000, -0.000000000000000, -0.000000000000000 ) );
#221 = DIRECTION( '', ( -0.000000000000000, 0.000000000000000, -1.00000000000000 ) );
#222 = ORIENTED_EDGE( '', *, *, #269, .F. );
#223 = ORIENTED_EDGE( '', *, *, #271, .T. );
#224 = CARTESIAN_POINT( '', ( 0.300000000000000, 0.000000000000000, -0.0836500000000000 ) );
#225 = DIRECTION( '', ( -1.00000000000000, 0.000000000000000, 0.000000000000000 ) );
#226 = DIRECTION( '', ( 0.000000000000000, 0.000000000000000, 1.00000000000000 ) );
#227 = ORIENTED_EDGE( '', *, *, #272, .F. );
#228 = ORIENTED_EDGE( '', *, *, #267, .T. );
#229 = CARTESIAN_POINT( '', ( -0.250000000000000, 0.000000000000000, 0.000000000000000 ) );
#230 = DIRECTION( '', ( 1.00000000000000, -0.000000000000000, -0.000000000000000 ) );
#231 = DIRECTION( '', ( -0.000000000000000, 0.000000000000000, -1.00000000000000 ) );
#232 = ORIENTED_EDGE( '', *, *, #271, .F. );
#233 = ORIENTED_EDGE( '', *, *, #273, .T. );
#234 = CARTESIAN_POINT( '', ( 0.290000000000000, 0.000000000000000, 0.000000000000000 ) );
#235 = DIRECTION( '', ( -1.00000000000000, 0.000000000000000, -0.000000000000000 ) );
#236 = DIRECTION( '', ( 0.000000000000000, 0.000000000000000, 1.00000000000000 ) );
#237 = ORIENTED_EDGE( '', *, *, #270, .T. );
#238 = ORIENTED_EDGE( '', *, *, #268, .F. );
#239 = CARTESIAN_POINT( '', ( 0.300000000000000, 0.000000000000000, 0.000000000000000 ) );
#240 = DIRECTION( '', ( -1.00000000000000, -0.000000000000000, 0.000000000000000 ) );
#241 = DIRECTION( '', ( -0.000000000000000, 0.000000000000000, -1.00000000000000 ) );
#242 = ORIENTED_EDGE( '', *, *, #273, .F. );
#243 = ORIENTED_EDGE( '', *, *, #274, .T. );
#244 = CARTESIAN_POINT( '', ( 0.300000000000000, 0.000000000000000, 0.000000000000000 ) );
#245 = DIRECTION( '', ( -1.00000000000000, -0.000000000000000, 0.000000000000000 ) );
#246 = DIRECTION( '', ( -0.000000000000000, 0.000000000000000, -1.00000000000000 ) );
#247 = ORIENTED_EDGE( '', *, *, #274, .F. );
#248 = ORIENTED_EDGE( '', *, *, #275, .T. );
#249 = CARTESIAN_POINT( '', ( 0.0100000000000000, 0.000000000000000, 0.000000000000000 ) );
#250 = DIRECTION( '', ( 1.00000000000000, 0.000000000000000, -0.000000000000000 ) );
#251 = DIRECTION( '', ( -0.000000000000000, 0.000000000000000, -1.00000000000000 ) );
#252 = ORIENTED_EDGE( '', *, *, #275, .F. );
#253 = ORIENTED_EDGE( '', *, *, #276, .T. );
#254 = CARTESIAN_POINT( '', ( 0.000000000000000, 0.000000000000000, -0.204000000000000 ) );
#255 = DIRECTION( '', ( -1.00000000000000, 0.000000000000000, 0.000000000000000 ) );
#256 = DIRECTION( '', ( 0.000000000000000, 0.000000000000000, 1.00000000000000 ) );
#257 = ORIENTED_EDGE( '', *, *, #276, .F. );
#258 = ORIENTED_EDGE( '', *, *, #277, .T. );
#259 = CARTESIAN_POINT( '', ( -0.0150000000000000, 0.000000000000000, 0.000000000000000 ) );
#260 = DIRECTION( '', ( -1.00000000000000, 0.000000000000000, -0.000000000000000 ) );
#261 = DIRECTION( '', ( 0.000000000000000, 0.000000000000000, 1.00000000000000 ) );
#262 = ORIENTED_EDGE( '', *, *, #277, .F. );
#263 = ORIENTED_EDGE( '', *, *, #272, .T. );
#264 = CARTESIAN_POINT( '', ( 0.300000000000000, 0.000000000000000, 0.000000000000000 ) );
#265 = DIRECTION( '', ( -1.00000000000000, -0.000000000000000, 0.000000000000000 ) );
#266 = DIRECTION( '', ( -0.000000000000000, 0.000000000000000, -1.00000000000000 ) );
#267 = EDGE_CURVE( '', #278, #278, #279, .T. );
#268 = EDGE_CURVE( '', #280, #280, #281, .T. );
#269 = EDGE_CURVE( '', #282, #282, #283, .T. );
#270 = EDGE_CURVE( '', #284, #284, #285, .T. );
#271 = EDGE_CURVE( '', #286, #286, #287, .T. );
#272 = EDGE_CURVE( '', #288, #288, #289, .T. );
#273 = EDGE_CURVE( '', #290, #290, #291, .T. );
#274 = EDGE_CURVE( '', #292, #292, #293, .T. );
#275 = EDGE_CURVE( '', #294, #294, #295, .T. );
#276 = EDGE_CURVE( '', #296, #296, #297, .T. );
#277 = EDGE_CURVE( '', #298, #298, #299, .T. );
#278 = VERTEX_POINT( '', #300 );
#279 = CIRCLE( '', #301, 0.204000000000000 );
#280 = VERTEX_POINT( '', #302 );
#281 = CIRCLE( '', #303, 0.0690000000000000 );
#282 = VERTEX_POINT( '', #304 );
#283 = CIRCLE( '', #305, 0.0790000000000000 );
#284 = VERTEX_POINT( '', #306 );
#285 = CIRCLE( '', #307, 0.0690000000000000 );
#286 = VERTEX_POINT( '', #308 );
#287 = CIRCLE( '', #309, 0.0836500000000000 );
#288 = VERTEX_POINT( '', #310 );
#289 = CIRCLE( '', #311, 0.219000000000000 );
#290 = VERTEX_POINT( '', #312 );
#291 = CIRCLE( '', #313, 0.0936500000000000 );
#292 = VERTEX_POINT( '', #314 );
#293 = CIRCLE( '', #315, 0.0936500000000000 );
#294 = VERTEX_POINT( '', #316 );
#295 = CIRCLE( '', #317, 0.103650000000000 );
#296 = VERTEX_POINT( '', #318 );
#297 = CIRCLE( '', #319, 0.204000000000000 );
#298 = VERTEX_POINT( '', #320 );
#299 = CIRCLE( '', #321, 0.219000000000000 );
#300 = CARTESIAN_POINT( '', ( -0.250000000000000, 0.000000000000000, -0.204000000000000 ) );
#301 = AXIS2_PLACEMENT_3D( '', #322, #323, #324 );
#302 = CARTESIAN_POINT( '', ( -0.250000000000000, 0.000000000000000, -0.0690000000000000 ) );
#303 = AXIS2_PLACEMENT_3D( '', #325, #326, #327 );
#304 = CARTESIAN_POINT( '', ( 0.300000000000000, 0.000000000000000, -0.0790000000000000 ) );
#305 = AXIS2_PLACEMENT_3D( '', #328, #329, #330 );
#306 = CARTESIAN_POINT( '', ( 0.290000000000000, 0.000000000000000, -0.0690000000000000 ) );
#307 = AXIS2_PLACEMENT_3D( '', #331, #332, #333 );
#308 = CARTESIAN_POINT( '', ( 0.300000000000000, 0.000000000000000, -0.0836500000000000 ) );
#309 = AXIS2_PLACEMENT_3D( '', #334, #335, #336 );
#310 = CARTESIAN_POINT( '', ( -0.235000000000000, 0.000000000000000, -0.219000000000000 ) );
#311 = AXIS2_PLACEMENT_3D( '', #337, #338, #339 );
#312 = CARTESIAN_POINT( '', ( 0.290000000000000, 0.000000000000000, -0.0936500000000000 ) );
#313 = AXIS2_PLACEMENT_3D( '', #340, #341, #342 );
#314 = CARTESIAN_POINT( '', ( 0.0100000000000000, 0.000000000000000, -0.0936500000000000 ) );
#315 = AXIS2_PLACEMENT_3D( '', #343, #344, #345 );
#316 = CARTESIAN_POINT( '', ( 0.000000000000000, 0.000000000000000, -0.103650000000000 ) );
#317 = AXIS2_PLACEMENT_3D( '', #346, #347, #348 );
#318 = CARTESIAN_POINT( '', ( 0.000000000000000, 0.000000000000000, -0.204000000000000 ) );
#319 = AXIS2_PLACEMENT_3D( '', #349, #350, #351 );
#320 = CARTESIAN_POINT( '', ( -0.0150000000000000, 0.000000000000000, -0.219000000000000 ) );
#321 = AXIS2_PLACEMENT_3D( '', #352, #353, #354 );
#322 = CARTESIAN_POINT( '', ( -0.250000000000000, 0.000000000000000, 0.000000000000000 ) );
#323 = DIRECTION( '', ( 1.00000000000000, 0.000000000000000, -0.000000000000000 ) );
#324 = DIRECTION( '', ( -0.000000000000000, 0.000000000000000, -1.00000000000000 ) );
#325 = CARTESIAN_POINT( '', ( -0.250000000000000, 0.000000000000000, 0.000000000000000 ) );
#326 = DIRECTION( '', ( 1.00000000000000, 0.000000000000000, -0.000000000000000 ) );
#327 = DIRECTION( '', ( -0.000000000000000, 0.000000000000000, -1.00000000000000 ) );
#328 = CARTESIAN_POINT( '', ( 0.300000000000000, 0.000000000000000, 0.000000000000000 ) );
#329 = DIRECTION( '', ( 1.00000000000000, 0.000000000000000, -0.000000000000000 ) );
#330 = DIRECTION( '', ( -0.000000000000000, 0.000000000000000, -1.00000000000000 ) );
#331 = CARTESIAN_POINT( '', ( 0.290000000000000, 0.000000000000000, 0.000000000000000 ) );
#332 = DIRECTION( '', ( 1.00000000000000, 0.000000000000000, -0.000000000000000 ) );
#333 = DIRECTION( '', ( -0.000000000000000, 0.000000000000000, -1.00000000000000 ) );
#334 = CARTESIAN_POINT( '', ( 0.300000000000000, 0.000000000000000, 0.000000000000000 ) );
#335 = DIRECTION( '', ( 1.00000000000000, 0.000000000000000, -0.000000000000000 ) );
#336 = DIRECTION( '', ( -0.000000000000000, 0.000000000000000, -1.00000000000000 ) );
#337 = CARTESIAN_POINT( '', ( -0.235000000000000, 0.000000000000000, 0.000000000000000 ) );
#338 = DIRECTION( '', ( 1.00000000000000, 0.000000000000000, -0.000000000000000 ) );
#339 = DIRECTION( '', ( -0.000000000000000, 0.000000000000000, -1.00000000000000 ) );
#340 = CARTESIAN_POINT( '', ( 0.290000000000000, 0.000000000000000, 0.000000000000000 ) );
#341 = DIRECTION( '', ( 1.00000000000000, 0.000000000000000, -0.000000000000000 ) );
#342 = DIRECTION( '', ( -0.000000000000000, 0.000000000000000, -1.00000000000000 ) );
#343 = CARTESIAN_POINT( '', ( 0.0100000000000000, 0.000000000000000, 0.000000000000000 ) );
#344 = DIRECTION( '', ( 1.00000000000000, 0.000000000000000, -0.000000000000000 ) );
#345 = DIRECTION( '', ( -0.000000000000000, 0.000000000000000, -1.00000000000000 ) );
#346 = CARTESIAN_POINT( '', ( 0.000000000000000, 0.000000000000000, 0.000000000000000 ) );
#347 = DIRECTION( '', ( 1.00000000000000, 0.000000000000000, -0.000000000000000 ) );
#348 = DIRECTION( '', ( -0.000000000000000, 0.000000000000000, -1.00000000000000 ) );
#349 = CARTESIAN_POINT( '', ( 0.000000000000000, 0.000000000000000, 0.000000000000000 ) );
#350 = DIRECTION( '', ( 1.00000000000000, 0.000000000000000, -0.000000000000000 ) );
#351 = DIRECTION( '', ( -0.000000000000000, 0.000000000000000, -1.00000000000000 ) );
#352 = CARTESIAN_POINT( '', ( -0.0150000000000000, 0.000000000000000, 0.000000000000000 ) );
#353 = DIRECTION( '', ( 1.00000000000000, 0.000000000000000, -0.000000000000000 ) );
#354 = DIRECTION( '', ( -0.000000000000000, 0.000000000000000, -1.00000000000000 ) );
ENDSEC;
END-ISO-10303-21;
