ISO-10303-21;
HEADER;
FILE_DESCRIPTION(('STEP AP203'),'1');
FILE_NAME('C:/TPO v2/SharedFS/Outgoing/200_143_000_without_distance_washer.stp','2014-08-06T06:30:48',('TraceParts'),('TraceParts S.A.'),'XStep 1.0',' ',' ');
FILE_SCHEMA(('CONFIG_CONTROL_DESIGN'));
ENDSEC;
DATA;
#1=DESIGN_CONTEXT('',#27,'design');
#2=APPLICATION_PROTOCOL_DEFINITION('INTERNATIONAL STANDARD','config_control_design',1994,#27);
#3=PRODUCT_CATEGORY_RELATIONSHIP('NONE','NONE',#28,#29);
#4=DATE_AND_TIME(#30,#31);
#5=DATE_TIME_ROLE('creation_date');
#6=DATE_TIME_ROLE('classification_date');
#7=PERSON_AND_ORGANIZATION_ROLE('creator');
#8=PERSON_AND_ORGANIZATION_ROLE('design_supplier');
#9=PERSON_AND_ORGANIZATION_ROLE('classification_officer');
#10=PERSON_AND_ORGANIZATION_ROLE('design_owner');
#11=APPROVAL_PERSON_ORGANIZATION(#32,#33,#34);
#12=APPROVAL_DATE_TIME(#4,#33);
#13=CC_DESIGN_APPROVAL(#33,(#35,#36,#37));
#14=CC_DESIGN_DATE_AND_TIME_ASSIGNMENT(#4,#5,(#37));
#15=CC_DESIGN_DATE_AND_TIME_ASSIGNMENT(#4,#6,(#35));
#16=CC_DESIGN_PERSON_AND_ORGANIZATION_ASSIGNMENT(#32,#10,(#38));
#17=CC_DESIGN_PERSON_AND_ORGANIZATION_ASSIGNMENT(#32,#7,(#37));
#18=CC_DESIGN_PERSON_AND_ORGANIZATION_ASSIGNMENT(#32,#7,(#36));
#19=CC_DESIGN_PERSON_AND_ORGANIZATION_ASSIGNMENT(#32,#8,(#36));
#20=CC_DESIGN_SECURITY_CLASSIFICATION(#35,(#36));
#21=CC_DESIGN_PERSON_AND_ORGANIZATION_ASSIGNMENT(#32,#9,(#35));
#22=SHAPE_DEFINITION_REPRESENTATION(#39,#40);
#23= (GEOMETRIC_REPRESENTATION_CONTEXT(3)GLOBAL_UNCERTAINTY_ASSIGNED_CONTEXT((#43))GLOBAL_UNIT_ASSIGNED_CONTEXT((#45,#46,#47))REPRESENTATION_CONTEXT('NONE','WORKSPACE'));
#27=APPLICATION_CONTEXT('CONFIGURATION CONTROLLED 3D DESIGNS OF MECHANICAL PARTS AND ASSEMBLIES');
#28=PRODUCT_CATEGORY('part','NONE');
#29=PRODUCT_RELATED_PRODUCT_CATEGORY('detail',' ',(#38));
#30=CALENDAR_DATE(2014,6,7);
#31=LOCAL_TIME(8,30,48.0,#49);
#32=PERSON_AND_ORGANIZATION(#50,#51);
#33=APPROVAL(#52,'SOLID MODEL');
#34=APPROVAL_ROLE('APPROVED');
#35=SECURITY_CLASSIFICATION('','',#53);
#36=PRODUCT_DEFINITION_FORMATION_WITH_SPECIFIED_SOURCE(' ','NONE',#38,.NOT_KNOWN.);
#37=PRODUCT_DEFINITION('NONE','NONE',#36,#1);
#38=PRODUCT('1','1','PART-1-DESC',(#54));
#39=PRODUCT_DEFINITION_SHAPE('NONE','NONE',#37);
#40=ADVANCED_BREP_SHAPE_REPRESENTATION('1',(#55,#56),#23);
#43=UNCERTAINTY_MEASURE_WITH_UNIT(LENGTH_MEASURE(1.0E-006),#45,'','');
#45= (CONVERSION_BASED_UNIT('MILLIMETRE',#59)LENGTH_UNIT()NAMED_UNIT(#62));
#46= (NAMED_UNIT(#64)PLANE_ANGLE_UNIT()SI_UNIT($,.RADIAN.));
#47= (NAMED_UNIT(#64)SOLID_ANGLE_UNIT()SI_UNIT($,.STERADIAN.));
#49=COORDINATED_UNIVERSAL_TIME_OFFSET(1,0,.AHEAD.);
#50=PERSON('','UNSPECIFIED',$,$,$,$);
#51=ORGANIZATION('UNSPECIFIED','UNSPECIFIED','UNSPECIFIED');
#52=APPROVAL_STATUS('approved');
#53=SECURITY_CLASSIFICATION_LEVEL('unclassified');
#54=MECHANICAL_CONTEXT('',#27,'mechanical');
#55=MANIFOLD_SOLID_BREP('1',#70);
#56=AXIS2_PLACEMENT_3D('',#71,#72,#73);
#59=LENGTH_MEASURE_WITH_UNIT(LENGTH_MEASURE(1.0),#74);
#62=DIMENSIONAL_EXPONENTS(1.0,0.0,0.0,0.0,0.0,0.0,0.0);
#64=DIMENSIONAL_EXPONENTS(0.0,0.0,0.0,0.0,0.0,0.0,0.0);
#70=CLOSED_SHELL('',(#75,#76,#77,#78,#79,#80,#81,#82,#83,#84,#85,#86,#87,#88,#89,#90,#91,#92,#93,#94,#95));
#71=CARTESIAN_POINT('',(0.0,0.0,0.0));
#72=DIRECTION('',(0.0,0.0,1.0));
#73=DIRECTION('',(1.0,0.0,0.0));
#74= (NAMED_UNIT(#62)LENGTH_UNIT()SI_UNIT(.MILLI.,.METRE.));
#75=ADVANCED_FACE('',(#97),#98,.T.);
#76=ADVANCED_FACE('',(#99),#100,.T.);
#77=ADVANCED_FACE('',(#101),#102,.T.);
#78=ADVANCED_FACE('',(#103),#104,.T.);
#79=ADVANCED_FACE('',(#105),#106,.T.);
#80=ADVANCED_FACE('',(#107),#108,.T.);
#81=ADVANCED_FACE('',(#109),#110,.F.);
#82=ADVANCED_FACE('',(#111),#112,.F.);
#83=ADVANCED_FACE('',(#113),#114,.F.);
#84=ADVANCED_FACE('',(#115),#116,.F.);
#85=ADVANCED_FACE('',(#117),#118,.F.);
#86=ADVANCED_FACE('',(#119),#120,.T.);
#87=ADVANCED_FACE('',(#121),#122,.T.);
#88=ADVANCED_FACE('',(#123),#124,.T.);
#89=ADVANCED_FACE('',(#125,#126),#127,.T.);
#90=ADVANCED_FACE('',(#128),#129,.T.);
#91=ADVANCED_FACE('',(#130,#131),#132,.T.);
#92=ADVANCED_FACE('',(#133),#134,.T.);
#93=ADVANCED_FACE('',(#135),#136,.T.);
#94=ADVANCED_FACE('',(#137),#138,.T.);
#95=ADVANCED_FACE('',(#139,#140),#141,.T.);
#97=FACE_OUTER_BOUND('',#142,.T.);
#98=CYLINDRICAL_SURFACE('',#143,10.0);
#99=FACE_OUTER_BOUND('',#144,.T.);
#100=CYLINDRICAL_SURFACE('',#145,20.0);
#101=FACE_OUTER_BOUND('',#146,.T.);
#102=TOROIDAL_SURFACE('',#147,19.2,0.8);
#103=FACE_OUTER_BOUND('',#148,.T.);
#104=TOROIDAL_SURFACE('',#149,19.2,0.8);
#105=FACE_OUTER_BOUND('',#150,.T.);
#106=CONICAL_SURFACE('',#151,9.5,0.694738276196703);
#107=FACE_OUTER_BOUND('',#152,.T.);
#108=CYLINDRICAL_SURFACE('',#153,10.0);
#109=FACE_OUTER_BOUND('',#154,.T.);
#110=CYLINDRICAL_SURFACE('',#155,3.32175);
#111=FACE_OUTER_BOUND('',#156,.T.);
#112=CONICAL_SURFACE('',#157,3.660875,0.785398163397448);
#113=FACE_OUTER_BOUND('',#158,.T.);
#114=CONICAL_SURFACE('',#159,3.660875,0.785398163397448);
#115=FACE_OUTER_BOUND('',#160,.T.);
#116=CYLINDRICAL_SURFACE('',#161,3.32175);
#117=FACE_OUTER_BOUND('',#162,.T.);
#118=PLANE('',#163);
#119=FACE_OUTER_BOUND('',#164,.T.);
#120=CYLINDRICAL_SURFACE('',#165,10.0);
#121=FACE_OUTER_BOUND('',#166,.T.);
#122=CONICAL_SURFACE('',#167,9.5,0.694738276196703);
#123=FACE_OUTER_BOUND('',#168,.T.);
#124=PLANE('',#169);
#125=FACE_OUTER_BOUND('',#170,.T.);
#126=FACE_BOUND('',#171,.T.);
#127=PLANE('',#172);
#128=FACE_OUTER_BOUND('',#173,.T.);
#129=TOROIDAL_SURFACE('',#174,19.2,0.8);
#130=FACE_BOUND('',#175,.T.);
#131=FACE_OUTER_BOUND('',#176,.T.);
#132=PLANE('',#177);
#133=FACE_OUTER_BOUND('',#178,.T.);
#134=TOROIDAL_SURFACE('',#179,19.2,0.8);
#135=FACE_OUTER_BOUND('',#180,.T.);
#136=CYLINDRICAL_SURFACE('',#181,20.0);
#137=FACE_OUTER_BOUND('',#182,.T.);
#138=CYLINDRICAL_SURFACE('',#183,10.0);
#139=FACE_BOUND('',#184,.T.);
#140=FACE_OUTER_BOUND('',#185,.T.);
#141=PLANE('',#186);
#142=EDGE_LOOP('',(#187,#188,#189,#190));
#143=AXIS2_PLACEMENT_3D('',#191,#192,#193);
#144=EDGE_LOOP('',(#194,#195,#196,#197,#198,#199));
#145=AXIS2_PLACEMENT_3D('',#200,#201,#202);
#146=EDGE_LOOP('',(#203,#204,#205,#206));
#147=AXIS2_PLACEMENT_3D('',#207,#208,#209);
#148=EDGE_LOOP('',(#210,#211,#212,#213));
#149=AXIS2_PLACEMENT_3D('',#214,#215,#216);
#150=EDGE_LOOP('',(#217,#218,#219,#220));
#151=AXIS2_PLACEMENT_3D('',#221,#222,#223);
#152=EDGE_LOOP('',(#224,#225,#226,#227));
#153=AXIS2_PLACEMENT_3D('',#228,#229,#230);
#154=EDGE_LOOP('',(#231,#232,#233,#234));
#155=AXIS2_PLACEMENT_3D('',#235,#236,#237);
#156=EDGE_LOOP('',(#238,#239,#240,#241));
#157=AXIS2_PLACEMENT_3D('',#242,#243,#244);
#158=EDGE_LOOP('',(#245,#246,#247,#248));
#159=AXIS2_PLACEMENT_3D('',#249,#250,#251);
#160=EDGE_LOOP('',(#252,#253,#254,#255));
#161=AXIS2_PLACEMENT_3D('',#256,#257,#258);
#162=EDGE_LOOP('',(#259,#260));
#163=AXIS2_PLACEMENT_3D('',#261,#262,#263);
#164=EDGE_LOOP('',(#264,#265,#266,#267));
#165=AXIS2_PLACEMENT_3D('',#268,#269,#270);
#166=EDGE_LOOP('',(#271,#272,#273,#274));
#167=AXIS2_PLACEMENT_3D('',#275,#276,#277);
#168=EDGE_LOOP('',(#278,#279));
#169=AXIS2_PLACEMENT_3D('',#280,#281,#282);
#170=EDGE_LOOP('',(#283,#284,#285));
#171=EDGE_LOOP('',(#286,#287));
#172=AXIS2_PLACEMENT_3D('',#288,#289,#290);
#173=EDGE_LOOP('',(#291,#292,#293,#294,#295,#296));
#174=AXIS2_PLACEMENT_3D('',#297,#298,#299);
#175=EDGE_LOOP('',(#300,#301));
#176=EDGE_LOOP('',(#302,#303,#304));
#177=AXIS2_PLACEMENT_3D('',#305,#306,#307);
#178=EDGE_LOOP('',(#308,#309,#310,#311,#312,#313));
#179=AXIS2_PLACEMENT_3D('',#314,#315,#316);
#180=EDGE_LOOP('',(#317,#318,#319,#320));
#181=AXIS2_PLACEMENT_3D('',#321,#322,#323);
#182=EDGE_LOOP('',(#324,#325,#326,#327));
#183=AXIS2_PLACEMENT_3D('',#328,#329,#330);
#184=EDGE_LOOP('',(#331,#332));
#185=EDGE_LOOP('',(#333,#334));
#186=AXIS2_PLACEMENT_3D('',#335,#336,#337);
#187=ORIENTED_EDGE('',*,*,#338,.F.);
#188=ORIENTED_EDGE('',*,*,#339,.F.);
#189=ORIENTED_EDGE('',*,*,#340,.F.);
#190=ORIENTED_EDGE('',*,*,#341,.F.);
#191=CARTESIAN_POINT('',(2.5,0.0,0.0));
#192=DIRECTION('',(-1.0,0.0,0.0));
#193=DIRECTION('',(0.0,0.0,-1.0));
#194=ORIENTED_EDGE('',*,*,#342,.F.);
#195=ORIENTED_EDGE('',*,*,#343,.T.);
#196=ORIENTED_EDGE('',*,*,#344,.T.);
#197=ORIENTED_EDGE('',*,*,#345,.F.);
#198=ORIENTED_EDGE('',*,*,#346,.T.);
#199=ORIENTED_EDGE('',*,*,#347,.T.);
#200=CARTESIAN_POINT('',(9.0,0.0,0.0));
#201=DIRECTION('',(-1.0,0.0,0.0));
#202=DIRECTION('',(0.0,0.0,-1.0));
#203=ORIENTED_EDGE('',*,*,#348,.F.);
#204=ORIENTED_EDGE('',*,*,#349,.F.);
#205=ORIENTED_EDGE('',*,*,#350,.F.);
#206=ORIENTED_EDGE('',*,*,#351,.F.);
#207=CARTESIAN_POINT('',(5.8,-4.89842541528951E-017,0.0));
#208=DIRECTION('',(-1.0,6.12303176911189E-017,0.0));
#209=DIRECTION('',(0.0,0.0,1.0));
#210=ORIENTED_EDGE('',*,*,#352,.F.);
#211=ORIENTED_EDGE('',*,*,#353,.F.);
#212=ORIENTED_EDGE('',*,*,#354,.F.);
#213=ORIENTED_EDGE('',*,*,#355,.F.);
#214=CARTESIAN_POINT('',(20.2,-4.89842541528951E-017,8.81716574752112E-016));
#215=DIRECTION('',(1.0,6.12303176911189E-017,1.22460635382238E-016));
#216=DIRECTION('',(1.22460635382238E-016,0.0,-1.0));
#217=ORIENTED_EDGE('',*,*,#356,.F.);
#218=ORIENTED_EDGE('',*,*,#357,.T.);
#219=ORIENTED_EDGE('',*,*,#358,.F.);
#220=ORIENTED_EDGE('',*,*,#359,.F.);
#221=CARTESIAN_POINT('',(24.4,0.0,0.0));
#222=DIRECTION('',(-1.0,0.0,0.0));
#223=DIRECTION('',(0.0,1.0,0.0));
#224=ORIENTED_EDGE('',*,*,#360,.F.);
#225=ORIENTED_EDGE('',*,*,#361,.F.);
#226=ORIENTED_EDGE('',*,*,#362,.F.);
#227=ORIENTED_EDGE('',*,*,#357,.F.);
#228=CARTESIAN_POINT('',(22.4,0.0,0.0));
#229=DIRECTION('',(-1.0,0.0,0.0));
#230=DIRECTION('',(0.0,1.0,0.0));
#231=ORIENTED_EDGE('',*,*,#363,.F.);
#232=ORIENTED_EDGE('',*,*,#364,.T.);
#233=ORIENTED_EDGE('',*,*,#365,.F.);
#234=ORIENTED_EDGE('',*,*,#366,.F.);
#235=CARTESIAN_POINT('',(10.839125,0.0,0.0));
#236=DIRECTION('',(-1.0,0.0,0.0));
#237=DIRECTION('',(0.0,1.0,0.0));
#238=ORIENTED_EDGE('',*,*,#367,.F.);
#239=ORIENTED_EDGE('',*,*,#366,.T.);
#240=ORIENTED_EDGE('',*,*,#368,.F.);
#241=ORIENTED_EDGE('',*,*,#369,.F.);
#242=CARTESIAN_POINT('',(0.339124999999999,0.0,0.0));
#243=DIRECTION('',(-1.0,0.0,0.0));
#244=DIRECTION('',(0.0,1.0,0.0));
#245=ORIENTED_EDGE('',*,*,#367,.T.);
#246=ORIENTED_EDGE('',*,*,#370,.F.);
#247=ORIENTED_EDGE('',*,*,#368,.T.);
#248=ORIENTED_EDGE('',*,*,#371,.T.);
#249=CARTESIAN_POINT('',(0.339124999999999,0.0,0.0));
#250=DIRECTION('',(-1.0,0.0,0.0));
#251=DIRECTION('',(0.0,1.0,0.0));
#252=ORIENTED_EDGE('',*,*,#363,.T.);
#253=ORIENTED_EDGE('',*,*,#371,.F.);
#254=ORIENTED_EDGE('',*,*,#365,.T.);
#255=ORIENTED_EDGE('',*,*,#372,.T.);
#256=CARTESIAN_POINT('',(10.839125,0.0,0.0));
#257=DIRECTION('',(-1.0,0.0,0.0));
#258=DIRECTION('',(0.0,1.0,0.0));
#259=ORIENTED_EDGE('',*,*,#364,.F.);
#260=ORIENTED_EDGE('',*,*,#372,.F.);
#261=CARTESIAN_POINT('',(21.0,1.660875,0.0));
#262=DIRECTION('',(1.0,0.0,0.0));
#263=DIRECTION('',(0.0,1.0,0.0));
#264=ORIENTED_EDGE('',*,*,#360,.T.);
#265=ORIENTED_EDGE('',*,*,#373,.F.);
#266=ORIENTED_EDGE('',*,*,#362,.T.);
#267=ORIENTED_EDGE('',*,*,#374,.F.);
#268=CARTESIAN_POINT('',(22.4,0.0,0.0));
#269=DIRECTION('',(-1.0,0.0,0.0));
#270=DIRECTION('',(0.0,1.0,0.0));
#271=ORIENTED_EDGE('',*,*,#356,.T.);
#272=ORIENTED_EDGE('',*,*,#375,.F.);
#273=ORIENTED_EDGE('',*,*,#358,.T.);
#274=ORIENTED_EDGE('',*,*,#373,.T.);
#275=CARTESIAN_POINT('',(24.4,0.0,0.0));
#276=DIRECTION('',(-1.0,0.0,0.0));
#277=DIRECTION('',(0.0,1.0,0.0));
#278=ORIENTED_EDGE('',*,*,#359,.T.);
#279=ORIENTED_EDGE('',*,*,#375,.T.);
#280=CARTESIAN_POINT('',(25.0,4.5,0.0));
#281=DIRECTION('',(1.0,2.46716227694479E-017,0.0));
#282=DIRECTION('',(-2.46716227694479E-017,1.0,0.0));
#283=ORIENTED_EDGE('',*,*,#376,.T.);
#284=ORIENTED_EDGE('',*,*,#351,.T.);
#285=ORIENTED_EDGE('',*,*,#377,.T.);
#286=ORIENTED_EDGE('',*,*,#341,.T.);
#287=ORIENTED_EDGE('',*,*,#378,.T.);
#288=CARTESIAN_POINT('',(5.0,0.0,0.0));
#289=DIRECTION('',(-1.0,0.0,0.0));
#290=DIRECTION('',(0.0,0.0,1.0));
#291=ORIENTED_EDGE('',*,*,#352,.T.);
#292=ORIENTED_EDGE('',*,*,#379,.F.);
#293=ORIENTED_EDGE('',*,*,#380,.F.);
#294=ORIENTED_EDGE('',*,*,#354,.T.);
#295=ORIENTED_EDGE('',*,*,#347,.F.);
#296=ORIENTED_EDGE('',*,*,#346,.F.);
#297=CARTESIAN_POINT('',(20.2,-4.89842541528951E-017,8.81716574752112E-016));
#298=DIRECTION('',(1.0,6.12303176911189E-017,1.22460635382238E-016));
#299=DIRECTION('',(1.22460635382238E-016,0.0,-1.0));
#300=ORIENTED_EDGE('',*,*,#374,.T.);
#301=ORIENTED_EDGE('',*,*,#361,.T.);
#302=ORIENTED_EDGE('',*,*,#379,.T.);
#303=ORIENTED_EDGE('',*,*,#355,.T.);
#304=ORIENTED_EDGE('',*,*,#380,.T.);
#305=CARTESIAN_POINT('',(21.0,0.0,9.79685083057902E-016));
#306=DIRECTION('',(1.0,0.0,1.22460635382238E-016));
#307=DIRECTION('',(1.22460635382238E-016,0.0,-1.0));
#308=ORIENTED_EDGE('',*,*,#348,.T.);
#309=ORIENTED_EDGE('',*,*,#376,.F.);
#310=ORIENTED_EDGE('',*,*,#377,.F.);
#311=ORIENTED_EDGE('',*,*,#350,.T.);
#312=ORIENTED_EDGE('',*,*,#344,.F.);
#313=ORIENTED_EDGE('',*,*,#343,.F.);
#314=CARTESIAN_POINT('',(5.8,-4.89842541528951E-017,0.0));
#315=DIRECTION('',(-1.0,6.12303176911189E-017,0.0));
#316=DIRECTION('',(0.0,0.0,1.0));
#317=ORIENTED_EDGE('',*,*,#342,.T.);
#318=ORIENTED_EDGE('',*,*,#353,.T.);
#319=ORIENTED_EDGE('',*,*,#345,.T.);
#320=ORIENTED_EDGE('',*,*,#349,.T.);
#321=CARTESIAN_POINT('',(9.0,0.0,0.0));
#322=DIRECTION('',(-1.0,0.0,0.0));
#323=DIRECTION('',(0.0,0.0,-1.0));
#324=ORIENTED_EDGE('',*,*,#338,.T.);
#325=ORIENTED_EDGE('',*,*,#378,.F.);
#326=ORIENTED_EDGE('',*,*,#340,.T.);
#327=ORIENTED_EDGE('',*,*,#381,.F.);
#328=CARTESIAN_POINT('',(2.5,0.0,0.0));
#329=DIRECTION('',(-1.0,0.0,0.0));
#330=DIRECTION('',(0.0,0.0,-1.0));
#331=ORIENTED_EDGE('',*,*,#369,.T.);
#332=ORIENTED_EDGE('',*,*,#370,.T.);
#333=ORIENTED_EDGE('',*,*,#381,.T.);
#334=ORIENTED_EDGE('',*,*,#339,.T.);
#335=CARTESIAN_POINT('',(0.0,0.0,0.0));
#336=DIRECTION('',(-1.0,0.0,0.0));
#337=DIRECTION('',(0.0,0.0,1.0));
#338=EDGE_CURVE('',#382,#383,#384,.T.);
#339=EDGE_CURVE('',#385,#382,#386,.T.);
#340=EDGE_CURVE('',#387,#385,#388,.T.);
#341=EDGE_CURVE('',#383,#387,#389,.T.);
#342=EDGE_CURVE('',#390,#391,#392,.T.);
#343=EDGE_CURVE('',#390,#393,#394,.T.);
#344=EDGE_CURVE('',#393,#395,#396,.T.);
#345=EDGE_CURVE('',#397,#395,#398,.T.);
#346=EDGE_CURVE('',#397,#399,#400,.T.);
#347=EDGE_CURVE('',#399,#391,#401,.T.);
#348=EDGE_CURVE('',#390,#402,#403,.T.);
#349=EDGE_CURVE('',#395,#390,#404,.T.);
#350=EDGE_CURVE('',#405,#395,#406,.T.);
#351=EDGE_CURVE('',#402,#405,#407,.T.);
#352=EDGE_CURVE('',#397,#408,#409,.T.);
#353=EDGE_CURVE('',#391,#397,#410,.T.);
#354=EDGE_CURVE('',#411,#391,#412,.T.);
#355=EDGE_CURVE('',#408,#411,#413,.T.);
#356=EDGE_CURVE('',#414,#415,#416,.T.);
#357=EDGE_CURVE('',#414,#417,#418,.T.);
#358=EDGE_CURVE('',#419,#417,#420,.T.);
#359=EDGE_CURVE('',#415,#419,#421,.T.);
#360=EDGE_CURVE('',#422,#414,#423,.T.);
#361=EDGE_CURVE('',#424,#422,#425,.T.);
#362=EDGE_CURVE('',#417,#424,#426,.T.);
#363=EDGE_CURVE('',#427,#428,#429,.T.);
#364=EDGE_CURVE('',#427,#430,#431,.T.);
#365=EDGE_CURVE('',#432,#430,#433,.T.);
#366=EDGE_CURVE('',#428,#432,#434,.T.);
#367=EDGE_CURVE('',#428,#435,#436,.T.);
#368=EDGE_CURVE('',#437,#432,#438,.T.);
#369=EDGE_CURVE('',#435,#437,#439,.T.);
#370=EDGE_CURVE('',#437,#435,#440,.T.);
#371=EDGE_CURVE('',#432,#428,#441,.T.);
#372=EDGE_CURVE('',#430,#427,#442,.T.);
#373=EDGE_CURVE('',#417,#414,#443,.T.);
#374=EDGE_CURVE('',#422,#424,#444,.T.);
#375=EDGE_CURVE('',#419,#415,#445,.T.);
#376=EDGE_CURVE('',#446,#402,#447,.T.);
#377=EDGE_CURVE('',#405,#446,#448,.T.);
#378=EDGE_CURVE('',#387,#383,#449,.T.);
#379=EDGE_CURVE('',#450,#408,#451,.T.);
#380=EDGE_CURVE('',#411,#450,#452,.T.);
#381=EDGE_CURVE('',#382,#385,#453,.T.);
#382=VERTEX_POINT('',#454);
#383=VERTEX_POINT('',#455);
#384=LINE('',#456,#457);
#385=VERTEX_POINT('',#458);
#386=CIRCLE('',#459,10.0);
#387=VERTEX_POINT('',#460);
#388=LINE('',#461,#462);
#389=CIRCLE('',#463,10.0);
#390=VERTEX_POINT('',#464);
#391=VERTEX_POINT('',#465);
#392=LINE('',#466,#467);
#393=VERTEX_POINT('',#468);
#394=CIRCLE('',#469,20.0);
#395=VERTEX_POINT('',#470);
#396=CIRCLE('',#471,20.0);
#397=VERTEX_POINT('',#472);
#398=LINE('',#473,#474);
#399=VERTEX_POINT('',#475);
#400=CIRCLE('',#476,20.0);
#401=CIRCLE('',#477,20.0);
#402=VERTEX_POINT('',#478);
#403=CIRCLE('',#479,0.8);
#404=CIRCLE('',#480,20.0);
#405=VERTEX_POINT('',#481);
#406=CIRCLE('',#482,0.8);
#407=CIRCLE('',#483,19.2);
#408=VERTEX_POINT('',#484);
#409=CIRCLE('',#485,0.8);
#410=CIRCLE('',#486,20.0);
#411=VERTEX_POINT('',#487);
#412=CIRCLE('',#488,0.8);
#413=CIRCLE('',#489,19.2);
#414=VERTEX_POINT('',#490);
#415=VERTEX_POINT('',#491);
#416=LINE('',#492,#493);
#417=VERTEX_POINT('',#494);
#418=CIRCLE('',#495,10.0);
#419=VERTEX_POINT('',#496);
#420=LINE('',#497,#498);
#421=CIRCLE('',#499,9.0);
#422=VERTEX_POINT('',#500);
#423=LINE('',#501,#502);
#424=VERTEX_POINT('',#503);
#425=CIRCLE('',#504,10.0);
#426=LINE('',#505,#506);
#427=VERTEX_POINT('',#507);
#428=VERTEX_POINT('',#508);
#429=LINE('',#509,#510);
#430=VERTEX_POINT('',#511);
#431=CIRCLE('',#512,3.32175);
#432=VERTEX_POINT('',#513);
#433=LINE('',#514,#515);
#434=CIRCLE('',#516,3.32175);
#435=VERTEX_POINT('',#517);
#436=LINE('',#518,#519);
#437=VERTEX_POINT('',#520);
#438=LINE('',#521,#522);
#439=CIRCLE('',#523,4.0);
#440=CIRCLE('',#524,4.0);
#441=CIRCLE('',#525,3.32175);
#442=CIRCLE('',#526,3.32175);
#443=CIRCLE('',#527,10.0);
#444=CIRCLE('',#528,10.0);
#445=CIRCLE('',#529,9.0);
#446=VERTEX_POINT('',#530);
#447=CIRCLE('',#531,19.2);
#448=CIRCLE('',#532,19.2);
#449=CIRCLE('',#533,10.0);
#450=VERTEX_POINT('',#534);
#451=CIRCLE('',#535,19.2);
#452=CIRCLE('',#536,19.2);
#453=CIRCLE('',#537,10.0);
#454=CARTESIAN_POINT('',(0.0,0.0,-10.0));
#455=CARTESIAN_POINT('',(5.0,0.0,-10.0));
#456=CARTESIAN_POINT('',(2.5,-1.22460635382238E-015,-10.0));
#457=VECTOR('',#538,1.0);
#458=CARTESIAN_POINT('',(0.0,1.22460635382238E-015,10.0));
#459=AXIS2_PLACEMENT_3D('',#539,#540,#541);
#460=CARTESIAN_POINT('',(5.0,1.22460635382238E-015,10.0));
#461=CARTESIAN_POINT('',(2.5,1.22460635382238E-015,10.0));
#462=VECTOR('',#542,1.0);
#463=AXIS2_PLACEMENT_3D('',#543,#544,#545);
#464=CARTESIAN_POINT('',(5.8,2.40022845349186E-015,-20.0));
#465=CARTESIAN_POINT('',(20.2,-2.49819696179765E-015,-20.0));
#466=CARTESIAN_POINT('',(9.0,-2.44921270764475E-015,-20.0));
#467=VECTOR('',#546,1.0);
#468=CARTESIAN_POINT('',(5.8,20.0,0.0));
#469=AXIS2_PLACEMENT_3D('',#547,#548,#549);
#470=CARTESIAN_POINT('',(5.8,-2.49819696179765E-015,20.0));
#471=AXIS2_PLACEMENT_3D('',#550,#551,#552);
#472=CARTESIAN_POINT('',(20.2,2.40022845349186E-015,20.0));
#473=CARTESIAN_POINT('',(9.0,2.44921270764475E-015,20.0));
#474=VECTOR('',#553,1.0);
#475=CARTESIAN_POINT('',(20.2,20.0,8.81716574752112E-016));
#476=AXIS2_PLACEMENT_3D('',#554,#555,#556);
#477=AXIS2_PLACEMENT_3D('',#557,#558,#559);
#478=CARTESIAN_POINT('',(5.0,2.35124419933896E-015,-19.2));
#479=AXIS2_PLACEMENT_3D('',#560,#561,#562);
#480=AXIS2_PLACEMENT_3D('',#563,#564,#565);
#481=CARTESIAN_POINT('',(5.0,-2.35124419933896E-015,19.2));
#482=AXIS2_PLACEMENT_3D('',#566,#567,#568);
#483=AXIS2_PLACEMENT_3D('',#569,#570,#571);
#484=CARTESIAN_POINT('',(21.0,2.35124419933896E-015,19.2));
#485=AXIS2_PLACEMENT_3D('',#572,#573,#574);
#486=AXIS2_PLACEMENT_3D('',#575,#576,#577);
#487=CARTESIAN_POINT('',(21.0,-2.35124419933896E-015,-19.2));
#488=AXIS2_PLACEMENT_3D('',#578,#579,#580);
#489=AXIS2_PLACEMENT_3D('',#581,#582,#583);
#490=CARTESIAN_POINT('',(23.8,10.0,0.0));
#491=CARTESIAN_POINT('',(25.0,9.0,0.0));
#492=CARTESIAN_POINT('',(24.4,9.5,-1.16337603613126E-015));
#493=VECTOR('',#584,1.0);
#494=CARTESIAN_POINT('',(23.8,-10.0,1.22460635382238E-015));
#495=AXIS2_PLACEMENT_3D('',#585,#586,#587);
#496=CARTESIAN_POINT('',(25.0,-9.0,1.10214571844014E-015));
#497=CARTESIAN_POINT('',(24.4,-9.5,1.16337603613126E-015));
#498=VECTOR('',#588,1.0);
#499=AXIS2_PLACEMENT_3D('',#589,#590,#591);
#500=CARTESIAN_POINT('',(21.0,10.0,0.0));
#501=CARTESIAN_POINT('',(22.4,10.0,-1.22460635382238E-015));
#502=VECTOR('',#592,1.0);
#503=CARTESIAN_POINT('',(21.0,-10.0,1.22460635382238E-015));
#504=AXIS2_PLACEMENT_3D('',#593,#594,#595);
#505=CARTESIAN_POINT('',(22.4,-10.0,1.22460635382238E-015));
#506=VECTOR('',#596,1.0);
#507=CARTESIAN_POINT('',(21.0,3.32175,0.0));
#508=CARTESIAN_POINT('',(0.678249999999998,3.32175,0.0));
#509=CARTESIAN_POINT('',(10.839125,3.32175,-4.06783615580948E-016));
#510=VECTOR('',#597,1.0);
#511=CARTESIAN_POINT('',(21.0,-3.32175,4.06783615580948E-016));
#512=AXIS2_PLACEMENT_3D('',#598,#599,#600);
#513=CARTESIAN_POINT('',(0.678249999999998,-3.32175,4.06783615580948E-016));
#514=CARTESIAN_POINT('',(10.839125,-3.32175,4.06783615580948E-016));
#515=VECTOR('',#601,1.0);
#516=AXIS2_PLACEMENT_3D('',#602,#603,#604);
#517=CARTESIAN_POINT('',(0.0,4.0,0.0));
#518=CARTESIAN_POINT('',(0.339124999999999,3.660875,-4.4831307855495E-016));
#519=VECTOR('',#605,1.0);
#520=CARTESIAN_POINT('',(0.0,-4.0,4.89842541528951E-016));
#521=CARTESIAN_POINT('',(0.339124999999999,-3.660875,4.4831307855495E-016));
#522=VECTOR('',#606,1.0);
#523=AXIS2_PLACEMENT_3D('',#607,#608,#609);
#524=AXIS2_PLACEMENT_3D('',#610,#611,#612);
#525=AXIS2_PLACEMENT_3D('',#613,#614,#615);
#526=AXIS2_PLACEMENT_3D('',#616,#617,#618);
#527=AXIS2_PLACEMENT_3D('',#619,#620,#621);
#528=AXIS2_PLACEMENT_3D('',#622,#623,#624);
#529=AXIS2_PLACEMENT_3D('',#625,#626,#627);
#530=CARTESIAN_POINT('',(5.0,19.2,0.0));
#531=AXIS2_PLACEMENT_3D('',#628,#629,#630);
#532=AXIS2_PLACEMENT_3D('',#631,#632,#633);
#533=AXIS2_PLACEMENT_3D('',#634,#635,#636);
#534=CARTESIAN_POINT('',(21.0,19.2,9.79685083057902E-016));
#535=AXIS2_PLACEMENT_3D('',#637,#638,#639);
#536=AXIS2_PLACEMENT_3D('',#640,#641,#642);
#537=AXIS2_PLACEMENT_3D('',#643,#644,#645);
#538=DIRECTION('',(1.0,0.0,0.0));
#539=CARTESIAN_POINT('',(0.0,0.0,0.0));
#540=DIRECTION('',(-1.0,0.0,0.0));
#541=DIRECTION('',(0.0,0.0,-1.0));
#542=DIRECTION('',(-1.0,0.0,0.0));
#543=CARTESIAN_POINT('',(5.0,0.0,0.0));
#544=DIRECTION('',(1.0,0.0,0.0));
#545=DIRECTION('',(0.0,0.0,-1.0));
#546=DIRECTION('',(1.0,0.0,0.0));
#547=CARTESIAN_POINT('',(5.8,-4.89842541528951E-017,0.0));
#548=DIRECTION('',(1.0,0.0,0.0));
#549=DIRECTION('',(0.0,0.0,-1.0));
#550=CARTESIAN_POINT('',(5.8,-4.89842541528951E-017,0.0));
#551=DIRECTION('',(1.0,0.0,0.0));
#552=DIRECTION('',(0.0,0.0,-1.0));
#553=DIRECTION('',(-1.0,0.0,0.0));
#554=CARTESIAN_POINT('',(20.2,-4.89842541528951E-017,8.81716574752112E-016));
#555=DIRECTION('',(-1.0,0.0,-1.22460635382238E-016));
#556=DIRECTION('',(-1.22460635382238E-016,0.0,1.0));
#557=CARTESIAN_POINT('',(20.2,-4.89842541528951E-017,8.81716574752112E-016));
#558=DIRECTION('',(-1.0,0.0,-1.22460635382238E-016));
#559=DIRECTION('',(-1.22460635382238E-016,0.0,1.0));
#560=CARTESIAN_POINT('',(5.8,2.30225994518607E-015,-19.2));
#561=DIRECTION('',(6.12303176911189E-017,1.0,1.22460635382238E-016));
#562=DIRECTION('',(7.49830360911069E-033,1.22460635382238E-016,-1.0));
#563=CARTESIAN_POINT('',(5.8,-4.89842541528951E-017,0.0));
#564=DIRECTION('',(1.0,0.0,0.0));
#565=DIRECTION('',(0.0,0.0,-1.0));
#566=CARTESIAN_POINT('',(5.8,-2.40022845349186E-015,19.2));
#567=DIRECTION('',(6.12303176911189E-017,1.0,1.22460635382238E-016));
#568=DIRECTION('',(-7.49830360911069E-033,-1.22460635382238E-016,1.0));
#569=CARTESIAN_POINT('',(5.0,-1.54074395550979E-032,0.0));
#570=DIRECTION('',(-1.0,0.0,0.0));
#571=DIRECTION('',(0.0,1.0,0.0));
#572=CARTESIAN_POINT('',(20.2,2.30225994518607E-015,19.2));
#573=DIRECTION('',(-6.12303176911188E-017,1.0,-1.22460635382238E-016));
#574=DIRECTION('',(-1.22460635382238E-016,1.22460635382238E-016,1.0));
#575=CARTESIAN_POINT('',(20.2,-4.89842541528951E-017,8.81716574752112E-016));
#576=DIRECTION('',(-1.0,0.0,-1.22460635382238E-016));
#577=DIRECTION('',(-1.22460635382238E-016,0.0,1.0));
#578=CARTESIAN_POINT('',(20.2,-2.40022845349186E-015,-19.2));
#579=DIRECTION('',(-6.12303176911188E-017,1.0,-1.22460635382238E-016));
#580=DIRECTION('',(1.22460635382238E-016,-1.22460635382238E-016,-1.0));
#581=CARTESIAN_POINT('',(21.0,-1.54074395550979E-032,9.79685083057902E-016));
#582=DIRECTION('',(1.0,0.0,1.22460635382238E-016));
#583=DIRECTION('',(0.0,1.0,0.0));
#584=DIRECTION('',(0.768221279597376,-0.64018439966448,7.83973883447086E-017));
#585=CARTESIAN_POINT('',(23.8,0.0,0.0));
#586=DIRECTION('',(1.0,0.0,0.0));
#587=DIRECTION('',(0.0,1.0,0.0));
#588=DIRECTION('',(-0.768221279597376,-0.64018439966448,7.83973883447086E-017));
#589=CARTESIAN_POINT('',(25.0,0.0,0.0));
#590=DIRECTION('',(1.0,0.0,0.0));
#591=DIRECTION('',(0.0,1.0,0.0));
#592=DIRECTION('',(1.0,0.0,0.0));
#593=CARTESIAN_POINT('',(21.0,0.0,0.0));
#594=DIRECTION('',(-1.0,0.0,-1.22460635382238E-016));
#595=DIRECTION('',(0.0,1.0,0.0));
#596=DIRECTION('',(-1.0,0.0,0.0));
#597=DIRECTION('',(-1.0,0.0,0.0));
#598=CARTESIAN_POINT('',(21.0,0.0,0.0));
#599=DIRECTION('',(1.0,0.0,0.0));
#600=DIRECTION('',(0.0,1.0,0.0));
#601=DIRECTION('',(1.0,0.0,0.0));
#602=CARTESIAN_POINT('',(0.678249999999998,0.0,0.0));
#603=DIRECTION('',(1.0,0.0,0.0));
#604=DIRECTION('',(0.0,1.0,0.0));
#605=DIRECTION('',(-0.707106781186547,0.707106781186548,-8.65927457071936E-017));
#606=DIRECTION('',(0.707106781186547,0.707106781186548,-8.65927457071936E-017));
#607=CARTESIAN_POINT('',(0.0,0.0,0.0));
#608=DIRECTION('',(1.0,0.0,0.0));
#609=DIRECTION('',(0.0,1.0,0.0));
#610=CARTESIAN_POINT('',(0.0,0.0,0.0));
#611=DIRECTION('',(1.0,0.0,0.0));
#612=DIRECTION('',(0.0,1.0,0.0));
#613=CARTESIAN_POINT('',(0.678249999999998,0.0,0.0));
#614=DIRECTION('',(1.0,0.0,0.0));
#615=DIRECTION('',(0.0,1.0,0.0));
#616=CARTESIAN_POINT('',(21.0,0.0,0.0));
#617=DIRECTION('',(1.0,0.0,0.0));
#618=DIRECTION('',(0.0,1.0,0.0));
#619=CARTESIAN_POINT('',(23.8,0.0,0.0));
#620=DIRECTION('',(1.0,0.0,0.0));
#621=DIRECTION('',(0.0,1.0,0.0));
#622=CARTESIAN_POINT('',(21.0,0.0,0.0));
#623=DIRECTION('',(-1.0,0.0,-1.22460635382238E-016));
#624=DIRECTION('',(0.0,1.0,0.0));
#625=CARTESIAN_POINT('',(25.0,0.0,0.0));
#626=DIRECTION('',(1.0,0.0,0.0));
#627=DIRECTION('',(0.0,1.0,0.0));
#628=CARTESIAN_POINT('',(5.0,-1.54074395550979E-032,0.0));
#629=DIRECTION('',(-1.0,0.0,0.0));
#630=DIRECTION('',(0.0,1.0,0.0));
#631=CARTESIAN_POINT('',(5.0,-1.54074395550979E-032,0.0));
#632=DIRECTION('',(-1.0,0.0,0.0));
#633=DIRECTION('',(0.0,1.0,0.0));
#634=CARTESIAN_POINT('',(5.0,0.0,0.0));
#635=DIRECTION('',(1.0,0.0,0.0));
#636=DIRECTION('',(0.0,0.0,-1.0));
#637=CARTESIAN_POINT('',(21.0,-1.54074395550979E-032,9.79685083057902E-016));
#638=DIRECTION('',(1.0,0.0,1.22460635382238E-016));
#639=DIRECTION('',(0.0,1.0,0.0));
#640=CARTESIAN_POINT('',(21.0,-1.54074395550979E-032,9.79685083057902E-016));
#641=DIRECTION('',(1.0,0.0,1.22460635382238E-016));
#642=DIRECTION('',(0.0,1.0,0.0));
#643=CARTESIAN_POINT('',(0.0,0.0,0.0));
#644=DIRECTION('',(-1.0,0.0,0.0));
#645=DIRECTION('',(0.0,0.0,-1.0));
ENDSEC;
END-ISO-10303-21;
