ISO-10303-21;
HEADER;
FILE_DESCRIPTION(('STEP AP203'),'1');
FILE_NAME('C:/TPO v2/SharedFS/Outgoing/standard_x_10.stp','2014-08-06T07:08:46',('TraceParts'),('TraceParts S.A.'),'XStep 1.0',' ',' ');
FILE_SCHEMA(('CONFIG_CONTROL_DESIGN'));
ENDSEC;
DATA;
#1=DESIGN_CONTEXT('',#27,'design');
#2=APPLICATION_PROTOCOL_DEFINITION('INTERNATIONAL STANDARD','config_control_design',1994,#27);
#3=PRODUCT_CATEGORY_RELATIONSHIP('NONE','NONE',#28,#29);
#4=DATE_AND_TIME(#30,#31);
#5=DATE_TIME_ROLE('creation_date');
#6=DATE_TIME_ROLE('classification_date');
#7=PERSON_AND_ORGANIZATION_ROLE('creator');
#8=PERSON_AND_ORGANIZATION_ROLE('design_supplier');
#9=PERSON_AND_ORGANIZATION_ROLE('classification_officer');
#10=PERSON_AND_ORGANIZATION_ROLE('design_owner');
#11=APPROVAL_PERSON_ORGANIZATION(#32,#33,#34);
#12=APPROVAL_DATE_TIME(#4,#33);
#13=CC_DESIGN_APPROVAL(#33,(#35,#36,#37));
#14=CC_DESIGN_DATE_AND_TIME_ASSIGNMENT(#4,#5,(#37));
#15=CC_DESIGN_DATE_AND_TIME_ASSIGNMENT(#4,#6,(#35));
#16=CC_DESIGN_PERSON_AND_ORGANIZATION_ASSIGNMENT(#32,#10,(#38));
#17=CC_DESIGN_PERSON_AND_ORGANIZATION_ASSIGNMENT(#32,#7,(#37));
#18=CC_DESIGN_PERSON_AND_ORGANIZATION_ASSIGNMENT(#32,#7,(#36));
#19=CC_DESIGN_PERSON_AND_ORGANIZATION_ASSIGNMENT(#32,#8,(#36));
#20=CC_DESIGN_SECURITY_CLASSIFICATION(#35,(#36));
#21=CC_DESIGN_PERSON_AND_ORGANIZATION_ASSIGNMENT(#32,#9,(#35));
#22=SHAPE_DEFINITION_REPRESENTATION(#39,#40);
#23= (GEOMETRIC_REPRESENTATION_CONTEXT(3)GLOBAL_UNCERTAINTY_ASSIGNED_CONTEXT((#43))GLOBAL_UNIT_ASSIGNED_CONTEXT((#45,#46,#47))REPRESENTATION_CONTEXT('NONE','WORKSPACE'));
#27=APPLICATION_CONTEXT('CONFIGURATION CONTROLLED 3D DESIGNS OF MECHANICAL PARTS AND ASSEMBLIES');
#28=PRODUCT_CATEGORY('part','NONE');
#29=PRODUCT_RELATED_PRODUCT_CATEGORY('detail',' ',(#38));
#30=CALENDAR_DATE(2014,6,7);
#31=LOCAL_TIME(9,8,46.0,#49);
#32=PERSON_AND_ORGANIZATION(#50,#51);
#33=APPROVAL(#52,'SOLID MODEL');
#34=APPROVAL_ROLE('APPROVED');
#35=SECURITY_CLASSIFICATION('','',#53);
#36=PRODUCT_DEFINITION_FORMATION_WITH_SPECIFIED_SOURCE(' ','NONE',#38,.NOT_KNOWN.);
#37=PRODUCT_DEFINITION('NONE','NONE',#36,#1);
#38=PRODUCT('1','1','PART-1-DESC',(#54));
#39=PRODUCT_DEFINITION_SHAPE('NONE','NONE',#37);
#40=ADVANCED_BREP_SHAPE_REPRESENTATION('1',(#55,#56),#23);
#43=UNCERTAINTY_MEASURE_WITH_UNIT(LENGTH_MEASURE(1.0E-006),#45,'','');
#45= (CONVERSION_BASED_UNIT('MILLIMETRE',#59)LENGTH_UNIT()NAMED_UNIT(#62));
#46= (NAMED_UNIT(#64)PLANE_ANGLE_UNIT()SI_UNIT($,.RADIAN.));
#47= (NAMED_UNIT(#64)SOLID_ANGLE_UNIT()SI_UNIT($,.STERADIAN.));
#49=COORDINATED_UNIVERSAL_TIME_OFFSET(1,0,.AHEAD.);
#50=PERSON('','UNSPECIFIED',$,$,$,$);
#51=ORGANIZATION('UNSPECIFIED','UNSPECIFIED','UNSPECIFIED');
#52=APPROVAL_STATUS('approved');
#53=SECURITY_CLASSIFICATION_LEVEL('unclassified');
#54=MECHANICAL_CONTEXT('',#27,'mechanical');
#55=MANIFOLD_SOLID_BREP('1',#70);
#56=AXIS2_PLACEMENT_3D('',#71,#72,#73);
#59=LENGTH_MEASURE_WITH_UNIT(LENGTH_MEASURE(1.0),#74);
#62=DIMENSIONAL_EXPONENTS(1.0,0.0,0.0,0.0,0.0,0.0,0.0);
#64=DIMENSIONAL_EXPONENTS(0.0,0.0,0.0,0.0,0.0,0.0,0.0);
#70=CLOSED_SHELL('',(#75,#76,#77,#78,#79,#80,#81,#82,#83,#84,#85,#86,#87,#88));
#71=CARTESIAN_POINT('',(0.0,0.0,0.0));
#72=DIRECTION('',(0.0,0.0,1.0));
#73=DIRECTION('',(1.0,0.0,0.0));
#74= (NAMED_UNIT(#62)LENGTH_UNIT()SI_UNIT(.MILLI.,.METRE.));
#75=ADVANCED_FACE('',(#90),#91,.T.);
#76=ADVANCED_FACE('',(#92),#93,.F.);
#77=ADVANCED_FACE('',(#94),#95,.F.);
#78=ADVANCED_FACE('',(#96),#97,.T.);
#79=ADVANCED_FACE('',(#98),#99,.T.);
#80=ADVANCED_FACE('',(#100),#101,.T.);
#81=ADVANCED_FACE('',(#102),#103,.T.);
#82=ADVANCED_FACE('',(#104),#105,.F.);
#83=ADVANCED_FACE('',(#106),#107,.F.);
#84=ADVANCED_FACE('',(#108),#109,.T.);
#85=ADVANCED_FACE('',(#110),#111,.F.);
#86=ADVANCED_FACE('',(#112),#113,.F.);
#87=ADVANCED_FACE('',(#114),#115,.F.);
#88=ADVANCED_FACE('',(#116),#117,.F.);
#90=FACE_OUTER_BOUND('',#118,.T.);
#91=CYLINDRICAL_SURFACE('',#119,20.0);
#92=FACE_OUTER_BOUND('',#120,.T.);
#93=PLANE('',#121);
#94=FACE_OUTER_BOUND('',#122,.T.);
#95=PLANE('',#123);
#96=FACE_OUTER_BOUND('',#124,.T.);
#97=CYLINDRICAL_SURFACE('',#125,20.0);
#98=FACE_OUTER_BOUND('',#126,.T.);
#99=PLANE('',#127);
#100=FACE_OUTER_BOUND('',#128,.T.);
#101=PLANE('',#129);
#102=FACE_OUTER_BOUND('',#130,.T.);
#103=PLANE('',#131);
#104=FACE_OUTER_BOUND('',#132,.T.);
#105=CYLINDRICAL_SURFACE('',#133,10.0);
#106=FACE_OUTER_BOUND('',#134,.T.);
#107=CYLINDRICAL_SURFACE('',#135,10.0);
#108=FACE_OUTER_BOUND('',#136,.T.);
#109=PLANE('',#137);
#110=FACE_OUTER_BOUND('',#138,.T.);
#111=PLANE('',#139);
#112=FACE_OUTER_BOUND('',#140,.T.);
#113=PLANE('',#141);
#114=FACE_OUTER_BOUND('',#142,.T.);
#115=PLANE('',#143);
#116=FACE_OUTER_BOUND('',#144,.T.);
#117=PLANE('',#145);
#118=EDGE_LOOP('',(#146,#147,#148,#149));
#119=AXIS2_PLACEMENT_3D('',#150,#151,#152);
#120=EDGE_LOOP('',(#153,#154,#155,#156,#157,#158,#159,#160,#161,#162,#163,#164));
#121=AXIS2_PLACEMENT_3D('',#165,#166,#167);
#122=EDGE_LOOP('',(#168,#169,#170,#171));
#123=AXIS2_PLACEMENT_3D('',#172,#173,#174);
#124=EDGE_LOOP('',(#175,#176,#177,#178));
#125=AXIS2_PLACEMENT_3D('',#179,#180,#181);
#126=EDGE_LOOP('',(#182,#183,#184,#185,#186,#187,#188,#189,#190,#191,#192,#193));
#127=AXIS2_PLACEMENT_3D('',#194,#195,#196);
#128=EDGE_LOOP('',(#197,#198,#199,#200));
#129=AXIS2_PLACEMENT_3D('',#201,#202,#203);
#130=EDGE_LOOP('',(#204,#205,#206,#207));
#131=AXIS2_PLACEMENT_3D('',#208,#209,#210);
#132=EDGE_LOOP('',(#211,#212,#213,#214));
#133=AXIS2_PLACEMENT_3D('',#215,#216,#217);
#134=EDGE_LOOP('',(#218,#219,#220,#221));
#135=AXIS2_PLACEMENT_3D('',#222,#223,#224);
#136=EDGE_LOOP('',(#225,#226,#227,#228));
#137=AXIS2_PLACEMENT_3D('',#229,#230,#231);
#138=EDGE_LOOP('',(#232,#233,#234,#235));
#139=AXIS2_PLACEMENT_3D('',#236,#237,#238);
#140=EDGE_LOOP('',(#239,#240,#241,#242));
#141=AXIS2_PLACEMENT_3D('',#243,#244,#245);
#142=EDGE_LOOP('',(#246,#247,#248,#249));
#143=AXIS2_PLACEMENT_3D('',#250,#251,#252);
#144=EDGE_LOOP('',(#253,#254,#255,#256));
#145=AXIS2_PLACEMENT_3D('',#257,#258,#259);
#146=ORIENTED_EDGE('',*,*,#260,.F.);
#147=ORIENTED_EDGE('',*,*,#261,.T.);
#148=ORIENTED_EDGE('',*,*,#262,.F.);
#149=ORIENTED_EDGE('',*,*,#263,.F.);
#150=CARTESIAN_POINT('',(80.0,20.0,0.0));
#151=DIRECTION('',(0.0,0.0,-1.0));
#152=DIRECTION('',(-1.83690953073357E-016,-1.0,0.0));
#153=ORIENTED_EDGE('',*,*,#262,.T.);
#154=ORIENTED_EDGE('',*,*,#264,.T.);
#155=ORIENTED_EDGE('',*,*,#265,.T.);
#156=ORIENTED_EDGE('',*,*,#266,.T.);
#157=ORIENTED_EDGE('',*,*,#267,.T.);
#158=ORIENTED_EDGE('',*,*,#268,.T.);
#159=ORIENTED_EDGE('',*,*,#269,.T.);
#160=ORIENTED_EDGE('',*,*,#270,.T.);
#161=ORIENTED_EDGE('',*,*,#271,.T.);
#162=ORIENTED_EDGE('',*,*,#272,.T.);
#163=ORIENTED_EDGE('',*,*,#273,.T.);
#164=ORIENTED_EDGE('',*,*,#274,.T.);
#165=CARTESIAN_POINT('',(0.0,35.0,0.0));
#166=DIRECTION('',(0.0,0.0,1.0));
#167=DIRECTION('',(1.0,0.0,0.0));
#168=ORIENTED_EDGE('',*,*,#261,.F.);
#169=ORIENTED_EDGE('',*,*,#275,.F.);
#170=ORIENTED_EDGE('',*,*,#276,.T.);
#171=ORIENTED_EDGE('',*,*,#264,.F.);
#172=CARTESIAN_POINT('',(0.0,0.0,5.0));
#173=DIRECTION('',(0.0,1.0,0.0));
#174=DIRECTION('',(0.0,0.0,1.0));
#175=ORIENTED_EDGE('',*,*,#277,.F.);
#176=ORIENTED_EDGE('',*,*,#278,.T.);
#177=ORIENTED_EDGE('',*,*,#265,.F.);
#178=ORIENTED_EDGE('',*,*,#276,.F.);
#179=CARTESIAN_POINT('',(-80.0,20.0,0.0));
#180=DIRECTION('',(0.0,0.0,-1.0));
#181=DIRECTION('',(-1.0,1.22460635382238E-016,0.0));
#182=ORIENTED_EDGE('',*,*,#260,.T.);
#183=ORIENTED_EDGE('',*,*,#279,.T.);
#184=ORIENTED_EDGE('',*,*,#280,.T.);
#185=ORIENTED_EDGE('',*,*,#281,.T.);
#186=ORIENTED_EDGE('',*,*,#282,.T.);
#187=ORIENTED_EDGE('',*,*,#283,.T.);
#188=ORIENTED_EDGE('',*,*,#284,.T.);
#189=ORIENTED_EDGE('',*,*,#285,.T.);
#190=ORIENTED_EDGE('',*,*,#286,.T.);
#191=ORIENTED_EDGE('',*,*,#287,.T.);
#192=ORIENTED_EDGE('',*,*,#277,.T.);
#193=ORIENTED_EDGE('',*,*,#275,.T.);
#194=CARTESIAN_POINT('',(0.0,35.0,10.0));
#195=DIRECTION('',(0.0,0.0,1.0));
#196=DIRECTION('',(1.0,0.0,0.0));
#197=ORIENTED_EDGE('',*,*,#283,.F.);
#198=ORIENTED_EDGE('',*,*,#288,.T.);
#199=ORIENTED_EDGE('',*,*,#270,.F.);
#200=ORIENTED_EDGE('',*,*,#289,.F.);
#201=CARTESIAN_POINT('',(0.0,10.0,5.0));
#202=DIRECTION('',(0.0,1.0,0.0));
#203=DIRECTION('',(0.0,0.0,1.0));
#204=ORIENTED_EDGE('',*,*,#285,.F.);
#205=ORIENTED_EDGE('',*,*,#290,.T.);
#206=ORIENTED_EDGE('',*,*,#268,.F.);
#207=ORIENTED_EDGE('',*,*,#291,.F.);
#208=CARTESIAN_POINT('',(-90.0,45.0,5.0));
#209=DIRECTION('',(1.0,0.0,0.0));
#210=DIRECTION('',(0.0,0.0,-1.0));
#211=ORIENTED_EDGE('',*,*,#284,.F.);
#212=ORIENTED_EDGE('',*,*,#289,.T.);
#213=ORIENTED_EDGE('',*,*,#269,.F.);
#214=ORIENTED_EDGE('',*,*,#290,.F.);
#215=CARTESIAN_POINT('',(-80.0,20.0,5.0));
#216=DIRECTION('',(0.0,0.0,-1.0));
#217=DIRECTION('',(1.0,0.0,0.0));
#218=ORIENTED_EDGE('',*,*,#282,.F.);
#219=ORIENTED_EDGE('',*,*,#292,.T.);
#220=ORIENTED_EDGE('',*,*,#271,.F.);
#221=ORIENTED_EDGE('',*,*,#288,.F.);
#222=CARTESIAN_POINT('',(80.0,20.0,5.0));
#223=DIRECTION('',(0.0,0.0,-1.0));
#224=DIRECTION('',(1.0,0.0,0.0));
#225=ORIENTED_EDGE('',*,*,#281,.F.);
#226=ORIENTED_EDGE('',*,*,#293,.F.);
#227=ORIENTED_EDGE('',*,*,#272,.F.);
#228=ORIENTED_EDGE('',*,*,#292,.F.);
#229=CARTESIAN_POINT('',(90.0,45.0,5.0));
#230=DIRECTION('',(-1.0,0.0,0.0));
#231=DIRECTION('',(0.0,0.0,1.0));
#232=ORIENTED_EDGE('',*,*,#291,.T.);
#233=ORIENTED_EDGE('',*,*,#267,.F.);
#234=ORIENTED_EDGE('',*,*,#294,.F.);
#235=ORIENTED_EDGE('',*,*,#286,.F.);
#236=CARTESIAN_POINT('',(0.0,70.0,5.0));
#237=DIRECTION('',(0.0,-1.0,0.0));
#238=DIRECTION('',(0.0,0.0,-1.0));
#239=ORIENTED_EDGE('',*,*,#278,.F.);
#240=ORIENTED_EDGE('',*,*,#287,.F.);
#241=ORIENTED_EDGE('',*,*,#294,.T.);
#242=ORIENTED_EDGE('',*,*,#266,.F.);
#243=CARTESIAN_POINT('',(-100.0,35.0,5.0));
#244=DIRECTION('',(1.0,0.0,0.0));
#245=DIRECTION('',(0.0,0.0,-1.0));
#246=ORIENTED_EDGE('',*,*,#293,.T.);
#247=ORIENTED_EDGE('',*,*,#280,.F.);
#248=ORIENTED_EDGE('',*,*,#295,.T.);
#249=ORIENTED_EDGE('',*,*,#273,.F.);
#250=CARTESIAN_POINT('',(0.0,70.0,5.0));
#251=DIRECTION('',(0.0,-1.0,0.0));
#252=DIRECTION('',(0.0,0.0,-1.0));
#253=ORIENTED_EDGE('',*,*,#263,.T.);
#254=ORIENTED_EDGE('',*,*,#274,.F.);
#255=ORIENTED_EDGE('',*,*,#295,.F.);
#256=ORIENTED_EDGE('',*,*,#279,.F.);
#257=CARTESIAN_POINT('',(100.0,35.0,5.0));
#258=DIRECTION('',(-1.0,0.0,0.0));
#259=DIRECTION('',(0.0,0.0,1.0));
#260=EDGE_CURVE('',#296,#297,#298,.T.);
#261=EDGE_CURVE('',#296,#299,#300,.T.);
#262=EDGE_CURVE('',#301,#299,#302,.T.);
#263=EDGE_CURVE('',#297,#301,#303,.T.);
#264=EDGE_CURVE('',#299,#304,#305,.T.);
#265=EDGE_CURVE('',#304,#306,#307,.T.);
#266=EDGE_CURVE('',#306,#308,#309,.T.);
#267=EDGE_CURVE('',#308,#310,#311,.T.);
#268=EDGE_CURVE('',#310,#312,#313,.T.);
#269=EDGE_CURVE('',#312,#314,#315,.T.);
#270=EDGE_CURVE('',#314,#316,#317,.T.);
#271=EDGE_CURVE('',#316,#318,#319,.T.);
#272=EDGE_CURVE('',#318,#320,#321,.T.);
#273=EDGE_CURVE('',#320,#322,#323,.T.);
#274=EDGE_CURVE('',#322,#301,#324,.T.);
#275=EDGE_CURVE('',#325,#296,#326,.T.);
#276=EDGE_CURVE('',#325,#304,#327,.T.);
#277=EDGE_CURVE('',#328,#325,#329,.T.);
#278=EDGE_CURVE('',#328,#306,#330,.T.);
#279=EDGE_CURVE('',#297,#331,#332,.T.);
#280=EDGE_CURVE('',#331,#333,#334,.T.);
#281=EDGE_CURVE('',#333,#335,#336,.T.);
#282=EDGE_CURVE('',#335,#337,#338,.T.);
#283=EDGE_CURVE('',#337,#339,#340,.T.);
#284=EDGE_CURVE('',#339,#341,#342,.T.);
#285=EDGE_CURVE('',#341,#343,#344,.T.);
#286=EDGE_CURVE('',#343,#345,#346,.T.);
#287=EDGE_CURVE('',#345,#328,#347,.T.);
#288=EDGE_CURVE('',#337,#316,#348,.T.);
#289=EDGE_CURVE('',#339,#314,#349,.T.);
#290=EDGE_CURVE('',#341,#312,#350,.T.);
#291=EDGE_CURVE('',#343,#310,#351,.T.);
#292=EDGE_CURVE('',#335,#318,#352,.T.);
#293=EDGE_CURVE('',#320,#333,#353,.T.);
#294=EDGE_CURVE('',#345,#308,#354,.T.);
#295=EDGE_CURVE('',#331,#322,#355,.T.);
#296=VERTEX_POINT('',#356);
#297=VERTEX_POINT('',#357);
#298=CIRCLE('',#358,20.0);
#299=VERTEX_POINT('',#359);
#300=LINE('',#360,#361);
#301=VERTEX_POINT('',#362);
#302=CIRCLE('',#363,20.0);
#303=LINE('',#364,#365);
#304=VERTEX_POINT('',#366);
#305=LINE('',#367,#368);
#306=VERTEX_POINT('',#369);
#307=CIRCLE('',#370,20.0);
#308=VERTEX_POINT('',#371);
#309=LINE('',#372,#373);
#310=VERTEX_POINT('',#374);
#311=LINE('',#375,#376);
#312=VERTEX_POINT('',#377);
#313=LINE('',#378,#379);
#314=VERTEX_POINT('',#380);
#315=CIRCLE('',#381,10.0);
#316=VERTEX_POINT('',#382);
#317=LINE('',#383,#384);
#318=VERTEX_POINT('',#385);
#319=CIRCLE('',#386,10.0);
#320=VERTEX_POINT('',#387);
#321=LINE('',#388,#389);
#322=VERTEX_POINT('',#390);
#323=LINE('',#391,#392);
#324=LINE('',#393,#394);
#325=VERTEX_POINT('',#395);
#326=LINE('',#396,#397);
#327=LINE('',#398,#399);
#328=VERTEX_POINT('',#400);
#329=CIRCLE('',#401,20.0);
#330=LINE('',#402,#403);
#331=VERTEX_POINT('',#404);
#332=LINE('',#405,#406);
#333=VERTEX_POINT('',#407);
#334=LINE('',#408,#409);
#335=VERTEX_POINT('',#410);
#336=LINE('',#411,#412);
#337=VERTEX_POINT('',#413);
#338=CIRCLE('',#414,10.0);
#339=VERTEX_POINT('',#415);
#340=LINE('',#416,#417);
#341=VERTEX_POINT('',#418);
#342=CIRCLE('',#419,10.0);
#343=VERTEX_POINT('',#420);
#344=LINE('',#421,#422);
#345=VERTEX_POINT('',#423);
#346=LINE('',#424,#425);
#347=LINE('',#426,#427);
#348=LINE('',#428,#429);
#349=LINE('',#430,#431);
#350=LINE('',#432,#433);
#351=LINE('',#434,#435);
#352=LINE('',#436,#437);
#353=LINE('',#438,#439);
#354=LINE('',#440,#441);
#355=LINE('',#442,#443);
#356=CARTESIAN_POINT('',(80.0,3.67381906146713E-015,10.0));
#357=CARTESIAN_POINT('',(100.0,20.0,10.0));
#358=AXIS2_PLACEMENT_3D('',#444,#445,#446);
#359=CARTESIAN_POINT('',(80.0,3.67381906146713E-015,0.0));
#360=CARTESIAN_POINT('',(80.0,0.0,5.0));
#361=VECTOR('',#447,1.0);
#362=CARTESIAN_POINT('',(100.0,20.0,0.0));
#363=AXIS2_PLACEMENT_3D('',#448,#449,#450);
#364=CARTESIAN_POINT('',(100.0,20.0,5.0));
#365=VECTOR('',#451,1.0);
#366=CARTESIAN_POINT('',(-80.0,-2.44921270764475E-015,0.0));
#367=CARTESIAN_POINT('',(0.0,0.0,0.0));
#368=VECTOR('',#452,1.0);
#369=CARTESIAN_POINT('',(-100.0,20.0,0.0));
#370=AXIS2_PLACEMENT_3D('',#453,#454,#455);
#371=CARTESIAN_POINT('',(-100.0,70.0,0.0));
#372=CARTESIAN_POINT('',(-100.0,35.0,0.0));
#373=VECTOR('',#456,1.0);
#374=CARTESIAN_POINT('',(-90.0,70.0,0.0));
#375=CARTESIAN_POINT('',(0.0,70.0,0.0));
#376=VECTOR('',#457,1.0);
#377=CARTESIAN_POINT('',(-90.0,20.0,0.0));
#378=CARTESIAN_POINT('',(-90.0,40.0,0.0));
#379=VECTOR('',#458,1.0);
#380=CARTESIAN_POINT('',(-80.0,10.0,0.0));
#381=AXIS2_PLACEMENT_3D('',#459,#460,#461);
#382=CARTESIAN_POINT('',(80.0,10.0,0.0));
#383=CARTESIAN_POINT('',(0.0,10.0,0.0));
#384=VECTOR('',#462,1.0);
#385=CARTESIAN_POINT('',(90.0,20.0,0.0));
#386=AXIS2_PLACEMENT_3D('',#463,#464,#465);
#387=CARTESIAN_POINT('',(90.0,70.0,0.0));
#388=CARTESIAN_POINT('',(90.0,40.0,0.0));
#389=VECTOR('',#466,1.0);
#390=CARTESIAN_POINT('',(100.0,70.0,0.0));
#391=CARTESIAN_POINT('',(0.0,70.0,0.0));
#392=VECTOR('',#467,1.0);
#393=CARTESIAN_POINT('',(100.0,35.0,0.0));
#394=VECTOR('',#468,1.0);
#395=CARTESIAN_POINT('',(-80.0,-2.44921270764475E-015,10.0));
#396=CARTESIAN_POINT('',(0.0,0.0,10.0));
#397=VECTOR('',#469,1.0);
#398=CARTESIAN_POINT('',(-80.0,0.0,5.0));
#399=VECTOR('',#470,1.0);
#400=CARTESIAN_POINT('',(-100.0,20.0,10.0));
#401=AXIS2_PLACEMENT_3D('',#471,#472,#473);
#402=CARTESIAN_POINT('',(-100.0,20.0,5.0));
#403=VECTOR('',#474,1.0);
#404=CARTESIAN_POINT('',(100.0,70.0,10.0));
#405=CARTESIAN_POINT('',(100.0,35.0,10.0));
#406=VECTOR('',#475,1.0);
#407=CARTESIAN_POINT('',(90.0,70.0,10.0));
#408=CARTESIAN_POINT('',(0.0,70.0,10.0));
#409=VECTOR('',#476,1.0);
#410=CARTESIAN_POINT('',(90.0,20.0,10.0));
#411=CARTESIAN_POINT('',(90.0,40.0,10.0));
#412=VECTOR('',#477,1.0);
#413=CARTESIAN_POINT('',(80.0,10.0,10.0));
#414=AXIS2_PLACEMENT_3D('',#478,#479,#480);
#415=CARTESIAN_POINT('',(-80.0,10.0,10.0));
#416=CARTESIAN_POINT('',(0.0,10.0,10.0));
#417=VECTOR('',#481,1.0);
#418=CARTESIAN_POINT('',(-90.0,20.0,10.0));
#419=AXIS2_PLACEMENT_3D('',#482,#483,#484);
#420=CARTESIAN_POINT('',(-90.0,70.0,10.0));
#421=CARTESIAN_POINT('',(-90.0,40.0,10.0));
#422=VECTOR('',#485,1.0);
#423=CARTESIAN_POINT('',(-100.0,70.0,10.0));
#424=CARTESIAN_POINT('',(0.0,70.0,10.0));
#425=VECTOR('',#486,1.0);
#426=CARTESIAN_POINT('',(-100.0,35.0,10.0));
#427=VECTOR('',#487,1.0);
#428=CARTESIAN_POINT('',(80.0,10.0,5.0));
#429=VECTOR('',#488,1.0);
#430=CARTESIAN_POINT('',(-80.0,10.0,5.0));
#431=VECTOR('',#489,1.0);
#432=CARTESIAN_POINT('',(-90.0,20.0,5.0));
#433=VECTOR('',#490,1.0);
#434=CARTESIAN_POINT('',(-90.0,70.0,5.0));
#435=VECTOR('',#491,1.0);
#436=CARTESIAN_POINT('',(90.0,20.0,5.0));
#437=VECTOR('',#492,1.0);
#438=CARTESIAN_POINT('',(90.0,70.0,5.0));
#439=VECTOR('',#493,1.0);
#440=CARTESIAN_POINT('',(-100.0,70.0,5.0));
#441=VECTOR('',#494,1.0);
#442=CARTESIAN_POINT('',(100.0,70.0,5.0));
#443=VECTOR('',#495,1.0);
#444=CARTESIAN_POINT('',(80.0,20.0,10.0));
#445=DIRECTION('',(0.0,0.0,1.0));
#446=DIRECTION('',(-1.83690953073357E-016,-1.0,0.0));
#447=DIRECTION('',(0.0,0.0,-1.0));
#448=CARTESIAN_POINT('',(80.0,20.0,0.0));
#449=DIRECTION('',(0.0,0.0,-1.0));
#450=DIRECTION('',(-1.83690953073357E-016,-1.0,0.0));
#451=DIRECTION('',(0.0,0.0,-1.0));
#452=DIRECTION('',(-1.0,0.0,0.0));
#453=CARTESIAN_POINT('',(-80.0,20.0,0.0));
#454=DIRECTION('',(0.0,0.0,-1.0));
#455=DIRECTION('',(-1.0,1.22460635382238E-016,0.0));
#456=DIRECTION('',(0.0,1.0,0.0));
#457=DIRECTION('',(1.0,0.0,0.0));
#458=DIRECTION('',(0.0,-1.0,0.0));
#459=CARTESIAN_POINT('',(-80.0,20.0,0.0));
#460=DIRECTION('',(0.0,0.0,1.0));
#461=DIRECTION('',(1.0,0.0,0.0));
#462=DIRECTION('',(1.0,0.0,0.0));
#463=CARTESIAN_POINT('',(80.0,20.0,0.0));
#464=DIRECTION('',(0.0,0.0,1.0));
#465=DIRECTION('',(1.0,0.0,0.0));
#466=DIRECTION('',(0.0,1.0,0.0));
#467=DIRECTION('',(1.0,0.0,0.0));
#468=DIRECTION('',(0.0,-1.0,0.0));
#469=DIRECTION('',(1.0,0.0,0.0));
#470=DIRECTION('',(0.0,0.0,-1.0));
#471=CARTESIAN_POINT('',(-80.0,20.0,10.0));
#472=DIRECTION('',(0.0,0.0,1.0));
#473=DIRECTION('',(-1.0,1.22460635382238E-016,0.0));
#474=DIRECTION('',(0.0,0.0,-1.0));
#475=DIRECTION('',(0.0,1.0,0.0));
#476=DIRECTION('',(-1.0,0.0,0.0));
#477=DIRECTION('',(0.0,-1.0,0.0));
#478=CARTESIAN_POINT('',(80.0,20.0,10.0));
#479=DIRECTION('',(0.0,0.0,-1.0));
#480=DIRECTION('',(1.0,0.0,0.0));
#481=DIRECTION('',(-1.0,0.0,0.0));
#482=CARTESIAN_POINT('',(-80.0,20.0,10.0));
#483=DIRECTION('',(0.0,0.0,-1.0));
#484=DIRECTION('',(1.0,0.0,0.0));
#485=DIRECTION('',(0.0,1.0,0.0));
#486=DIRECTION('',(-1.0,0.0,0.0));
#487=DIRECTION('',(0.0,-1.0,0.0));
#488=DIRECTION('',(0.0,0.0,-1.0));
#489=DIRECTION('',(0.0,0.0,-1.0));
#490=DIRECTION('',(0.0,0.0,-1.0));
#491=DIRECTION('',(0.0,0.0,-1.0));
#492=DIRECTION('',(0.0,0.0,-1.0));
#493=DIRECTION('',(0.0,0.0,1.0));
#494=DIRECTION('',(0.0,0.0,-1.0));
#495=DIRECTION('',(0.0,0.0,-1.0));
ENDSEC;
END-ISO-10303-21;
