ISO-10303-21;
HEADER;
FILE_DESCRIPTION( ( 'STEP AP214' ), '1' );
FILE_NAME( '//expscmdclustefs.cadenas.external/client_exchange/iodir/jobs/output/wkb75970539_no0/STEP/SDE-05_2_14a.stp', '  ', ( '  ' ), ( '  ' ), 'PSStep 15.0.47', 'PARTsolutions', '  ' );
FILE_SCHEMA( ( 'AUTOMOTIVE_DESIGN { 1 0 10303 214 1 1 1 1 }' ) );
ENDSEC;
DATA;
#1 = MECHANICAL_DESIGN_GEOMETRIC_PRESENTATION_REPRESENTATION( ' ', ( #10, #11, #12, #13, #14, #15, #16, #17, #18, #19, #20, #21, #22, #23, #24, #25 ), #6 );
#2 = PRODUCT_DEFINITION_CONTEXT( '', #26, 'design' );
#3 = APPLICATION_PROTOCOL_DEFINITION( 'international standard', 'automotive_design', 2001, #26 );
#4 = PRODUCT_CATEGORY_RELATIONSHIP( 'NONE', 'NONE', #27, #28 );
#5 = SHAPE_DEFINITION_REPRESENTATION( #29, #30 );
#6 =  ( GEOMETRIC_REPRESENTATION_CONTEXT( 3 )GLOBAL_UNCERTAINTY_ASSIGNED_CONTEXT( ( #33 ) )GLOBAL_UNIT_ASSIGNED_CONTEXT( ( #35, #36, #37 ) )REPRESENTATION_CONTEXT( 'NONE', 'WORKSPACE' ) );
#10 = STYLED_ITEM( '', ( #39 ), #40 );
#11 = STYLED_ITEM( '', ( #41 ), #42 );
#12 = STYLED_ITEM( '', ( #43 ), #44 );
#13 = STYLED_ITEM( '', ( #45 ), #46 );
#14 = STYLED_ITEM( '', ( #47 ), #48 );
#15 = STYLED_ITEM( '', ( #49 ), #50 );
#16 = STYLED_ITEM( '', ( #51 ), #52 );
#17 = STYLED_ITEM( '', ( #53 ), #54 );
#18 = STYLED_ITEM( '', ( #55 ), #56 );
#19 = STYLED_ITEM( '', ( #57 ), #58 );
#20 = STYLED_ITEM( '', ( #59 ), #60 );
#21 = STYLED_ITEM( '', ( #61 ), #62 );
#22 = STYLED_ITEM( '', ( #63 ), #64 );
#23 = STYLED_ITEM( '', ( #65 ), #66 );
#24 = STYLED_ITEM( '', ( #67 ), #68 );
#25 = STYLED_ITEM( '', ( #69 ), #70 );
#26 = APPLICATION_CONTEXT( 'core data for automotive mechanical design processes' );
#27 = PRODUCT_CATEGORY( 'part', 'NONE' );
#28 = PRODUCT_RELATED_PRODUCT_CATEGORY( 'detail', ' ', ( #71 ) );
#29 = PRODUCT_DEFINITION_SHAPE( 'NONE', 'NONE', #72 );
#30 = ADVANCED_BREP_SHAPE_REPRESENTATION( 'HI_SDE-05', ( #73, #74 ), #6 );
#33 = UNCERTAINTY_MEASURE_WITH_UNIT( LENGTH_MEASURE( 0.00100000000000000 ), #35, '', '' );
#35 =  ( CONVERSION_BASED_UNIT( 'MILLIMETRE', #77 )LENGTH_UNIT(  )NAMED_UNIT( #80 ) );
#36 =  ( NAMED_UNIT( #82 )PLANE_ANGLE_UNIT(  )SI_UNIT( $, .RADIAN. ) );
#37 =  ( NAMED_UNIT( #82 )SI_UNIT( $, .STERADIAN. )SOLID_ANGLE_UNIT(  ) );
#39 = PRESENTATION_STYLE_ASSIGNMENT( ( #88 ) );
#40 = ADVANCED_FACE( '', ( #89, #90 ), #91, .F. );
#41 = PRESENTATION_STYLE_ASSIGNMENT( ( #92 ) );
#42 = ADVANCED_FACE( '', ( #93, #94 ), #95, .T. );
#43 = PRESENTATION_STYLE_ASSIGNMENT( ( #96 ) );
#44 = ADVANCED_FACE( '', ( #97, #98 ), #99, .T. );
#45 = PRESENTATION_STYLE_ASSIGNMENT( ( #100 ) );
#46 = ADVANCED_FACE( '', ( #101, #102 ), #103, .T. );
#47 = PRESENTATION_STYLE_ASSIGNMENT( ( #104 ) );
#48 = ADVANCED_FACE( '', ( #105, #106 ), #107, .T. );
#49 = PRESENTATION_STYLE_ASSIGNMENT( ( #108 ) );
#50 = ADVANCED_FACE( '', ( #109, #110 ), #111, .T. );
#51 = PRESENTATION_STYLE_ASSIGNMENT( ( #112 ) );
#52 = ADVANCED_FACE( '', ( #113, #114 ), #115, .T. );
#53 = PRESENTATION_STYLE_ASSIGNMENT( ( #116 ) );
#54 = ADVANCED_FACE( '', ( #117, #118 ), #119, .T. );
#55 = PRESENTATION_STYLE_ASSIGNMENT( ( #120 ) );
#56 = ADVANCED_FACE( '', ( #121, #122 ), #123, .T. );
#57 = PRESENTATION_STYLE_ASSIGNMENT( ( #124 ) );
#58 = ADVANCED_FACE( '', ( #125, #126 ), #127, .T. );
#59 = PRESENTATION_STYLE_ASSIGNMENT( ( #128 ) );
#60 = ADVANCED_FACE( '', ( #129, #130 ), #131, .T. );
#61 = PRESENTATION_STYLE_ASSIGNMENT( ( #132 ) );
#62 = ADVANCED_FACE( '', ( #133, #134 ), #135, .T. );
#63 = PRESENTATION_STYLE_ASSIGNMENT( ( #136 ) );
#64 = ADVANCED_FACE( '', ( #137, #138 ), #139, .T. );
#65 = PRESENTATION_STYLE_ASSIGNMENT( ( #140 ) );
#66 = ADVANCED_FACE( '', ( #141, #142 ), #143, .T. );
#67 = PRESENTATION_STYLE_ASSIGNMENT( ( #144 ) );
#68 = ADVANCED_FACE( '', ( #145, #146 ), #147, .T. );
#69 = PRESENTATION_STYLE_ASSIGNMENT( ( #148 ) );
#70 = ADVANCED_FACE( '', ( #149, #150 ), #151, .T. );
#71 = PRODUCT( 'HI_SDE-05', 'HI_SDE-05', 'PART-HI_SDE-05-DESC', ( #152 ) );
#72 = PRODUCT_DEFINITION( 'NONE', 'NONE', #153, #2 );
#73 = MANIFOLD_SOLID_BREP( 'HI_SDE-05', #154 );
#74 = AXIS2_PLACEMENT_3D( '', #155, #156, #157 );
#77 = LENGTH_MEASURE_WITH_UNIT( LENGTH_MEASURE( 1.00000000000000 ), #158 );
#80 = DIMENSIONAL_EXPONENTS( 1.00000000000000, 0.000000000000000, 0.000000000000000, 0.000000000000000, 0.000000000000000, 0.000000000000000, 0.000000000000000 );
#82 = DIMENSIONAL_EXPONENTS( 0.000000000000000, 0.000000000000000, 0.000000000000000, 0.000000000000000, 0.000000000000000, 0.000000000000000, 0.000000000000000 );
#88 = SURFACE_STYLE_USAGE( .BOTH., #159 );
#89 = FACE_OUTER_BOUND( '', #160, .T. );
#90 = FACE_OUTER_BOUND( '', #161, .T. );
#91 = CYLINDRICAL_SURFACE( '', #162, 2.50000000000000 );
#92 = SURFACE_STYLE_USAGE( .BOTH., #163 );
#93 = FACE_OUTER_BOUND( '', #164, .T. );
#94 = FACE_BOUND( '', #165, .T. );
#95 = PLANE( '', #166 );
#96 = SURFACE_STYLE_USAGE( .BOTH., #167 );
#97 = FACE_BOUND( '', #168, .T. );
#98 = FACE_OUTER_BOUND( '', #169, .T. );
#99 = PLANE( '', #170 );
#100 = SURFACE_STYLE_USAGE( .BOTH., #171 );
#101 = FACE_OUTER_BOUND( '', #172, .T. );
#102 = FACE_OUTER_BOUND( '', #173, .T. );
#103 = CYLINDRICAL_SURFACE( '', #174, 5.75000000000000 );
#104 = SURFACE_STYLE_USAGE( .BOTH., #175 );
#105 = FACE_OUTER_BOUND( '', #176, .T. );
#106 = FACE_OUTER_BOUND( '', #177, .T. );
#107 = TOROIDAL_SURFACE( '', #178, 5.56250000000000, 0.437500000000000 );
#108 = SURFACE_STYLE_USAGE( .BOTH., #179 );
#109 = FACE_OUTER_BOUND( '', #180, .T. );
#110 = FACE_OUTER_BOUND( '', #181, .T. );
#111 = TOROIDAL_SURFACE( '', #182, 2.93750000000000, 0.437500000000000 );
#112 = SURFACE_STYLE_USAGE( .BOTH., #183 );
#113 = FACE_OUTER_BOUND( '', #184, .T. );
#114 = FACE_OUTER_BOUND( '', #185, .T. );
#115 = TOROIDAL_SURFACE( '', #186, 5.56250000000000, 0.437500000000000 );
#116 = SURFACE_STYLE_USAGE( .BOTH., #187 );
#117 = FACE_BOUND( '', #188, .T. );
#118 = FACE_OUTER_BOUND( '', #189, .T. );
#119 = PLANE( '', #190 );
#120 = SURFACE_STYLE_USAGE( .BOTH., #191 );
#121 = FACE_OUTER_BOUND( '', #192, .T. );
#122 = FACE_OUTER_BOUND( '', #193, .T. );
#123 = CYLINDRICAL_SURFACE( '', #194, 6.00000000000000 );
#124 = SURFACE_STYLE_USAGE( .BOTH., #195 );
#125 = FACE_OUTER_BOUND( '', #196, .T. );
#126 = FACE_OUTER_BOUND( '', #197, .T. );
#127 = CYLINDRICAL_SURFACE( '', #198, 6.00000000000000 );
#128 = SURFACE_STYLE_USAGE( .BOTH., #199 );
#129 = FACE_OUTER_BOUND( '', #200, .T. );
#130 = FACE_OUTER_BOUND( '', #201, .T. );
#131 = TOROIDAL_SURFACE( '', #202, 2.93750000000000, 0.437500000000000 );
#132 = SURFACE_STYLE_USAGE( .BOTH., #203 );
#133 = FACE_OUTER_BOUND( '', #204, .T. );
#134 = FACE_BOUND( '', #205, .T. );
#135 = PLANE( '', #206 );
#136 = SURFACE_STYLE_USAGE( .BOTH., #207 );
#137 = FACE_BOUND( '', #208, .T. );
#138 = FACE_OUTER_BOUND( '', #209, .T. );
#139 = PLANE( '', #210 );
#140 = SURFACE_STYLE_USAGE( .BOTH., #211 );
#141 = FACE_OUTER_BOUND( '', #212, .T. );
#142 = FACE_BOUND( '', #213, .T. );
#143 = PLANE( '', #214 );
#144 = SURFACE_STYLE_USAGE( .BOTH., #215 );
#145 = FACE_OUTER_BOUND( '', #216, .T. );
#146 = FACE_OUTER_BOUND( '', #217, .T. );
#147 = CYLINDRICAL_SURFACE( '', #218, 5.75000000000000 );
#148 = SURFACE_STYLE_USAGE( .BOTH., #219 );
#149 = FACE_OUTER_BOUND( '', #220, .T. );
#150 = FACE_OUTER_BOUND( '', #221, .T. );
#151 = CYLINDRICAL_SURFACE( '', #222, 6.00000000000000 );
#152 = PRODUCT_CONTEXT( '', #26, 'mechanical' );
#153 = PRODUCT_DEFINITION_FORMATION_WITH_SPECIFIED_SOURCE( ' ', 'NONE', #71, .NOT_KNOWN. );
#154 = CLOSED_SHELL( '', ( #54, #48, #50, #40, #60, #66, #52, #56, #44, #46, #42, #58, #64, #68, #62, #70 ) );
#155 = CARTESIAN_POINT( '', ( 0.000000000000000, 0.000000000000000, 0.000000000000000 ) );
#156 = DIRECTION( '', ( 0.000000000000000, 0.000000000000000, 1.00000000000000 ) );
#157 = DIRECTION( '', ( 1.00000000000000, 0.000000000000000, 0.000000000000000 ) );
#158 =  ( LENGTH_UNIT(  )NAMED_UNIT( #80 )SI_UNIT( .MILLI., .METRE. ) );
#159 = SURFACE_SIDE_STYLE( '', ( #224 ) );
#160 = EDGE_LOOP( '', ( #225 ) );
#161 = EDGE_LOOP( '', ( #226 ) );
#162 = AXIS2_PLACEMENT_3D( '', #227, #228, #229 );
#163 = SURFACE_SIDE_STYLE( '', ( #230 ) );
#164 = EDGE_LOOP( '', ( #231 ) );
#165 = EDGE_LOOP( '', ( #232 ) );
#166 = AXIS2_PLACEMENT_3D( '', #233, #234, #235 );
#167 = SURFACE_SIDE_STYLE( '', ( #236 ) );
#168 = EDGE_LOOP( '', ( #237 ) );
#169 = EDGE_LOOP( '', ( #238 ) );
#170 = AXIS2_PLACEMENT_3D( '', #239, #240, #241 );
#171 = SURFACE_SIDE_STYLE( '', ( #242 ) );
#172 = EDGE_LOOP( '', ( #243 ) );
#173 = EDGE_LOOP( '', ( #244 ) );
#174 = AXIS2_PLACEMENT_3D( '', #245, #246, #247 );
#175 = SURFACE_SIDE_STYLE( '', ( #248 ) );
#176 = EDGE_LOOP( '', ( #249 ) );
#177 = EDGE_LOOP( '', ( #250 ) );
#178 = AXIS2_PLACEMENT_3D( '', #251, #252, #253 );
#179 = SURFACE_SIDE_STYLE( '', ( #254 ) );
#180 = EDGE_LOOP( '', ( #255 ) );
#181 = EDGE_LOOP( '', ( #256 ) );
#182 = AXIS2_PLACEMENT_3D( '', #257, #258, #259 );
#183 = SURFACE_SIDE_STYLE( '', ( #260 ) );
#184 = EDGE_LOOP( '', ( #261 ) );
#185 = EDGE_LOOP( '', ( #262 ) );
#186 = AXIS2_PLACEMENT_3D( '', #263, #264, #265 );
#187 = SURFACE_SIDE_STYLE( '', ( #266 ) );
#188 = EDGE_LOOP( '', ( #267 ) );
#189 = EDGE_LOOP( '', ( #268 ) );
#190 = AXIS2_PLACEMENT_3D( '', #269, #270, #271 );
#191 = SURFACE_SIDE_STYLE( '', ( #272 ) );
#192 = EDGE_LOOP( '', ( #273 ) );
#193 = EDGE_LOOP( '', ( #274 ) );
#194 = AXIS2_PLACEMENT_3D( '', #275, #276, #277 );
#195 = SURFACE_SIDE_STYLE( '', ( #278 ) );
#196 = EDGE_LOOP( '', ( #279 ) );
#197 = EDGE_LOOP( '', ( #280 ) );
#198 = AXIS2_PLACEMENT_3D( '', #281, #282, #283 );
#199 = SURFACE_SIDE_STYLE( '', ( #284 ) );
#200 = EDGE_LOOP( '', ( #285 ) );
#201 = EDGE_LOOP( '', ( #286 ) );
#202 = AXIS2_PLACEMENT_3D( '', #287, #288, #289 );
#203 = SURFACE_SIDE_STYLE( '', ( #290 ) );
#204 = EDGE_LOOP( '', ( #291 ) );
#205 = EDGE_LOOP( '', ( #292 ) );
#206 = AXIS2_PLACEMENT_3D( '', #293, #294, #295 );
#207 = SURFACE_SIDE_STYLE( '', ( #296 ) );
#208 = EDGE_LOOP( '', ( #297 ) );
#209 = EDGE_LOOP( '', ( #298 ) );
#210 = AXIS2_PLACEMENT_3D( '', #299, #300, #301 );
#211 = SURFACE_SIDE_STYLE( '', ( #302 ) );
#212 = EDGE_LOOP( '', ( #303 ) );
#213 = EDGE_LOOP( '', ( #304 ) );
#214 = AXIS2_PLACEMENT_3D( '', #305, #306, #307 );
#215 = SURFACE_SIDE_STYLE( '', ( #308 ) );
#216 = EDGE_LOOP( '', ( #309 ) );
#217 = EDGE_LOOP( '', ( #310 ) );
#218 = AXIS2_PLACEMENT_3D( '', #311, #312, #313 );
#219 = SURFACE_SIDE_STYLE( '', ( #314 ) );
#220 = EDGE_LOOP( '', ( #315 ) );
#221 = EDGE_LOOP( '', ( #316 ) );
#222 = AXIS2_PLACEMENT_3D( '', #317, #318, #319 );
#224 = SURFACE_STYLE_FILL_AREA( #320 );
#225 = ORIENTED_EDGE( '', *, *, #321, .T. );
#226 = ORIENTED_EDGE( '', *, *, #322, .F. );
#227 = CARTESIAN_POINT( '', ( 22.0000000000000, 0.000000000000000, 0.000000000000000 ) );
#228 = DIRECTION( '', ( -1.00000000000000, -0.000000000000000, 0.000000000000000 ) );
#229 = DIRECTION( '', ( -0.000000000000000, 0.000000000000000, -1.00000000000000 ) );
#230 = SURFACE_STYLE_FILL_AREA( #323 );
#231 = ORIENTED_EDGE( '', *, *, #324, .T. );
#232 = ORIENTED_EDGE( '', *, *, #325, .F. );
#233 = CARTESIAN_POINT( '', ( 17.1500000000000, 5.75000000000000, 0.000000000000000 ) );
#234 = DIRECTION( '', ( 1.00000000000000, 0.000000000000000, -0.000000000000000 ) );
#235 = DIRECTION( '', ( -0.000000000000000, 0.000000000000000, -1.00000000000000 ) );
#236 = SURFACE_STYLE_FILL_AREA( #326 );
#237 = ORIENTED_EDGE( '', *, *, #327, .T. );
#238 = ORIENTED_EDGE( '', *, *, #328, .F. );
#239 = CARTESIAN_POINT( '', ( 18.2500000000000, 6.00000000000000, 0.000000000000000 ) );
#240 = DIRECTION( '', ( -1.00000000000000, 0.000000000000000, 0.000000000000000 ) );
#241 = DIRECTION( '', ( 0.000000000000000, 0.000000000000000, 1.00000000000000 ) );
#242 = SURFACE_STYLE_FILL_AREA( #329 );
#243 = ORIENTED_EDGE( '', *, *, #325, .T. );
#244 = ORIENTED_EDGE( '', *, *, #327, .F. );
#245 = CARTESIAN_POINT( '', ( 22.0000000000000, 0.000000000000000, 0.000000000000000 ) );
#246 = DIRECTION( '', ( -1.00000000000000, -0.000000000000000, 0.000000000000000 ) );
#247 = DIRECTION( '', ( -0.000000000000000, 0.000000000000000, -1.00000000000000 ) );
#248 = SURFACE_STYLE_FILL_AREA( #330 );
#249 = ORIENTED_EDGE( '', *, *, #331, .T. );
#250 = ORIENTED_EDGE( '', *, *, #332, .F. );
#251 = CARTESIAN_POINT( '', ( 0.437500000000000, 0.000000000000000, 0.000000000000000 ) );
#252 = DIRECTION( '', ( 1.00000000000000, 0.000000000000000, -0.000000000000000 ) );
#253 = DIRECTION( '', ( -0.000000000000000, 0.000000000000000, -1.00000000000000 ) );
#254 = SURFACE_STYLE_FILL_AREA( #333 );
#255 = ORIENTED_EDGE( '', *, *, #322, .T. );
#256 = ORIENTED_EDGE( '', *, *, #334, .F. );
#257 = CARTESIAN_POINT( '', ( 0.437500000000000, 0.000000000000000, 0.000000000000000 ) );
#258 = DIRECTION( '', ( 1.00000000000000, 0.000000000000000, -0.000000000000000 ) );
#259 = DIRECTION( '', ( -0.000000000000000, 0.000000000000000, -1.00000000000000 ) );
#260 = SURFACE_STYLE_FILL_AREA( #335 );
#261 = ORIENTED_EDGE( '', *, *, #336, .T. );
#262 = ORIENTED_EDGE( '', *, *, #337, .F. );
#263 = CARTESIAN_POINT( '', ( 21.5625000000000, 0.000000000000000, 0.000000000000000 ) );
#264 = DIRECTION( '', ( 1.00000000000000, 0.000000000000000, -0.000000000000000 ) );
#265 = DIRECTION( '', ( -0.000000000000000, 0.000000000000000, -1.00000000000000 ) );
#266 = SURFACE_STYLE_FILL_AREA( #338 );
#267 = ORIENTED_EDGE( '', *, *, #334, .T. );
#268 = ORIENTED_EDGE( '', *, *, #331, .F. );
#269 = CARTESIAN_POINT( '', ( 2.71050543121376E-017, 5.56250000000000, 0.000000000000000 ) );
#270 = DIRECTION( '', ( -1.00000000000000, 0.000000000000000, 0.000000000000000 ) );
#271 = DIRECTION( '', ( 0.000000000000000, 0.000000000000000, 1.00000000000000 ) );
#272 = SURFACE_STYLE_FILL_AREA( #339 );
#273 = ORIENTED_EDGE( '', *, *, #328, .T. );
#274 = ORIENTED_EDGE( '', *, *, #336, .F. );
#275 = CARTESIAN_POINT( '', ( 22.0000000000000, 0.000000000000000, 0.000000000000000 ) );
#276 = DIRECTION( '', ( -1.00000000000000, -0.000000000000000, 0.000000000000000 ) );
#277 = DIRECTION( '', ( -0.000000000000000, 0.000000000000000, -1.00000000000000 ) );
#278 = SURFACE_STYLE_FILL_AREA( #340 );
#279 = ORIENTED_EDGE( '', *, *, #341, .T. );
#280 = ORIENTED_EDGE( '', *, *, #324, .F. );
#281 = CARTESIAN_POINT( '', ( 22.0000000000000, 0.000000000000000, 0.000000000000000 ) );
#282 = DIRECTION( '', ( -1.00000000000000, -0.000000000000000, 0.000000000000000 ) );
#283 = DIRECTION( '', ( -0.000000000000000, 0.000000000000000, -1.00000000000000 ) );
#284 = SURFACE_STYLE_FILL_AREA( #342 );
#285 = ORIENTED_EDGE( '', *, *, #343, .T. );
#286 = ORIENTED_EDGE( '', *, *, #321, .F. );
#287 = CARTESIAN_POINT( '', ( 21.5625000000000, 0.000000000000000, 0.000000000000000 ) );
#288 = DIRECTION( '', ( 1.00000000000000, 0.000000000000000, -0.000000000000000 ) );
#289 = DIRECTION( '', ( -0.000000000000000, 0.000000000000000, -1.00000000000000 ) );
#290 = SURFACE_STYLE_FILL_AREA( #344 );
#291 = ORIENTED_EDGE( '', *, *, #345, .T. );
#292 = ORIENTED_EDGE( '', *, *, #346, .F. );
#293 = CARTESIAN_POINT( '', ( 3.75000000000000, 5.75000000000000, 0.000000000000000 ) );
#294 = DIRECTION( '', ( 1.00000000000000, 0.000000000000000, -0.000000000000000 ) );
#295 = DIRECTION( '', ( -0.000000000000000, 0.000000000000000, -1.00000000000000 ) );
#296 = SURFACE_STYLE_FILL_AREA( #347 );
#297 = ORIENTED_EDGE( '', *, *, #348, .T. );
#298 = ORIENTED_EDGE( '', *, *, #341, .F. );
#299 = CARTESIAN_POINT( '', ( 4.85000000000000, 6.00000000000000, 0.000000000000000 ) );
#300 = DIRECTION( '', ( -1.00000000000000, 0.000000000000000, 0.000000000000000 ) );
#301 = DIRECTION( '', ( 0.000000000000000, 0.000000000000000, 1.00000000000000 ) );
#302 = SURFACE_STYLE_FILL_AREA( #349 );
#303 = ORIENTED_EDGE( '', *, *, #337, .T. );
#304 = ORIENTED_EDGE( '', *, *, #343, .F. );
#305 = CARTESIAN_POINT( '', ( 22.0000000000000, 2.93750000000000, 0.000000000000000 ) );
#306 = DIRECTION( '', ( 1.00000000000000, 0.000000000000000, -0.000000000000000 ) );
#307 = DIRECTION( '', ( -0.000000000000000, 0.000000000000000, -1.00000000000000 ) );
#308 = SURFACE_STYLE_FILL_AREA( #350 );
#309 = ORIENTED_EDGE( '', *, *, #346, .T. );
#310 = ORIENTED_EDGE( '', *, *, #348, .F. );
#311 = CARTESIAN_POINT( '', ( 22.0000000000000, 0.000000000000000, 0.000000000000000 ) );
#312 = DIRECTION( '', ( -1.00000000000000, -0.000000000000000, 0.000000000000000 ) );
#313 = DIRECTION( '', ( -0.000000000000000, 0.000000000000000, -1.00000000000000 ) );
#314 = SURFACE_STYLE_FILL_AREA( #351 );
#315 = ORIENTED_EDGE( '', *, *, #332, .T. );
#316 = ORIENTED_EDGE( '', *, *, #345, .F. );
#317 = CARTESIAN_POINT( '', ( 22.0000000000000, 0.000000000000000, 0.000000000000000 ) );
#318 = DIRECTION( '', ( -1.00000000000000, -0.000000000000000, 0.000000000000000 ) );
#319 = DIRECTION( '', ( -0.000000000000000, 0.000000000000000, -1.00000000000000 ) );
#320 = FILL_AREA_STYLE( '', ( #352 ) );
#321 = EDGE_CURVE( '', #353, #353, #354, .T. );
#322 = EDGE_CURVE( '', #355, #355, #356, .T. );
#323 = FILL_AREA_STYLE( '', ( #357 ) );
#324 = EDGE_CURVE( '', #358, #358, #359, .T. );
#325 = EDGE_CURVE( '', #360, #360, #361, .T. );
#326 = FILL_AREA_STYLE( '', ( #362 ) );
#327 = EDGE_CURVE( '', #363, #363, #364, .T. );
#328 = EDGE_CURVE( '', #365, #365, #366, .T. );
#329 = FILL_AREA_STYLE( '', ( #367 ) );
#330 = FILL_AREA_STYLE( '', ( #368 ) );
#331 = EDGE_CURVE( '', #369, #369, #370, .T. );
#332 = EDGE_CURVE( '', #371, #371, #372, .T. );
#333 = FILL_AREA_STYLE( '', ( #373 ) );
#334 = EDGE_CURVE( '', #374, #374, #375, .T. );
#335 = FILL_AREA_STYLE( '', ( #376 ) );
#336 = EDGE_CURVE( '', #377, #377, #378, .T. );
#337 = EDGE_CURVE( '', #379, #379, #380, .T. );
#338 = FILL_AREA_STYLE( '', ( #381 ) );
#339 = FILL_AREA_STYLE( '', ( #382 ) );
#340 = FILL_AREA_STYLE( '', ( #383 ) );
#341 = EDGE_CURVE( '', #384, #384, #385, .T. );
#342 = FILL_AREA_STYLE( '', ( #386 ) );
#343 = EDGE_CURVE( '', #387, #387, #388, .T. );
#344 = FILL_AREA_STYLE( '', ( #389 ) );
#345 = EDGE_CURVE( '', #390, #390, #391, .T. );
#346 = EDGE_CURVE( '', #392, #392, #393, .T. );
#347 = FILL_AREA_STYLE( '', ( #394 ) );
#348 = EDGE_CURVE( '', #395, #395, #396, .T. );
#349 = FILL_AREA_STYLE( '', ( #397 ) );
#350 = FILL_AREA_STYLE( '', ( #398 ) );
#351 = FILL_AREA_STYLE( '', ( #399 ) );
#352 = FILL_AREA_STYLE_COLOUR( '', #400 );
#353 = VERTEX_POINT( '', #401 );
#354 = CIRCLE( '', #402, 2.50000000000000 );
#355 = VERTEX_POINT( '', #403 );
#356 = CIRCLE( '', #404, 2.50000000000000 );
#357 = FILL_AREA_STYLE_COLOUR( '', #405 );
#358 = VERTEX_POINT( '', #406 );
#359 = CIRCLE( '', #407, 6.00000000000000 );
#360 = VERTEX_POINT( '', #408 );
#361 = CIRCLE( '', #409, 5.75000000000000 );
#362 = FILL_AREA_STYLE_COLOUR( '', #410 );
#363 = VERTEX_POINT( '', #411 );
#364 = CIRCLE( '', #412, 5.75000000000000 );
#365 = VERTEX_POINT( '', #413 );
#366 = CIRCLE( '', #414, 6.00000000000000 );
#367 = FILL_AREA_STYLE_COLOUR( '', #415 );
#368 = FILL_AREA_STYLE_COLOUR( '', #416 );
#369 = VERTEX_POINT( '', #417 );
#370 = CIRCLE( '', #418, 5.56250000000000 );
#371 = VERTEX_POINT( '', #419 );
#372 = CIRCLE( '', #420, 6.00000000000000 );
#373 = FILL_AREA_STYLE_COLOUR( '', #421 );
#374 = VERTEX_POINT( '', #422 );
#375 = CIRCLE( '', #423, 2.93750000000000 );
#376 = FILL_AREA_STYLE_COLOUR( '', #424 );
#377 = VERTEX_POINT( '', #425 );
#378 = CIRCLE( '', #426, 6.00000000000000 );
#379 = VERTEX_POINT( '', #427 );
#380 = CIRCLE( '', #428, 5.56250000000000 );
#381 = FILL_AREA_STYLE_COLOUR( '', #429 );
#382 = FILL_AREA_STYLE_COLOUR( '', #430 );
#383 = FILL_AREA_STYLE_COLOUR( '', #431 );
#384 = VERTEX_POINT( '', #432 );
#385 = CIRCLE( '', #433, 6.00000000000000 );
#386 = FILL_AREA_STYLE_COLOUR( '', #434 );
#387 = VERTEX_POINT( '', #435 );
#388 = CIRCLE( '', #436, 2.93750000651926 );
#389 = FILL_AREA_STYLE_COLOUR( '', #437 );
#390 = VERTEX_POINT( '', #438 );
#391 = CIRCLE( '', #439, 6.00000000000000 );
#392 = VERTEX_POINT( '', #440 );
#393 = CIRCLE( '', #441, 5.75000000000000 );
#394 = FILL_AREA_STYLE_COLOUR( '', #442 );
#395 = VERTEX_POINT( '', #443 );
#396 = CIRCLE( '', #444, 5.75000000000000 );
#397 = FILL_AREA_STYLE_COLOUR( '', #445 );
#398 = FILL_AREA_STYLE_COLOUR( '', #446 );
#399 = FILL_AREA_STYLE_COLOUR( '', #447 );
#400 = COLOUR_RGB( '', 0.689999997615814, 0.689999997615814, 0.689999997615814 );
#401 = CARTESIAN_POINT( '', ( 21.5625000000000, 0.000000000000000, -2.50000000000000 ) );
#402 = AXIS2_PLACEMENT_3D( '', #448, #449, #450 );
#403 = CARTESIAN_POINT( '', ( 0.437500000000000, 0.000000000000000, -2.50000000000000 ) );
#404 = AXIS2_PLACEMENT_3D( '', #451, #452, #453 );
#405 = COLOUR_RGB( '', 0.689999997615814, 0.689999997615814, 0.689999997615814 );
#406 = CARTESIAN_POINT( '', ( 17.1500000000000, 0.000000000000000, -6.00000000000000 ) );
#407 = AXIS2_PLACEMENT_3D( '', #454, #455, #456 );
#408 = CARTESIAN_POINT( '', ( 17.1500000000000, 0.000000000000000, -5.75000000000000 ) );
#409 = AXIS2_PLACEMENT_3D( '', #457, #458, #459 );
#410 = COLOUR_RGB( '', 0.689999997615814, 0.689999997615814, 0.689999997615814 );
#411 = CARTESIAN_POINT( '', ( 18.2500000000000, 0.000000000000000, -5.75000000000000 ) );
#412 = AXIS2_PLACEMENT_3D( '', #460, #461, #462 );
#413 = CARTESIAN_POINT( '', ( 18.2500000000000, 0.000000000000000, -6.00000000000000 ) );
#414 = AXIS2_PLACEMENT_3D( '', #463, #464, #465 );
#415 = COLOUR_RGB( '', 0.689999997615814, 0.689999997615814, 0.689999997615814 );
#416 = COLOUR_RGB( '', 0.689999997615814, 0.689999997615814, 0.689999997615814 );
#417 = CARTESIAN_POINT( '', ( 0.000000000000000, 0.000000000000000, -5.56250000000000 ) );
#418 = AXIS2_PLACEMENT_3D( '', #466, #467, #468 );
#419 = CARTESIAN_POINT( '', ( 0.437500000000000, 0.000000000000000, -6.00000000000000 ) );
#420 = AXIS2_PLACEMENT_3D( '', #469, #470, #471 );
#421 = COLOUR_RGB( '', 0.689999997615814, 0.689999997615814, 0.689999997615814 );
#422 = CARTESIAN_POINT( '', ( 0.000000000000000, 0.000000000000000, -2.93750000000000 ) );
#423 = AXIS2_PLACEMENT_3D( '', #472, #473, #474 );
#424 = COLOUR_RGB( '', 0.689999997615814, 0.689999997615814, 0.689999997615814 );
#425 = CARTESIAN_POINT( '', ( 21.5625000000000, 0.000000000000000, -6.00000000000000 ) );
#426 = AXIS2_PLACEMENT_3D( '', #475, #476, #477 );
#427 = CARTESIAN_POINT( '', ( 22.0000000000000, 0.000000000000000, -5.56250000000000 ) );
#428 = AXIS2_PLACEMENT_3D( '', #478, #479, #480 );
#429 = COLOUR_RGB( '', 0.689999997615814, 0.689999997615814, 0.689999997615814 );
#430 = COLOUR_RGB( '', 0.689999997615814, 0.689999997615814, 0.689999997615814 );
#431 = COLOUR_RGB( '', 0.689999997615814, 0.689999997615814, 0.689999997615814 );
#432 = CARTESIAN_POINT( '', ( 4.85000000000000, 0.000000000000000, -6.00000000000000 ) );
#433 = AXIS2_PLACEMENT_3D( '', #481, #482, #483 );
#434 = COLOUR_RGB( '', 0.689999997615814, 0.689999997615814, 0.689999997615814 );
#435 = CARTESIAN_POINT( '', ( 22.0000000000000, 0.000000000000000, -2.93750000651926 ) );
#436 = AXIS2_PLACEMENT_3D( '', #484, #485, #486 );
#437 = COLOUR_RGB( '', 0.689999997615814, 0.689999997615814, 0.689999997615814 );
#438 = CARTESIAN_POINT( '', ( 3.75000000000000, 0.000000000000000, -6.00000000000000 ) );
#439 = AXIS2_PLACEMENT_3D( '', #487, #488, #489 );
#440 = CARTESIAN_POINT( '', ( 3.75000000000000, 0.000000000000000, -5.75000000000000 ) );
#441 = AXIS2_PLACEMENT_3D( '', #490, #491, #492 );
#442 = COLOUR_RGB( '', 0.689999997615814, 0.689999997615814, 0.689999997615814 );
#443 = CARTESIAN_POINT( '', ( 4.85000000000000, 0.000000000000000, -5.75000000000000 ) );
#444 = AXIS2_PLACEMENT_3D( '', #493, #494, #495 );
#445 = COLOUR_RGB( '', 0.689999997615814, 0.689999997615814, 0.689999997615814 );
#446 = COLOUR_RGB( '', 0.689999997615814, 0.689999997615814, 0.689999997615814 );
#447 = COLOUR_RGB( '', 0.689999997615814, 0.689999997615814, 0.689999997615814 );
#448 = CARTESIAN_POINT( '', ( 21.5625000000000, 0.000000000000000, 0.000000000000000 ) );
#449 = DIRECTION( '', ( 1.00000000000000, 0.000000000000000, -0.000000000000000 ) );
#450 = DIRECTION( '', ( -0.000000000000000, 0.000000000000000, -1.00000000000000 ) );
#451 = CARTESIAN_POINT( '', ( 0.437500000000000, 0.000000000000000, 0.000000000000000 ) );
#452 = DIRECTION( '', ( 1.00000000000000, 0.000000000000000, -0.000000000000000 ) );
#453 = DIRECTION( '', ( -0.000000000000000, 0.000000000000000, -1.00000000000000 ) );
#454 = CARTESIAN_POINT( '', ( 17.1500000000000, 0.000000000000000, 0.000000000000000 ) );
#455 = DIRECTION( '', ( 1.00000000000000, 0.000000000000000, -0.000000000000000 ) );
#456 = DIRECTION( '', ( -0.000000000000000, 0.000000000000000, -1.00000000000000 ) );
#457 = CARTESIAN_POINT( '', ( 17.1500000000000, 0.000000000000000, 0.000000000000000 ) );
#458 = DIRECTION( '', ( 1.00000000000000, 0.000000000000000, -0.000000000000000 ) );
#459 = DIRECTION( '', ( -0.000000000000000, 0.000000000000000, -1.00000000000000 ) );
#460 = CARTESIAN_POINT( '', ( 18.2500000000000, 0.000000000000000, 0.000000000000000 ) );
#461 = DIRECTION( '', ( 1.00000000000000, 0.000000000000000, -0.000000000000000 ) );
#462 = DIRECTION( '', ( -0.000000000000000, 0.000000000000000, -1.00000000000000 ) );
#463 = CARTESIAN_POINT( '', ( 18.2500000000000, 0.000000000000000, 0.000000000000000 ) );
#464 = DIRECTION( '', ( 1.00000000000000, 0.000000000000000, -0.000000000000000 ) );
#465 = DIRECTION( '', ( -0.000000000000000, 0.000000000000000, -1.00000000000000 ) );
#466 = CARTESIAN_POINT( '', ( 0.000000000000000, 0.000000000000000, 0.000000000000000 ) );
#467 = DIRECTION( '', ( 1.00000000000000, 0.000000000000000, -0.000000000000000 ) );
#468 = DIRECTION( '', ( -0.000000000000000, 0.000000000000000, -1.00000000000000 ) );
#469 = CARTESIAN_POINT( '', ( 0.437500000000000, 0.000000000000000, 0.000000000000000 ) );
#470 = DIRECTION( '', ( 1.00000000000000, 0.000000000000000, -0.000000000000000 ) );
#471 = DIRECTION( '', ( -0.000000000000000, 0.000000000000000, -1.00000000000000 ) );
#472 = CARTESIAN_POINT( '', ( 0.000000000000000, 0.000000000000000, 0.000000000000000 ) );
#473 = DIRECTION( '', ( 1.00000000000000, 0.000000000000000, -0.000000000000000 ) );
#474 = DIRECTION( '', ( -0.000000000000000, 0.000000000000000, -1.00000000000000 ) );
#475 = CARTESIAN_POINT( '', ( 21.5625000000000, 0.000000000000000, 0.000000000000000 ) );
#476 = DIRECTION( '', ( 1.00000000000000, 0.000000000000000, -0.000000000000000 ) );
#477 = DIRECTION( '', ( -0.000000000000000, 0.000000000000000, -1.00000000000000 ) );
#478 = CARTESIAN_POINT( '', ( 22.0000000000000, 0.000000000000000, 0.000000000000000 ) );
#479 = DIRECTION( '', ( 1.00000000000000, 0.000000000000000, -0.000000000000000 ) );
#480 = DIRECTION( '', ( -0.000000000000000, 0.000000000000000, -1.00000000000000 ) );
#481 = CARTESIAN_POINT( '', ( 4.85000000000000, 0.000000000000000, 0.000000000000000 ) );
#482 = DIRECTION( '', ( 1.00000000000000, 0.000000000000000, -0.000000000000000 ) );
#483 = DIRECTION( '', ( -0.000000000000000, 0.000000000000000, -1.00000000000000 ) );
#484 = CARTESIAN_POINT( '', ( 22.0000000000000, 0.000000000000000, 0.000000000000000 ) );
#485 = DIRECTION( '', ( 1.00000000000000, 0.000000000000000, -0.000000000000000 ) );
#486 = DIRECTION( '', ( -0.000000000000000, 0.000000000000000, -1.00000000000000 ) );
#487 = CARTESIAN_POINT( '', ( 3.75000000000000, 0.000000000000000, 0.000000000000000 ) );
#488 = DIRECTION( '', ( 1.00000000000000, 0.000000000000000, -0.000000000000000 ) );
#489 = DIRECTION( '', ( -0.000000000000000, 0.000000000000000, -1.00000000000000 ) );
#490 = CARTESIAN_POINT( '', ( 3.75000000000000, 0.000000000000000, 0.000000000000000 ) );
#491 = DIRECTION( '', ( 1.00000000000000, 0.000000000000000, -0.000000000000000 ) );
#492 = DIRECTION( '', ( -0.000000000000000, 0.000000000000000, -1.00000000000000 ) );
#493 = CARTESIAN_POINT( '', ( 4.85000000000000, 0.000000000000000, 0.000000000000000 ) );
#494 = DIRECTION( '', ( 1.00000000000000, 0.000000000000000, -0.000000000000000 ) );
#495 = DIRECTION( '', ( -0.000000000000000, 0.000000000000000, -1.00000000000000 ) );
ENDSEC;
END-ISO-10303-21;
